999
DXF file: vbmhwa-8-dxf.dxf
999
Pro/ENGINEER 2011490 by Parametric Technology Corporation
  0
SECTION
  2
HEADER
  9
$ACADVER
  1
AC1021
  9
$DWGCODEPAGE
  3
ANSI_1252
  9
$EXTMAX
 10
420.0
 20
297.0
 30
0.0
  9
$EXTMIN
 10
0.0
 20
0.0
 30
0.0
  9
$LIMMIN
 10
0.0
 20
0.0
  9
$LIMMAX
 10
420.0
 20
297.0
  9
$VIEWCTR
 10
210.0
 20
148.5
  9
$VIEWSIZE
 40
297.0
  9
$CLAYER
  8
0
  9
$LTSCALE
 40
23.1
  9
$CELTYPE
  6
BYLAYER
  9
$DIMSCALE
 40
1.0
  9
$DIMASZ
 40
3.5
  9
$DIMEXO
 40
2.625
  9
$DIMDLI
 40
15.96
  9
$DIMEXE
 40
7.56
  9
$DIMCEN
 40
3.78
  9
$DIMLFAC
 40
1.0
  9
$DIMBLK
  1
_FILLED
  9
$DIMTXT
 40
3.5
  9
$DIMTOL
 70
1
  9
$DIMLIM
 70
0
  9
$DIMTFAC
 40
1.0
  9
$DIMTP
 40
0.005
  9
$DIMTM
 40
0.005
  9
$PDMODE
 70
3
  9
$PDSIZE
 40
0.3125
  9
$HANDSEED
  5
474
  9
$TILEMODE
 70
1
  9
$MEASUREMENT
 70
1
  9
$INSUNITS
 70
4
  0
ENDSEC
  0
SECTION
  2
CLASSES
  0
CLASS
  1
ACDBDICTIONARYWDFLT
  2
AcDbDictionaryWithDefault
  3
AutoCAD 2000
 90
0
 91
1
280
0
281
0
  0
CLASS
  1
ACDBPLACEHOLDER
  2
AcDbPlaceHolder
  3
AutoCAD 2000
 90
0
 91
1
280
0
281
0
  0
CLASS
  1
LAYOUT
  2
AcDbLayout
  3
AutoCAD 2000
 90
0
 91
0
280
0
281
0
  0
ENDSEC
  0
SECTION
  2
TABLES
  0
TABLE
  2
VPORT
  5
8
100
AcDbSymbolTable
 70
2
  0
VPORT
  5
1F4
100
AcDbSymbolTableRecord
100
AcDbViewportTableRecord
  2
*ACTIVE
 70
0
 10
0.0
 20
0.0
 11
1.0
 21
1.0
 12
210.0
 22
148.5
 13
0.0
 23
0.0
 14
1.0
 24
1.0
 15
0.0
 25
0.0
 16
0.0
 26
0.0
 36
1.0
 17
0.0
 27
0.0
 37
0.0
 40
297.0
 41
1.4141414141
 42
50.0
 43
0.0
 44
0.0
 50
0.0
 51
0.0
 71
0
 72
100
 73
1
 74
1
 75
0
 76
0
 77
0
 78
0
  0
ENDTAB
  0
TABLE
  2
LTYPE
  5
5
100
AcDbSymbolTable
 70
6
  0
LTYPE
  5
14
100
AcDbSymbolTableRecord
100
AcDbLinetypeTableRecord
  2
BYBLOCK
 70
0
  3

 72
65
 73
0
 40
0.0
  0
LTYPE
  5
15
100
AcDbSymbolTableRecord
100
AcDbLinetypeTableRecord
  2
BYLAYER
 70
0
  3

 72
65
 73
0
 40
0.0
  0
LTYPE
  5
16
100
AcDbSymbolTableRecord
100
AcDbLinetypeTableRecord
  2
CONTINUOUS
 70
64
  3
Solid line
 72
65
 73
0
 40
0.0
  0
LTYPE
  5
1F5
100
AcDbSymbolTableRecord
100
AcDbLinetypeTableRecord
  2
CENTER
 70
64
  3
____ _ ____ _ ____ _ ____ _ ____ _ ____ _ ____
 72
65
 73
4
 40
0.6
 49
0.375
 74
0
 49
-0.075
 74
0
 49
0.075
 74
0
 49
-0.075
 74
0
  0
LTYPE
  5
1F6
100
AcDbSymbolTableRecord
100
AcDbLinetypeTableRecord
  2
HIDDEN
 70
64
  3
- - - - - - - - - - - - - - - - - - - -
 72
65
 73
2
 40
0.2
 49
0.1
 74
0
 49
-0.1
 74
0
  0
LTYPE
  5
1F7
100
AcDbSymbolTableRecord
100
AcDbLinetypeTableRecord
  2
PHANTOM
 70
64
  3
_____ _ _ _____ _ _ _____ _ _ _____
 72
65
 73
6
 40
0.8
 49
0.45
 74
0
 49
-0.05
 74
0
 49
0.1
 74
0
 49
-0.05
 74
0
 49
0.1
 74
0
 49
-0.05
 74
0
  0
LTYPE
  5
1F8
100
AcDbSymbolTableRecord
100
AcDbLinetypeTableRecord
  2
DOT
 70
64
  3
. . . . . . . . . . . . . . . . . . . .
 72
65
 73
2
 40
0.2
 49
0.1
 74
0
 49
-0.1
 74
0
  0
LTYPE
  5
1F9
100
AcDbSymbolTableRecord
100
AcDbLinetypeTableRecord
  2
DASHED
 70
64
  3
- - - - - - - - - - - - - - - - - - - -
 72
65
 73
2
 40
0.2
 49
0.1
 74
0
 49
-0.1
 74
0
  0
ENDTAB
  0
TABLE
  2
LAYER
  5
2
100
AcDbSymbolTable
 70
36
  0
LAYER
  5
10
100
AcDbSymbolTableRecord
100
AcDbLayerTableRecord
  2
0
 70
0
 62
7
  6
CONTINUOUS
370
-3
390
F
  0
LAYER
  5
1FA
100
AcDbSymbolTableRecord
100
AcDbLayerTableRecord
  2
DEFAULT_1
 70
0
 62
7
  6
CENTER
370
-3
390
F
  0
LAYER
  5
1FB
100
AcDbSymbolTableRecord
100
AcDbLayerTableRecord
  2
DEFAULT_2
 70
0
 62
8
  6
HIDDEN
370
-3
390
F
  0
LAYER
  5
1FC
100
AcDbSymbolTableRecord
100
AcDbLayerTableRecord
  2
DEFAULT_3
 70
0
 62
7
  6
PHANTOM
370
-3
390
F
  0
LAYER
  5
1FD
100
AcDbSymbolTableRecord
100
AcDbLayerTableRecord
  2
BEZUGSACHSEN
 70
0
 62
7
  6
CONTINUOUS
370
-3
390
F
  0
LAYER
  5
1FE
100
AcDbSymbolTableRecord
100
AcDbLayerTableRecord
  2
BEZUGSEBENEN
 70
0
 62
7
  6
CONTINUOUS
370
-3
390
F
  0
LAYER
  5
1FF
100
AcDbSymbolTableRecord
100
AcDbLayerTableRecord
  2
BG_STARTBEZUEGE
 70
0
 62
7
  6
CONTINUOUS
370
-3
390
F
  0
LAYER
  5
200
100
AcDbSymbolTableRecord
100
AcDbLayerTableRecord
  2
FASEN
 70
0
 62
7
  6
CONTINUOUS
370
-3
390
F
  0
LAYER
  5
201
100
AcDbSymbolTableRecord
100
AcDbLayerTableRecord
  2
HILFEN
 70
0
 62
7
  6
CONTINUOUS
370
-3
390
F
  0
LAYER
  5
202
100
AcDbSymbolTableRecord
100
AcDbLayerTableRecord
  2
KONSTRUKTIONSELEMENTE
 70
0
 62
7
  6
CONTINUOUS
370
-3
390
F
  0
LAYER
  5
203
100
AcDbSymbolTableRecord
100
AcDbLayerTableRecord
  2
NORM
 70
0
 62
7
  6
CONTINUOUS
370
-3
390
F
  0
LAYER
  5
204
100
AcDbSymbolTableRecord
100
AcDbLayerTableRecord
  2
PLATZIERUNG
 70
0
 62
7
  6
CONTINUOUS
370
-3
390
F
  0
LAYER
  5
205
100
AcDbSymbolTableRecord
100
AcDbLayerTableRecord
  2
PLAZIERUNG
 70
0
 62
7
  6
CONTINUOUS
370
-3
390
F
  0
LAYER
  5
206
100
AcDbSymbolTableRecord
100
AcDbLayerTableRecord
  2
RUNDUNGEN
 70
0
 62
7
  6
CONTINUOUS
370
-3
390
F
  0
LAYER
  5
207
100
AcDbSymbolTableRecord
100
AcDbLayerTableRecord
  2
TEIL_STARTBEZUEGE
 70
0
 62
7
  6
CONTINUOUS
370
-3
390
F
  0
LAYER
  5
208
100
AcDbSymbolTableRecord
100
AcDbLayerTableRecord
  2
ZEICHNUNGSBEMASSUNGEN
 70
0
 62
7
  6
CONTINUOUS
370
-3
390
F
  0
ENDTAB
  0
TABLE
  2
STYLE
  5
3
100
AcDbSymbolTable
 70
1
  0
STYLE
  5
11
100
AcDbSymbolTableRecord
100
AcDbTextStyleTableRecord
  2
STANDARD
 70
0
 40
0.0
 41
0.7
 50
0.0
 71
0
 42
0.2
  3
txt
  4

  0
STYLE
  5
209
100
AcDbSymbolTableRecord
100
AcDbTextStyleTableRecord
  2
TEXTSTYLE_1
 70
0
 40
0.0
 41
0.8
 50
0.0
 71
0
 42
0.2
  3
gdt
  4

  0
ENDTAB
  0
TABLE
  2
VIEW
  5
6
100
AcDbSymbolTable
 70
0
  0
ENDTAB
  0
TABLE
  2
UCS
  5
7
100
AcDbSymbolTable
 70
0
  0
ENDTAB
  0
TABLE
  2
APPID
  5
9
100
AcDbSymbolTable
 70
1
  0
APPID
  5
20A
100
AcDbSymbolTableRecord
100
AcDbRegAppTableRecord
  2
ACAD
 70
0
  0
ENDTAB
  0
TABLE
  2
BLOCK_RECORD
  5
1
100
AcDbSymbolTable
 70
0
  0
BLOCK_RECORD
  5
20B
100
AcDbSymbolTableRecord
100
AcDbBlockTableRecord
  2
*Model_Space
  0
BLOCK_RECORD
  5
20C
100
AcDbSymbolTableRecord
100
AcDbBlockTableRecord
  2
*Paper_Space
  0
ENDTAB
  0
TABLE
  2
DIMSTYLE
  5
A
100
AcDbSymbolTable
 70
1
100
AcDbDimStyleTable
 71
0
  0
DIMSTYLE
105
20D
100
AcDbSymbolTableRecord
100
AcDbDimStyleTableRecord
  2
STANDARD
 70
0
  3

  4

 40
1.0
 41
3.5
 42
0.0625
 43
0.38
 44
0.18
 45
0.0
 46
0.0
 47
0.005
 48
0.005
140
3.5
141
0.09
142
0.0
143
25.4
144
1.0
145
0.0
146
1.0
147
0.09
 71
1.0
 72
0.0
 73
0
 74
0
 75
0
 76
0
 77
1
 78
8
170
0
171
2
172
0
173
0
174
0
175
0
176
0
177
0
178
5
270
2
271
3
272
3
273
2
274
2
275
0
280
0
281
0
282
0
283
1
284
8
285
0
286
0
287
3
288
0
340
11
  0
ENDTAB
  0
ENDSEC
  0
SECTION
  2
BLOCKS
  0
BLOCK
  5
20
100
AcDbEntity
  8
0
100
AcDbBlockBegin
  2
*Model_Space
 70
0
 10
0.0
 20
0.0
 30
0.0
  3
*Model_Space
  1

  0
ENDBLK
  5
21
100
AcDbEntity
  8
0
100
AcDbBlockEnd
  0
BLOCK
  5
1C
100
AcDbEntity
  8
0
100
AcDbBlockBegin
  2
*Paper_Space
 70
0
 10
0.0
 20
0.0
 30
0.0
  3
*Paper_Space
  1

  0
ENDBLK
  5
1D
100
AcDbEntity
  8
0
100
AcDbBlockEnd
  0
ENDSEC
  0
SECTION
  2
ENTITIES
  0
LINE
  5
20E
100
AcDbEntity
  8
0
100
AcDbLine
 62
7
  6
CONTINUOUS
 10
0.0
 20
0.0
 11
0.0
 21
297.0
  0
LINE
  5
20F
100
AcDbEntity
  8
0
100
AcDbLine
 62
7
  6
CONTINUOUS
 10
0.0
 20
0.0
 11
420.0
 21
0.0
  0
LINE
  5
210
100
AcDbEntity
  8
0
100
AcDbLine
 62
7
  6
CONTINUOUS
 10
0.0
 20
297.0
 11
420.0
 21
297.0
  0
LINE
  5
211
100
AcDbEntity
  8
0
100
AcDbLine
 62
7
  6
CONTINUOUS
 10
420.0
 20
0.0
 11
420.0
 21
297.0
  0
LINE
  5
212
100
AcDbEntity
  8
0
100
AcDbLine
 62
7
  6
CONTINUOUS
 10
125.4113364102
 20
126.4280055035
 11
124.1413764691
 21
126.4280055035
  0
LINE
  5
213
100
AcDbEntity
  8
KONSTRUKTIONSELEMENTE
100
AcDbLine
 62
7
  6
CONTINUOUS
 10
102.1813242737
 20
126.4280055035
 11
100.9113643005
 21
126.4280055035
  0
LINE
  5
214
100
AcDbEntity
  8
0
100
AcDbLine
 62
7
  6
CONTINUOUS
 10
126.4111833894
 20
128.4280055035
 11
116.212170944
 21
128.4280055035
  0
LINE
  5
215
100
AcDbEntity
  8
KONSTRUKTIONSELEMENTE
100
AcDbLine
 62
7
  6
CONTINUOUS
 10
99.9115173289
 20
128.4280055035
 11
110.1105297744
 21
128.4280055035
  0
LINE
  5
216
100
AcDbEntity
  8
KONSTRUKTIONSELEMENTE
100
AcDbLine
 62
7
  6
CONTINUOUS
 10
116.212170944
 20
128.4280055035
 11
126.4113503592
 21
128.4280055035
  0
LINE
  5
217
100
AcDbEntity
  8
0
100
AcDbLine
 62
7
  6
CONTINUOUS
 10
99.6463793275
 20
463.6353519682
 11
99.1613503592
 21
462.6280055035
  0
LINE
  5
218
100
AcDbEntity
  8
0
100
AcDbLine
 62
7
  6
CONTINUOUS
 10
89.1613503592
 20
425.1280053972
 11
89.1613503592
 21
390.1280055035
  0
LINE
  5
219
100
AcDbEntity
  8
0
100
AcDbLine
 62
7
  6
CONTINUOUS
 10
99.1613503592
 20
462.6280055035
 11
99.1613503592
 21
458.8695679091
  0
LINE
  5
21A
100
AcDbEntity
  8
0
100
AcDbLine
 62
7
  6
CONTINUOUS
 10
99.1613503592
 20
455.386443098
 11
99.1613503592
 21
435.1280055035
  0
LINE
  5
21B
100
AcDbEntity
  8
0
100
AcDbLine
 62
7
  6
CONTINUOUS
 10
99.1613503592
 20
455.4263535266
 11
99.1613503592
 21
458.8296574804
  0
LINE
  5
21C
100
AcDbEntity
  8
KONSTRUKTIONSELEMENTE
100
AcDbLine
 62
7
  6
CONTINUOUS
 10
99.9113503592
 20
390.1280055035
 11
99.9113503592
 21
307.2946721453
  0
LINE
  5
21D
100
AcDbEntity
  8
KONSTRUKTIONSELEMENTE
100
AcDbLine
 62
7
  6
CONTINUOUS
 10
99.9113503592
 20
306.6670432957
 11
99.9113503592
 21
305.4223011441
  0
LINE
  5
21E
100
AcDbEntity
  8
KONSTRUKTIONSELEMENTE
100
AcDbLine
 62
7
  6
CONTINUOUS
 10
99.9113503592
 20
304.7946722199
 11
99.9113503592
 21
303.1280055035
  0
LINE
  5
21F
100
AcDbEntity
  8
KONSTRUKTIONSELEMENTE
100
AcDbLine
 62
7
  6
CONTINUOUS
 10
99.9113503592
 20
299.3780055035
 11
99.9113503592
 21
298.4405055035
  0
LINE
  5
220
100
AcDbEntity
  8
KONSTRUKTIONSELEMENTE
100
AcDbLine
 62
7
  6
CONTINUOUS
 10
99.9113503592
 20
297.8155055035
 11
99.9113503592
 21
297.2834654388
  0
LINE
  5
221
100
AcDbEntity
  8
KONSTRUKTIONSELEMENTE
100
AcDbLine
 62
7
  6
CONTINUOUS
 10
99.9113503592
 20
296.6286620506
 11
99.9113503592
 21
295.2523489565
  0
LINE
  5
222
100
AcDbEntity
  8
KONSTRUKTIONSELEMENTE
100
AcDbLine
 62
7
  6
CONTINUOUS
 10
99.9113503592
 20
294.5975455683
 11
99.9113503592
 21
294.0655055035
  0
LINE
  5
223
100
AcDbEntity
  8
KONSTRUKTIONSELEMENTE
100
AcDbLine
 62
7
  6
CONTINUOUS
 10
99.9113503592
 20
293.4405055035
 11
99.9113503592
 21
292.6071717728
  0
LINE
  5
224
100
AcDbEntity
  8
KONSTRUKTIONSELEMENTE
100
AcDbLine
 62
7
  6
CONTINUOUS
 10
99.9113503592
 20
288.4405055035
 11
99.9113503592
 21
287.1905055035
  0
LINE
  5
225
100
AcDbEntity
  8
KONSTRUKTIONSELEMENTE
100
AcDbLine
 62
7
  6
CONTINUOUS
 10
99.9113503592
 20
286.5741756493
 11
99.9113503592
 21
286.0678354791
  0
LINE
  5
226
100
AcDbEntity
  8
KONSTRUKTIONSELEMENTE
100
AcDbLine
 62
7
  6
CONTINUOUS
 10
99.9113503592
 20
285.4251127825
 11
99.9113503592
 21
284.7892322377
  0
LINE
  5
227
100
AcDbEntity
  8
KONSTRUKTIONSELEMENTE
100
AcDbLine
 62
7
  6
CONTINUOUS
 10
99.9113503592
 20
284.1465096229
 11
99.9113503592
 21
283.6401702805
  0
LINE
  5
228
100
AcDbEntity
  8
KONSTRUKTIONSELEMENTE
100
AcDbLine
 62
7
  6
CONTINUOUS
 10
99.9113503592
 20
283.0238392342
 11
99.9113503592
 21
280.9405055035
  0
LINE
  5
229
100
AcDbEntity
  8
KONSTRUKTIONSELEMENTE
100
AcDbLine
 62
7
  6
CONTINUOUS
 10
99.9113503592
 20
280.367563292
 11
99.9113503592
 21
279.0134477151
  0
LINE
  5
22A
100
AcDbEntity
  8
KONSTRUKTIONSELEMENTE
100
AcDbLine
 62
7
  6
CONTINUOUS
 10
99.9113503592
 20
278.4405055035
 11
99.9113503592
 21
271.4613380421
  0
LINE
  5
22B
100
AcDbEntity
  8
KONSTRUKTIONSELEMENTE
100
AcDbLine
 62
7
  6
CONTINUOUS
 10
99.9113503592
 20
268.3363380421
 11
99.9113503592
 21
264.0655055035
  0
LINE
  5
22C
100
AcDbEntity
  8
KONSTRUKTIONSELEMENTE
100
AcDbLine
 62
7
  6
CONTINUOUS
 10
99.9113503592
 20
263.4378772788
 11
99.9113503592
 21
262.1931337282
  0
LINE
  5
22D
100
AcDbEntity
  8
KONSTRUKTIONSELEMENTE
100
AcDbLine
 62
7
  6
CONTINUOUS
 10
99.9113503592
 20
261.5655055035
 11
99.9113503592
 21
259.8988404263
  0
LINE
  5
22E
100
AcDbEntity
  8
KONSTRUKTIONSELEMENTE
100
AcDbLine
 62
7
  6
CONTINUOUS
 10
99.9113503592
 20
259.2738404263
 11
99.9113503592
 21
258.4405055035
  0
LINE
  5
22F
100
AcDbEntity
  8
KONSTRUKTIONSELEMENTE
100
AcDbLine
 62
7
  6
CONTINUOUS
 10
99.9113503592
 20
254.6905055035
 11
99.9113503592
 21
248.1300895968
  0
LINE
  5
230
100
AcDbEntity
  8
KONSTRUKTIONSELEMENTE
100
AcDbLine
 62
7
  6
CONTINUOUS
 10
99.9113503592
 20
247.3988404263
 11
99.9113503592
 21
239.5190629706
  0
LINE
  5
231
100
AcDbEntity
  8
KONSTRUKTIONSELEMENTE
100
AcDbLine
 62
7
  6
CONTINUOUS
 10
99.9113503592
 20
238.8202782901
 11
99.9113503592
 21
234.5190629706
  0
LINE
  5
232
100
AcDbEntity
  8
KONSTRUKTIONSELEMENTE
100
AcDbLine
 62
7
  6
CONTINUOUS
 10
99.9113503592
 20
233.8202782901
 11
99.9113503592
 21
229.5190629706
  0
LINE
  5
233
100
AcDbEntity
  8
KONSTRUKTIONSELEMENTE
100
AcDbLine
 62
7
  6
CONTINUOUS
 10
99.9113503592
 20
127.4280055035
 11
99.9113503592
 21
228.8202781908
  0
LINE
  5
234
100
AcDbEntity
  8
0
100
AcDbLine
 62
7
  6
CONTINUOUS
 10
99.9113503592
 20
307.2946721453
 11
99.9113503592
 21
390.1280055035
  0
LINE
  5
235
100
AcDbEntity
  8
KONSTRUKTIONSELEMENTE
100
AcDbLine
 62
7
  6
CONTINUOUS
 10
99.9123112999
 20
291.9821717728
 11
99.9123112999
 21
289.0655055035
  0
LINE
  5
236
100
AcDbEntity
  8
KONSTRUKTIONSELEMENTE
100
AcDbLine
 62
7
  6
CONTINUOUS
 10
99.9123112999
 20
270.1071729649
 11
99.9123112999
 21
269.6905055035
  0
LINE
  5
237
100
AcDbEntity
  8
KONSTRUKTIONSELEMENTE
100
AcDbLine
 62
7
  6
CONTINUOUS
 10
99.914019811
 20
302.5030055035
 11
99.914019811
 21
300.5238386382
  0
LINE
  5
238
100
AcDbEntity
  8
KONSTRUKTIONSELEMENTE
100
AcDbLine
 62
7
  6
CONTINUOUS
 10
99.914019811
 20
257.8155055035
 11
99.9165829909
 21
255.8363404263
  0
LINE
  5
239
100
AcDbEntity
  8
KONSTRUKTIONSELEMENTE
100
AcDbLine
 62
7
  6
CONTINUOUS
 10
99.9200013359
 20
291.9821717728
 11
99.9200013359
 21
289.0655055035
  0
LINE
  5
23A
100
AcDbEntity
  8
KONSTRUKTIONSELEMENTE
100
AcDbLine
 62
7
  6
CONTINUOUS
 10
100.0427923247
 20
302.5030055035
 11
100.0427923247
 21
300.5238386382
  0
LINE
  5
23B
100
AcDbEntity
  8
KONSTRUKTIONSELEMENTE
100
AcDbLine
 62
7
  6
CONTINUOUS
 10
100.0583300675
 20
270.1071729649
 11
100.0583300675
 21
269.6905055035
  0
LINE
  5
23C
100
AcDbEntity
  8
KONSTRUKTIONSELEMENTE
100
AcDbLine
 62
7
  6
CONTINUOUS
 10
100.0583300675
 20
257.8155055035
 11
100.0583300675
 21
255.8363404263
  0
LINE
  5
23D
100
AcDbEntity
  8
KONSTRUKTIONSELEMENTE
100
AcDbLine
 62
7
  6
CONTINUOUS
 10
100.1493366795
 20
308.1280055035
 11
100.1493366795
 21
307.5030055035
  0
LINE
  5
23E
100
AcDbEntity
  8
KONSTRUKTIONSELEMENTE
100
AcDbLine
 62
7
  6
CONTINUOUS
 10
100.1493366795
 20
304.5863389362
 11
100.1493366795
 21
303.9613389362
  0
LINE
  5
23F
100
AcDbEntity
  8
KONSTRUKTIONSELEMENTE
100
AcDbLine
 62
7
  6
CONTINUOUS
 10
100.1493366795
 20
303.1280055035
 11
100.1493366795
 21
300.6280055035
  0
LINE
  5
240
100
AcDbEntity
  8
KONSTRUKTIONSELEMENTE
100
AcDbLine
 62
7
  6
CONTINUOUS
 10
100.1493366795
 20
298.4405055035
 11
100.1493366795
 21
297.5030055035
  0
LINE
  5
241
100
AcDbEntity
  8
KONSTRUKTIONSELEMENTE
100
AcDbLine
 62
7
  6
CONTINUOUS
 10
100.1493366795
 20
294.3780055035
 11
100.1493366795
 21
293.4405055035
  0
LINE
  5
242
100
AcDbEntity
  8
KONSTRUKTIONSELEMENTE
100
AcDbLine
 62
7
  6
CONTINUOUS
 10
100.1493366795
 20
292.6071717728
 11
100.1493366795
 21
291.9821717728
  0
LINE
  5
243
100
AcDbEntity
  8
KONSTRUKTIONSELEMENTE
100
AcDbLine
 62
7
  6
CONTINUOUS
 10
100.1493366795
 20
289.0655055035
 11
100.1493366795
 21
288.4405055035
  0
LINE
  5
244
100
AcDbEntity
  8
KONSTRUKTIONSELEMENTE
100
AcDbLine
 62
7
  6
CONTINUOUS
 10
100.1493366795
 20
287.6071729649
 11
100.1493366795
 21
286.9821729649
  0
LINE
  5
245
100
AcDbEntity
  8
KONSTRUKTIONSELEMENTE
100
AcDbLine
 62
7
  6
CONTINUOUS
 10
100.1493366795
 20
285.5238380421
 11
100.1493366795
 21
284.6905055035
  0
LINE
  5
246
100
AcDbEntity
  8
KONSTRUKTIONSELEMENTE
100
AcDbLine
 62
7
  6
CONTINUOUS
 10
100.1493366795
 20
283.2321729649
 11
100.1493366795
 21
282.6071729649
  0
LINE
  5
247
100
AcDbEntity
  8
KONSTRUKTIONSELEMENTE
100
AcDbLine
 62
7
  6
CONTINUOUS
 10
100.1493366795
 20
280.1071729649
 11
100.1493366795
 21
279.2738380421
  0
LINE
  5
248
100
AcDbEntity
  8
KONSTRUKTIONSELEMENTE
100
AcDbLine
 62
7
  6
CONTINUOUS
 10
100.1493366795
 20
270.1071729649
 11
100.1493366795
 21
269.6905055035
  0
LINE
  5
249
100
AcDbEntity
  8
KONSTRUKTIONSELEMENTE
100
AcDbLine
 62
7
  6
CONTINUOUS
 10
100.1493366795
 20
264.8988404263
 11
100.1493366795
 21
264.2738404263
  0
LINE
  5
24A
100
AcDbEntity
  8
KONSTRUKTIONSELEMENTE
100
AcDbLine
 62
7
  6
CONTINUOUS
 10
100.1493366795
 20
261.3571705807
 11
100.1493366795
 21
260.7321705807
  0
LINE
  5
24B
100
AcDbEntity
  8
KONSTRUKTIONSELEMENTE
100
AcDbLine
 62
7
  6
CONTINUOUS
 10
100.1493366795
 20
259.8988404263
 11
100.1493366795
 21
259.2738404263
  0
LINE
  5
24C
100
AcDbEntity
  8
KONSTRUKTIONSELEMENTE
100
AcDbLine
 62
7
  6
CONTINUOUS
 10
100.1493366795
 20
258.4405055035
 11
100.1493366795
 21
255.9405055035
  0
LINE
  5
24D
100
AcDbEntity
  8
KONSTRUKTIONSELEMENTE
100
AcDbLine
 62
7
  6
CONTINUOUS
 10
100.1493366795
 20
241.2530055035
 11
100.1493366795
 21
240.6280055035
  0
LINE
  5
24E
100
AcDbEntity
  8
KONSTRUKTIONSELEMENTE
100
AcDbLine
 62
7
  6
CONTINUOUS
 10
100.1493366795
 20
237.7113404263
 11
100.1493366795
 21
237.0863404263
  0
LINE
  5
24F
100
AcDbEntity
  8
KONSTRUKTIONSELEMENTE
100
AcDbLine
 62
7
  6
CONTINUOUS
 10
100.1493366795
 20
236.2530055035
 11
100.1493366795
 21
235.6280055035
  0
LINE
  5
250
100
AcDbEntity
  8
KONSTRUKTIONSELEMENTE
100
AcDbLine
 62
7
  6
CONTINUOUS
 10
100.1493366795
 20
232.7113404263
 11
100.1493366795
 21
232.0863404263
  0
LINE
  5
251
100
AcDbEntity
  8
KONSTRUKTIONSELEMENTE
100
AcDbLine
 62
7
  6
CONTINUOUS
 10
100.1493366795
 20
231.2530055035
 11
100.1493366795
 21
230.6280055035
  0
LINE
  5
252
100
AcDbEntity
  8
KONSTRUKTIONSELEMENTE
100
AcDbLine
 62
7
  6
CONTINUOUS
 10
100.1493366795
 20
227.7113356579
 11
100.1493366795
 21
227.0863356579
  0
LINE
  5
253
100
AcDbEntity
  8
0
100
AcDbLine
 62
7
  6
CONTINUOUS
 10
100.1613503592
 20
457.4859600605
 11
100.1613503592
 21
456.7700509466
  0
LINE
  5
254
100
AcDbEntity
  8
KONSTRUKTIONSELEMENTE
100
AcDbLine
 62
7
  6
CONTINUOUS
 10
99.9114571269
 20
228.8571705807
 11
99.9440657723
 21
228.8571705807
  0
LINE
  5
255
100
AcDbEntity
  8
KONSTRUKTIONSELEMENTE
100
AcDbLine
 62
7
  6
CONTINUOUS
 10
99.9114571269
 20
229.4821705807
 11
99.9440657723
 21
229.4821705807
  0
LINE
  5
256
100
AcDbEntity
  8
KONSTRUKTIONSELEMENTE
100
AcDbLine
 62
7
  6
CONTINUOUS
 10
99.9114571269
 20
233.8571705807
 11
99.9440658507
 21
233.8571705807
  0
LINE
  5
257
100
AcDbEntity
  8
KONSTRUKTIONSELEMENTE
100
AcDbLine
 62
7
  6
CONTINUOUS
 10
99.9114571269
 20
234.4821705807
 11
99.9440657723
 21
234.4821705807
  0
LINE
  5
258
100
AcDbEntity
  8
KONSTRUKTIONSELEMENTE
100
AcDbLine
 62
7
  6
CONTINUOUS
 10
99.9114571269
 20
238.8571705807
 11
99.9440658507
 21
238.8571705807
  0
LINE
  5
259
100
AcDbEntity
  8
KONSTRUKTIONSELEMENTE
100
AcDbLine
 62
7
  6
CONTINUOUS
 10
99.9114571269
 20
239.4821705807
 11
99.9440657723
 21
239.4821705807
  0
LINE
  5
25A
100
AcDbEntity
  8
0
100
AcDbLine
 62
7
  6
CONTINUOUS
 10
116.0803538623
 20
128.983716374
 11
122.0038380546
 21
104.0116527082
  0
LINE
  5
25B
100
AcDbEntity
  8
KONSTRUKTIONSELEMENTE
100
AcDbLine
 62
7
  6
CONTINUOUS
 10
104.1613503592
 20
45.2419985334
 11
104.1613503592
 21
124.4280055035
  0
LINE
  5
25C
100
AcDbEntity
  8
0
100
AcDbLine
 62
7
  6
CONTINUOUS
 10
113.1613503592
 20
35.2920995223
 11
113.1613503592
 21
95.0656350212
  0
LINE
  5
25D
100
AcDbEntity
  8
BG_STARTBEZUEGE
100
AcDbLine
 62
7
  6
CENTER
 10
113.1613503592
 20
32.2920995223
 11
113.1613503592
 21
475.1280055035
  0
LINE
  5
25E
100
AcDbEntity
  8
KONSTRUKTIONSELEMENTE
100
AcDbLine
 62
7
  6
CONTINUOUS
 10
99.9782488447
 20
254.5863404263
 11
99.9422421248
 21
254.5863404263
  0
LINE
  5
25F
100
AcDbEntity
  8
KONSTRUKTIONSELEMENTE
100
AcDbLine
 62
7
  6
CONTINUOUS
 10
99.9242755085
 20
254.6905055035
 11
100.0143541558
 21
254.6905055035
  0
LINE
  5
260
100
AcDbEntity
  8
KONSTRUKTIONSELEMENTE
100
AcDbLine
 62
7
  6
CONTINUOUS
 10
99.9123112999
 20
255.0030055035
 11
100.0747510319
 21
255.0030055035
  0
LINE
  5
261
100
AcDbEntity
  8
KONSTRUKTIONSELEMENTE
100
AcDbLine
 62
7
  6
CONTINUOUS
 10
99.9499495828
 20
255.2113404263
 11
100.101047084
 21
255.2113404263
  0
LINE
  5
262
100
AcDbEntity
  8
KONSTRUKTIONSELEMENTE
100
AcDbLine
 62
7
  6
CONTINUOUS
 10
100.0143541558
 20
255.3155055035
 11
100.1149453056
 21
255.3155055035
  0
LINE
  5
263
100
AcDbEntity
  8
KONSTRUKTIONSELEMENTE
100
AcDbLine
 62
7
  6
CONTINUOUS
 10
99.912311287
 20
255.4196705807
 11
99.9242756365
 21
255.4196705807
  0
LINE
  5
264
100
AcDbEntity
  8
KONSTRUKTIONSELEMENTE
100
AcDbLine
 62
7
  6
CONTINUOUS
 10
100.0427923247
 20
255.5238404263
 11
100.1332780498
 21
255.5238404263
  0
LINE
  5
265
100
AcDbEntity
  8
0
100
AcDbLine
 62
7
  6
CONTINUOUS
 10
122.1613503592
 20
45.2419985334
 11
122.1613503592
 21
124.4280055035
  0
LINE
  5
266
100
AcDbEntity
  8
0
100
AcDbLine
 62
7
  6
CONTINUOUS
 10
126.1613503592
 20
457.4859600605
 11
126.1613503592
 21
456.7700509466
  0
LINE
  5
267
100
AcDbEntity
  8
KONSTRUKTIONSELEMENTE
100
AcDbLine
 62
7
  6
CONTINUOUS
 10
126.4113503592
 20
390.1280055035
 11
126.4113503592
 21
128.4280055035
  0
LINE
  5
268
100
AcDbEntity
  8
0
100
AcDbLine
 62
7
  6
CONTINUOUS
 10
126.4113503592
 20
127.4280055035
 11
126.4113503592
 21
390.1280055035
  0
LINE
  5
269
100
AcDbEntity
  8
0
100
AcDbLine
 62
7
  6
CONTINUOUS
 10
127.1613503592
 20
462.6280055035
 11
127.1613503592
 21
458.8695679091
  0
LINE
  5
26A
100
AcDbEntity
  8
0
100
AcDbLine
 62
7
  6
CONTINUOUS
 10
127.1613503592
 20
458.8296574804
 11
127.1613503592
 21
455.4263535266
  0
LINE
  5
26B
100
AcDbEntity
  8
0
100
AcDbLine
 62
7
  6
CONTINUOUS
 10
127.1613503592
 20
455.386443098
 11
127.1613503592
 21
435.1280055035
  0
LINE
  5
26C
100
AcDbEntity
  8
KONSTRUKTIONSELEMENTE
100
AcDbLine
 62
7
  6
CONTINUOUS
 10
100.0583300675
 20
255.8363404263
 11
100.1452713855
 21
255.8363404263
  0
LINE
  5
26D
100
AcDbEntity
  8
KONSTRUKTIONSELEMENTE
100
AcDbLine
 62
7
  6
CONTINUOUS
 10
99.9165829909
 20
257.8155055035
 11
100.1493366795
 21
257.8155055035
  0
LINE
  5
26E
100
AcDbEntity
  8
KONSTRUKTIONSELEMENTE
100
AcDbLine
 62
7
  6
CONTINUOUS
 10
100.1493366795
 20
258.4405055035
 11
99.9113503592
 21
258.4405055035
  0
LINE
  5
26F
100
AcDbEntity
  8
KONSTRUKTIONSELEMENTE
100
AcDbLine
 62
7
  6
CONTINUOUS
 10
100.1493366795
 20
259.2738404263
 11
99.9113503592
 21
259.2738404263
  0
LINE
  5
270
100
AcDbEntity
  8
KONSTRUKTIONSELEMENTE
100
AcDbLine
 62
7
  6
CONTINUOUS
 10
100.1493366795
 20
259.8988404263
 11
99.9113503592
 21
259.8988404263
  0
LINE
  5
271
100
AcDbEntity
  8
KONSTRUKTIONSELEMENTE
100
AcDbLine
 62
7
  6
CONTINUOUS
 10
99.9679511617
 20
268.1280055035
 11
99.9422421248
 21
268.1280055035
  0
LINE
  5
272
100
AcDbEntity
  8
KONSTRUKTIONSELEMENTE
100
AcDbLine
 62
7
  6
CONTINUOUS
 10
99.9200013359
 20
268.3363380421
 11
100.0281346687
 21
268.3363380421
  0
LINE
  5
273
100
AcDbEntity
  8
KONSTRUKTIONSELEMENTE
100
AcDbLine
 62
7
  6
CONTINUOUS
 10
99.9123113355
 20
268.6488380421
 11
99.9499495828
 21
268.6488380421
  0
LINE
  5
274
100
AcDbEntity
  8
KONSTRUKTIONSELEMENTE
100
AcDbLine
 62
7
  6
CONTINUOUS
 10
99.9679511617
 20
268.6488380421
 11
100.0747510319
 21
268.6488380421
  0
LINE
  5
275
100
AcDbEntity
  8
KONSTRUKTIONSELEMENTE
100
AcDbLine
 62
7
  6
CONTINUOUS
 10
99.9114571269
 20
268.8571729649
 11
99.9294063381
 21
268.8571729649
  0
LINE
  5
276
100
AcDbEntity
  8
KONSTRUKTIONSELEMENTE
100
AcDbLine
 62
7
  6
CONTINUOUS
 10
100.0014480305
 20
268.8571729649
 11
100.0956875344
 21
268.8571729649
  0
LINE
  5
277
100
AcDbEntity
  8
KONSTRUKTIONSELEMENTE
100
AcDbLine
 62
7
  6
CONTINUOUS
 10
100.0427923247
 20
269.2738380421
 11
100.1332778878
 21
269.2738380421
  0
LINE
  5
278
100
AcDbEntity
  8
KONSTRUKTIONSELEMENTE
100
AcDbLine
 62
7
  6
CONTINUOUS
 10
100.0583300675
 20
269.6905055035
 11
100.1493366795
 21
269.6905055035
  0
LINE
  5
279
100
AcDbEntity
  8
KONSTRUKTIONSELEMENTE
100
AcDbLine
 62
7
  6
CONTINUOUS
 10
100.0583300675
 20
270.1071729649
 11
100.1493366795
 21
270.1071729649
  0
LINE
  5
27A
100
AcDbEntity
  8
0
100
AcDbLine
 62
7
  6
CONTINUOUS
 10
137.1613503592
 20
425.1280053964
 11
137.1613503592
 21
390.1280055035
  0
LINE
  5
27B
100
AcDbEntity
  8
BEZUGSACHSEN
100
AcDbLine
 62
7
  6
CONTINUOUS
 10
104.3188626637
 20
104.0116527082
 11
110.2423468561
 21
128.983716374
  0
LINE
  5
27C
100
AcDbEntity
  8
KONSTRUKTIONSELEMENTE
100
AcDbLine
 62
7
  6
CONTINUOUS
 10
100.0427923247
 20
270.5238380421
 11
100.1332779778
 21
270.5238380421
  0
LINE
  5
27D
100
AcDbEntity
  8
KONSTRUKTIONSELEMENTE
100
AcDbLine
 62
7
  6
CONTINUOUS
 10
99.9114571269
 20
270.9405055035
 11
99.9294063381
 21
270.9405055035
  0
LINE
  5
27E
100
AcDbEntity
  8
KONSTRUKTIONSELEMENTE
100
AcDbLine
 62
7
  6
CONTINUOUS
 10
100.0014480305
 20
270.9405055035
 11
100.0956873872
 21
270.9405055035
  0
LINE
  5
27F
100
AcDbEntity
  8
KONSTRUKTIONSELEMENTE
100
AcDbLine
 62
7
  6
CONTINUOUS
 10
99.9123112951
 20
271.1488380421
 11
99.9499495828
 21
271.1488380421
  0
LINE
  5
280
100
AcDbEntity
  8
KONSTRUKTIONSELEMENTE
100
AcDbLine
 62
7
  6
CONTINUOUS
 10
99.9679511617
 20
271.1488380421
 11
100.0747510319
 21
271.1488380421
  0
LINE
  5
281
100
AcDbEntity
  8
KONSTRUKTIONSELEMENTE
100
AcDbLine
 62
7
  6
CONTINUOUS
 10
99.9200003737
 20
271.4613380421
 11
100.0281346687
 21
271.4613380421
  0
LINE
  5
282
100
AcDbEntity
  8
KONSTRUKTIONSELEMENTE
100
AcDbLine
 62
7
  6
CONTINUOUS
 10
99.9679511617
 20
271.6696729649
 11
99.9422421248
 21
271.6696729649
  0
LINE
  5
283
100
AcDbEntity
  8
KONSTRUKTIONSELEMENTE
100
AcDbLine
 62
7
  6
CONTINUOUS
 10
99.9353948307
 20
278.7530055035
 11
99.9457546886
 21
278.7530055035
  0
LINE
  5
284
100
AcDbEntity
  8
KONSTRUKTIONSELEMENTE
100
AcDbLine
 62
7
  6
CONTINUOUS
 10
100.0747510319
 20
279.6905055035
 11
100.1493366795
 21
279.6905055035
  0
LINE
  5
285
100
AcDbEntity
  8
KONSTRUKTIONSELEMENTE
100
AcDbLine
 62
7
  6
CONTINUOUS
 10
99.9353948307
 20
280.6280055035
 11
99.9457546886
 21
280.6280055035
  0
LINE
  5
286
100
AcDbEntity
  8
KONSTRUKTIONSELEMENTE
100
AcDbLine
 62
7
  6
CONTINUOUS
 10
100.0014480305
 20
285.1071729649
 11
100.1493366795
 21
285.1071729649
  0
LINE
  5
287
100
AcDbEntity
  8
KONSTRUKTIONSELEMENTE
100
AcDbLine
 62
7
  6
CONTINUOUS
 10
100.1493366795
 20
288.4405055035
 11
99.9113503592
 21
288.4405055035
  0
LINE
  5
288
100
AcDbEntity
  8
KONSTRUKTIONSELEMENTE
100
AcDbLine
 62
7
  6
CONTINUOUS
 10
100.1493366795
 20
289.0655055035
 11
99.9200013359
 21
289.0655055035
  0
LINE
  5
289
100
AcDbEntity
  8
KONSTRUKTIONSELEMENTE
100
AcDbLine
 62
7
  6
CONTINUOUS
 10
100.1493366795
 20
291.9821717728
 11
99.9200013359
 21
291.9821717728
  0
LINE
  5
28A
100
AcDbEntity
  8
KONSTRUKTIONSELEMENTE
100
AcDbLine
 62
7
  6
CONTINUOUS
 10
100.1493366795
 20
292.6071717728
 11
99.9113503592
 21
292.6071717728
  0
LINE
  5
28B
100
AcDbEntity
  8
KONSTRUKTIONSELEMENTE
100
AcDbLine
 62
7
  6
CONTINUOUS
 10
100.1493366795
 20
293.4405055035
 11
99.9113503592
 21
293.4405055035
  0
LINE
  5
28C
100
AcDbEntity
  8
KONSTRUKTIONSELEMENTE
100
AcDbLine
 62
7
  6
CONTINUOUS
 10
99.9113538491
 20
294.0655055035
 11
100.1493366795
 21
294.0655055035
  0
LINE
  5
28D
100
AcDbEntity
  8
KONSTRUKTIONSELEMENTE
100
AcDbLine
 62
7
  6
CONTINUOUS
 10
99.9113538491
 20
297.8155055035
 11
100.1493366795
 21
297.8155055035
  0
LINE
  5
28E
100
AcDbEntity
  8
KONSTRUKTIONSELEMENTE
100
AcDbLine
 62
7
  6
CONTINUOUS
 10
100.1493366795
 20
298.4405055035
 11
99.9113503592
 21
298.4405055035
  0
LINE
  5
28F
100
AcDbEntity
  8
KONSTRUKTIONSELEMENTE
100
AcDbLine
 62
7
  6
CONTINUOUS
 10
99.9782488447
 20
299.2738386382
 11
99.9422421248
 21
299.2738386382
  0
LINE
  5
290
100
AcDbEntity
  8
KONSTRUKTIONSELEMENTE
100
AcDbLine
 62
7
  6
CONTINUOUS
 10
99.9242755085
 20
299.3780055035
 11
100.0143541558
 21
299.3780055035
  0
LINE
  5
291
100
AcDbEntity
  8
KONSTRUKTIONSELEMENTE
100
AcDbLine
 62
7
  6
CONTINUOUS
 10
99.9123112999
 20
299.6905055035
 11
100.0747510319
 21
299.6905055035
  0
LINE
  5
292
100
AcDbEntity
  8
KONSTRUKTIONSELEMENTE
100
AcDbLine
 62
7
  6
CONTINUOUS
 10
99.9114571269
 20
299.8988386382
 11
99.9499495828
 21
299.8988386382
  0
LINE
  5
293
100
AcDbEntity
  8
KONSTRUKTIONSELEMENTE
100
AcDbLine
 62
7
  6
CONTINUOUS
 10
99.9679511617
 20
299.8988386382
 11
100.101046739
 21
299.8988386382
  0
LINE
  5
294
100
AcDbEntity
  8
KONSTRUKTIONSELEMENTE
100
AcDbLine
 62
7
  6
CONTINUOUS
 10
100.0014480305
 20
300.0030055035
 11
100.1149451267
 21
300.0030055035
  0
LINE
  5
295
100
AcDbEntity
  8
KONSTRUKTIONSELEMENTE
100
AcDbLine
 62
7
  6
CONTINUOUS
 10
100.0281346687
 20
300.2113386382
 11
100.1332779283
 21
300.2113386382
  0
LINE
  5
296
100
AcDbEntity
  8
KONSTRUKTIONSELEMENTE
100
AcDbLine
 62
7
  6
CONTINUOUS
 10
100.0427923247
 20
300.5238386382
 11
100.1452713017
 21
300.5238386382
  0
LINE
  5
297
100
AcDbEntity
  8
KONSTRUKTIONSELEMENTE
100
AcDbLine
 62
7
  6
CONTINUOUS
 10
99.9165829909
 20
302.5030055035
 11
100.1493366795
 21
302.5030055035
  0
LINE
  5
298
100
AcDbEntity
  8
KONSTRUKTIONSELEMENTE
100
AcDbLine
 62
7
  6
CONTINUOUS
 10
100.1493366795
 20
303.1280055035
 11
99.9113503592
 21
303.1280055035
  0
LINE
  5
299
100
AcDbEntity
  8
0
100
AcDbLine
 62
7
  6
CONTINUOUS
 10
127.1613503592
 20
462.6280055035
 11
126.6763213909
 21
463.6353519682
  0
LINE
  5
29A
100
AcDbEntity
  8
0
100
AcDbLine
 62
7
  6
CONTINUOUS
 10
137.1613503592
 20
390.1280055035
 11
89.1613503592
 21
390.1280055035
  0
LINE
  5
29B
100
AcDbEntity
  8
0
100
AcDbLine
 62
7
  6
CONTINUOUS
 10
120.1603738408
 20
470.3950198739
 11
106.1623268776
 21
470.3950198739
  0
LINE
  5
29C
100
AcDbEntity
  8
BEZUGSACHSEN
100
AcDbLine
 62
7
  6
CONTINUOUS
 10
239.6135973591
 20
472.1279950191
 11
238.1594585539
 21
470.3950198739
  0
LINE
  5
29D
100
AcDbEntity
  8
0
100
AcDbLine
 62
9
  6
CONTINUOUS
 10
244.7095841828
 20
85.2419572867
 11
254.6594585539
 21
85.2419579265
  0
LINE
  5
29E
100
AcDbEntity
  8
0
100
AcDbLine
 62
9
  6
CONTINUOUS
 10
269.6594585539
 20
85.2419579265
 11
279.609332925
 21
85.2419579265
  0
LINE
  5
29F
100
AcDbEntity
  8
0
100
AcDbLine
 62
9
  6
CONTINUOUS
 10
332.4149368482
 20
62.2355670236
 11
323.0071458055
 21
65.4749292597
  0
LINE
  5
2A0
100
AcDbEntity
  8
RUNDUNGEN
100
AcDbLine
 62
9
  6
CONTINUOUS
 10
275.2844585538
 20
454.5211252494
 11
270.2844585539
 21
448.2761272509
  0
LINE
  5
2A1
100
AcDbEntity
  8
0
100
AcDbLine
 62
9
  6
CONTINUOUS
 10
244.7095841828
 20
112.8213374029
 11
254.6594585539
 21
112.8213374029
  0
LINE
  5
2A2
100
AcDbEntity
  8
0
100
AcDbLine
 62
9
  6
CONTINUOUS
 10
269.6594585539
 20
112.8213374029
 11
279.609332925
 21
112.8213374029
  0
LINE
  5
2A3
100
AcDbEntity
  8
0
100
AcDbLine
 62
9
  6
CONTINUOUS
 10
315.1382596611
 20
70.9025470177
 11
306.9877997297
 21
76.6095605016
  0
LINE
  5
2A4
100
AcDbEntity
  8
0
100
AcDbLine
 62
7
  6
CONTINUOUS
 10
275.931270988
 20
128.4280055035
 11
275.3674472
 21
128.4280055035
  0
LINE
  5
2A5
100
AcDbEntity
  8
0
100
AcDbLine
 62
7
  6
CONTINUOUS
 10
248.9153879469
 20
128.4280055035
 11
248.3876461198
 21
128.4280055035
  0
LINE
  5
2A6
100
AcDbEntity
  8
KONSTRUKTIONSELEMENTE
100
AcDbLine
 62
7
  6
CONTINUOUS
 10
248.9153879469
 20
128.4280055035
 11
275.3674472
 21
128.4280055035
  0
LINE
  5
2A7
100
AcDbEntity
  8
0
100
AcDbLine
 62
7
  6
CONTINUOUS
 10
275.9424057796
 20
128.4056542448
 11
275.931270988
 21
128.4280055035
  0
LINE
  5
2A8
100
AcDbEntity
  8
KONSTRUKTIONSELEMENTE
100
AcDbLine
 62
7
  6
CONTINUOUS
 10
260.2977564247
 20
306.0446722199
 11
264.6594585539
 21
307.5030055035
  0
LINE
  5
2A9
100
AcDbEntity
  8
KONSTRUKTIONSELEMENTE
100
AcDbLine
 62
7
  6
CONTINUOUS
 10
264.6594585539
 20
308.1280055035
 11
259.6594585539
 21
306.4613387872
  0
LINE
  5
2AA
100
AcDbEntity
  8
0
100
AcDbLine
 62
7
  6
CONTINUOUS
 10
238.1594585539
 20
470.3950198739
 11
238.1594585539
 21
463.1280055035
  0
LINE
  5
2AB
100
AcDbEntity
  8
0
100
AcDbLine
 62
7
  6
CONTINUOUS
 10
238.1594585539
 20
451.1280055035
 11
238.1594585539
 21
390.1280055035
  0
LINE
  5
2AC
100
AcDbEntity
  8
0
100
AcDbLine
 62
7
  6
CONTINUOUS
 10
242.6658698643
 20
462.6280055035
 11
242.6658698643
 21
435.1280055035
  0
LINE
  5
2AD
100
AcDbEntity
  8
RUNDUNGEN
100
AcDbLine
 62
9
  6
CONTINUOUS
 10
244.1594585539
 20
444.3730035019
 11
244.1594585539
 21
435.1280055035
  0
LINE
  5
2AE
100
AcDbEntity
  8
0
100
AcDbLine
 62
7
  6
CONTINUOUS
 10
244.7095841828
 20
85.2419572867
 11
244.7095841828
 21
112.8213374029
  0
LINE
  5
2AF
100
AcDbEntity
  8
KONSTRUKTIONSELEMENTE
100
AcDbLine
 62
7
  6
CONTINUOUS
 10
248.9094585539
 20
390.1280055035
 11
248.9094585539
 21
128.4280055035
  0
LINE
  5
2B0
100
AcDbEntity
  8
RUNDUNGEN
100
AcDbLine
 62
7
  6
CONTINUOUS
 10
252.1594585539
 20
444.3730035019
 11
252.1594585539
 21
435.1284550833
  0
LINE
  5
2B1
100
AcDbEntity
  8
KONSTRUKTIONSELEMENTE
100
AcDbLine
 62
7
  6
CONTINUOUS
 10
261.8935011388
 20
300.5238386382
 11
261.7871181728
 21
300.2113386382
  0
LINE
  5
2B2
100
AcDbEntity
  8
KONSTRUKTIONSELEMENTE
100
AcDbLine
 62
7
  6
CONTINUOUS
 10
264.0211607577
 20
300.5238386382
 11
263.9147777916
 21
300.2113386382
  0
LINE
  5
2B3
100
AcDbEntity
  8
KONSTRUKTIONSELEMENTE
100
AcDbLine
 62
7
  6
CONTINUOUS
 10
262.2126500369
 20
299.8988386382
 11
262.1062670709
 21
299.6905055035
  0
LINE
  5
2B4
100
AcDbEntity
  8
KONSTRUKTIONSELEMENTE
100
AcDbLine
 62
7
  6
CONTINUOUS
 10
264.5530755879
 20
300.1071723689
 11
264.2339266897
 21
299.6905055035
  0
LINE
  5
2B5
100
AcDbEntity
  8
KONSTRUKTIONSELEMENTE
100
AcDbLine
 62
7
  6
CONTINUOUS
 10
261.7871181728
 20
300.2113386382
 11
261.5743522407
 21
300.0030055035
  0
LINE
  5
2B6
100
AcDbEntity
  8
KONSTRUKTIONSELEMENTE
100
AcDbLine
 62
7
  6
CONTINUOUS
 10
263.9147777916
 20
300.2113386382
 11
263.7020118595
 21
300.0030055035
  0
LINE
  5
2B7
100
AcDbEntity
  8
KONSTRUKTIONSELEMENTE
100
AcDbLine
 62
7
  6
CONTINUOUS
 10
262.1062670709
 20
299.6905055035
 11
261.6807352067
 21
299.3780055035
  0
LINE
  5
2B8
100
AcDbEntity
  8
KONSTRUKTIONSELEMENTE
100
AcDbLine
 62
7
  6
CONTINUOUS
 10
264.2339266897
 20
299.6905055035
 11
263.8083948256
 21
299.3780055035
  0
LINE
  5
2B9
100
AcDbEntity
  8
KONSTRUKTIONSELEMENTE
100
AcDbLine
 62
7
  6
CONTINUOUS
 10
263.5956288935
 20
297.8155055035
 11
259.6594585539
 21
296.3571717728
  0
LINE
  5
2BA
100
AcDbEntity
  8
KONSTRUKTIONSELEMENTE
100
AcDbLine
 62
7
  6
CONTINUOUS
 10
260.1913734586
 20
295.9405055035
 11
264.6594585539
 21
297.5030055035
  0
LINE
  5
2BB
100
AcDbEntity
  8
KONSTRUKTIONSELEMENTE
100
AcDbLine
 62
7
  6
CONTINUOUS
 10
261.5743522407
 20
300.0030055035
 11
261.2552031935
 21
299.8988386382
  0
LINE
  5
2BC
100
AcDbEntity
  8
KONSTRUKTIONSELEMENTE
100
AcDbLine
 62
7
  6
CONTINUOUS
 10
261.6807352067
 20
299.3780055035
 11
261.3615861596
 21
299.2738386382
  0
LINE
  5
2BD
100
AcDbEntity
  8
KONSTRUKTIONSELEMENTE
100
AcDbLine
 62
7
  6
CONTINUOUS
 10
263.7020118595
 20
300.0030055035
 11
263.3828626634
 21
299.8988386382
  0
LINE
  5
2BE
100
AcDbEntity
  8
KONSTRUKTIONSELEMENTE
100
AcDbLine
 62
7
  6
CONTINUOUS
 10
263.8083948256
 20
299.3780055035
 11
263.4892459275
 21
299.2738386382
  0
LINE
  5
2BF
100
AcDbEntity
  8
KONSTRUKTIONSELEMENTE
100
AcDbLine
 62
9
  6
CONTINUOUS
 10
254.6594585539
 20
112.8213374029
 11
254.6594585539
 21
85.2419569017
  0
LINE
  5
2C0
100
AcDbEntity
  8
RUNDUNGEN
100
AcDbLine
 62
7
  6
CONTINUOUS
 10
256.6594585539
 20
449.9072244929
 11
256.6594585539
 21
462.6280055035
  0
LINE
  5
2C1
100
AcDbEntity
  8
KONSTRUKTIONSELEMENTE
100
AcDbLine
 62
7
  6
CONTINUOUS
 10
256.6594585539
 20
462.6280055035
 11
256.6594585539
 21
472.1280055035
  0
LINE
  5
2C2
100
AcDbEntity
  8
KONSTRUKTIONSELEMENTE
100
AcDbLine
 62
7
  6
CONTINUOUS
 10
259.6594585539
 20
306.4613387872
 11
259.6594585539
 21
305.6280055035
  0
LINE
  5
2C3
100
AcDbEntity
  8
KONSTRUKTIONSELEMENTE
100
AcDbLine
 62
7
  6
CONTINUOUS
 10
259.6594585539
 20
303.1280055035
 11
259.6594585539
 21
300.6280055035
  0
LINE
  5
2C4
100
AcDbEntity
  8
KONSTRUKTIONSELEMENTE
100
AcDbLine
 62
7
  6
CONTINUOUS
 10
259.6594585539
 20
298.4405055035
 11
259.6594585539
 21
297.8155055035
  0
LINE
  5
2C5
100
AcDbEntity
  8
KONSTRUKTIONSELEMENTE
100
AcDbLine
 62
7
  6
CONTINUOUS
 10
259.6594585539
 20
296.3571717728
 11
259.6594585539
 21
295.5238392342
  0
LINE
  5
2C6
100
AcDbEntity
  8
KONSTRUKTIONSELEMENTE
100
AcDbLine
 62
7
  6
CONTINUOUS
 10
259.6594585539
 20
294.0655055035
 11
259.6594585539
 21
293.4405055035
  0
LINE
  5
2C7
100
AcDbEntity
  8
KONSTRUKTIONSELEMENTE
100
AcDbLine
 62
7
  6
CONTINUOUS
 10
259.6594585539
 20
292.6071717728
 11
259.6594585539
 21
291.9821717728
  0
LINE
  5
2C8
100
AcDbEntity
  8
KONSTRUKTIONSELEMENTE
100
AcDbLine
 62
7
  6
CONTINUOUS
 10
259.6594585539
 20
289.0655055035
 11
259.6594585539
 21
288.4405055035
  0
LINE
  5
2C9
100
AcDbEntity
  8
KONSTRUKTIONSELEMENTE
100
AcDbLine
 62
7
  6
CONTINUOUS
 10
259.6594585539
 20
286.7738380421
 11
259.6594585539
 21
285.9405055035
  0
LINE
  5
2CA
100
AcDbEntity
  8
KONSTRUKTIONSELEMENTE
100
AcDbLine
 62
7
  6
CONTINUOUS
 10
259.6594585539
 20
284.2738380421
 11
259.6594585539
 21
283.4405055035
  0
LINE
  5
2CB
100
AcDbEntity
  8
KONSTRUKTIONSELEMENTE
100
AcDbLine
 62
7
  6
CONTINUOUS
 10
259.6594585539
 20
281.7738380421
 11
259.6594585539
 21
281.1488380421
  0
LINE
  5
2CC
100
AcDbEntity
  8
KONSTRUKTIONSELEMENTE
100
AcDbLine
 62
7
  6
CONTINUOUS
 10
259.6594585539
 20
278.2321729649
 11
259.6594585539
 21
277.6071729649
  0
LINE
  5
2CD
100
AcDbEntity
  8
KONSTRUKTIONSELEMENTE
100
AcDbLine
 62
7
  6
CONTINUOUS
 10
259.6594585539
 20
270.2113380421
 11
259.6594585539
 21
269.5863380421
  0
LINE
  5
2CE
100
AcDbEntity
  8
KONSTRUKTIONSELEMENTE
100
AcDbLine
 62
7
  6
CONTINUOUS
 10
259.6594585539
 20
263.2321705807
 11
259.6594585539
 21
262.3988404263
  0
LINE
  5
2CF
100
AcDbEntity
  8
KONSTRUKTIONSELEMENTE
100
AcDbLine
 62
7
  6
CONTINUOUS
 10
259.6594585539
 20
259.8988404263
 11
259.6594585539
 21
259.2738404263
  0
LINE
  5
2D0
100
AcDbEntity
  8
KONSTRUKTIONSELEMENTE
100
AcDbLine
 62
7
  6
CONTINUOUS
 10
259.6594585539
 20
258.4405055035
 11
259.6594585539
 21
257.8155055035
  0
LINE
  5
2D1
100
AcDbEntity
  8
KONSTRUKTIONSELEMENTE
100
AcDbLine
 62
7
  6
CONTINUOUS
 10
259.6594585539
 20
241.2530055035
 11
259.6594585539
 21
240.6280055035
  0
LINE
  5
2D2
100
AcDbEntity
  8
KONSTRUKTIONSELEMENTE
100
AcDbLine
 62
7
  6
CONTINUOUS
 10
259.6594585539
 20
237.7113404263
 11
259.6594585539
 21
237.0863404263
  0
LINE
  5
2D3
100
AcDbEntity
  8
KONSTRUKTIONSELEMENTE
100
AcDbLine
 62
7
  6
CONTINUOUS
 10
259.6594585539
 20
236.2530055035
 11
259.6594585539
 21
235.6280055035
  0
LINE
  5
2D4
100
AcDbEntity
  8
KONSTRUKTIONSELEMENTE
100
AcDbLine
 62
7
  6
CONTINUOUS
 10
259.6594585539
 20
232.7113404263
 11
259.6594585539
 21
232.0863404263
  0
LINE
  5
2D5
100
AcDbEntity
  8
KONSTRUKTIONSELEMENTE
100
AcDbLine
 62
7
  6
CONTINUOUS
 10
259.6594585539
 20
231.2530055035
 11
259.6594585539
 21
230.6280055035
  0
LINE
  5
2D6
100
AcDbEntity
  8
KONSTRUKTIONSELEMENTE
100
AcDbLine
 62
7
  6
CONTINUOUS
 10
259.6594585539
 20
227.7113356579
 11
259.6594585539
 21
227.0863356579
  0
LINE
  5
2D7
100
AcDbEntity
  8
KONSTRUKTIONSELEMENTE
100
AcDbLine
 62
7
  6
CONTINUOUS
 10
260.1913734586
 20
270.1071729649
 11
260.1913734586
 21
269.6905055035
  0
LINE
  5
2D8
100
AcDbEntity
  8
KONSTRUKTIONSELEMENTE
100
AcDbLine
 62
7
  6
CONTINUOUS
 10
260.2977564247
 20
302.5030055035
 11
260.2977564247
 21
300.5238386382
  0
LINE
  5
2D9
100
AcDbEntity
  8
KONSTRUKTIONSELEMENTE
100
AcDbLine
 62
7
  6
CONTINUOUS
 10
260.9360542954
 20
280.7321729649
 11
260.9360542954
 21
278.6488380421
  0
LINE
  5
2DA
100
AcDbEntity
  8
KONSTRUKTIONSELEMENTE
100
AcDbLine
 62
7
  6
CONTINUOUS
 10
261.3615861596
 20
280.6280055035
 11
261.3615861596
 21
278.7530055035
  0
LINE
  5
2DB
100
AcDbEntity
  8
KONSTRUKTIONSELEMENTE
100
AcDbLine
 62
7
  6
CONTINUOUS
 10
261.4679691256
 20
267.1905055035
 11
261.4679691256
 21
265.7321705807
  0
LINE
  5
2DC
100
AcDbEntity
  8
KONSTRUKTIONSELEMENTE
100
AcDbLine
 62
7
  6
CONTINUOUS
 10
261.8935011388
 20
302.5030055035
 11
261.8935011388
 21
300.5238386382
  0
LINE
  5
2DD
100
AcDbEntity
  8
KONSTRUKTIONSELEMENTE
100
AcDbLine
 62
7
  6
CONTINUOUS
 10
261.8935011388
 20
257.8155055035
 11
261.8935011388
 21
255.9405055035
  0
LINE
  5
2DE
100
AcDbEntity
  8
KONSTRUKTIONSELEMENTE
100
AcDbLine
 62
7
  6
CONTINUOUS
 10
261.9998841048
 20
291.9821717728
 11
261.9998841048
 21
289.0655055035
  0
LINE
  5
2DF
100
AcDbEntity
  8
KONSTRUKTIONSELEMENTE
100
AcDbLine
 62
7
  6
CONTINUOUS
 10
261.9998841048
 20
270.1071729649
 11
261.9998841048
 21
269.6905055035
  0
LINE
  5
2E0
100
AcDbEntity
  8
KONSTRUKTIONSELEMENTE
100
AcDbLine
 62
7
  6
CONTINUOUS
 10
261.9998841048
 20
265.7321705807
 11
261.9998841048
 21
267.1905055035
  0
LINE
  5
2E1
100
AcDbEntity
  8
BG_STARTBEZUEGE
100
AcDbLine
 62
7
  6
CENTER
 10
262.1594585539
 20
32.2920995223
 11
262.1594585539
 21
475.1280055035
  0
LINE
  5
2E2
100
AcDbEntity
  8
KONSTRUKTIONSELEMENTE
100
AcDbLine
 62
7
  6
CONTINUOUS
 10
262.425415969
 20
270.1071729649
 11
262.425415969
 21
269.6905055035
  0
LINE
  5
2E3
100
AcDbEntity
  8
KONSTRUKTIONSELEMENTE
100
AcDbLine
 62
7
  6
CONTINUOUS
 10
262.5317989351
 20
302.5030055035
 11
262.5317989351
 21
300.5238386382
  0
LINE
  5
2E4
100
AcDbEntity
  8
KONSTRUKTIONSELEMENTE
100
AcDbLine
 62
7
  6
CONTINUOUS
 10
262.5317989351
 20
257.8155055035
 11
262.5317989351
 21
255.8363404263
  0
LINE
  5
2E5
100
AcDbEntity
  8
KONSTRUKTIONSELEMENTE
100
AcDbLine
 62
7
  6
CONTINUOUS
 10
262.6381819011
 20
291.9821717728
 11
262.6381819011
 21
289.0655055035
  0
LINE
  5
2E6
100
AcDbEntity
  8
KONSTRUKTIONSELEMENTE
100
AcDbLine
 62
7
  6
CONTINUOUS
 10
264.0211607577
 20
302.5030055035
 11
264.0211607577
 21
300.5238386382
  0
LINE
  5
2E7
100
AcDbEntity
  8
KONSTRUKTIONSELEMENTE
100
AcDbLine
 62
7
  6
CONTINUOUS
 10
264.1275437237
 20
270.1071729649
 11
264.1275437237
 21
269.6905055035
  0
LINE
  5
2E8
100
AcDbEntity
  8
KONSTRUKTIONSELEMENTE
100
AcDbLine
 62
7
  6
CONTINUOUS
 10
264.1275437237
 20
257.8155055035
 11
264.1275437237
 21
255.8363404263
  0
LINE
  5
2E9
100
AcDbEntity
  8
KONSTRUKTIONSELEMENTE
100
AcDbLine
 62
7
  6
CONTINUOUS
 10
264.6594585539
 20
308.1280055035
 11
264.6594585539
 21
307.5030055035
  0
LINE
  5
2EA
100
AcDbEntity
  8
KONSTRUKTIONSELEMENTE
100
AcDbLine
 62
7
  6
CONTINUOUS
 10
264.6594585539
 20
304.5863389362
 11
264.6594585539
 21
303.9613389362
  0
LINE
  5
2EB
100
AcDbEntity
  8
KONSTRUKTIONSELEMENTE
100
AcDbLine
 62
7
  6
CONTINUOUS
 10
264.6594585539
 20
303.1280055035
 11
264.6594585539
 21
300.6280055035
  0
LINE
  5
2EC
100
AcDbEntity
  8
KONSTRUKTIONSELEMENTE
100
AcDbLine
 62
7
  6
CONTINUOUS
 10
264.6594585539
 20
298.4405055035
 11
264.6594585539
 21
297.5030055035
  0
LINE
  5
2ED
100
AcDbEntity
  8
KONSTRUKTIONSELEMENTE
100
AcDbLine
 62
7
  6
CONTINUOUS
 10
264.6594585539
 20
294.3780055035
 11
264.6594585539
 21
293.4405055035
  0
LINE
  5
2EE
100
AcDbEntity
  8
KONSTRUKTIONSELEMENTE
100
AcDbLine
 62
7
  6
CONTINUOUS
 10
264.6594585539
 20
292.6071717728
 11
264.6594585539
 21
291.9821717728
  0
LINE
  5
2EF
100
AcDbEntity
  8
KONSTRUKTIONSELEMENTE
100
AcDbLine
 62
7
  6
CONTINUOUS
 10
264.6594585539
 20
289.0655055035
 11
264.6594585539
 21
288.4405055035
  0
LINE
  5
2F0
100
AcDbEntity
  8
KONSTRUKTIONSELEMENTE
100
AcDbLine
 62
7
  6
CONTINUOUS
 10
264.6594585539
 20
287.6071729649
 11
264.6594585539
 21
286.9821729649
  0
LINE
  5
2F1
100
AcDbEntity
  8
KONSTRUKTIONSELEMENTE
100
AcDbLine
 62
7
  6
CONTINUOUS
 10
264.6594585539
 20
285.5238380421
 11
264.6594585539
 21
284.6905055035
  0
LINE
  5
2F2
100
AcDbEntity
  8
KONSTRUKTIONSELEMENTE
100
AcDbLine
 62
7
  6
CONTINUOUS
 10
264.6594585539
 20
283.2321729649
 11
264.6594585539
 21
282.6071729649
  0
LINE
  5
2F3
100
AcDbEntity
  8
KONSTRUKTIONSELEMENTE
100
AcDbLine
 62
7
  6
CONTINUOUS
 10
264.6594585539
 20
280.1071729649
 11
264.6594585539
 21
279.2738380421
  0
LINE
  5
2F4
100
AcDbEntity
  8
KONSTRUKTIONSELEMENTE
100
AcDbLine
 62
7
  6
CONTINUOUS
 10
264.6594585539
 20
270.1071729649
 11
264.6594585539
 21
269.6905055035
  0
LINE
  5
2F5
100
AcDbEntity
  8
KONSTRUKTIONSELEMENTE
100
AcDbLine
 62
7
  6
CONTINUOUS
 10
264.6594585539
 20
264.8988404263
 11
264.6594585539
 21
264.2738404263
  0
LINE
  5
2F6
100
AcDbEntity
  8
KONSTRUKTIONSELEMENTE
100
AcDbLine
 62
7
  6
CONTINUOUS
 10
264.6594585539
 20
261.3571705807
 11
264.6594585539
 21
260.7321705807
  0
LINE
  5
2F7
100
AcDbEntity
  8
KONSTRUKTIONSELEMENTE
100
AcDbLine
 62
7
  6
CONTINUOUS
 10
264.6594585539
 20
259.8988404263
 11
264.6594585539
 21
259.2738404263
  0
LINE
  5
2F8
100
AcDbEntity
  8
KONSTRUKTIONSELEMENTE
100
AcDbLine
 62
7
  6
CONTINUOUS
 10
264.6594585539
 20
258.4405055035
 11
264.6594585539
 21
255.9405055035
  0
LINE
  5
2F9
100
AcDbEntity
  8
KONSTRUKTIONSELEMENTE
100
AcDbLine
 62
7
  6
CONTINUOUS
 10
264.6594585539
 20
241.2530055035
 11
264.6594585539
 21
240.6280055035
  0
LINE
  5
2FA
100
AcDbEntity
  8
KONSTRUKTIONSELEMENTE
100
AcDbLine
 62
7
  6
CONTINUOUS
 10
264.6594585539
 20
237.7113404263
 11
264.6594585539
 21
237.0863404263
  0
LINE
  5
2FB
100
AcDbEntity
  8
KONSTRUKTIONSELEMENTE
100
AcDbLine
 62
7
  6
CONTINUOUS
 10
264.6594585539
 20
236.2530055035
 11
264.6594585539
 21
235.6280055035
  0
LINE
  5
2FC
100
AcDbEntity
  8
KONSTRUKTIONSELEMENTE
100
AcDbLine
 62
7
  6
CONTINUOUS
 10
264.6594585539
 20
232.7113404263
 11
264.6594585539
 21
232.0863404263
  0
LINE
  5
2FD
100
AcDbEntity
  8
KONSTRUKTIONSELEMENTE
100
AcDbLine
 62
7
  6
CONTINUOUS
 10
264.6594585539
 20
231.2530055035
 11
264.6594585539
 21
230.6280055035
  0
LINE
  5
2FE
100
AcDbEntity
  8
KONSTRUKTIONSELEMENTE
100
AcDbLine
 62
7
  6
CONTINUOUS
 10
264.6594585539
 20
227.7113356579
 11
264.6594585539
 21
227.0863356579
  0
LINE
  5
2FF
100
AcDbEntity
  8
KONSTRUKTIONSELEMENTE
100
AcDbLine
 62
7
  6
CONTINUOUS
 10
264.6594585539
 20
300.6280055035
 11
264.5530755879
 21
300.1071723689
  0
LINE
  5
300
100
AcDbEntity
  8
KONSTRUKTIONSELEMENTE
100
AcDbLine
 62
7
  6
CONTINUOUS
 10
259.7658415293
 20
270.7321729649
 11
259.6594585539
 21
270.2113380421
  0
LINE
  5
301
100
AcDbEntity
  8
KONSTRUKTIONSELEMENTE
100
AcDbLine
 62
7
  6
CONTINUOUS
 10
264.6594585539
 20
269.6905055035
 11
264.5530755879
 21
269.1696729649
  0
LINE
  5
302
100
AcDbEntity
  8
KONSTRUKTIONSELEMENTE
100
AcDbLine
 62
7
  6
CONTINUOUS
 10
264.6594585539
 20
255.9405055035
 11
264.5530755879
 21
255.4196705807
  0
LINE
  5
303
100
AcDbEntity
  8
KONSTRUKTIONSELEMENTE
100
AcDbLine
 62
7
  6
CONTINUOUS
 10
260.2977564247
 20
270.5238380421
 11
260.1913734586
 21
270.1071729649
  0
LINE
  5
304
100
AcDbEntity
  8
KONSTRUKTIONSELEMENTE
100
AcDbLine
 62
7
  6
CONTINUOUS
 10
261.9998841048
 20
269.6905055035
 11
261.8935011388
 21
269.2738380421
  0
LINE
  5
305
100
AcDbEntity
  8
KONSTRUKTIONSELEMENTE
100
AcDbLine
 62
7
  6
CONTINUOUS
 10
262.5317989351
 20
270.5238380421
 11
262.425415969
 21
270.1071729649
  0
LINE
  5
306
100
AcDbEntity
  8
KONSTRUKTIONSELEMENTE
100
AcDbLine
 62
7
  6
CONTINUOUS
 10
264.1275437237
 20
269.6905055035
 11
264.0211607577
 21
269.2738380421
  0
LINE
  5
307
100
AcDbEntity
  8
KONSTRUKTIONSELEMENTE
100
AcDbLine
 62
7
  6
CONTINUOUS
 10
264.1275437237
 20
255.8363404263
 11
264.0211607577
 21
255.5238404263
  0
LINE
  5
308
100
AcDbEntity
  8
KONSTRUKTIONSELEMENTE
100
AcDbLine
 62
7
  6
CONTINUOUS
 10
260.5105223567
 20
270.9405055035
 11
260.2977564247
 21
270.5238380421
  0
LINE
  5
309
100
AcDbEntity
  8
KONSTRUKTIONSELEMENTE
100
AcDbLine
 62
7
  6
CONTINUOUS
 10
262.319033003
 20
271.1488380421
 11
262.2126500369
 21
270.9405055035
  0
LINE
  5
30A
100
AcDbEntity
  8
KONSTRUKTIONSELEMENTE
100
AcDbLine
 62
7
  6
CONTINUOUS
 10
261.8935011388
 20
269.2738380421
 11
261.6807352067
 21
268.8571729649
  0
LINE
  5
30B
100
AcDbEntity
  8
KONSTRUKTIONSELEMENTE
100
AcDbLine
 62
7
  6
CONTINUOUS
 10
262.2126500369
 20
268.8571729649
 11
262.1062670709
 21
268.6488380421
  0
LINE
  5
30C
100
AcDbEntity
  8
KONSTRUKTIONSELEMENTE
100
AcDbLine
 62
7
  6
CONTINUOUS
 10
260.0849904553
 20
271.2530055035
 11
259.7658415293
 21
270.7321729649
  0
LINE
  5
30D
100
AcDbEntity
  8
KONSTRUKTIONSELEMENTE
100
AcDbLine
 62
7
  6
CONTINUOUS
 10
264.5530755879
 20
269.1696729649
 11
264.2339266897
 21
268.6488380421
  0
LINE
  5
30E
100
AcDbEntity
  8
KONSTRUKTIONSELEMENTE
100
AcDbLine
 62
7
  6
CONTINUOUS
 10
262.8509478332
 20
270.9405055035
 11
262.5317989351
 21
270.5238380421
  0
LINE
  5
30F
100
AcDbEntity
  8
KONSTRUKTIONSELEMENTE
100
AcDbLine
 62
7
  6
CONTINUOUS
 10
262.1062670709
 20
268.6488380421
 11
261.7871181728
 21
268.2321729649
  0
LINE
  5
310
100
AcDbEntity
  8
KONSTRUKTIONSELEMENTE
100
AcDbLine
 62
7
  6
CONTINUOUS
 10
264.0211607577
 20
269.2738380421
 11
263.7020118595
 21
268.8571729649
  0
LINE
  5
311
100
AcDbEntity
  8
KONSTRUKTIONSELEMENTE
100
AcDbLine
 62
7
  6
CONTINUOUS
 10
260.4041393907
 20
271.5655055035
 11
260.0849904553
 21
271.2530055035
  0
LINE
  5
312
100
AcDbEntity
  8
KONSTRUKTIONSELEMENTE
100
AcDbLine
 62
7
  6
CONTINUOUS
 10
262.6381819011
 20
271.4613380421
 11
262.319033003
 21
271.1488380421
  0
LINE
  5
313
100
AcDbEntity
  8
KONSTRUKTIONSELEMENTE
100
AcDbLine
 62
7
  6
CONTINUOUS
 10
264.2339266897
 20
268.6488380421
 11
263.9147777916
 21
268.3363380421
  0
LINE
  5
314
100
AcDbEntity
  8
KONSTRUKTIONSELEMENTE
100
AcDbLine
 62
7
  6
CONTINUOUS
 10
260.9360542954
 20
271.2530055035
 11
260.5105223567
 21
270.9405055035
  0
LINE
  5
315
100
AcDbEntity
  8
KONSTRUKTIONSELEMENTE
100
AcDbLine
 62
7
  6
CONTINUOUS
 10
261.6807352067
 20
268.8571729649
 11
261.2552031935
 21
268.5446729649
  0
LINE
  5
316
100
AcDbEntity
  8
KONSTRUKTIONSELEMENTE
100
AcDbLine
 62
7
  6
CONTINUOUS
 10
263.1700967313
 20
271.1488380421
 11
262.8509478332
 21
270.9405055035
  0
LINE
  5
317
100
AcDbEntity
  8
KONSTRUKTIONSELEMENTE
100
AcDbLine
 62
7
  6
CONTINUOUS
 10
263.7020118595
 20
268.8571729649
 11
263.3828626634
 21
268.6488380421
  0
LINE
  5
318
100
AcDbEntity
  8
KONSTRUKTIONSELEMENTE
100
AcDbLine
 62
7
  6
CONTINUOUS
 10
263.0637137653
 20
271.6696729649
 11
262.6381819011
 21
271.4613380421
  0
LINE
  5
319
100
AcDbEntity
  8
KONSTRUKTIONSELEMENTE
100
AcDbLine
 62
7
  6
CONTINUOUS
 10
260.9360542954
 20
271.7738380421
 11
260.4041393907
 21
271.5655055035
  0
LINE
  5
31A
100
AcDbEntity
  8
KONSTRUKTIONSELEMENTE
100
AcDbLine
 62
7
  6
CONTINUOUS
 10
264.6594585539
 20
279.2738380421
 11
259.6594585539
 21
277.6071729649
  0
LINE
  5
31B
100
AcDbEntity
  8
KONSTRUKTIONSELEMENTE
100
AcDbLine
 62
7
  6
CONTINUOUS
 10
260.9360542954
 20
278.6488380421
 11
259.6594585539
 21
278.2321729649
  0
LINE
  5
31C
100
AcDbEntity
  8
KONSTRUKTIONSELEMENTE
100
AcDbLine
 62
7
  6
CONTINUOUS
 10
264.2339266897
 20
279.6905055035
 11
261.3615861596
 21
278.7530055035
  0
LINE
  5
31D
100
AcDbEntity
  8
KONSTRUKTIONSELEMENTE
100
AcDbLine
 62
7
  6
CONTINUOUS
 10
262.2126500369
 20
229.4821705807
 11
259.6594585539
 21
231.2530055035
  0
LINE
  5
31E
100
AcDbEntity
  8
KONSTRUKTIONSELEMENTE
100
AcDbLine
 62
7
  6
CONTINUOUS
 10
262.2126500369
 20
234.4821705807
 11
259.6594585539
 21
236.2530055035
  0
LINE
  5
31F
100
AcDbEntity
  8
KONSTRUKTIONSELEMENTE
100
AcDbLine
 62
7
  6
CONTINUOUS
 10
262.2126500369
 20
239.4821705807
 11
259.6594585539
 21
241.2530055035
  0
LINE
  5
320
100
AcDbEntity
  8
KONSTRUKTIONSELEMENTE
100
AcDbLine
 62
7
  6
CONTINUOUS
 10
261.6807352067
 20
229.1696705807
 11
259.6594585539
 21
230.6280055035
  0
LINE
  5
321
100
AcDbEntity
  8
KONSTRUKTIONSELEMENTE
100
AcDbLine
 62
7
  6
CONTINUOUS
 10
264.6594585539
 20
227.7113356579
 11
262.6381819011
 21
229.1696705807
  0
LINE
  5
322
100
AcDbEntity
  8
KONSTRUKTIONSELEMENTE
100
AcDbLine
 62
7
  6
CONTINUOUS
 10
261.6807352067
 20
234.1696705807
 11
259.6594585539
 21
235.6280055035
  0
LINE
  5
323
100
AcDbEntity
  8
KONSTRUKTIONSELEMENTE
100
AcDbLine
 62
7
  6
CONTINUOUS
 10
264.6594585539
 20
232.7113404263
 11
262.6381819011
 21
234.1696705807
  0
LINE
  5
324
100
AcDbEntity
  8
KONSTRUKTIONSELEMENTE
100
AcDbLine
 62
7
  6
CONTINUOUS
 10
261.6807352067
 20
239.1696705807
 11
259.6594585539
 21
240.6280055035
  0
LINE
  5
325
100
AcDbEntity
  8
KONSTRUKTIONSELEMENTE
100
AcDbLine
 62
7
  6
CONTINUOUS
 10
264.6594585539
 20
237.7113404263
 11
262.6381819011
 21
239.1696705807
  0
LINE
  5
326
100
AcDbEntity
  8
KONSTRUKTIONSELEMENTE
100
AcDbLine
 62
7
  6
CONTINUOUS
 10
264.6594585539
 20
227.0863356579
 11
262.2126500369
 21
228.8571705807
  0
LINE
  5
327
100
AcDbEntity
  8
KONSTRUKTIONSELEMENTE
100
AcDbLine
 62
7
  6
CONTINUOUS
 10
264.6594585539
 20
232.0863404263
 11
262.2126500369
 21
233.8571705807
  0
LINE
  5
328
100
AcDbEntity
  8
KONSTRUKTIONSELEMENTE
100
AcDbLine
 62
7
  6
CONTINUOUS
 10
264.6594585539
 20
237.0863404263
 11
262.2126500369
 21
238.8571705807
  0
LINE
  5
329
100
AcDbEntity
  8
KONSTRUKTIONSELEMENTE
100
AcDbLine
 62
7
  6
CONTINUOUS
 10
262.6381819011
 20
255.5238404263
 11
262.5317989351
 21
255.8363404263
  0
LINE
  5
32A
100
AcDbEntity
  8
KONSTRUKTIONSELEMENTE
100
AcDbLine
 62
7
  6
CONTINUOUS
 10
260.2977564247
 20
269.2738380421
 11
260.1913734586
 21
269.6905055035
  0
LINE
  5
32B
100
AcDbEntity
  8
KONSTRUKTIONSELEMENTE
100
AcDbLine
 62
7
  6
CONTINUOUS
 10
261.9998841048
 20
270.1071729649
 11
261.8935011388
 21
270.5238380421
  0
LINE
  5
32C
100
AcDbEntity
  8
KONSTRUKTIONSELEMENTE
100
AcDbLine
 62
7
  6
CONTINUOUS
 10
261.9998841048
 20
255.4196705807
 11
261.8935011388
 21
255.9405055035
  0
LINE
  5
32D
100
AcDbEntity
  8
KONSTRUKTIONSELEMENTE
100
AcDbLine
 62
7
  6
CONTINUOUS
 10
259.7658415293
 20
269.0655055035
 11
259.6594585539
 21
269.5863380421
  0
LINE
  5
32E
100
AcDbEntity
  8
KONSTRUKTIONSELEMENTE
100
AcDbLine
 62
7
  6
CONTINUOUS
 10
267.6594585539
 20
472.1280055035
 11
267.6594585539
 21
462.6280055035
  0
LINE
  5
32F
100
AcDbEntity
  8
RUNDUNGEN
100
AcDbLine
 62
7
  6
CONTINUOUS
 10
267.6594585539
 20
449.9072244929
 11
267.6594585539
 21
462.6280055035
  0
LINE
  5
330
100
AcDbEntity
  8
KONSTRUKTIONSELEMENTE
100
AcDbLine
 62
9
  6
CONTINUOUS
 10
269.6594585539
 20
112.8213374029
 11
269.6594585539
 21
85.2419579265
  0
LINE
  5
331
100
AcDbEntity
  8
RUNDUNGEN
100
AcDbLine
 62
7
  6
CONTINUOUS
 10
272.1594585539
 20
444.3730035019
 11
272.1594585539
 21
435.1280055035
  0
LINE
  5
332
100
AcDbEntity
  8
KONSTRUKTIONSELEMENTE
100
AcDbLine
 62
7
  6
CONTINUOUS
 10
275.4094585539
 20
390.1280055035
 11
275.4094585539
 21
128.4280055035
  0
LINE
  5
333
100
AcDbEntity
  8
0
100
AcDbLine
 62
7
  6
CONTINUOUS
 10
279.609332925
 20
85.2419579265
 11
279.609332925
 21
112.8213374029
  0
LINE
  5
334
100
AcDbEntity
  8
RUNDUNGEN
100
AcDbLine
 62
9
  6
CONTINUOUS
 10
280.1594585539
 20
444.3730035019
 11
280.1594585539
 21
435.1284797148
  0
LINE
  5
335
100
AcDbEntity
  8
0
100
AcDbLine
 62
7
  6
CONTINUOUS
 10
281.6530472435
 20
462.6280055035
 11
281.6530472435
 21
458.8695679091
  0
LINE
  5
336
100
AcDbEntity
  8
0
100
AcDbLine
 62
7
  6
CONTINUOUS
 10
281.6530472435
 20
455.386443098
 11
281.6530472435
 21
435.1280055035
  0
LINE
  5
337
100
AcDbEntity
  8
0
100
AcDbLine
 62
7
  6
CONTINUOUS
 10
282.3336995557
 20
457.4859600605
 11
282.3336995557
 21
456.7700509466
  0
LINE
  5
338
100
AcDbEntity
  8
KONSTRUKTIONSELEMENTE
100
AcDbLine
 62
7
  6
CONTINUOUS
 10
260.9360542954
 20
248.7530055035
 11
260.7232883633
 21
248.4405055035
  0
LINE
  5
339
100
AcDbEntity
  8
KONSTRUKTIONSELEMENTE
100
AcDbLine
 62
7
  6
CONTINUOUS
 10
263.5956288935
 20
247.3988404263
 11
263.3828626634
 21
247.0863404263
  0
LINE
  5
33A
100
AcDbEntity
  8
KONSTRUKTIONSELEMENTE
100
AcDbLine
 62
7
  6
CONTINUOUS
 10
264.5530755879
 20
255.4196705807
 11
264.2339266897
 21
255.0030055035
  0
LINE
  5
33B
100
AcDbEntity
  8
KONSTRUKTIONSELEMENTE
100
AcDbLine
 62
7
  6
CONTINUOUS
 10
264.0211607577
 20
255.5238404263
 11
263.8083948256
 21
255.3155055035
  0
LINE
  5
33C
100
AcDbEntity
  8
KONSTRUKTIONSELEMENTE
100
AcDbLine
 62
7
  6
CONTINUOUS
 10
264.2339266897
 20
255.0030055035
 11
263.8083948256
 21
254.6905055035
  0
LINE
  5
33D
100
AcDbEntity
  8
KONSTRUKTIONSELEMENTE
100
AcDbLine
 62
7
  6
CONTINUOUS
 10
261.7871181728
 20
268.2321729649
 11
261.2552031935
 21
268.0238404263
  0
LINE
  5
33E
100
AcDbEntity
  8
KONSTRUKTIONSELEMENTE
100
AcDbLine
 62
7
  6
CONTINUOUS
 10
263.9147777916
 20
268.3363380421
 11
263.3828626634
 21
268.1280055035
  0
LINE
  5
33F
100
AcDbEntity
  8
KONSTRUKTIONSELEMENTE
100
AcDbLine
 62
7
  6
CONTINUOUS
 10
260.2977564247
 20
262.8155055035
 11
264.6594585539
 21
264.2738404263
  0
LINE
  5
340
100
AcDbEntity
  8
KONSTRUKTIONSELEMENTE
100
AcDbLine
 62
7
  6
CONTINUOUS
 10
264.6594585539
 20
264.8988404263
 11
259.6594585539
 21
263.2321705807
  0
LINE
  5
341
100
AcDbEntity
  8
KONSTRUKTIONSELEMENTE
100
AcDbLine
 62
7
  6
CONTINUOUS
 10
263.3828626634
 20
247.0863404263
 11
260.7232883633
 21
248.4405055035
  0
LINE
  5
342
100
AcDbEntity
  8
KONSTRUKTIONSELEMENTE
100
AcDbLine
 62
7
  6
CONTINUOUS
 10
263.5956288935
 20
247.3988404263
 11
260.9360542954
 21
248.7530055035
  0
LINE
  5
343
100
AcDbEntity
  8
KONSTRUKTIONSELEMENTE
100
AcDbLine
 62
7
  6
CONTINUOUS
 10
262.7445648671
 20
254.6905055035
 11
262.319033003
 21
255.0030055035
  0
LINE
  5
344
100
AcDbEntity
  8
KONSTRUKTIONSELEMENTE
100
AcDbLine
 62
7
  6
CONTINUOUS
 10
262.8509478332
 20
255.3155055035
 11
262.6381819011
 21
255.5238404263
  0
LINE
  5
345
100
AcDbEntity
  8
KONSTRUKTIONSELEMENTE
100
AcDbLine
 62
7
  6
CONTINUOUS
 10
260.4041393907
 20
268.2321729649
 11
260.0849904553
 21
268.5446729649
  0
LINE
  5
346
100
AcDbEntity
  8
KONSTRUKTIONSELEMENTE
100
AcDbLine
 62
7
  6
CONTINUOUS
 10
262.319033003
 20
255.0030055035
 11
261.9998841048
 21
255.4196705807
  0
LINE
  5
347
100
AcDbEntity
  8
KONSTRUKTIONSELEMENTE
100
AcDbLine
 62
7
  6
CONTINUOUS
 10
262.8509478332
 20
268.8571729649
 11
262.5317989351
 21
269.2738380421
  0
LINE
  5
348
100
AcDbEntity
  8
KONSTRUKTIONSELEMENTE
100
AcDbLine
 62
7
  6
CONTINUOUS
 10
262.1062670709
 20
271.1488380421
 11
261.7871181728
 21
271.5655055035
  0
LINE
  5
349
100
AcDbEntity
  8
KONSTRUKTIONSELEMENTE
100
AcDbLine
 62
7
  6
CONTINUOUS
 10
264.0211607577
 20
270.5238380421
 11
263.7020118595
 21
270.9405055035
  0
LINE
  5
34A
100
AcDbEntity
  8
KONSTRUKTIONSELEMENTE
100
AcDbLine
 62
7
  6
CONTINUOUS
 10
260.0849904553
 20
268.5446729649
 11
259.7658415293
 21
269.0655055035
  0
LINE
  5
34B
100
AcDbEntity
  8
KONSTRUKTIONSELEMENTE
100
AcDbLine
 62
7
  6
CONTINUOUS
 10
264.5530755879
 20
270.6280055035
 11
264.2339266897
 21
271.1488380421
  0
LINE
  5
34C
100
AcDbEntity
  8
KONSTRUKTIONSELEMENTE
100
AcDbLine
 62
7
  6
CONTINUOUS
 10
260.5105223567
 20
268.8571729649
 11
260.2977564247
 21
269.2738380421
  0
LINE
  5
34D
100
AcDbEntity
  8
KONSTRUKTIONSELEMENTE
100
AcDbLine
 62
7
  6
CONTINUOUS
 10
262.319033003
 20
268.6488380421
 11
262.2126500369
 21
268.8571729649
  0
LINE
  5
34E
100
AcDbEntity
  8
KONSTRUKTIONSELEMENTE
100
AcDbLine
 62
7
  6
CONTINUOUS
 10
261.8935011388
 20
270.5238380421
 11
261.6807352067
 21
270.9405055035
  0
LINE
  5
34F
100
AcDbEntity
  8
KONSTRUKTIONSELEMENTE
100
AcDbLine
 62
7
  6
CONTINUOUS
 10
262.2126500369
 20
270.9405055035
 11
262.1062670709
 21
271.1488380421
  0
LINE
  5
350
100
AcDbEntity
  8
KONSTRUKTIONSELEMENTE
100
AcDbLine
 62
7
  6
CONTINUOUS
 10
260.4041393907
 20
300.2113386382
 11
260.2977564247
 21
300.5238386382
  0
LINE
  5
351
100
AcDbEntity
  8
KONSTRUKTIONSELEMENTE
100
AcDbLine
 62
7
  6
CONTINUOUS
 10
262.6381819011
 20
300.2113386382
 11
262.5317989351
 21
300.5238386382
  0
LINE
  5
352
100
AcDbEntity
  8
KONSTRUKTIONSELEMENTE
100
AcDbLine
 62
7
  6
CONTINUOUS
 10
262.5317989351
 20
269.2738380421
 11
262.425415969
 21
269.6905055035
  0
LINE
  5
353
100
AcDbEntity
  8
KONSTRUKTIONSELEMENTE
100
AcDbLine
 62
7
  6
CONTINUOUS
 10
264.1275437237
 20
270.1071729649
 11
264.0211607577
 21
270.5238380421
  0
LINE
  5
354
100
AcDbEntity
  8
KONSTRUKTIONSELEMENTE
100
AcDbLine
 62
7
  6
CONTINUOUS
 10
264.6594585539
 20
270.1071729649
 11
264.5530755879
 21
270.6280055035
  0
LINE
  5
355
100
AcDbEntity
  8
KONSTRUKTIONSELEMENTE
100
AcDbLine
 62
7
  6
CONTINUOUS
 10
259.7658415293
 20
300.1071723689
 11
259.6594585539
 21
300.6280055035
  0
LINE
  5
356
100
AcDbEntity
  8
0
100
AcDbLine
 62
7
  6
CONTINUOUS
 10
286.1594585539
 20
470.3950198739
 11
286.1594585539
 21
463.1280055035
  0
LINE
  5
357
100
AcDbEntity
  8
0
100
AcDbLine
 62
7
  6
CONTINUOUS
 10
286.1594585539
 20
451.1280055035
 11
286.1594585539
 21
390.1280055035
  0
LINE
  5
358
100
AcDbEntity
  8
0
100
AcDbLine
 62
9
  6
CONTINUOUS
 10
294.5701980465
 20
35.2921633098
 11
294.5879784883
 21
45.2420217941
  0
LINE
  5
359
100
AcDbEntity
  8
KONSTRUKTIONSELEMENTE
100
AcDbLine
 62
7
  6
CONTINUOUS
 10
264.6594585539
 20
241.2530055035
 11
262.2126500369
 21
239.4821705807
  0
LINE
  5
35A
100
AcDbEntity
  8
KONSTRUKTIONSELEMENTE
100
AcDbLine
 62
7
  6
CONTINUOUS
 10
264.6594585539
 20
236.2530055035
 11
262.2126500369
 21
234.4821705807
  0
LINE
  5
35B
100
AcDbEntity
  8
KONSTRUKTIONSELEMENTE
100
AcDbLine
 62
7
  6
CONTINUOUS
 10
264.6594585539
 20
231.2530055035
 11
262.2126500369
 21
229.4821705807
  0
LINE
  5
35C
100
AcDbEntity
  8
KONSTRUKTIONSELEMENTE
100
AcDbLine
 62
7
  6
CONTINUOUS
 10
261.6807352067
 20
239.1696705807
 11
259.6594585539
 21
237.7113404263
  0
LINE
  5
35D
100
AcDbEntity
  8
KONSTRUKTIONSELEMENTE
100
AcDbLine
 62
7
  6
CONTINUOUS
 10
264.6594585539
 20
240.6280055035
 11
262.6381819011
 21
239.1696705807
  0
LINE
  5
35E
100
AcDbEntity
  8
KONSTRUKTIONSELEMENTE
100
AcDbLine
 62
7
  6
CONTINUOUS
 10
261.6807352067
 20
234.1696705807
 11
259.6594585539
 21
232.7113404263
  0
LINE
  5
35F
100
AcDbEntity
  8
KONSTRUKTIONSELEMENTE
100
AcDbLine
 62
7
  6
CONTINUOUS
 10
264.6594585539
 20
235.6280055035
 11
262.6381819011
 21
234.1696705807
  0
LINE
  5
360
100
AcDbEntity
  8
KONSTRUKTIONSELEMENTE
100
AcDbLine
 62
7
  6
CONTINUOUS
 10
261.6807352067
 20
229.1696705807
 11
259.6594585539
 21
227.7113356579
  0
LINE
  5
361
100
AcDbEntity
  8
KONSTRUKTIONSELEMENTE
100
AcDbLine
 62
7
  6
CONTINUOUS
 10
264.6594585539
 20
230.6280055035
 11
262.6381819011
 21
229.1696705807
  0
LINE
  5
362
100
AcDbEntity
  8
KONSTRUKTIONSELEMENTE
100
AcDbLine
 62
7
  6
CONTINUOUS
 10
262.2126500369
 20
238.8571705807
 11
259.6594585539
 21
237.0863404263
  0
LINE
  5
363
100
AcDbEntity
  8
KONSTRUKTIONSELEMENTE
100
AcDbLine
 62
7
  6
CONTINUOUS
 10
262.2126500369
 20
233.8571705807
 11
259.6594585539
 21
232.0863404263
  0
LINE
  5
364
100
AcDbEntity
  8
KONSTRUKTIONSELEMENTE
100
AcDbLine
 62
7
  6
CONTINUOUS
 10
262.2126500369
 20
228.8571705807
 11
259.6594585539
 21
227.0863356579
  0
LINE
  5
365
100
AcDbEntity
  8
KONSTRUKTIONSELEMENTE
100
AcDbLine
 62
7
  6
CONTINUOUS
 10
263.8083948256
 20
255.3155055035
 11
263.4892459275
 21
255.2113404263
  0
LINE
  5
366
100
AcDbEntity
  8
KONSTRUKTIONSELEMENTE
100
AcDbLine
 62
7
  6
CONTINUOUS
 10
263.8083948256
 20
254.6905055035
 11
263.4892459275
 21
254.5863404263
  0
LINE
  5
367
100
AcDbEntity
  8
KONSTRUKTIONSELEMENTE
100
AcDbLine
 62
7
  6
CONTINUOUS
 10
263.4892459275
 20
254.5863404263
 11
263.0637137653
 21
254.5863404263
  0
LINE
  5
368
100
AcDbEntity
  8
KONSTRUKTIONSELEMENTE
100
AcDbLine
 62
7
  6
CONTINUOUS
 10
263.4892459275
 20
255.2113404263
 11
263.1700967313
 21
255.2113404263
  0
LINE
  5
369
100
AcDbEntity
  8
KONSTRUKTIONSELEMENTE
100
AcDbLine
 62
7
  6
CONTINUOUS
 10
263.0637137653
 20
254.5863404263
 11
262.7445648671
 21
254.6905055035
  0
LINE
  5
36A
100
AcDbEntity
  8
KONSTRUKTIONSELEMENTE
100
AcDbLine
 62
7
  6
CONTINUOUS
 10
263.1700967313
 20
255.2113404263
 11
262.8509478332
 21
255.3155055035
  0
LINE
  5
36B
100
AcDbEntity
  8
KONSTRUKTIONSELEMENTE
100
AcDbLine
 62
7
  6
CONTINUOUS
 10
264.6594585539
 20
260.7321705807
 11
259.6594585539
 21
262.3988404263
  0
LINE
  5
36C
100
AcDbEntity
  8
KONSTRUKTIONSELEMENTE
100
AcDbLine
 62
7
  6
CONTINUOUS
 10
264.6594585539
 20
261.3571705807
 11
260.2977564247
 21
262.8155055035
  0
LINE
  5
36D
100
AcDbEntity
  8
KONSTRUKTIONSELEMENTE
100
AcDbLine
 62
7
  6
CONTINUOUS
 10
260.9360542954
 20
268.0238404263
 11
260.4041393907
 21
268.2321729649
  0
LINE
  5
36E
100
AcDbEntity
  8
KONSTRUKTIONSELEMENTE
100
AcDbLine
 62
7
  6
CONTINUOUS
 10
263.0637137653
 20
268.1280055035
 11
262.6381819011
 21
268.3363380421
  0
LINE
  5
36F
100
AcDbEntity
  8
KONSTRUKTIONSELEMENTE
100
AcDbLine
 62
7
  6
CONTINUOUS
 10
263.1700967313
 20
268.6488380421
 11
262.8509478332
 21
268.8571729649
  0
LINE
  5
370
100
AcDbEntity
  8
KONSTRUKTIONSELEMENTE
100
AcDbLine
 62
7
  6
CONTINUOUS
 10
263.7020118595
 20
270.9405055035
 11
263.3828626634
 21
271.1488380421
  0
LINE
  5
371
100
AcDbEntity
  8
KONSTRUKTIONSELEMENTE
100
AcDbLine
 62
7
  6
CONTINUOUS
 10
260.9360542954
 20
268.5446729649
 11
260.5105223567
 21
268.8571729649
  0
LINE
  5
372
100
AcDbEntity
  8
KONSTRUKTIONSELEMENTE
100
AcDbLine
 62
7
  6
CONTINUOUS
 10
261.6807352067
 20
270.9405055035
 11
261.2552031935
 21
271.2530055035
  0
LINE
  5
373
100
AcDbEntity
  8
KONSTRUKTIONSELEMENTE
100
AcDbLine
 62
7
  6
CONTINUOUS
 10
262.6381819011
 20
268.3363380421
 11
262.319033003
 21
268.6488380421
  0
LINE
  5
374
100
AcDbEntity
  8
KONSTRUKTIONSELEMENTE
100
AcDbLine
 62
7
  6
CONTINUOUS
 10
264.2339266897
 20
271.1488380421
 11
263.9147777916
 21
271.4613380421
  0
LINE
  5
375
100
AcDbEntity
  8
KONSTRUKTIONSELEMENTE
100
AcDbLine
 62
7
  6
CONTINUOUS
 10
260.0849904553
 20
299.6905055035
 11
259.7658415293
 21
300.1071723689
  0
LINE
  5
376
100
AcDbEntity
  8
KONSTRUKTIONSELEMENTE
100
AcDbLine
 62
7
  6
CONTINUOUS
 10
262.319033003
 20
299.6905055035
 11
262.2126500369
 21
299.8988386382
  0
LINE
  5
377
100
AcDbEntity
  8
0
100
AcDbLine
 62
7
  6
CONTINUOUS
 10
248.3765113283
 20
128.4056542448
 11
248.3876461198
 21
128.4280055035
  0
LINE
  5
378
100
AcDbEntity
  8
KONSTRUKTIONSELEMENTE
100
AcDbLine
 62
7
  6
CONTINUOUS
 10
264.1275437237
 20
257.8155055035
 11
262.5317989351
 21
257.8155055035
  0
LINE
  5
379
100
AcDbEntity
  8
KONSTRUKTIONSELEMENTE
100
AcDbLine
 62
7
  6
CONTINUOUS
 10
261.8935011388
 20
257.8155055035
 11
259.6594585539
 21
257.8155055035
  0
LINE
  5
37A
100
AcDbEntity
  8
KONSTRUKTIONSELEMENTE
100
AcDbLine
 62
7
  6
CONTINUOUS
 10
264.6594585539
 20
258.4405055035
 11
259.6594585539
 21
258.4405055035
  0
LINE
  5
37B
100
AcDbEntity
  8
KONSTRUKTIONSELEMENTE
100
AcDbLine
 62
7
  6
CONTINUOUS
 10
264.6594585539
 20
259.2738404263
 11
259.6594585539
 21
259.2738404263
  0
LINE
  5
37C
100
AcDbEntity
  8
KONSTRUKTIONSELEMENTE
100
AcDbLine
 62
7
  6
CONTINUOUS
 10
264.6594585539
 20
259.8988404263
 11
259.6594585539
 21
259.8988404263
  0
LINE
  5
37D
100
AcDbEntity
  8
KONSTRUKTIONSELEMENTE
100
AcDbLine
 62
7
  6
CONTINUOUS
 10
261.4679691256
 20
265.7321705807
 11
261.9998841048
 21
265.7321705807
  0
LINE
  5
37E
100
AcDbEntity
  8
KONSTRUKTIONSELEMENTE
100
AcDbLine
 62
7
  6
CONTINUOUS
 10
261.9998841048
 20
267.1905055035
 11
261.4679691256
 21
267.1905055035
  0
LINE
  5
37F
100
AcDbEntity
  8
KONSTRUKTIONSELEMENTE
100
AcDbLine
 62
7
  6
CONTINUOUS
 10
261.2552031935
 20
268.0238404263
 11
260.9360542954
 21
268.0238404263
  0
LINE
  5
380
100
AcDbEntity
  8
KONSTRUKTIONSELEMENTE
100
AcDbLine
 62
7
  6
CONTINUOUS
 10
263.3828626634
 20
268.1280055035
 11
263.0637137653
 21
268.1280055035
  0
LINE
  5
381
100
AcDbEntity
  8
KONSTRUKTIONSELEMENTE
100
AcDbLine
 62
7
  6
CONTINUOUS
 10
261.2552031935
 20
268.5446729649
 11
260.9360542954
 21
268.5446729649
  0
LINE
  5
382
100
AcDbEntity
  8
KONSTRUKTIONSELEMENTE
100
AcDbLine
 62
7
  6
CONTINUOUS
 10
263.3828626634
 20
268.6488380421
 11
263.1700967313
 21
268.6488380421
  0
LINE
  5
383
100
AcDbEntity
  8
KONSTRUKTIONSELEMENTE
100
AcDbLine
 62
7
  6
CONTINUOUS
 10
260.9360542954
 20
280.7321729649
 11
259.6594585539
 21
281.1488380421
  0
LINE
  5
384
100
AcDbEntity
  8
KONSTRUKTIONSELEMENTE
100
AcDbLine
 62
7
  6
CONTINUOUS
 10
261.3615861596
 20
280.6280055035
 11
264.2339266897
 21
279.6905055035
  0
LINE
  5
385
100
AcDbEntity
  8
KONSTRUKTIONSELEMENTE
100
AcDbLine
 62
7
  6
CONTINUOUS
 10
264.6594585539
 20
280.1071729649
 11
259.6594585539
 21
281.7738380421
  0
LINE
  5
386
100
AcDbEntity
  8
KONSTRUKTIONSELEMENTE
100
AcDbLine
 62
7
  6
CONTINUOUS
 10
261.7871181728
 20
271.5655055035
 11
261.2552031935
 21
271.7738380421
  0
LINE
  5
387
100
AcDbEntity
  8
KONSTRUKTIONSELEMENTE
100
AcDbLine
 62
7
  6
CONTINUOUS
 10
263.9147777916
 20
271.4613380421
 11
263.3828626634
 21
271.6696729649
  0
LINE
  5
388
100
AcDbEntity
  8
KONSTRUKTIONSELEMENTE
100
AcDbLine
 62
7
  6
CONTINUOUS
 10
260.5105223567
 20
299.3780055035
 11
260.0849904553
 21
299.6905055035
  0
LINE
  5
389
100
AcDbEntity
  8
KONSTRUKTIONSELEMENTE
100
AcDbLine
 62
7
  6
CONTINUOUS
 10
260.6169053973
 20
300.0030055035
 11
260.4041393907
 21
300.2113386382
  0
LINE
  5
38A
100
AcDbEntity
  8
KONSTRUKTIONSELEMENTE
100
AcDbLine
 62
7
  6
CONTINUOUS
 10
262.8509478332
 20
300.0030055035
 11
262.6381819011
 21
300.2113386382
  0
LINE
  5
38B
100
AcDbEntity
  8
KONSTRUKTIONSELEMENTE
100
AcDbLine
 62
7
  6
CONTINUOUS
 10
263.3828626634
 20
271.1488380421
 11
263.1700967313
 21
271.1488380421
  0
LINE
  5
38C
100
AcDbEntity
  8
KONSTRUKTIONSELEMENTE
100
AcDbLine
 62
7
  6
CONTINUOUS
 10
261.2552031935
 20
271.2530055035
 11
260.9360542954
 21
271.2530055035
  0
LINE
  5
38D
100
AcDbEntity
  8
KONSTRUKTIONSELEMENTE
100
AcDbLine
 62
7
  6
CONTINUOUS
 10
263.3828626634
 20
271.6696729649
 11
263.0637137653
 21
271.6696729649
  0
LINE
  5
38E
100
AcDbEntity
  8
KONSTRUKTIONSELEMENTE
100
AcDbLine
 62
7
  6
CONTINUOUS
 10
261.2552031935
 20
271.7738380421
 11
260.9360542954
 21
271.7738380421
  0
LINE
  5
38F
100
AcDbEntity
  8
KONSTRUKTIONSELEMENTE
100
AcDbLine
 62
7
  6
CONTINUOUS
 10
264.6594585539
 20
283.2321729649
 11
260.8296713294
 21
283.8571729649
  0
LINE
  5
390
100
AcDbEntity
  8
KONSTRUKTIONSELEMENTE
100
AcDbLine
 62
7
  6
CONTINUOUS
 10
264.6594585539
 20
282.6071729649
 11
259.6594585539
 21
283.4405055035
  0
LINE
  5
391
100
AcDbEntity
  8
KONSTRUKTIONSELEMENTE
100
AcDbLine
 62
7
  6
CONTINUOUS
 10
259.6594585539
 20
285.9405055035
 11
263.7020118595
 21
285.1071729649
  0
LINE
  5
392
100
AcDbEntity
  8
KONSTRUKTIONSELEMENTE
100
AcDbLine
 62
7
  6
CONTINUOUS
 10
264.6594585539
 20
285.5238380421
 11
260.8296713294
 21
286.3571729649
  0
LINE
  5
393
100
AcDbEntity
  8
KONSTRUKTIONSELEMENTE
100
AcDbLine
 62
7
  6
CONTINUOUS
 10
264.6594585539
 20
294.3780055035
 11
260.1913734586
 21
295.9405055035
  0
LINE
  5
394
100
AcDbEntity
  8
KONSTRUKTIONSELEMENTE
100
AcDbLine
 62
7
  6
CONTINUOUS
 10
259.6594585539
 20
295.5238392342
 11
263.5956288935
 21
294.0655055035
  0
LINE
  5
395
100
AcDbEntity
  8
KONSTRUKTIONSELEMENTE
100
AcDbLine
 62
7
  6
CONTINUOUS
 10
262.7445648671
 20
299.3780055035
 11
262.319033003
 21
299.6905055035
  0
LINE
  5
396
100
AcDbEntity
  8
KONSTRUKTIONSELEMENTE
100
AcDbLine
 62
7
  6
CONTINUOUS
 10
260.8296713294
 20
283.8571729649
 11
264.6594585539
 21
284.6905055035
  0
LINE
  5
397
100
AcDbEntity
  8
KONSTRUKTIONSELEMENTE
100
AcDbLine
 62
7
  6
CONTINUOUS
 10
263.7020118595
 20
285.1071729649
 11
259.6594585539
 21
284.2738380421
  0
LINE
  5
398
100
AcDbEntity
  8
KONSTRUKTIONSELEMENTE
100
AcDbLine
 62
7
  6
CONTINUOUS
 10
264.6594585539
 20
287.6071729649
 11
259.6594585539
 21
286.7738380421
  0
LINE
  5
399
100
AcDbEntity
  8
KONSTRUKTIONSELEMENTE
100
AcDbLine
 62
7
  6
CONTINUOUS
 10
260.8296713294
 20
286.3571729649
 11
264.6594585539
 21
286.9821729649
  0
LINE
  5
39A
100
AcDbEntity
  8
KONSTRUKTIONSELEMENTE
100
AcDbLine
 62
7
  6
CONTINUOUS
 10
264.6594585539
 20
288.4405055035
 11
259.6594585539
 21
288.4405055035
  0
LINE
  5
39B
100
AcDbEntity
  8
KONSTRUKTIONSELEMENTE
100
AcDbLine
 62
7
  6
CONTINUOUS
 10
264.6594585539
 20
289.0655055035
 11
262.6381819011
 21
289.0655055035
  0
LINE
  5
39C
100
AcDbEntity
  8
KONSTRUKTIONSELEMENTE
100
AcDbLine
 62
7
  6
CONTINUOUS
 10
261.9998841048
 20
289.0655055035
 11
259.6594585539
 21
289.0655055035
  0
LINE
  5
39D
100
AcDbEntity
  8
KONSTRUKTIONSELEMENTE
100
AcDbLine
 62
7
  6
CONTINUOUS
 10
264.6594585539
 20
291.9821717728
 11
262.6381819011
 21
291.9821717728
  0
LINE
  5
39E
100
AcDbEntity
  8
KONSTRUKTIONSELEMENTE
100
AcDbLine
 62
7
  6
CONTINUOUS
 10
261.9998841048
 20
291.9821717728
 11
259.6594585539
 21
291.9821717728
  0
LINE
  5
39F
100
AcDbEntity
  8
KONSTRUKTIONSELEMENTE
100
AcDbLine
 62
7
  6
CONTINUOUS
 10
264.6594585539
 20
292.6071717728
 11
259.6594585539
 21
292.6071717728
  0
LINE
  5
3A0
100
AcDbEntity
  8
KONSTRUKTIONSELEMENTE
100
AcDbLine
 62
7
  6
CONTINUOUS
 10
264.6594585539
 20
293.4405055035
 11
259.6594585539
 21
293.4405055035
  0
LINE
  5
3A1
100
AcDbEntity
  8
KONSTRUKTIONSELEMENTE
100
AcDbLine
 62
7
  6
CONTINUOUS
 10
263.5956288935
 20
294.0655055035
 11
259.6594585539
 21
294.0655055035
  0
LINE
  5
3A2
100
AcDbEntity
  8
KONSTRUKTIONSELEMENTE
100
AcDbLine
 62
7
  6
CONTINUOUS
 10
259.6594585539
 20
297.8155055035
 11
263.5956288935
 21
297.8155055035
  0
LINE
  5
3A3
100
AcDbEntity
  8
KONSTRUKTIONSELEMENTE
100
AcDbLine
 62
7
  6
CONTINUOUS
 10
264.6594585539
 20
298.4405055035
 11
259.6594585539
 21
298.4405055035
  0
LINE
  5
3A4
100
AcDbEntity
  8
KONSTRUKTIONSELEMENTE
100
AcDbLine
 62
7
  6
CONTINUOUS
 10
263.4892459275
 20
299.2738386382
 11
263.0637137653
 21
299.2738386382
  0
LINE
  5
3A5
100
AcDbEntity
  8
KONSTRUKTIONSELEMENTE
100
AcDbLine
 62
7
  6
CONTINUOUS
 10
261.3615861596
 20
299.2738386382
 11
260.8296713294
 21
299.2738386382
  0
LINE
  5
3A6
100
AcDbEntity
  8
KONSTRUKTIONSELEMENTE
100
AcDbLine
 62
7
  6
CONTINUOUS
 10
263.3828626634
 20
299.8988386382
 11
263.1700967313
 21
299.8988386382
  0
LINE
  5
3A7
100
AcDbEntity
  8
KONSTRUKTIONSELEMENTE
100
AcDbLine
 62
7
  6
CONTINUOUS
 10
261.2552031935
 20
299.8988386382
 11
260.9360542954
 21
299.8988386382
  0
LINE
  5
3A8
100
AcDbEntity
  8
KONSTRUKTIONSELEMENTE
100
AcDbLine
 62
7
  6
CONTINUOUS
 10
260.8296713294
 20
299.2738386382
 11
260.5105223567
 21
299.3780055035
  0
LINE
  5
3A9
100
AcDbEntity
  8
KONSTRUKTIONSELEMENTE
100
AcDbLine
 62
7
  6
CONTINUOUS
 10
260.9360542954
 20
299.8988386382
 11
260.6169053973
 21
300.0030055035
  0
LINE
  5
3AA
100
AcDbEntity
  8
KONSTRUKTIONSELEMENTE
100
AcDbLine
 62
7
  6
CONTINUOUS
 10
263.0637137653
 20
299.2738386382
 11
262.7445648671
 21
299.3780055035
  0
LINE
  5
3AB
100
AcDbEntity
  8
KONSTRUKTIONSELEMENTE
100
AcDbLine
 62
7
  6
CONTINUOUS
 10
263.1700967313
 20
299.8988386382
 11
262.8509478332
 21
300.0030055035
  0
LINE
  5
3AC
100
AcDbEntity
  8
KONSTRUKTIONSELEMENTE
100
AcDbLine
 62
7
  6
CONTINUOUS
 10
264.6594585539
 20
303.9613389362
 11
259.6594585539
 21
305.6280055035
  0
LINE
  5
3AD
100
AcDbEntity
  8
KONSTRUKTIONSELEMENTE
100
AcDbLine
 62
7
  6
CONTINUOUS
 10
264.6594585539
 20
304.5863389362
 11
260.2977564247
 21
306.0446722199
  0
LINE
  5
3AE
100
AcDbEntity
  8
KONSTRUKTIONSELEMENTE
100
AcDbLine
 62
7
  6
CONTINUOUS
 10
264.0211607577
 20
302.5030055035
 11
262.5317989351
 21
302.5030055035
  0
LINE
  5
3AF
100
AcDbEntity
  8
KONSTRUKTIONSELEMENTE
100
AcDbLine
 62
7
  6
CONTINUOUS
 10
261.8935011388
 20
302.5030055035
 11
260.2977564247
 21
302.5030055035
  0
LINE
  5
3B0
100
AcDbEntity
  8
KONSTRUKTIONSELEMENTE
100
AcDbLine
 62
7
  6
CONTINUOUS
 10
264.6594585539
 20
303.1280055035
 11
259.6594585539
 21
303.1280055035
  0
LINE
  5
3B1
100
AcDbEntity
  8
0
100
AcDbLine
 62
7
  6
CONTINUOUS
 10
352.4928071397
 20
127.5081457453
 11
343.719235806
 21
95.0656350212
  0
LINE
  5
3B2
100
AcDbEntity
  8
KONSTRUKTIONSELEMENTE
100
AcDbLine
 62
9
  6
CONTINUOUS
 10
323.0071458055
 20
65.4749292597
 11
334.2976891479
 21
98.2650480495
  0
LINE
  5
3B3
100
AcDbEntity
  8
RUNDUNGEN
100
AcDbLine
 62
9
  6
CONTINUOUS
 10
254.0344585539
 20
448.2761272509
 11
249.034458554
 21
454.5211252494
  0
LINE
  5
3B4
100
AcDbEntity
  8
0
100
AcDbLine
 62
7
  6
CONTINUOUS
 10
343.719235806
 20
95.0656350212
 11
332.4149368482
 21
62.2355670236
  0
LINE
  5
3B5
100
AcDbEntity
  8
0
100
AcDbLine
 62
7
  6
CONTINUOUS
 10
326.1714634565
 20
104.0066716152
 11
306.9877997297
 21
76.6095605016
  0
LINE
  5
3B6
100
AcDbEntity
  8
KONSTRUKTIONSELEMENTE
100
AcDbLine
 62
9
  6
CONTINUOUS
 10
334.2976891479
 20
98.2650480495
 11
315.1382596611
 21
70.9025470177
  0
LINE
  5
3B7
100
AcDbEntity
  8
0
100
AcDbLine
 62
7
  6
CONTINUOUS
 10
347.2610301326
 20
130.1738692765
 11
326.1714634565
 21
104.0066716152
  0
LINE
  5
3B8
100
AcDbEntity
  8
BEZUGSACHSEN
100
AcDbLine
 62
7
  6
CONTINUOUS
 10
326.1714634565
 20
104.0066716152
 11
347.2610301326
 21
130.1738692765
  0
LINE
  5
3B9
100
AcDbEntity
  8
0
100
AcDbLine
 62
7
  6
CONTINUOUS
 10
286.1594585539
 20
390.1280055035
 11
238.1594585539
 21
390.1280055035
  0
LINE
  5
3BA
100
AcDbEntity
  8
BEZUGSACHSEN
100
AcDbLine
 62
7
  6
CONTINUOUS
 10
284.7053198923
 20
472.127994848
 11
286.1594585539
 21
470.3950198739
  0
LINE
  5
3BB
100
AcDbEntity
  8
RUNDUNGEN
100
AcDbLine
 62
9
  6
CONTINUOUS
 10
280.1594585539
 20
435.1280055035
 11
272.1594585539
 21
435.1280055053
  0
LINE
  5
3BC
100
AcDbEntity
  8
RUNDUNGEN
100
AcDbLine
 62
9
  6
CONTINUOUS
 10
252.1594585539
 20
435.1280055035
 11
244.1594585539
 21
435.128005505
  0
LINE
  5
3BD
100
AcDbEntity
  8
0
100
AcDbLine
 62
9
  6
CONTINUOUS
 10
242.6658698643
 20
435.1280055035
 11
244.1594585539
 21
435.1280055035
  0
LINE
  5
3BE
100
AcDbEntity
  8
0
100
AcDbLine
 62
9
  6
CONTINUOUS
 10
280.1594585539
 20
435.1284797148
 11
281.6530472435
 21
435.1280055035
  0
LINE
  5
3BF
100
AcDbEntity
  8
RUNDUNGEN
100
AcDbLine
 62
9
  6
CONTINUOUS
 10
280.1594585539
 20
444.3730035019
 11
272.1594585539
 21
444.3730035019
  0
LINE
  5
3C0
100
AcDbEntity
  8
RUNDUNGEN
100
AcDbLine
 62
9
  6
CONTINUOUS
 10
252.1594585539
 20
444.3730035019
 11
244.1594585539
 21
444.3730035019
  0
LINE
  5
3C1
100
AcDbEntity
  8
BEZUGSACHSEN
100
AcDbLine
 62
7
  6
CONTINUOUS
 10
267.6594585539
 20
451.1280055035
 11
256.6594585539
 21
451.1280055035
  0
LINE
  5
3C2
100
AcDbEntity
  8
0
100
AcDbLine
 62
7
  6
CONTINUOUS
 10
242.6658698643
 20
462.6280055035
 11
256.6594585539
 21
462.6280055035
  0
LINE
  5
3C3
100
AcDbEntity
  8
0
100
AcDbLine
 62
7
  6
CONTINUOUS
 10
267.6594585539
 20
462.6280055035
 11
281.6530472435
 21
462.6280055035
  0
LINE
  5
3C4
100
AcDbEntity
  8
BEZUGSACHSEN
100
AcDbLine
 62
7
  6
CONTINUOUS
 10
267.6594585539
 20
463.1280055035
 11
256.6594585539
 21
463.1280055035
  0
LINE
  5
3C5
100
AcDbEntity
  8
0
100
AcDbLine
 62
9
  6
CONTINUOUS
 10
242.3265173194
 20
463.6353519682
 11
256.6594585539
 21
463.6353519682
  0
LINE
  5
3C6
100
AcDbEntity
  8
0
100
AcDbLine
 62
9
  6
CONTINUOUS
 10
267.6594585539
 20
463.6353519682
 11
281.9923997884
 21
463.6353519682
  0
LINE
  5
3C7
100
AcDbEntity
  8
0
100
AcDbLine
 62
7
  6
CONTINUOUS
 10
286.1594585539
 20
470.3950198739
 11
285.1162368624
 21
470.3950198739
  0
LINE
  5
3C8
100
AcDbEntity
  8
0
100
AcDbLine
 62
7
  6
CONTINUOUS
 10
239.2026802454
 20
470.3950198739
 11
238.1594585539
 21
470.3950198739
  0
LINE
  5
3C9
100
AcDbEntity
  8
KONSTRUKTIONSELEMENTE
100
AcDbLine
 62
7
  6
CONTINUOUS
 10
284.7053128391
 20
472.1280055035
 11
267.6594585539
 21
472.1280055035
  0
LINE
  5
3CA
100
AcDbEntity
  8
KONSTRUKTIONSELEMENTE
100
AcDbLine
 62
7
  6
CONTINUOUS
 10
256.6594585539
 20
472.1280055035
 11
239.613604299
 21
472.1280055035
  0
ARC
  5
3CB
100
AcDbEntity
  8
0
100
AcDbCircle
 62
7
  6
CONTINUOUS
 10
-286.5833207677
 20
98.2682274481
 40
408.7446711393
100
AcDbArc
 50
359.9995543279
 51
0.6993688388
  0
ARC
  5
3CC
100
AcDbEntity
  8
DEFAULT_2
100
AcDbCircle
 62
8
  6
HIDDEN
 10
112.1613503592
 20
60.2419579265
 40
10.0
100
AcDbArc
 50
0.0
 51
84.2608295227
  0
ARC
  5
3CD
100
AcDbEntity
  8
0
100
AcDbCircle
 62
7
  6
CONTINUOUS
 10
112.1613503592
 20
45.2419738934
 40
10.0
100
AcDbArc
 50
275.7391704773
 51
360.0
  0
ARC
  5
3CE
100
AcDbEntity
  8
0
100
AcDbCircle
 62
7
  6
CONTINUOUS
 10
110.0374651362
 20
102.6603378036
 40
5.8760730052
100
AcDbArc
 50
166.6632716128
 51
174.1685665413
  0
ARC
  5
3CF
100
AcDbEntity
  8
KONSTRUKTIONSELEMENTE
100
AcDbCircle
 62
7
  6
CONTINUOUS
 10
102.1779607221
 20
123.3076745258
 40
3.1203328394
100
AcDbArc
 50
87.4890241505
 51
89.9382378409
  0
ARC
  5
3D0
100
AcDbEntity
  8
0
100
AcDbCircle
 62
7
  6
CONTINUOUS
 10
113.161334996
 20
128.2912996903
 40
3.0000161141
100
AcDbArc
 50
13.3427019851
 51
89.9997065873
  0
ARC
  5
3D1
100
AcDbEntity
  8
KONSTRUKTIONSELEMENTE
100
AcDbCircle
 62
9
  6
CONTINUOUS
 10
106.2180271782
 20
123.961312657
 40
2.0571521329
100
AcDbArc
 50
169.0663375249
 51
171.7656377771
  0
ARC
  5
3D2
100
AcDbEntity
  8
KONSTRUKTIONSELEMENTE
100
AcDbCircle
 62
9
  6
CONTINUOUS
 10
106.1688097622
 20
123.968173197
 40
2.0074595562
100
AcDbArc
 50
171.758238965
 51
179.9776155845
  0
ARC
  5
3D3
100
AcDbEntity
  8
KONSTRUKTIONSELEMENTE
100
AcDbCircle
 62
7
  6
CONTINUOUS
 10
102.161350451
 20
124.4280055035
 40
1.9999999847
100
AcDbArc
 50
0.0
 51
90.0000026297
  0
ARC
  5
3D4
100
AcDbEntity
  8
KONSTRUKTIONSELEMENTE
100
AcDbCircle
 62
7
  6
CONTINUOUS
 10
100.9113503592
 20
127.4280055035
 40
1.0
100
AcDbArc
 50
180.0
 51
270.0007991303
  0
ARC
  5
3D5
100
AcDbEntity
  8
KONSTRUKTIONSELEMENTE
100
AcDbCircle
 62
7
  6
CONTINUOUS
 10
112.6160185588
 20
270.9926089055
 40
12.7046678335
100
AcDbArc
 50
177.885635574
 51
179.2954167794
  0
ARC
  5
3D6
100
AcDbEntity
  8
KONSTRUKTIONSELEMENTE
100
AcDbCircle
 62
7
  6
CONTINUOUS
 10
112.6160185588
 20
268.8050671788
 40
12.7046678335
100
AcDbArc
 50
180.7045832206
 51
182.114364426
  0
ARC
  5
3D7
100
AcDbEntity
  8
0
100
AcDbCircle
 62
7
  6
CONTINUOUS
 10
89.1613503592
 20
435.1280055035
 40
10.0
100
AcDbArc
 50
270.000000017
 51
360.0
  0
ARC
  5
3D8
100
AcDbEntity
  8
KONSTRUKTIONSELEMENTE
100
AcDbCircle
 62
7
  6
CONTINUOUS
 10
512.9060214861
 20
98.2682274481
 40
408.7446711393
100
AcDbArc
 50
179.3006311612
 51
180.0004456721
  0
ARC
  5
3D9
100
AcDbEntity
  8
KONSTRUKTIONSELEMENTE
100
AcDbCircle
 62
8
  6
HIDDEN
 10
114.1613503592
 20
60.2419579265
 40
10.0
100
AcDbArc
 50
95.7391704773
 51
180.0
  0
ARC
  5
3DA
100
AcDbEntity
  8
KONSTRUKTIONSELEMENTE
100
AcDbCircle
 62
7
  6
CONTINUOUS
 10
114.1613503592
 20
45.2419738934
 40
10.0
100
AcDbArc
 50
180.0
 51
264.2608295227
  0
ARC
  5
3DB
100
AcDbEntity
  8
0
100
AcDbCircle
 62
7
  6
CONTINUOUS
 10
116.2852355822
 20
102.6603378036
 40
5.8760730052
100
AcDbArc
 50
5.8314334587
 51
13.3367283871
  0
ARC
  5
3DC
100
AcDbEntity
  8
0
100
AcDbCircle
 62
7
  6
CONTINUOUS
 10
124.1447399962
 20
123.3076745258
 40
3.1203328394
100
AcDbArc
 50
90.0617621591
 51
92.5109758495
  0
ARC
  5
3DD
100
AcDbEntity
  8
BEZUGSACHSEN
100
AcDbCircle
 62
7
  6
CONTINUOUS
 10
113.1613662135
 20
128.2912957494
 40
3.000020055
100
AcDbArc
 50
90.0003027926
 51
166.6555103701
  0
ARC
  5
3DE
100
AcDbEntity
  8
0
100
AcDbCircle
 62
9
  6
CONTINUOUS
 10
120.1388759452
 20
123.9670882806
 40
2.0224752778
100
AcDbArc
 50
0.0529534059
 51
10.9567926513
  0
ARC
  5
3DF
100
AcDbEntity
  8
0
100
AcDbCircle
 62
7
  6
CONTINUOUS
 10
124.1613502674
 20
124.4280055035
 40
1.9999999847
100
AcDbArc
 50
89.9999973703
 51
180.0
  0
ARC
  5
3E0
100
AcDbEntity
  8
0
100
AcDbCircle
 62
7
  6
CONTINUOUS
 10
125.4113503592
 20
127.4280055035
 40
1.0
100
AcDbArc
 50
269.9992008697
 51
360.0
  0
ARC
  5
3E1
100
AcDbEntity
  8
KONSTRUKTIONSELEMENTE
100
AcDbCircle
 62
7
  6
CONTINUOUS
 10
303.0040419783
 20
270.7314845072
 40
203.0926900175
100
AcDbArc
 50
180.2936785397
 51
180.4112295106
  0
ARC
  5
3E2
100
AcDbEntity
  8
KONSTRUKTIONSELEMENTE
100
AcDbCircle
 62
7
  6
CONTINUOUS
 10
303.0017179246
 20
269.0661999173
 40
203.0903659637
100
AcDbArc
 50
179.5887681364
 51
179.7063197799
  0
ARC
  5
3E3
100
AcDbEntity
  8
KONSTRUKTIONSELEMENTE
100
AcDbCircle
 62
7
  6
CONTINUOUS
 10
214.1556684555
 20
301.304592888
 40
114.2443165311
100
AcDbArc
 50
180.3915667136
 51
180.5482969517
  0
ARC
  5
3E4
100
AcDbEntity
  8
KONSTRUKTIONSELEMENTE
100
AcDbCircle
 62
7
  6
CONTINUOUS
 10
214.0872772876
 20
301.6164142942
 40
114.1759219395
100
AcDbArc
 50
180.5482848594
 51
180.70511309
  0
ARC
  5
3E5
100
AcDbEntity
  8
KONSTRUKTIONSELEMENTE
100
AcDbCircle
 62
7
  6
CONTINUOUS
 10
214.087277282
 20
256.9289160823
 40
114.175921934
100
AcDbArc
 50
180.5482848594
 51
180.70511309
  0
ARC
  5
3E6
100
AcDbEntity
  8
KONSTRUKTIONSELEMENTE
100
AcDbCircle
 62
7
  6
CONTINUOUS
 10
150.6807412249
 20
270.0034634293
 40
50.7693882999
100
AcDbArc
 50
178.9424413696
 51
179.4127210873
  0
ARC
  5
3E7
100
AcDbEntity
  8
KONSTRUKTIONSELEMENTE
100
AcDbCircle
 62
7
  6
CONTINUOUS
 10
150.6801604052
 20
269.7942096788
 40
50.7688074801
100
AcDbArc
 50
180.5872822727
 51
181.0575646802
  0
ARC
  5
3E8
100
AcDbEntity
  8
0
100
AcDbCircle
 62
7
  6
CONTINUOUS
 10
113.1613503592
 20
457.1280055035
 40
15.0
100
AcDbArc
 50
25.7104293723
 51
154.2895706277
  0
ARC
  5
3E9
100
AcDbEntity
  8
0
100
AcDbCircle
 62
7
  6
CONTINUOUS
 10
137.1613503592
 20
435.1280055035
 40
10.0
100
AcDbArc
 50
180.0
 51
269.9999998055
  0
CIRCLE
  5
3EA
100
AcDbEntity
  8
0
100
AcDbCircle
 62
7
  6
CONTINUOUS
 10
113.1613503592
 20
457.1280055035
 40
6.0
  0
ARC
  5
3EB
100
AcDbEntity
  8
0
100
AcDbCircle
 62
7
  6
CONTINUOUS
 10
294.6594585539
 20
85.2419579265
 40
49.9498743711
100
AcDbArc
 50
180.000000734
 51
269.8976122935
  0
ARC
  5
3EC
100
AcDbEntity
  8
KONSTRUKTIONSELEMENTE
100
AcDbCircle
 62
9
  6
CONTINUOUS
 10
294.6594585539
 20
85.2419579265
 40
40.0
100
AcDbArc
 50
180.0000014679
 51
269.8976122935
  0
ARC
  5
3ED
100
AcDbEntity
  8
0
100
AcDbCircle
 62
7
  6
CONTINUOUS
 10
294.6415885375
 20
75.2419738934
 40
39.9498743711
100
AcDbArc
 50
269.8976122935
 51
341.0
  0
ARC
  5
3EE
100
AcDbEntity
  8
0
100
AcDbCircle
 62
7
  6
CONTINUOUS
 10
244.6594585539
 20
112.8213374029
 40
34.9498743711
100
AcDbArc
 50
0.0
 51
26.4812423338
  0
ARC
  5
3EF
100
AcDbEntity
  8
0
100
AcDbCircle
 62
7
  6
CONTINUOUS
 10
279.6594585539
 20
112.8213374029
 40
34.9498743711
100
AcDbArc
 50
153.5187576662
 51
180.0
  0
ARC
  5
3F0
100
AcDbEntity
  8
KONSTRUKTIONSELEMENTE
100
AcDbCircle
 62
9
  6
CONTINUOUS
 10
294.6415885375
 20
75.2419738934
 40
30.0
100
AcDbArc
 50
269.8976122935
 51
341.0
  0
ARC
  5
3F1
100
AcDbEntity
  8
KONSTRUKTIONSELEMENTE
100
AcDbCircle
 62
9
  6
CONTINUOUS
 10
294.6594585539
 20
85.2419579265
 40
25.0
100
AcDbArc
 50
180.0
 51
325.0
  0
ARC
  5
3F2
100
AcDbEntity
  8
KONSTRUKTIONSELEMENTE
100
AcDbCircle
 62
9
  6
CONTINUOUS
 10
279.6594585539
 20
112.8213374029
 40
25.0
100
AcDbArc
 50
153.5187576662
 51
180.0
  0
ARC
  5
3F3
100
AcDbEntity
  8
KONSTRUKTIONSELEMENTE
100
AcDbCircle
 62
9
  6
CONTINUOUS
 10
244.6594585539
 20
112.8213374029
 40
25.0
100
AcDbArc
 50
0.0
 51
26.4812423338
  0
ARC
  5
3F4
100
AcDbEntity
  8
0
100
AcDbCircle
 62
7
  6
CONTINUOUS
 10
294.6594585539
 20
85.2419579265
 40
15.0501256289
100
AcDbArc
 50
180.0
 51
325.0
  0
ARC
  5
3F5
100
AcDbEntity
  8
RUNDUNGEN
100
AcDbCircle
 62
9
  6
CONTINUOUS
 10
257.1594585539
 20
444.3730035019
 40
13.0
100
AcDbArc
 50
128.6821874535
 51
180.0
  0
ARC
  5
3F6
100
AcDbEntity
  8
RUNDUNGEN
100
AcDbCircle
 62
7
  6
CONTINUOUS
 10
257.1594585539
 20
444.3730035019
 40
5.0
100
AcDbArc
 50
128.6821874532
 51
180.0000000003
  0
ARC
  5
3F7
100
AcDbEntity
  8
RUNDUNGEN
100
AcDbCircle
 62
9
  6
CONTINUOUS
 10
262.1594585539
 20
438.1280055035
 40
21.0
100
AcDbArc
 50
51.3178125465
 51
74.8168859564
  0
ARC
  5
3F8
100
AcDbEntity
  8
RUNDUNGEN
100
AcDbCircle
 62
9
  6
CONTINUOUS
 10
262.1594585539
 20
438.1280055035
 40
21.0
100
AcDbArc
 50
105.1831140436
 51
128.6821874535
  0
ARC
  5
3F9
100
AcDbEntity
  8
RUNDUNGEN
100
AcDbCircle
 62
7
  6
CONTINUOUS
 10
262.1594585539
 20
438.1280055035
 40
13.0
100
AcDbArc
 50
115.0289994876
 51
128.6821874535
  0
ARC
  5
3FA
100
AcDbEntity
  8
RUNDUNGEN
100
AcDbCircle
 62
7
  6
CONTINUOUS
 10
262.1594585539
 20
438.1280055035
 40
13.0
100
AcDbArc
 50
51.3178125465
 51
64.9710005124
  0
ARC
  5
3FB
100
AcDbEntity
  8
RUNDUNGEN
100
AcDbCircle
 62
7
  6
CONTINUOUS
 10
262.1594585539
 20
435.1280055035
 40
10.0
100
AcDbArc
 50
179.9974240973
 51
360.0
  0
ARC
  5
3FC
100
AcDbEntity
  8
RUNDUNGEN
100
AcDbCircle
 62
9
  6
CONTINUOUS
 10
267.1594585539
 20
444.3730035019
 40
13.0
100
AcDbArc
 50
0.0
 51
51.3178125465
  0
ARC
  5
3FD
100
AcDbEntity
  8
RUNDUNGEN
100
AcDbCircle
 62
7
  6
CONTINUOUS
 10
267.1594585539
 20
444.3730035019
 40
5.0
100
AcDbArc
 50
0.0
 51
51.3178125468
  0
ARC
  5
3FE
100
AcDbEntity
  8
0
100
AcDbCircle
 62
7
  6
CONTINUOUS
 10
279.8594585539
 20
457.1280055035
 40
2.5
100
AcDbArc
 50
8.2320067169
 51
351.7679932831
  0
ARC
  5
3FF
100
AcDbEntity
  8
0
100
AcDbCircle
 62
7
  6
CONTINUOUS
 10
349.5968367223
 20
128.2913158043
 40
3.0
100
AcDbArc
 50
344.8672285952
 51
141.1327714048
  0
SPLINE
  5
400
100
AcDbEntity
  8
0
100
AcDbSpline
 62
7
  6
CONTINUOUS
 70
0
 71
3
 72
11
 73
7
 74
0
 42
0.0000001
 43
0.0000001
 44
0.0000000001
 40
0.0
 40
0.0
 40
0.0
 40
0.0
 40
0.2632960095
 40
0.5173621425
 40
0.7626040581
 40
1.0
 40
1.0
 40
1.0
 40
1.0
 10
100.1613503592
 20
457.4859600605
 30
0.0
 10
100.1278827884
 20
457.6350280665
 30
0.0
 10
100.021666288
 20
457.9198414685
 30
0.0
 10
99.7787595275
 20
458.2926332611
 30
0.0
 10
99.4880869379
 20
458.6081736033
 30
0.0
 10
99.2720987689
 20
458.7876540189
 30
0.0
 10
99.1613503592
 20
458.8695679091
 30
0.0
  0
SPLINE
  5
401
100
AcDbEntity
  8
0
100
AcDbSpline
 62
7
  6
CONTINUOUS
 70
0
 71
3
 72
11
 73
7
 74
0
 42
0.0000001
 43
0.0000001
 44
0.0000000001
 40
0.0
 40
0.0
 40
0.0
 40
0.0
 40
0.2373881817
 40
0.4826070605
 40
0.7366899608
 40
1.0
 40
1.0
 40
1.0
 40
1.0
 10
99.1613503592
 20
455.386443098
 30
0.0
 10
99.2720950891
 20
455.4683542664
 30
0.0
 10
99.4880694947
 20
455.6478233026
 30
0.0
 10
99.7787354706
 20
455.9633571758
 30
0.0
 10
100.0216574091
 20
456.3361443978
 30
0.0
 10
100.1278810231
 20
456.6209750777
 30
0.0
 10
100.1613503592
 20
456.7700509466
 30
0.0
  0
SPLINE
  5
402
100
AcDbEntity
  8
0
100
AcDbSpline
 62
7
  6
CONTINUOUS
 70
0
 71
3
 72
11
 73
7
 74
0
 42
0.0000001
 43
0.0000001
 44
0.0000000001
 40
0.0
 40
0.0
 40
0.0
 40
0.0
 40
0.2373883192
 40
0.4826075446
 40
0.7366910017
 40
1.0
 40
1.0
 40
1.0
 40
1.0
 10
127.1613503592
 20
458.8695679091
 30
0.0
 10
127.0506055626
 20
458.7876566913
 30
0.0
 10
126.8346309831
 20
458.6081874196
 30
0.0
 10
126.5439644931
 20
458.2926531831
 30
0.0
 10
126.3010428145
 20
457.9198658227
 30
0.0
 10
126.1948195637
 20
457.6350353435
 30
0.0
 10
126.1613503592
 20
457.4859600605
 30
0.0
  0
SPLINE
  5
403
100
AcDbEntity
  8
0
100
AcDbSpline
 62
7
  6
CONTINUOUS
 70
0
 71
3
 72
11
 73
7
 74
0
 42
0.0000001
 43
0.0000001
 44
0.0000000001
 40
0.0
 40
0.0
 40
0.0
 40
0.0
 40
0.2632922518
 40
0.5173586513
 40
0.7626029683
 40
1.0
 40
1.0
 40
1.0
 40
1.0
 10
126.1613503592
 20
456.7700509466
 30
0.0
 10
126.1948174556
 20
456.6209850532
 30
0.0
 10
126.3010326258
 20
456.3361734822
 30
0.0
 10
126.543937363
 20
455.9633809734
 30
0.0
 10
126.834611762
 20
455.6478391636
 30
0.0
 10
127.05060143
 20
455.4683573723
 30
0.0
 10
127.1613503592
 20
455.386443098
 30
0.0
  0
SPLINE
  5
404
100
AcDbEntity
  8
KONSTRUKTIONSELEMENTE
100
AcDbSpline
 62
9
  6
CONTINUOUS
 70
0
 71
3
 72
9
 73
5
 74
0
 42
0.0000001
 43
0.0000001
 44
0.0000000001
 40
0.0
 40
0.0
 40
0.0
 40
0.0
 40
0.258683604
 40
1.0
 40
1.0
 40
1.0
 40
1.0
 10
109.9116844596
 20
128.4280055035
 30
0.0
 10
109.9230888555
 20
128.400215034
 30
0.0
 10
109.9663498778
 20
128.2924501055
 30
0.0
 10
110.0063037956
 20
128.1833403749
 30
0.0
 10
110.0335557036
 20
128.1016828658
 30
0.0
  0
SPLINE
  5
405
100
AcDbEntity
  8
0
100
AcDbSpline
 62
9
  6
CONTINUOUS
 70
0
 71
3
 72
9
 73
5
 74
0
 42
0.0000001
 43
0.0000001
 44
0.0000000001
 40
0.0
 40
0.0
 40
0.0
 40
0.0
 40
0.258683604
 40
1.0
 40
1.0
 40
1.0
 40
1.0
 10
116.4110162588
 20
128.4280055035
 30
0.0
 10
116.3996118628
 20
128.400215034
 30
0.0
 10
116.3563508406
 20
128.2924501055
 30
0.0
 10
116.3163969227
 20
128.1833403749
 30
0.0
 10
116.2891450147
 20
128.1016828658
 30
0.0
  0
SPLINE
  5
406
100
AcDbEntity
  8
0
100
AcDbSpline
 62
9
  6
CONTINUOUS
 70
0
 71
3
 72
11
 73
7
 74
0
 42
0.0000001
 43
0.0000001
 44
0.0000000001
 40
0.0
 40
0.0
 40
0.0
 40
0.0
 40
0.2503475411
 40
0.5004783101
 40
0.7503298945
 40
1.0
 40
1.0
 40
1.0
 40
1.0
 10
122.1244722353
 20
124.3514970813
 30
0.0
 10
122.1146535556
 20
124.6087388519
 30
0.0
 10
122.196241814
 20
125.1323580758
 30
0.0
 10
122.6053957315
 20
125.808753591
 30
0.0
 10
123.2388853165
 20
126.2805879029
 30
0.0
 10
123.7516824563
 20
126.4109247654
 30
0.0
 10
124.0080283543
 20
126.4250085019
 30
0.0
  0
SPLINE
  5
407
100
AcDbEntity
  8
0
100
AcDbSpline
 62
9
  6
CONTINUOUS
 70
0
 71
3
 72
9
 73
5
 74
0
 42
0.0000001
 43
0.0000001
 44
0.0000000001
 40
0.0
 40
0.0
 40
0.0
 40
0.0
 40
0.2235430549
 40
1.0
 40
1.0
 40
1.0
 40
1.0
 10
122.1613503592
 20
124.4280055035
 30
0.0
 10
122.1613503401
 20
124.4215783438
 30
0.0
 10
122.1577878697
 20
124.392723822
 30
0.0
 10
122.1399893986
 20
124.3675574933
 30
0.0
 10
122.1244831073
 20
124.3514974987
 30
0.0
  0
SPLINE
  5
408
100
AcDbEntity
  8
KONSTRUKTIONSELEMENTE
100
AcDbSpline
 62
9
  6
CONTINUOUS
 70
0
 71
3
 72
11
 73
7
 74
0
 42
0.0000001
 43
0.0000001
 44
0.0000000001
 40
0.0
 40
0.0
 40
0.0
 40
0.0
 40
0.2503475411
 40
0.5004783101
 40
0.7503298945
 40
1.0
 40
1.0
 40
1.0
 40
1.0
 10
104.198228483
 20
124.3514970813
 30
0.0
 10
104.2080471628
 20
124.6087388519
 30
0.0
 10
104.1264589043
 20
125.1323580758
 30
0.0
 10
103.7173049869
 20
125.808753591
 30
0.0
 10
103.0838154018
 20
126.2805879029
 30
0.0
 10
102.571018262
 20
126.4109247654
 30
0.0
 10
102.3146723641
 20
126.4250085019
 30
0.0
  0
SPLINE
  5
409
100
AcDbEntity
  8
KONSTRUKTIONSELEMENTE
100
AcDbSpline
 62
9
  6
CONTINUOUS
 70
0
 71
3
 72
9
 73
5
 74
0
 42
0.0000001
 43
0.0000001
 44
0.0000000001
 40
0.0
 40
0.0
 40
0.0
 40
0.0
 40
0.2235430549
 40
1.0
 40
1.0
 40
1.0
 40
1.0
 10
104.1613503592
 20
124.4280055035
 30
0.0
 10
104.1613503783
 20
124.4215783438
 30
0.0
 10
104.1649128486
 20
124.392723822
 30
0.0
 10
104.1827113197
 20
124.3675574933
 30
0.0
 10
104.1982176111
 20
124.3514974987
 30
0.0
  0
SPLINE
  5
40A
100
AcDbEntity
  8
0
100
AcDbSpline
 62
7
  6
CONTINUOUS
 70
0
 71
3
 72
10
 73
6
 74
0
 42
0.0000001
 43
0.0000001
 44
0.0000000001
 40
0.0
 40
0.0
 40
0.0
 40
0.0
 40
0.2965718164
 40
0.619839761
 40
1.0
 40
1.0
 40
1.0
 40
1.0
 10
286.1594585539
 20
463.1280055035
 30
0.0
 10
286.0139150973
 20
462.546651871
 30
0.0
 10
285.7493788163
 20
461.3213870502
 30
0.0
 10
285.4683061121
 20
459.3185442741
 30
0.0
 10
285.3973586312
 20
457.8961498564
 30
0.0
 10
285.3973586312
 20
457.1280055035
 30
0.0
  0
SPLINE
  5
40B
100
AcDbEntity
  8
0
100
AcDbSpline
 62
7
  6
CONTINUOUS
 70
0
 71
3
 72
10
 73
6
 74
0
 42
0.0000001
 43
0.0000001
 44
0.0000000001
 40
0.0
 40
0.0
 40
0.0
 40
0.0
 40
0.2965716869
 40
0.6198396788
 40
1.0
 40
1.0
 40
1.0
 40
1.0
 10
238.1594585539
 20
451.1280055035
 30
0.0
 10
238.3050019472
 20
451.7093588819
 30
0.0
 10
238.5695382122
 20
452.9346235353
 30
0.0
 10
238.8506109706
 20
454.9374663044
 30
0.0
 10
238.9215584767
 20
456.3598609845
 30
0.0
 10
238.9215584767
 20
457.1280055035
 30
0.0
  0
SPLINE
  5
40C
100
AcDbEntity
  8
0
100
AcDbSpline
 62
7
  6
CONTINUOUS
 70
0
 71
3
 72
10
 73
6
 74
0
 42
0.0000001
 43
0.0000001
 44
0.0000000001
 40
0.0
 40
0.0
 40
0.0
 40
0.0
 40
0.3801603162
 40
0.7034282847
 40
1.0
 40
1.0
 40
1.0
 40
1.0
 10
285.3973586312
 20
457.1280055035
 30
0.0
 10
285.3973586312
 20
456.3598609946
 30
0.0
 10
285.4683061247
 20
454.9374663713
 30
0.0
 10
285.7493788811
 20
452.9346236017
 30
0.0
 10
286.0139151476
 20
451.7093589377
 30
0.0
 10
286.1594585539
 20
451.1280055035
 30
0.0
  0
SPLINE
  5
40D
100
AcDbEntity
  8
0
100
AcDbSpline
 62
7
  6
CONTINUOUS
 70
0
 71
3
 72
10
 73
6
 74
0
 42
0.0000001
 43
0.0000001
 44
0.0000000001
 40
0.0
 40
0.0
 40
0.0
 40
0.0
 40
0.3801602425
 40
0.7034282099
 40
1.0
 40
1.0
 40
1.0
 40
1.0
 10
238.9215584767
 20
457.1280055035
 30
0.0
 10
238.9215584767
 20
457.8961498632
 30
0.0
 10
238.850610984
 20
459.3185443334
 30
0.0
 10
238.5695382786
 20
461.3213871092
 30
0.0
 10
238.3050019986
 20
462.5466519226
 30
0.0
 10
238.1594585539
 20
463.1280055035
 30
0.0
  0
SPLINE
  5
40E
100
AcDbEntity
  8
0
100
AcDbSpline
 62
7
  6
CONTINUOUS
 70
0
 71
3
 72
23
 73
19
 74
0
 42
0.0000001
 43
0.0000001
 44
0.0000000001
 40
0.0
 40
0.0
 40
0.0
 40
0.0
 40
0.2321723107
 40
0.4346067287
 40
0.6066091617
 40
0.6810870623
 40
0.7478301886
 40
0.806801654
 40
0.8579757859
 40
0.9013267624
 40
0.9368270623
 40
0.9644534222
 40
0.975310736
 40
0.9841962023
 40
0.9911088524
 40
0.9960477031
 40
0.9990117565
 40
1.0
 40
1.0
 40
1.0
 40
1.0
 10
285.1162368624
 20
470.3950198739
 30
0.0
 10
285.0766899163
 20
470.5271433918
 30
0.0
 10
285.0058204797
 20
470.775428047
 30
0.0
 10
284.9155632274
 20
471.124310803
 30
0.0
 10
284.8544381276
 20
471.383896607
 30
0.0
 10
284.8145409719
 20
471.5656321668
 30
0.0
 10
284.7900369215
 20
471.6819996668
 30
0.0
 10
284.7691461029
 20
471.7849793842
 30
0.0
 10
284.7516387638
 20
471.8744607852
 30
0.0
 10
284.7372864909
 20
471.9503621685
 30
0.0
 10
284.7258285496
 20
472.0125425654
 30
0.0
 10
284.7180394294
 20
472.0558481228
 30
0.0
 10
284.7130543345
 20
472.0834599203
 30
0.0
 10
284.7104003759
 20
472.0992409864
 30
0.0
 10
284.7080180868
 20
472.1108878902
 30
0.0
 10
284.7070988421
 20
472.1206607269
 30
0.0
 10
284.7051779237
 20
472.1239334914
 30
0.0
 10
284.7058453711
 20
472.128248419
 30
0.0
 10
284.7053109512
 20
472.1280055035
 30
0.0
  0
SPLINE
  5
40F
100
AcDbEntity
  8
0
100
AcDbSpline
 62
7
  6
CONTINUOUS
 70
0
 71
3
 72
9
 73
5
 74
0
 42
0.0000001
 43
0.0000001
 44
0.0000000001
 40
0.0
 40
0.0
 40
0.0
 40
0.0
 40
0.4354326369
 40
1.0
 40
1.0
 40
1.0
 40
1.0
 10
239.2026802454
 20
470.3950198739
 30
0.0
 10
239.7441669427
 20
469.4580502047
 30
0.0
 10
240.9227614191
 20
467.2685473429
 30
0.0
 10
241.8890858046
 20
464.9685457015
 30
0.0
 10
242.3265173194
 20
463.6353519682
 30
0.0
  0
SPLINE
  5
410
100
AcDbEntity
  8
0
100
AcDbSpline
 62
7
  6
CONTINUOUS
 70
0
 71
3
 72
21
 73
17
 74
0
 42
0.0000001
 43
0.0000001
 44
0.0000000001
 40
0.0
 40
0.0
 40
0.0
 40
0.0
 40
0.0682131898
 40
0.1344798536
 40
0.1974427698
 40
0.2567629385
 40
0.3132663366
 40
0.3685252468
 40
0.4241368099
 40
0.4812156899
 40
0.5403033701
 40
0.6015148158
 40
0.6647153924
 40
0.7296445884
 40
0.863389163
 40
1.0
 40
1.0
 40
1.0
 40
1.0
 10
242.6658698643
 20
435.1280055035
 30
0.0
 10
242.6658698643
 20
434.5518230023
 30
0.0
 10
242.7357005422
 20
433.4145311025
 30
0.0
 10
243.0533985746
 20
431.7721560869
 30
0.0
 10
243.5873120032
 20
430.2641815186
 30
0.0
 10
244.338340023
 20
428.9435079626
 30
0.0
 10
245.2948345705
 20
427.846728295
 30
0.0
 10
246.427387881
 20
426.9855479506
 30
0.0
 10
247.699070447
 20
426.3424760931
 30
0.0
 10
249.0792613338
 20
425.8823710399
 30
0.0
 10
250.5462008763
 20
425.5671471299
 30
0.0
 10
252.0837181005
 20
425.3624254729
 30
0.0
 10
253.6787718483
 20
425.2386707111
 30
0.0
 10
255.8892265713
 20
425.1483476797
 30
0.0
 10
258.721616686
 20
425.1260488357
 30
0.0
 10
261.0051653827
 20
425.1280055035
 30
0.0
 10
262.1590884574
 20
425.1280055035
 30
0.0
  0
SPLINE
  5
411
100
AcDbEntity
  8
0
100
AcDbSpline
 62
9
  6
CONTINUOUS
 70
0
 71
3
 72
17
 73
13
 74
0
 42
0.0000001
 43
0.0000001
 44
0.0000000001
 40
0.0
 40
0.0
 40
0.0
 40
0.0
 40
0.0686291529
 40
0.1360154826
 40
0.2017905552
 40
0.2661833076
 40
0.3918847309
 40
0.5152712493
 40
0.6373179384
 40
0.758577498
 40
0.8793916582
 40
1.0
 40
1.0
 40
1.0
 40
1.0
 10
244.1594585539
 20
435.1280055035
 30
0.0
 10
244.1595125865
 20
434.6151476573
 30
0.0
 10
244.3041161555
 20
433.5937368246
 30
0.0
 10
244.8938142697
 20
432.1918833325
 30
0.0
 10
245.7379159868
 20
430.9705776565
 30
0.0
 10
247.0673015713
 20
429.5879344139
 30
0.0
 10
248.9913895265
 20
428.218622255
 30
0.0
 10
251.4960701285
 20
427.0086013316
 30
0.0
 10
254.1004712155
 20
426.1369008416
 30
0.0
 10
256.760920819
 20
425.5462150261
 30
0.0
 10
259.452751773
 20
425.2031042796
 30
0.0
 10
261.2577960453
 20
425.1280096625
 30
0.0
 10
262.1590884574
 20
425.1280055035
 30
0.0
  0
SPLINE
  5
412
100
AcDbEntity
  8
0
100
AcDbSpline
 62
7
  6
CONTINUOUS
 70
0
 71
3
 72
21
 73
17
 74
0
 42
0.0000001
 43
0.0000001
 44
0.0000000001
 40
0.0
 40
0.0
 40
0.0
 40
0.0
 40
0.1365981789
 40
0.2703308492
 40
0.3352548932
 40
0.3984507347
 40
0.4596579657
 40
0.5187419299
 40
0.5758172312
 40
0.6314252478
 40
0.6866833944
 40
0.7431947438
 40
0.8025273507
 40
0.8655037193
 40
0.9317807738
 40
1.0
 40
1.0
 40
1.0
 40
1.0
 10
262.159835994
 20
425.1280055035
 30
0.0
 10
263.3136504987
 20
425.1280055035
 30
0.0
 10
265.5969886059
 20
425.1260431397
 30
0.0
 10
268.4291231498
 20
425.148343679
 30
0.0
 10
270.6393922329
 20
425.2386195774
 30
0.0
 10
272.2343272347
 20
425.3623324435
 30
0.0
 10
273.7717430602
 20
425.5669826894
 30
0.0
 10
275.238603155
 20
425.8820956515
 30
0.0
 10
276.6187475927
 20
426.3420365629
 30
0.0
 10
277.8904528543
 20
426.9849008916
 30
0.0
 10
279.0231802738
 20
427.8459021664
 30
0.0
 10
279.9799231782
 20
428.9426856307
 30
0.0
 10
280.7312937316
 20
430.2634950154
 30
0.0
 10
281.2654116251
 20
431.771729356
 30
0.0
 10
281.583204128
 20
433.414342912
 30
0.0
 10
281.6530472435
 20
434.5517728387
 30
0.0
 10
281.6530472435
 20
435.1280055035
 30
0.0
  0
SPLINE
  5
413
100
AcDbEntity
  8
0
100
AcDbSpline
 62
9
  6
CONTINUOUS
 70
0
 71
3
 72
17
 73
13
 74
0
 42
0.0000001
 43
0.0000001
 44
0.0000000001
 40
0.0
 40
0.0
 40
0.0
 40
0.0
 40
0.0686315826
 40
0.1360190048
 40
0.2017942386
 40
0.2661869796
 40
0.3918877847
 40
0.5152733872
 40
0.6373195096
 40
0.758578545
 40
0.8793922
 40
1.0
 40
1.0
 40
1.0
 40
1.0
 10
280.1595017325
 20
435.1284797132
 30
0.0
 10
280.1594043923
 20
434.6155931179
 30
0.0
 10
280.0150679122
 20
433.5941035495
 30
0.0
 10
279.4252160676
 20
432.1922186986
 30
0.0
 10
278.5811606429
 20
430.9708542581
 30
0.0
 10
277.2518112299
 20
429.5881165801
 30
0.0
 10
275.3277155638
 20
428.2187488791
 30
0.0
 10
272.8230180969
 20
427.0086658249
 30
0.0
 10
270.2185810312
 20
426.136938277
 30
0.0
 10
267.5580910732
 20
425.5462300337
 30
0.0
 10
264.8662167183
 20
425.2031073423
 30
0.0
 10
263.0611429829
 20
425.1280097473
 30
0.0
 10
262.159835994
 20
425.1280055035
 30
0.0
  0
SPLINE
  5
414
100
AcDbEntity
  8
0
100
AcDbSpline
 62
7
  6
CONTINUOUS
 70
0
 71
3
 72
23
 73
19
 74
0
 42
0.0000001
 43
0.0000001
 44
0.0000000001
 40
0.0
 40
0.0
 40
0.0
 40
0.0
 40
0.0009882436
 40
0.003952297
 40
0.0088911477
 40
0.0158037978
 40
0.0246892641
 40
0.0355465779
 40
0.0631729377
 40
0.0986732376
 40
0.142024214
 40
0.1931983459
 40
0.2521698113
 40
0.3189129377
 40
0.3933908383
 40
0.5653932714
 40
0.7678276894
 40
1.0
 40
1.0
 40
1.0
 40
1.0
 10
239.6136061566
 20
472.1280055035
 30
0.0
 10
239.613071315
 20
472.128247489
 30
0.0
 10
239.61373979
 20
472.1239348255
 30
0.0
 10
239.6118178792
 20
472.1206598739
 30
0.0
 10
239.6108992002
 20
472.1108882839
 30
0.0
 10
239.6085166611
 20
472.0992408292
 30
0.0
 10
239.6058627991
 20
472.0834599765
 30
0.0
 10
239.6008776579
 20
472.0558480773
 30
0.0
 10
239.5930885678
 20
472.0125425867
 30
0.0
 10
239.5816306135
 20
471.9503621607
 30
0.0
 10
239.5672783452
 20
471.874460788
 30
0.0
 10
239.5497710044
 20
471.7849793835
 30
0.0
 10
239.5288801864
 20
471.6819996672
 30
0.0
 10
239.504376136
 20
471.5656321668
 30
0.0
 10
239.4644789804
 20
471.383896607
 30
0.0
 10
239.4033538804
 20
471.1243108029
 30
0.0
 10
239.3130966281
 20
470.7754280469
 30
0.0
 10
239.2422271915
 20
470.5271433917
 30
0.0
 10
239.2026802454
 20
470.3950198739
 30
0.0
  0
SPLINE
  5
415
100
AcDbEntity
  8
0
100
AcDbSpline
 62
7
  6
CONTINUOUS
 70
0
 71
3
 72
9
 73
5
 74
0
 42
0.0000001
 43
0.0000001
 44
0.0000000001
 40
0.0
 40
0.0
 40
0.0
 40
0.0
 40
0.5645673814
 40
1.0
 40
1.0
 40
1.0
 40
1.0
 10
281.9923997884
 20
463.6353519682
 30
0.0
 10
282.4298313174
 20
464.9685457446
 30
0.0
 10
283.3961557092
 20
467.2685473839
 30
0.0
 10
284.5747501879
 20
469.4580502441
 30
0.0
 10
285.1162368624
 20
470.3950198739
 30
0.0
  0
ELLIPSE
  5
416
100
AcDbEntity
  8
KONSTRUKTIONSELEMENTE
100
AcDbEllipse
 62
7
  6
CONTINUOUS
 10
113.1613503592
 20
263.4379655318
 30
0.0
 11
13.25
 21
0.0
 31
0.0
 40
0.3343499578
 41
2.9517755922
 42
3.1416124709
  0
ELLIPSE
  5
417
100
AcDbEntity
  8
KONSTRUKTIONSELEMENTE
100
AcDbEllipse
 62
7
  6
CONTINUOUS
 10
113.1613503592
 20
262.1930454752
 30
0.0
 11
13.25
 21
0.0
 31
0.0
 40
0.3343499578
 41
3.1415728363
 42
3.3314097149
  0
ELLIPSE
  5
418
100
AcDbEntity
  8
KONSTRUKTIONSELEMENTE
100
AcDbEllipse
 62
7
  6
CONTINUOUS
 10
113.1613503592
 20
283.640159077
 30
0.0
 11
13.25
 21
-0.0
 31
0.0
 40
0.1631944448
 41
3.1415873972
 42
3.3314097149
  0
ELLIPSE
  5
419
100
AcDbEntity
  8
KONSTRUKTIONSELEMENTE
100
AcDbEllipse
 62
7
  6
CONTINUOUS
 10
113.1613503592
 20
284.1465245395
 30
0.0
 11
13.25
 21
0.0
 31
0.0
 40
0.2175923856
 41
2.9517755922
 42
3.1415978918
  0
ELLIPSE
  5
41A
100
AcDbEntity
  8
KONSTRUKTIONSELEMENTE
100
AcDbEllipse
 62
7
  6
CONTINUOUS
 10
113.1613503592
 20
286.0678205625
 30
0.0
 11
13.25
 21
-0.0
 31
0.0
 40
0.2175930082
 41
3.1415874154
 42
3.3314097149
  0
ELLIPSE
  5
41B
100
AcDbEntity
  8
KONSTRUKTIONSELEMENTE
100
AcDbEllipse
 62
7
  6
CONTINUOUS
 10
113.1613503592
 20
295.2522614581
 30
0.0
 11
13.25
 21
0.0
 31
0.0
 40
0.3497023818
 41
3.14157387
 42
3.3314097149
  0
ELLIPSE
  5
41C
100
AcDbEntity
  8
KONSTRUKTIONSELEMENTE
100
AcDbEllipse
 62
7
  6
CONTINUOUS
 10
113.1613503592
 20
286.5741868528
 30
0.0
 11
13.25
 21
0.0
 31
0.0
 40
0.1631944448
 41
2.9517755922
 42
3.14159791
  0
ELLIPSE
  5
41D
100
AcDbEntity
  8
KONSTRUKTIONSELEMENTE
100
AcDbEllipse
 62
7
  6
CONTINUOUS
 10
113.1613503592
 20
305.4222128912
 30
0.0
 11
13.25
 21
-0.0
 31
0.0
 40
0.334349582
 41
3.1415728363
 42
3.3314097149
  0
ELLIPSE
  5
41E
100
AcDbEntity
  8
KONSTRUKTIONSELEMENTE
100
AcDbEllipse
 62
7
  6
CONTINUOUS
 10
113.1613503592
 20
296.628749549
 30
0.0
 11
13.25
 21
0.0
 31
0.0
 40
0.3497023818
 41
2.9517755922
 42
3.1416114371
  0
ELLIPSE
  5
41F
100
AcDbEntity
  8
KONSTRUKTIONSELEMENTE
100
AcDbEllipse
 62
7
  6
CONTINUOUS
 10
113.1613503592
 20
306.6671315486
 30
0.0
 11
13.25
 21
0.0
 31
0.0
 40
0.334349582
 41
2.9517755922
 42
3.1416124709
  0
ELLIPSE
  5
420
100
AcDbEntity
  8
KONSTRUKTIONSELEMENTE
100
AcDbEllipse
 62
7
  6
CONTINUOUS
 10
113.1613503592
 20
228.8242755184
 30
0.0
 11
13.25
 21
-0.0
 31
0.0
 40
0.7214919941
 41
9.2349608994
 42
9.3886400316
  0
ELLIPSE
  5
421
100
AcDbEntity
  8
KONSTRUKTIONSELEMENTE
100
AcDbEllipse
 62
7
  6
CONTINUOUS
 10
113.1613503592
 20
229.5150656431
 30
0.0
 11
13.25
 21
-0.0
 31
0.0
 40
0.7214919941
 41
-3.1054547244
 42
-2.9517755922
  0
ELLIPSE
  5
422
100
AcDbEntity
  8
KONSTRUKTIONSELEMENTE
100
AcDbEllipse
 62
7
  6
CONTINUOUS
 10
113.1613503592
 20
238.8242755184
 30
0.0
 11
13.25
 21
0.0
 31
0.0
 40
0.7214919941
 41
9.2349608994
 42
9.3886400316
  0
ELLIPSE
  5
423
100
AcDbEntity
  8
KONSTRUKTIONSELEMENTE
100
AcDbEllipse
 62
7
  6
CONTINUOUS
 10
113.1613503592
 20
239.5150645137
 30
0.0
 11
13.25
 21
0.0
 31
0.0
 40
0.721489635
 41
-3.1054547244
 42
-2.9517755922
  0
ELLIPSE
  5
424
100
AcDbEntity
  8
KONSTRUKTIONSELEMENTE
100
AcDbEllipse
 62
7
  6
CONTINUOUS
 10
113.1613503592
 20
248.1300895968
 30
0.0
 11
13.25
 21
0.0
 31
0.0
 40
0.5091660441
 41
-3.1415926536
 42
-3.0329890734
  0
ELLIPSE
  5
425
100
AcDbEntity
  8
KONSTRUKTIONSELEMENTE
100
AcDbEllipse
 62
7
  6
CONTINUOUS
 10
113.1613503592
 20
245.2894679432
 30
0.0
 11
-0.0
 21
19.4609125608
 31
0.0
 40
0.6808519363
 41
1.4621927466
 42
1.4783322422
  0
ELLIPSE
  5
426
100
AcDbEntity
  8
KONSTRUKTIONSELEMENTE
100
AcDbEllipse
 62
7
  6
CONTINUOUS
 10
113.1613503592
 20
255.9925940026
 30
0.0
 11
13.25
 21
-0.0
 31
0.0
 40
0.9791742538
 41
-3.1054547244
 42
-3.0893810648
  0
ELLIPSE
  5
427
100
AcDbEntity
  8
KONSTRUKTIONSELEMENTE
100
AcDbEllipse
 62
7
  6
CONTINUOUS
 10
113.1613503592
 20
255.5411965041
 30
0.0
 11
13.25
 21
-0.0
 31
0.0
 40
0.3263839475
 41
-3.0893810648
 42
-3.0652439213
  0
ELLIPSE
  5
428
100
AcDbEntity
  8
KONSTRUKTIONSELEMENTE
100
AcDbEllipse
 62
7
  6
CONTINUOUS
 10
113.1613503592
 20
254.6384181965
 30
0.0
 11
0.0
 21
64.8699973667
 31
0.0
 40
0.2042546715
 41
1.550722721
 42
1.558752681
  0
ELLIPSE
  5
429
100
AcDbEntity
  8
KONSTRUKTIONSELEMENTE
100
AcDbEllipse
 62
7
  6
CONTINUOUS
 10
113.1613503592
 20
243.7008833589
 30
0.0
 11
0.0
 21
64.8699973667
 31
0.0
 40
0.2042546715
 41
1.3809792655
 42
1.3891486946
  0
ELLIPSE
  5
42A
100
AcDbEntity
  8
KONSTRUKTIONSELEMENTE
100
AcDbEllipse
 62
7
  6
CONTINUOUS
 10
113.1613503592
 20
252.2946821126
 30
0.0
 11
0.0
 21
17.2985471843
 31
0.0
 40
0.7659602774
 41
1.3891486946
 42
1.4135859148
  0
ELLIPSE
  5
42B
100
AcDbEntity
  8
KONSTRUKTIONSELEMENTE
100
AcDbEllipse
 62
7
  6
CONTINUOUS
 10
113.1613503592
 20
253.4795677847
 30
0.0
 11
13.25
 21
-0.0
 31
0.0
 40
0.7343750875
 41
2.9843822416
 42
3.016821146
  0
ELLIPSE
  5
42C
100
AcDbEntity
  8
KONSTRUKTIONSELEMENTE
100
AcDbEllipse
 62
7
  6
CONTINUOUS
 10
113.1613503592
 20
254.152319174
 30
0.0
 11
13.25
 21
0.0
 31
0.0
 40
0.3263839475
 41
3.016821146
 42
3.0410620944
  0
ELLIPSE
  5
42D
100
AcDbEntity
  8
KONSTRUKTIONSELEMENTE
100
AcDbEllipse
 62
7
  6
CONTINUOUS
 10
113.1613503592
 20
270.4891183365
 30
0.0
 11
13.25
 21
0.0
 31
0.0
 40
0.6527753654
 41
9.3484292285
 42
9.372566372
  0
ELLIPSE
  5
42E
100
AcDbEntity
  8
KONSTRUKTIONSELEMENTE
100
AcDbEllipse
 62
7
  6
CONTINUOUS
 10
113.1613503592
 20
270.0377260038
 30
0.0
 11
-0.0
 21
17.2986461678
 31
0.0
 40
0.7659558946
 41
1.518584738
 42
1.5426914662
  0
ELLIPSE
  5
42F
100
AcDbEntity
  8
KONSTRUKTIONSELEMENTE
100
AcDbEllipse
 62
7
  6
CONTINUOUS
 10
113.1613503592
 20
269.7599472989
 30
0.0
 11
-0.0
 21
17.2985471843
 31
0.0
 40
0.7659602774
 41
-4.6842841198
 42
-4.6601773916
  0
ELLIPSE
  5
430
100
AcDbEntity
  8
KONSTRUKTIONSELEMENTE
100
AcDbEllipse
 62
7
  6
CONTINUOUS
 10
113.1613503592
 20
269.3085652976
 30
0.0
 11
13.25
 21
0.0
 31
0.0
 40
0.6527828359
 41
-3.0893810648
 42
-3.0652439213
  0
ELLIPSE
  5
431
100
AcDbEntity
  8
KONSTRUKTIONSELEMENTE
100
AcDbEllipse
 62
7
  6
CONTINUOUS
 10
113.1613503592
 20
270.3155066956
 30
0.0
 11
0.0
 21
51.8959385033
 31
0.0
 40
0.2553186315
 41
-4.7003453346
 42
-4.6923153746
  0
ELLIPSE
  5
432
100
AcDbEntity
  8
KONSTRUKTIONSELEMENTE
100
AcDbEllipse
 62
7
  6
CONTINUOUS
 10
113.1613503592
 20
269.4821753491
 30
0.0
 11
-0.0
 21
51.8956415529
 31
0.0
 40
0.2553200925
 41
1.550722721
 42
1.558752681
  0
ELLIPSE
  5
433
100
AcDbEntity
  8
KONSTRUKTIONSELEMENTE
100
AcDbEllipse
 62
7
  6
CONTINUOUS
 10
113.1613503592
 20
272.1488430189
 30
0.0
 11
13.25
 21
0.0
 31
0.0
 40
0.3916694821
 41
-3.049128569
 42
-3.0087251394
  0
ELLIPSE
  5
434
100
AcDbEntity
  8
KONSTRUKTIONSELEMENTE
100
AcDbEllipse
 62
7
  6
CONTINUOUS
 10
113.1613503592
 20
273.1800883339
 30
0.0
 11
13.25
 21
-0.0
 31
0.0
 40
0.9791667834
 41
-3.0087251394
 42
-2.9843822416
  0
ELLIPSE
  5
435
100
AcDbEntity
  8
KONSTRUKTIONSELEMENTE
100
AcDbEllipse
 62
7
  6
CONTINUOUS
 10
113.1613503592
 20
274.5342500294
 30
0.0
 11
0.0
 21
21.6232334721
 31
0.0
 40
0.6127668194
 41
-4.5551785684
 42
-4.5307413482
  0
ELLIPSE
  5
436
100
AcDbEntity
  8
KONSTRUKTIONSELEMENTE
100
AcDbEllipse
 62
7
  6
CONTINUOUS
 10
113.1613503592
 20
282.3467390812
 30
0.0
 11
-0.0
 21
64.8697004163
 31
0.0
 40
0.2042556065
 41
-4.5307413482
 42
-4.522571919
  0
ELLIPSE
  5
437
100
AcDbEntity
  8
KONSTRUKTIONSELEMENTE
100
AcDbEllipse
 62
7
  6
CONTINUOUS
 10
113.1613503592
 20
257.4509393872
 30
0.0
 11
0.0
 21
64.8697004163
 31
0.0
 40
0.2042556065
 41
1.3809792655
 42
1.3891486946
  0
ELLIPSE
  5
438
100
AcDbEntity
  8
KONSTRUKTIONSELEMENTE
100
AcDbEllipse
 62
7
  6
CONTINUOUS
 10
113.1613503592
 20
265.2634105576
 30
0.0
 11
-0.0
 21
21.6233324556
 31
0.0
 40
0.6127640144
 41
1.3891486946
 42
1.4135859148
  0
ELLIPSE
  5
439
100
AcDbEntity
  8
KONSTRUKTIONSELEMENTE
100
AcDbEllipse
 62
7
  6
CONTINUOUS
 10
113.1613503592
 20
266.6175877503
 30
0.0
 11
13.25
 21
0.0
 31
0.0
 40
0.9791667834
 41
2.9843822416
 42
3.0087251394
  0
ELLIPSE
  5
43A
100
AcDbEntity
  8
KONSTRUKTIONSELEMENTE
100
AcDbEllipse
 62
7
  6
CONTINUOUS
 10
113.1613503592
 20
267.6488409332
 30
0.0
 11
13.25
 21
-0.0
 31
0.0
 40
0.3916649998
 41
3.0087251394
 42
3.049128569
  0
ELLIPSE
  5
43B
100
AcDbEntity
  8
KONSTRUKTIONSELEMENTE
100
AcDbEllipse
 62
7
  6
CONTINUOUS
 10
113.1613503592
 20
233.8242755184
 30
0.0
 11
13.25
 21
0.0
 31
0.0
 40
0.7214919941
 41
9.2349608994
 42
9.3886400316
  0
ELLIPSE
  5
43C
100
AcDbEntity
  8
KONSTRUKTIONSELEMENTE
100
AcDbEllipse
 62
7
  6
CONTINUOUS
 10
113.1613503592
 20
234.5150645137
 30
0.0
 11
13.25
 21
-0.0
 31
0.0
 40
0.721489635
 41
-3.1054547244
 42
-2.9517755922
  0
ELLIPSE
  5
43D
100
AcDbEntity
  8
KONSTRUKTIONSELEMENTE
100
AcDbEllipse
 62
7
  6
CONTINUOUS
 10
113.1613503592
 20
278.4405055035
 30
0.0
 11
13.25
 21
0.0
 31
0.0
 40
0.3333330154
 41
9.2349608994
 42
9.4247779608
  0
ELLIPSE
  5
43E
100
AcDbEntity
  8
KONSTRUKTIONSELEMENTE
100
AcDbEllipse
 62
7
  6
CONTINUOUS
 10
113.1613503592
 20
280.9405055035
 30
0.0
 11
13.25
 21
-0.0
 31
0.0
 40
0.3333330154
 41
-3.1415926536
 42
-2.9517755922
  0
ELLIPSE
  5
43F
100
AcDbEntity
  8
KONSTRUKTIONSELEMENTE
100
AcDbEllipse
 62
7
  6
CONTINUOUS
 10
113.1613503592
 20
298.8398099353
 30
0.0
 11
13.25
 21
0.0
 31
0.0
 40
0.3263895503
 41
3.016821146
 42
3.0410620944
  0
ELLIPSE
  5
440
100
AcDbEntity
  8
KONSTRUKTIONSELEMENTE
100
AcDbEllipse
 62
7
  6
CONTINUOUS
 10
113.1613503592
 20
298.1670677847
 30
0.0
 11
13.25
 21
0.0
 31
0.0
 40
0.7343750875
 41
2.9843822416
 42
3.016821146
  0
ELLIPSE
  5
441
100
AcDbEntity
  8
KONSTRUKTIONSELEMENTE
100
AcDbEllipse
 62
7
  6
CONTINUOUS
 10
113.1613503592
 20
296.9821704897
 30
0.0
 11
-0.0
 21
17.2986214219
 31
0.0
 40
0.7659569903
 41
1.3891486946
 42
1.4135859148
  0
ELLIPSE
  5
442
100
AcDbEntity
  8
KONSTRUKTIONSELEMENTE
100
AcDbEllipse
 62
7
  6
CONTINUOUS
 10
113.1613503592
 20
288.3884253801
 30
0.0
 11
0.0
 21
64.8697746539
 31
0.0
 40
0.2042553727
 41
1.3809792655
 42
1.3891486946
  0
ELLIPSE
  5
443
100
AcDbEntity
  8
KONSTRUKTIONSELEMENTE
100
AcDbEllipse
 62
7
  6
CONTINUOUS
 10
113.1613503592
 20
300.2287003784
 30
0.0
 11
13.25
 21
-0.0
 31
0.0
 40
0.3263895503
 41
-3.0893810648
 42
-3.0652439213
  0
ELLIPSE
  5
444
100
AcDbEntity
  8
KONSTRUKTIONSELEMENTE
100
AcDbEllipse
 62
7
  6
CONTINUOUS
 10
113.1613503592
 20
300.6800881911
 30
0.0
 11
13.25
 21
-0.0
 31
0.0
 40
0.9791658496
 41
-3.1054547244
 42
-3.0893810648
  0
ELLIPSE
  5
445
100
AcDbEntity
  8
KONSTRUKTIONSELEMENTE
100
AcDbEllipse
 62
7
  6
CONTINUOUS
 10
113.1613503592
 20
300.1939780008
 30
0.0
 11
13.25
 21
0.0
 31
0.0
 40
0.3263893979
 41
-3.0974193222
 42
-3.0746676149
  0
ELLIPSE
  5
446
100
AcDbEntity
  8
KONSTRUKTIONSELEMENTE
100
AcDbEllipse
 62
7
  6
CONTINUOUS
 10
113.1613503592
 20
300.5759216238
 30
0.0
 11
13.25
 21
0.0
 31
0.0
 40
0.9791658496
 41
-3.113487793
 42
-3.0974193222
  0
ELLIPSE
  5
447
100
AcDbEntity
  8
KONSTRUKTIONSELEMENTE
100
AcDbEllipse
 62
7
  6
CONTINUOUS
 10
113.1613503592
 20
266.8432913693
 30
0.0
 11
0.0
 21
17.2985471843
 31
0.0
 40
0.7659602774
 41
7.7130093429
 42
7.7372979202
  0
ELLIPSE
  5
448
100
AcDbEntity
  8
KONSTRUKTIONSELEMENTE
100
AcDbEllipse
 62
7
  6
CONTINUOUS
 10
113.1613503592
 20
261.9821563004
 30
0.0
 11
-0.0
 21
51.8959385033
 31
0.0
 40
0.2553186315
 41
7.7048952331
 42
7.7130093429
  0
ELLIPSE
  5
449
100
AcDbEntity
  8
KONSTRUKTIONSELEMENTE
100
AcDbEllipse
 62
7
  6
CONTINUOUS
 10
113.1613503592
 20
228.8956669874
 30
0.0
 11
13.25
 21
0.0
 31
0.0
 40
0.7237325318
 41
-3.1375781913
 42
-2.9517755922
  0
ELLIPSE
  5
44A
100
AcDbEntity
  8
KONSTRUKTIONSELEMENTE
100
AcDbEllipse
 62
7
  6
CONTINUOUS
 10
113.1613503592
 20
264.0655055035
 30
0.0
 11
13.25
 21
0.0
 31
0.0
 40
0.3333339691
 41
9.2349608994
 42
9.496618246
  0
ELLIPSE
  5
44B
100
AcDbEntity
  8
KONSTRUKTIONSELEMENTE
100
AcDbEllipse
 62
7
  6
CONTINUOUS
 10
113.1613503592
 20
294.5976002729
 30
0.0
 11
13.25
 21
0.0
 31
0.0
 40
0.3704955845
 41
3.0738283536
 42
3.2501962338
  0
ELLIPSE
  5
44C
100
AcDbEntity
  8
KONSTRUKTIONSELEMENTE
100
AcDbEllipse
 62
7
  6
CONTINUOUS
 10
113.1613503592
 20
254.8814748117
 30
0.0
 11
13.25
 21
-0.0
 31
0.0
 40
0.3263839475
 41
-3.0974193222
 42
-3.0732938905
  0
ELLIPSE
  5
44D
100
AcDbEntity
  8
KONSTRUKTIONSELEMENTE
100
AcDbEllipse
 62
7
  6
CONTINUOUS
 10
113.1613503592
 20
255.1201930035
 30
0.0
 11
13.25
 21
-0.0
 31
0.0
 40
0.7343750875
 41
-3.1295490078
 42
-3.0974193222
  0
ELLIPSE
  5
44E
100
AcDbEntity
  8
KONSTRUKTIONSELEMENTE
100
AcDbEllipse
 62
7
  6
CONTINUOUS
 10
113.1613503592
 20
255.2113380421
 30
0.0
 11
-0.0
 21
17.2985471843
 31
0.0
 40
0.7659602774
 41
1.558752681
 42
1.5828399726
  0
ELLIPSE
  5
44F
100
AcDbEntity
  8
KONSTRUKTIONSELEMENTE
100
AcDbEllipse
 62
7
  6
CONTINUOUS
 10
113.1613503592
 20
287.1905055035
 30
0.0
 11
13.25
 21
0.0
 31
0.0
 40
0.1666669846
 41
2.9517755922
 42
3.282701245
  0
ELLIPSE
  5
450
100
AcDbEntity
  8
KONSTRUKTIONSELEMENTE
100
AcDbEllipse
 62
7
  6
CONTINUOUS
 10
113.1613503592
 20
270.8363392342
 30
0.0
 11
-0.0
 21
25.9478207764
 31
0.0
 40
0.5106401849
 41
7.8419379882
 42
7.8499671716
  0
ELLIPSE
  5
451
100
AcDbEntity
  8
KONSTRUKTIONSELEMENTE
100
AcDbEllipse
 62
7
  6
CONTINUOUS
 10
113.1613503592
 20
283.0238392342
 30
0.0
 11
13.25
 21
0.0
 31
0.0
 40
0.1666665077
 41
9.2836688521
 42
9.6145950221
  0
ELLIPSE
  5
452
100
AcDbEntity
  8
KONSTRUKTIONSELEMENTE
100
AcDbEllipse
 62
7
  6
CONTINUOUS
 10
113.1613503592
 20
304.7946722199
 30
0.0
 11
13.25
 21
-0.0
 31
0.0
 40
0.3333333135
 41
9.3529375254
 42
9.6145950221
  0
ELLIPSE
  5
453
100
AcDbEntity
  8
KONSTRUKTIONSELEMENTE
100
AcDbEllipse
 62
7
  6
CONTINUOUS
 10
113.1613503592
 20
271.226961254
 30
0.0
 11
13.25
 21
-0.0
 31
0.0
 40
0.4895871269
 41
9.3564791977
 42
9.3886400316
  0
ELLIPSE
  5
454
100
AcDbEntity
  8
KONSTRUKTIONSELEMENTE
100
AcDbEllipse
 62
7
  6
CONTINUOUS
 10
113.1613503592
 20
238.8956668837
 30
0.0
 11
13.25
 21
-0.0
 31
0.0
 40
0.723730583
 41
-3.1375781913
 42
-2.9517755922
  0
ELLIPSE
  5
455
100
AcDbEntity
  8
KONSTRUKTIONSELEMENTE
100
AcDbEllipse
 62
7
  6
CONTINUOUS
 10
113.1613503592
 20
307.2946721453
 30
0.0
 11
13.25
 21
0.0
 31
0.0
 40
0.3333333433
 41
9.2349608994
 42
9.4966183869
  0
ELLIPSE
  5
456
100
AcDbEntity
  8
KONSTRUKTIONSELEMENTE
100
AcDbEllipse
 62
7
  6
CONTINUOUS
 10
113.1613503592
 20
285.4251551324
 30
0.0
 11
13.25
 21
0.0
 31
0.0
 40
0.2061401485
 41
3.0269990062
 42
3.2582763673
  0
ELLIPSE
  5
457
100
AcDbEntity
  8
KONSTRUKTIONSELEMENTE
100
AcDbEllipse
 62
7
  6
CONTINUOUS
 10
113.1613503592
 20
300.0030052055
 30
0.0
 11
-0.0
 21
25.947895014
 31
0.0
 40
0.510638724
 41
-4.7083745181
 42
-4.7003453346
  0
ELLIPSE
  5
458
100
AcDbEntity
  8
KONSTRUKTIONSELEMENTE
100
AcDbEllipse
 62
7
  6
CONTINUOUS
 10
113.1613503592
 20
299.8076930035
 30
0.0
 11
13.25
 21
0.0
 31
0.0
 40
0.7343750875
 41
-3.1295490078
 42
-3.0974193222
  0
ELLIPSE
  5
459
100
AcDbEntity
  8
KONSTRUKTIONSELEMENTE
100
AcDbEllipse
 62
7
  6
CONTINUOUS
 10
113.1613503592
 20
299.56897809
 30
0.0
 11
13.25
 21
0.0
 31
0.0
 40
0.3263895503
 41
-3.0974193222
 42
-3.0732938905
  0
ELLIPSE
  5
45A
100
AcDbEntity
  8
KONSTRUKTIONSELEMENTE
100
AcDbEllipse
 62
7
  6
CONTINUOUS
 10
113.1613503592
 20
247.7092563269
 30
0.0
 11
13.25
 21
0.0
 31
0.0
 40
0.5091661012
 41
3.1103971924
 42
3.2340567382
  0
ELLIPSE
  5
45B
100
AcDbEntity
  8
KONSTRUKTIONSELEMENTE
100
AcDbEllipse
 62
7
  6
CONTINUOUS
 10
113.1613503592
 20
284.7891898877
 30
0.0
 11
13.25
 21
0.0
 31
0.0
 40
0.2061407382
 41
3.0249089398
 42
3.2561862956
  0
ELLIPSE
  5
45C
100
AcDbEntity
  8
KONSTRUKTIONSELEMENTE
100
AcDbEllipse
 62
7
  6
CONTINUOUS
 10
113.1613503592
 20
229.4436741741
 30
0.0
 11
13.25
 21
-0.0
 31
0.0
 40
0.7237325318
 41
9.2349608994
 42
9.4207634984
  0
ELLIPSE
  5
45D
100
AcDbEntity
  8
KONSTRUKTIONSELEMENTE
100
AcDbEllipse
 62
7
  6
CONTINUOUS
 10
113.1613503592
 20
279.0134221783
 30
0.0
 11
13.25
 21
-0.0
 31
0.0
 40
0.326388877
 41
9.2675675488
 42
9.4850311964
  0
ELLIPSE
  5
45E
100
AcDbEntity
  8
KONSTRUKTIONSELEMENTE
100
AcDbEllipse
 62
7
  6
CONTINUOUS
 10
113.1613503592
 20
268.5707121481
 30
0.0
 11
13.25
 21
0.0
 31
0.0
 40
0.4895815241
 41
-3.1054547244
 42
-3.0732938905
  0
ELLIPSE
  5
45F
100
AcDbEntity
  8
KONSTRUKTIONSELEMENTE
100
AcDbEllipse
 62
7
  6
CONTINUOUS
 10
113.1613503592
 20
268.9613404263
 30
0.0
 11
0.0
 21
25.9481177268
 31
0.0
 40
0.5106343412
 41
-4.7083745181
 42
-4.7003453346
  0
ELLIPSE
  5
460
100
AcDbEntity
  8
KONSTRUKTIONSELEMENTE
100
AcDbEllipse
 62
7
  6
CONTINUOUS
 10
113.1613503592
 20
261.5655055035
 30
0.0
 11
13.25
 21
-0.0
 31
0.0
 40
0.3333339691
 41
9.3529376755
 42
9.6145950221
  0
ELLIPSE
  5
461
100
AcDbEntity
  8
KONSTRUKTIONSELEMENTE
100
AcDbEllipse
 62
7
  6
CONTINUOUS
 10
113.1613503592
 20
277.8154780605
 30
0.0
 11
0.0
 21
51.8956415529
 31
0.0
 40
0.2553200925
 41
-4.5714166893
 42
-4.5633025796
  0
ELLIPSE
  5
462
100
AcDbEntity
  8
KONSTRUKTIONSELEMENTE
100
AcDbEllipse
 62
7
  6
CONTINUOUS
 10
113.1613503592
 20
272.9543986227
 30
0.0
 11
-0.0
 21
17.2986461678
 31
0.0
 40
0.7659558946
 41
-4.5957052666
 42
-4.5714166893
  0
ELLIPSE
  5
463
100
AcDbEntity
  8
KONSTRUKTIONSELEMENTE
100
AcDbEllipse
 62
7
  6
CONTINUOUS
 10
113.1613503592
 20
280.3675888287
 30
0.0
 11
13.25
 21
-0.0
 31
0.0
 40
0.326388877
 41
3.081339418
 42
3.2988030656
  0
ELLIPSE
  5
464
100
AcDbEntity
  8
KONSTRUKTIONSELEMENTE
100
AcDbEllipse
 62
7
  6
CONTINUOUS
 10
113.1613503592
 20
295.0550877627
 30
0.0
 11
0.0
 21
38.9218796398
 31
0.0
 40
0.3404254913
 41
1.4298240357
 42
1.4379288126
  0
ELLIPSE
  5
465
100
AcDbEntity
  8
KONSTRUKTIONSELEMENTE
100
AcDbEllipse
 62
7
  6
CONTINUOUS
 10
113.1613503592
 20
298.4925899855
 30
0.0
 11
13.25
 21
0.0
 31
0.0
 40
0.9791658496
 41
3.0087251394
 42
3.0249089398
  0
ELLIPSE
  5
466
100
AcDbEntity
  8
KONSTRUKTIONSELEMENTE
100
AcDbEllipse
 62
7
  6
CONTINUOUS
 10
113.1613503592
 20
299.4995326939
 30
0.0
 11
13.25
 21
0.0
 31
0.0
 40
0.3263892456
 41
3.0249089398
 42
3.049128569
  0
ELLIPSE
  5
467
100
AcDbEntity
  8
KONSTRUKTIONSELEMENTE
100
AcDbEllipse
 62
7
  6
CONTINUOUS
 10
113.1613503592
 20
271.947445361
 30
0.0
 11
13.25
 21
-0.0
 31
0.0
 40
0.6527747559
 41
-3.049128569
 42
-3.0249089398
  0
ELLIPSE
  5
468
100
AcDbEntity
  8
KONSTRUKTIONSELEMENTE
100
AcDbEllipse
 62
7
  6
CONTINUOUS
 10
113.1613503592
 20
239.4436741741
 30
0.0
 11
13.25
 21
0.0
 31
0.0
 40
0.7237325318
 41
9.2349608994
 42
9.4207634984
  0
ELLIPSE
  5
469
100
AcDbEntity
  8
KONSTRUKTIONSELEMENTE
100
AcDbEllipse
 62
7
  6
CONTINUOUS
 10
113.1613503592
 20
254.777319174
 30
0.0
 11
13.25
 21
-0.0
 31
0.0
 40
0.3263839475
 41
3.016821146
 42
3.0410620944
  0
ELLIPSE
  5
46A
100
AcDbEntity
  8
KONSTRUKTIONSELEMENTE
100
AcDbEllipse
 62
7
  6
CONTINUOUS
 10
113.1613503592
 20
234.4436741741
 30
0.0
 11
13.25
 21
-0.0
 31
0.0
 40
0.7237325318
 41
9.2349608994
 42
9.4207634984
  0
ELLIPSE
  5
46B
100
AcDbEntity
  8
KONSTRUKTIONSELEMENTE
100
AcDbEllipse
 62
7
  6
CONTINUOUS
 10
113.1613503592
 20
253.7009095601
 30
0.0
 11
13.25
 21
0.0
 31
0.0
 40
0.9791742538
 41
9.2838056697
 42
9.3000064532
  0
ELLIPSE
  5
46C
100
AcDbEntity
  8
KONSTRUKTIONSELEMENTE
100
AcDbEllipse
 62
7
  6
CONTINUOUS
 10
113.1613503592
 20
250.0550895509
 30
0.0
 11
0.0
 21
38.9218796398
 31
0.0
 40
0.3404254913
 41
1.421709926
 42
1.4298240357
  0
ELLIPSE
  5
46D
100
AcDbEntity
  8
KONSTRUKTIONSELEMENTE
100
AcDbEllipse
 62
7
  6
CONTINUOUS
 10
113.1613503592
 20
297.2834107341
 30
0.0
 11
13.25
 21
0.0
 31
0.0
 40
0.3704955845
 41
3.0329890734
 42
3.2093569535
  0
ELLIPSE
  5
46E
100
AcDbEntity
  8
KONSTRUKTIONSELEMENTE
100
AcDbEllipse
 62
7
  6
CONTINUOUS
 10
113.1613503592
 20
233.8956668837
 30
0.0
 11
13.25
 21
0.0
 31
0.0
 40
0.723730583
 41
-3.1375781913
 42
-2.9517755922
  0
ELLIPSE
  5
46F
100
AcDbEntity
  8
KONSTRUKTIONSELEMENTE
100
AcDbEllipse
 62
7
  6
CONTINUOUS
 10
113.1613503592
 20
267.8502215838
 30
0.0
 11
13.25
 21
-0.0
 31
0.0
 40
0.6527822263
 41
9.308094247
 42
9.3323138762
  0
ELLIPSE
  5
470
100
AcDbEntity
  8
0
100
AcDbEllipse
 62
7
  6
CONTINUOUS
 10
262.1594585539
 20
491.7043111022
 30
0.0
 11
-0.0
 21
49.8450953121
 31
0.0
 40
0.4814917065
 41
-2.1936229122
 42
-2.1689574063
  0
ELLIPSE
  5
471
100
AcDbEntity
  8
0
100
AcDbEllipse
 62
7
  6
CONTINUOUS
 10
262.1594585539
 20
491.7043111022
 30
0.0
 11
-0.0
 21
49.8450953121
 31
0.0
 40
0.4814917065
 41
-4.1142279009
 42
-4.089562395
  0
ENDSEC
  0
SECTION
  2
OBJECTS
  0
DICTIONARY
  5
C
100
AcDbDictionary
280
0
281
1
  3
ACAD_GROUP
350
D
  3
ACAD_MLINESTYLE
350
17
  3
ACAD_LAYOUT
350
1A
  3
ACAD_PLOTSETTINGS
350
19
  3
ACAD_PLOTSTYLENAME
350
E
  0
DICTIONARY
  5
D
102
{ACAD_REACTORS
330
C
102
}
100
AcDbDictionary
280
0
281
1
  0
ACDBDICTIONARYWDFLT
  5
E
102
{ACAD_REACTORS
330
C
102
}
100
AcDbDictionary
281
1
  3
Normal
350
F
100
AcDbDictionaryWithDefault
340
F
  0
DICTIONARY
  5
17
102
{ACAD_REACTORS
330
C
102
}
100
AcDbDictionary
280
0
281
1
  3
Standard
350
18
  0
DICTIONARY
  5
19
102
{ACAD_REACTORS
330
C
102
}
100
AcDbDictionary
281
1
  0
DICTIONARY
  5
1A
102
{ACAD_REACTORS
330
C
102
}
100
AcDbDictionary
281
1
  3
Model
350
472
  3
Layout1
350
473
  0
ACDBPLACEHOLDER
  5
F
102
{ACAD_REACTORS
330
E
102
}
  0
MLINESTYLE
  5
18
102
{ACAD_REACTORS
330
17
102
}
100
AcDbMlineStyle
  2
STANDARD
 70
0
  3

 62
256
 51
90.0
 52
90.0
 71
2
 49
0.5
 62
256
  6
BYLAYER
 49
-0.5
 62
256
  6
BYLAYER
  0
LAYOUT
  5
472
102
{ACAD_REACTORS
330
1A
102
}
100
AcDbPlotSettings
  1

  2
none_device
  4
ISO_A3_(420.00_x_297.00_MM)
  6

 40
0.0
 41
0.0
 42
0.0
 43
0.0
 44
420.0
 45
297.0
 46
0.0
 47
0.0
 48
0.0
 49
0.0
140
0.0
141
0.0
142
1.0
143
1.0
 70
1024
 72
1
 73
0
 74
0
  7

 75
0
147
1.0
148
0.0
149
0.0
100
AcDbLayout
  1
Model
 70
0
 71
0
 10
0.0
 20
0.0
 11
420.0
 21
297.0
 12
0.0
 22
0.0
 32
0.0
 14
0.0
 24
0.0
 34
0.0
 15
0.0
 25
0.0
 35
0.0
146
0.0
 13
0.0
 23
0.0
 33
0.0
 16
1.0
 26
0.0
 36
0.0
 17
0.0
 27
1.0
 37
0.0
 76
0
330
20B
345
0
346
0
  0
LAYOUT
  5
473
102
{ACAD_REACTORS
330
1A
102
}
100
AcDbPlotSettings
  1

  2
none_device
  4
ISO_A3_(420.00_x_297.00_MM)
  6

 40
0.0
 41
0.0
 42
0.0
 43
0.0
 44
420.0
 45
297.0
 46
0.0
 47
0.0
 48
0.0
 49
0.0
140
0.0
141
0.0
142
1.0
143
1.0
 70
0
 72
1
 73
0
 74
0
  7

 75
0
147
1.0
148
0.0
149
0.0
100
AcDbLayout
  1
Layout1
 70
0
 71
1
 10
0.0
 20
0.0
 11
420.0
 21
297.0
 12
0.0
 22
0.0
 32
0.0
 14
0.0
 24
0.0
 34
0.0
 15
0.0
 25
0.0
 35
0.0
146
0.0
 13
0.0
 23
0.0
 33
0.0
 16
1.0
 26
0.0
 36
0.0
 17
0.0
 27
1.0
 37
0.0
 76
0
330
20C
345
0
346
0
  0
ENDSEC
  0
EOF
