999
DXF file: 001-m31038-p-1.dxf
999
Pro/ENGINEER 2011490 by Parametric Technology Corporation
  0
SECTION
  2
HEADER
  9
$ACADVER
  1
AC1021
  9
$DWGCODEPAGE
  3
ANSI_1252
  9
$EXTMAX
 10
420.0
 20
297.0
 30
0.0
  9
$EXTMIN
 10
0.0
 20
0.0
 30
0.0
  9
$LIMMIN
 10
0.0
 20
0.0
  9
$LIMMAX
 10
420.0
 20
297.0
  9
$VIEWCTR
 10
210.0
 20
148.5
  9
$VIEWSIZE
 40
297.0
  9
$CLAYER
  8
0
  9
$LTSCALE
 40
23.1
  9
$CELTYPE
  6
BYLAYER
  9
$DIMSCALE
 40
1.0
  9
$DIMASZ
 40
3.5
  9
$DIMEXO
 40
2.625
  9
$DIMDLI
 40
15.96
  9
$DIMEXE
 40
7.56
  9
$DIMCEN
 40
3.78
  9
$DIMLFAC
 40
1.0
  9
$DIMBLK
  1
_FILLED
  9
$DIMTXT
 40
3.5
  9
$DIMTOL
 70
1
  9
$DIMLIM
 70
0
  9
$DIMTFAC
 40
1.0
  9
$DIMTP
 40
0.005
  9
$DIMTM
 40
0.005
  9
$PDMODE
 70
3
  9
$PDSIZE
 40
0.3125
  9
$HANDSEED
  5
2A2
  9
$TILEMODE
 70
1
  9
$MEASUREMENT
 70
1
  9
$INSUNITS
 70
4
  0
ENDSEC
  0
SECTION
  2
CLASSES
  0
CLASS
  1
ACDBDICTIONARYWDFLT
  2
AcDbDictionaryWithDefault
  3
AutoCAD 2000
 90
0
 91
1
280
0
281
0
  0
CLASS
  1
ACDBPLACEHOLDER
  2
AcDbPlaceHolder
  3
AutoCAD 2000
 90
0
 91
1
280
0
281
0
  0
CLASS
  1
LAYOUT
  2
AcDbLayout
  3
AutoCAD 2000
 90
0
 91
0
280
0
281
0
  0
ENDSEC
  0
SECTION
  2
TABLES
  0
TABLE
  2
VPORT
  5
8
100
AcDbSymbolTable
 70
2
  0
VPORT
  5
1F4
100
AcDbSymbolTableRecord
100
AcDbViewportTableRecord
  2
*ACTIVE
 70
0
 10
0.0
 20
0.0
 11
1.0
 21
1.0
 12
210.0
 22
148.5
 13
0.0
 23
0.0
 14
1.0
 24
1.0
 15
0.0
 25
0.0
 16
0.0
 26
0.0
 36
1.0
 17
0.0
 27
0.0
 37
0.0
 40
297.0
 41
1.4141414141
 42
50.0
 43
0.0
 44
0.0
 50
0.0
 51
0.0
 71
0
 72
100
 73
1
 74
1
 75
0
 76
0
 77
0
 78
0
  0
ENDTAB
  0
TABLE
  2
LTYPE
  5
5
100
AcDbSymbolTable
 70
6
  0
LTYPE
  5
14
100
AcDbSymbolTableRecord
100
AcDbLinetypeTableRecord
  2
BYBLOCK
 70
0
  3

 72
65
 73
0
 40
0.0
  0
LTYPE
  5
15
100
AcDbSymbolTableRecord
100
AcDbLinetypeTableRecord
  2
BYLAYER
 70
0
  3

 72
65
 73
0
 40
0.0
  0
LTYPE
  5
16
100
AcDbSymbolTableRecord
100
AcDbLinetypeTableRecord
  2
CONTINUOUS
 70
64
  3
Solid line
 72
65
 73
0
 40
0.0
  0
LTYPE
  5
1F5
100
AcDbSymbolTableRecord
100
AcDbLinetypeTableRecord
  2
CENTER
 70
64
  3
____ _ ____ _ ____ _ ____ _ ____ _ ____ _ ____
 72
65
 73
4
 40
0.6
 49
0.375
 74
0
 49
-0.075
 74
0
 49
0.075
 74
0
 49
-0.075
 74
0
  0
LTYPE
  5
1F6
100
AcDbSymbolTableRecord
100
AcDbLinetypeTableRecord
  2
HIDDEN
 70
64
  3
- - - - - - - - - - - - - - - - - - - -
 72
65
 73
2
 40
0.2
 49
0.1
 74
0
 49
-0.1
 74
0
  0
LTYPE
  5
1F7
100
AcDbSymbolTableRecord
100
AcDbLinetypeTableRecord
  2
PHANTOM
 70
64
  3
_____ _ _ _____ _ _ _____ _ _ _____
 72
65
 73
6
 40
0.8
 49
0.45
 74
0
 49
-0.05
 74
0
 49
0.1
 74
0
 49
-0.05
 74
0
 49
0.1
 74
0
 49
-0.05
 74
0
  0
LTYPE
  5
1F8
100
AcDbSymbolTableRecord
100
AcDbLinetypeTableRecord
  2
DOT
 70
64
  3
. . . . . . . . . . . . . . . . . . . .
 72
65
 73
2
 40
0.2
 49
0.1
 74
0
 49
-0.1
 74
0
  0
LTYPE
  5
1F9
100
AcDbSymbolTableRecord
100
AcDbLinetypeTableRecord
  2
DASHED
 70
64
  3
- - - - - - - - - - - - - - - - - - - -
 72
65
 73
2
 40
0.2
 49
0.1
 74
0
 49
-0.1
 74
0
  0
ENDTAB
  0
TABLE
  2
LAYER
  5
2
100
AcDbSymbolTable
 70
36
  0
LAYER
  5
10
100
AcDbSymbolTableRecord
100
AcDbLayerTableRecord
  2
0
 70
0
 62
7
  6
CONTINUOUS
370
-3
390
F
  0
LAYER
  5
1FA
100
AcDbSymbolTableRecord
100
AcDbLayerTableRecord
  2
DEFAULT_1
 70
0
 62
7
  6
CENTER
370
-3
390
F
  0
LAYER
  5
1FB
100
AcDbSymbolTableRecord
100
AcDbLayerTableRecord
  2
DEFAULT_2
 70
0
 62
8
  6
HIDDEN
370
-3
390
F
  0
LAYER
  5
1FC
100
AcDbSymbolTableRecord
100
AcDbLayerTableRecord
  2
DEFAULT_3
 70
0
 62
7
  6
PHANTOM
370
-3
390
F
  0
LAYER
  5
1FD
100
AcDbSymbolTableRecord
100
AcDbLayerTableRecord
  2
BEZUGSACHSEN
 70
0
 62
7
  6
CONTINUOUS
370
-3
390
F
  0
LAYER
  5
1FE
100
AcDbSymbolTableRecord
100
AcDbLayerTableRecord
  2
BEZUGSEBENEN
 70
0
 62
7
  6
CONTINUOUS
370
-3
390
F
  0
LAYER
  5
1FF
100
AcDbSymbolTableRecord
100
AcDbLayerTableRecord
  2
BG_STARTBEZUEGE
 70
0
 62
7
  6
CONTINUOUS
370
-3
390
F
  0
LAYER
  5
200
100
AcDbSymbolTableRecord
100
AcDbLayerTableRecord
  2
FASEN
 70
0
 62
7
  6
CONTINUOUS
370
-3
390
F
  0
LAYER
  5
201
100
AcDbSymbolTableRecord
100
AcDbLayerTableRecord
  2
HILFEN
 70
0
 62
7
  6
CONTINUOUS
370
-3
390
F
  0
LAYER
  5
202
100
AcDbSymbolTableRecord
100
AcDbLayerTableRecord
  2
KONSTRUKTIONSELEMENTE
 70
0
 62
7
  6
CONTINUOUS
370
-3
390
F
  0
LAYER
  5
203
100
AcDbSymbolTableRecord
100
AcDbLayerTableRecord
  2
NORM
 70
0
 62
7
  6
CONTINUOUS
370
-3
390
F
  0
LAYER
  5
204
100
AcDbSymbolTableRecord
100
AcDbLayerTableRecord
  2
PLATZIERUNG
 70
0
 62
7
  6
CONTINUOUS
370
-3
390
F
  0
LAYER
  5
205
100
AcDbSymbolTableRecord
100
AcDbLayerTableRecord
  2
PLAZIERUNG
 70
0
 62
7
  6
CONTINUOUS
370
-3
390
F
  0
LAYER
  5
206
100
AcDbSymbolTableRecord
100
AcDbLayerTableRecord
  2
RUNDUNGEN
 70
0
 62
7
  6
CONTINUOUS
370
-3
390
F
  0
LAYER
  5
207
100
AcDbSymbolTableRecord
100
AcDbLayerTableRecord
  2
TEIL_STARTBEZUEGE
 70
0
 62
7
  6
CONTINUOUS
370
-3
390
F
  0
LAYER
  5
208
100
AcDbSymbolTableRecord
100
AcDbLayerTableRecord
  2
ZEICHNUNGSBEMASSUNGEN
 70
0
 62
7
  6
CONTINUOUS
370
-3
390
F
  0
ENDTAB
  0
TABLE
  2
STYLE
  5
3
100
AcDbSymbolTable
 70
1
  0
STYLE
  5
11
100
AcDbSymbolTableRecord
100
AcDbTextStyleTableRecord
  2
STANDARD
 70
0
 40
0.0
 41
0.7
 50
0.0
 71
0
 42
0.2
  3
txt
  4

  0
STYLE
  5
209
100
AcDbSymbolTableRecord
100
AcDbTextStyleTableRecord
  2
TEXTSTYLE_1
 70
0
 40
0.0
 41
0.8
 50
0.0
 71
0
 42
0.2
  3
gdt
  4

  0
ENDTAB
  0
TABLE
  2
VIEW
  5
6
100
AcDbSymbolTable
 70
0
  0
ENDTAB
  0
TABLE
  2
UCS
  5
7
100
AcDbSymbolTable
 70
0
  0
ENDTAB
  0
TABLE
  2
APPID
  5
9
100
AcDbSymbolTable
 70
1
  0
APPID
  5
20A
100
AcDbSymbolTableRecord
100
AcDbRegAppTableRecord
  2
ACAD
 70
0
  0
ENDTAB
  0
TABLE
  2
BLOCK_RECORD
  5
1
100
AcDbSymbolTable
 70
0
  0
BLOCK_RECORD
  5
20B
100
AcDbSymbolTableRecord
100
AcDbBlockTableRecord
  2
*Model_Space
  0
BLOCK_RECORD
  5
20C
100
AcDbSymbolTableRecord
100
AcDbBlockTableRecord
  2
*Paper_Space
  0
ENDTAB
  0
TABLE
  2
DIMSTYLE
  5
A
100
AcDbSymbolTable
 70
1
100
AcDbDimStyleTable
 71
0
  0
DIMSTYLE
105
20D
100
AcDbSymbolTableRecord
100
AcDbDimStyleTableRecord
  2
STANDARD
 70
0
  3

  4

 40
1.0
 41
3.5
 42
0.0625
 43
0.38
 44
0.18
 45
0.0
 46
0.0
 47
0.005
 48
0.005
140
3.5
141
0.09
142
0.0
143
25.4
144
1.0
145
0.0
146
1.0
147
0.09
 71
1.0
 72
0.0
 73
0
 74
0
 75
0
 76
0
 77
1
 78
8
170
0
171
2
172
0
173
0
174
0
175
0
176
0
177
0
178
5
270
2
271
3
272
3
273
2
274
2
275
0
280
0
281
0
282
0
283
1
284
8
285
0
286
0
287
3
288
0
340
11
  0
ENDTAB
  0
ENDSEC
  0
SECTION
  2
BLOCKS
  0
BLOCK
  5
20
100
AcDbEntity
  8
0
100
AcDbBlockBegin
  2
*Model_Space
 70
0
 10
0.0
 20
0.0
 30
0.0
  3
*Model_Space
  1

  0
ENDBLK
  5
21
100
AcDbEntity
  8
0
100
AcDbBlockEnd
  0
BLOCK
  5
1C
100
AcDbEntity
  8
0
100
AcDbBlockBegin
  2
*Paper_Space
 70
0
 10
0.0
 20
0.0
 30
0.0
  3
*Paper_Space
  1

  0
ENDBLK
  5
1D
100
AcDbEntity
  8
0
100
AcDbBlockEnd
  0
ENDSEC
  0
SECTION
  2
ENTITIES
  0
MTEXT
  5
20E
100
AcDbEntity
  8
0
100
AcDbMText
 62
5
  6
CONTINUOUS
  7
STANDARD
 71
1
 72
1
 10
289.5659295772
 20
187.8206287807
 30
0.0
 11
0.0
 21
1.0
 31
0.0
 44
0.9
  1
RUD VBMHWA-10
 40
8.0
 41
88.0
  0
MTEXT
  5
20F
100
AcDbEntity
  8
0
100
AcDbMText
 62
5
  6
CONTINUOUS
  7
STANDARD
 71
1
 72
1
 10
134.8750287308
 20
186.1066021785
 30
0.0
 11
0.0
 21
1.0
 31
0.0
 44
0.9
  1
RUD VBMHWA-10
 40
8.0
 41
88.0
  0
LINE
  5
210
100
AcDbEntity
  8
0
100
AcDbLine
 62
7
  6
CONTINUOUS
 10
0.0
 20
0.0
 11
0.0
 21
297.0
  0
LINE
  5
211
100
AcDbEntity
  8
0
100
AcDbLine
 62
7
  6
CONTINUOUS
 10
0.0
 20
0.0
 11
420.0
 21
0.0
  0
LINE
  5
212
100
AcDbEntity
  8
0
100
AcDbLine
 62
7
  6
CONTINUOUS
 10
0.0
 20
297.0
 11
420.0
 21
297.0
  0
LINE
  5
213
100
AcDbEntity
  8
0
100
AcDbLine
 62
7
  6
CONTINUOUS
 10
420.0
 20
0.0
 11
420.0
 21
297.0
  0
LINE
  5
214
100
AcDbEntity
  8
RUNDUNGEN
100
AcDbLine
 62
9
  6
CONTINUOUS
 10
127.5248470685
 20
66.0006597015
 11
122.5248470685
 21
66.0006597016
  0
LINE
  5
215
100
AcDbEntity
  8
RUNDUNGEN
100
AcDbLine
 62
9
  6
CONTINUOUS
 10
152.5248470685
 20
66.0006597015
 11
157.5248470685
 21
66.0006597015
  0
LINE
  5
216
100
AcDbEntity
  8
RUNDUNGEN
100
AcDbLine
 62
9
  6
CONTINUOUS
 10
127.5248470685
 20
93.5800391779
 11
122.5248470685
 21
93.5800391779
  0
LINE
  5
217
100
AcDbEntity
  8
RUNDUNGEN
100
AcDbLine
 62
9
  6
CONTINUOUS
 10
152.5248470685
 20
93.5800391779
 11
157.5248470685
 21
93.5800391779
  0
LINE
  5
218
100
AcDbEntity
  8
BEZUGSACHSEN
100
AcDbLine
 62
7
  6
CONTINUOUS
 10
117.4889233609
 20
452.9866222943
 11
112.0348470685
 21
446.4867072786
  0
LINE
  5
219
100
AcDbEntity
  8
RUNDUNGEN
100
AcDbLine
 62
7
  6
CONTINUOUS
 10
149.7789145463
 20
107.1867072786
 11
130.2946598802
 21
107.1867072786
  0
LINE
  5
21A
100
AcDbEntity
  8
RUNDUNGEN
100
AcDbLine
 62
7
  6
CONTINUOUS
 10
126.1970333753
 20
109.1867072786
 11
130.0825034118
 21
109.1867072786
  0
LINE
  5
21B
100
AcDbEntity
  8
RUNDUNGEN
100
AcDbLine
 62
7
  6
CONTINUOUS
 10
149.9940201394
 20
109.1867072786
 11
153.8526607617
 21
109.1867072786
  0
LINE
  5
21C
100
AcDbEntity
  8
0
100
AcDbLine
 62
7
  6
CONTINUOUS
 10
54.9232754898
 20
110.9325710516
 11
76.4792206334
 21
84.1867072786
  0
LINE
  5
21D
100
AcDbEntity
  8
BEZUGSACHSEN
100
AcDbLine
 62
7
  6
CONTINUOUS
 10
76.4792206334
 20
84.1867072786
 11
54.9232754898
 21
110.9325710516
  0
LINE
  5
21E
100
AcDbEntity
  8
RUNDUNGEN
100
AcDbLine
 62
9
  6
CONTINUOUS
 10
91.1418061827
 20
54.5291309745
 11
71.9804058563
 21
81.8944466571
  0
LINE
  5
21F
100
AcDbEntity
  8
RUNDUNGEN
100
AcDbLine
 62
7
  6
CONTINUOUS
 10
95.2375664042
 20
57.3970131563
 11
76.4792206334
 21
84.1867072786
  0
LINE
  5
220
100
AcDbEntity
  8
RUNDUNGEN
100
AcDbLine
 62
7
  6
CONTINUOUS
 10
58.6590901497
 20
75.1068972838
 11
69.7219740609
 21
42.9779494901
  0
LINE
  5
221
100
AcDbEntity
  8
RUNDUNGEN
100
AcDbLine
 62
9
  6
CONTINUOUS
 10
63.1579049268
 20
77.3991579053
 11
74.4495669389
 21
44.6057902624
  0
LINE
  5
222
100
AcDbEntity
  8
0
100
AcDbLine
 62
7
  6
CONTINUOUS
 10
49.6914984827
 20
108.2668475204
 11
58.6590901497
 21
75.1068972838
  0
LINE
  5
223
100
AcDbEntity
  8
RUNDUNGEN
100
AcDbLine
 62
9
  6
CONTINUOUS
 10
107.6052621423
 20
21.0007315525
 11
107.6141971505
 21
16.000739536
  0
LINE
  5
224
100
AcDbEntity
  8
BEZUGSACHSEN
100
AcDbLine
 62
7
  6
CONTINUOUS
 10
112.0348470685
 20
446.4867072786
 11
112.0348470685
 21
443.9867068355
  0
LINE
  5
225
100
AcDbEntity
  8
BEZUGSACHSEN
100
AcDbLine
 62
7
  6
CONTINUOUS
 10
112.0348470685
 20
431.9867075124
 11
112.0348470685
 21
427.9867072786
  0
LINE
  5
226
100
AcDbEntity
  8
0
100
AcDbLine
 62
7
  6
CONTINUOUS
 10
112.0348470685
 20
427.9867072786
 11
112.0348470685
 21
370.9867072786
  0
LINE
  5
227
100
AcDbEntity
  8
0
100
AcDbLine
 62
7
  6
CONTINUOUS
 10
115.7861357625
 20
443.4867072786
 11
115.7861357625
 21
415.9867072786
  0
LINE
  5
228
100
AcDbEntity
  8
RUNDUNGEN
100
AcDbLine
 62
7
  6
CONTINUOUS
 10
122.5248470685
 20
93.5800391779
 11
122.5248470685
 21
66.0006597015
  0
LINE
  5
229
100
AcDbEntity
  8
BEZUGSACHSEN
100
AcDbLine
 62
7
  6
CONTINUOUS
 10
126.7848470685
 20
109.1867072786
 11
126.7848470685
 21
370.9867072786
  0
LINE
  5
22A
100
AcDbEntity
  8
RUNDUNGEN
100
AcDbLine
 62
9
  6
CONTINUOUS
 10
127.5248470685
 20
93.5800391779
 11
127.5248470685
 21
66.0006597015
  0
LINE
  5
22B
100
AcDbEntity
  8
RUNDUNGEN
100
AcDbLine
 62
7
  6
CONTINUOUS
 10
134.5348470685
 20
430.7659262679
 11
134.5348470685
 21
443.4867072786
  0
LINE
  5
22C
100
AcDbEntity
  8
KONSTRUKTIONSELEMENTE
100
AcDbLine
 62
7
  6
CONTINUOUS
 10
134.5348470685
 20
443.4867072786
 11
134.5348470685
 21
452.9867072786
  0
LINE
  5
22D
100
AcDbEntity
  8
RUNDUNGEN
100
AcDbLine
 62
7
  6
CONTINUOUS
 10
145.5348470685
 20
430.7659262679
 11
145.5348470685
 21
443.4867072786
  0
LINE
  5
22E
100
AcDbEntity
  8
KONSTRUKTIONSELEMENTE
100
AcDbLine
 62
7
  6
CONTINUOUS
 10
145.5348470685
 20
443.4867072786
 11
145.5348470685
 21
452.9867072786
  0
LINE
  5
22F
100
AcDbEntity
  8
RUNDUNGEN
100
AcDbLine
 62
9
  6
CONTINUOUS
 10
152.5248470685
 20
66.0006597015
 11
152.5248470685
 21
93.5800391779
  0
LINE
  5
230
100
AcDbEntity
  8
KONSTRUKTIONSELEMENTE
100
AcDbLine
 62
7
  6
CONTINUOUS
 10
153.2848470685
 20
109.1867072786
 11
153.2848470685
 21
370.9867072786
  0
LINE
  5
231
100
AcDbEntity
  8
BEZUGSACHSEN
100
AcDbLine
 62
7
  6
CONTINUOUS
 10
153.2848470685
 20
109.1867072786
 11
153.2848470685
 21
370.9867072786
  0
LINE
  5
232
100
AcDbEntity
  8
RUNDUNGEN
100
AcDbLine
 62
7
  6
CONTINUOUS
 10
157.5248470685
 20
66.0006597015
 11
157.5248470685
 21
93.5800391779
  0
LINE
  5
233
100
AcDbEntity
  8
0
100
AcDbLine
 62
7
  6
CONTINUOUS
 10
164.2835583745
 20
415.9867072786
 11
164.2835583745
 21
443.4867072786
  0
LINE
  5
234
100
AcDbEntity
  8
BEZUGSACHSEN
100
AcDbLine
 62
7
  6
CONTINUOUS
 10
168.0348470685
 20
446.4867072786
 11
168.0348470685
 21
443.986706823
  0
LINE
  5
235
100
AcDbEntity
  8
BEZUGSACHSEN
100
AcDbLine
 62
7
  6
CONTINUOUS
 10
168.0348470685
 20
431.9867075249
 11
168.0348470685
 21
427.9867072786
  0
LINE
  5
236
100
AcDbEntity
  8
0
100
AcDbLine
 62
7
  6
CONTINUOUS
 10
168.0348470685
 20
370.9867072786
 11
168.0348470685
 21
427.9867072786
  0
LINE
  5
237
100
AcDbEntity
  8
0
100
AcDbLine
 62
9
  6
CONTINUOUS
 10
54.9232754898
 20
110.9325710516
 11
49.6914984827
 21
108.2668475204
  0
LINE
  5
238
100
AcDbEntity
  8
RUNDUNGEN
100
AcDbLine
 62
7
  6
CONTINUOUS
 10
58.6590901497
 20
75.1068972838
 11
63.6853479946
 21
77.6679035715
  0
LINE
  5
239
100
AcDbEntity
  8
RUNDUNGEN
100
AcDbLine
 62
7
  6
CONTINUOUS
 10
71.4529627885
 20
81.6257009909
 11
76.4792206334
 21
84.1867072786
  0
LINE
  5
23A
100
AcDbEntity
  8
RUNDUNGEN
100
AcDbLine
 62
9
  6
CONTINUOUS
 10
91.1418061827
 20
54.5291309745
 11
95.2375664042
 21
57.3970131563
  0
LINE
  5
23B
100
AcDbEntity
  8
0
100
AcDbLine
 62
7
  6
CONTINUOUS
 10
112.0348470685
 20
370.9867072786
 11
168.0348470685
 21
370.9867072786
  0
LINE
  5
23C
100
AcDbEntity
  8
RUNDUNGEN
100
AcDbLine
 62
9
  6
CONTINUOUS
 10
74.4495669389
 20
44.6057902624
 11
69.7219740609
 21
42.9779494902
  0
LINE
  5
23D
100
AcDbEntity
  8
RUNDUNGEN
100
AcDbLine
 62
9
  6
CONTINUOUS
 10
123.3016465378
 20
415.9867072786
 11
127.2388701921
 21
416.6925896315
  0
LINE
  5
23E
100
AcDbEntity
  8
0
100
AcDbLine
 62
7
  6
CONTINUOUS
 10
125.6126419667
 20
405.9867072786
 11
154.4570521704
 21
405.9867072786
  0
LINE
  5
23F
100
AcDbEntity
  8
0
100
AcDbLine
 62
9
  6
CONTINUOUS
 10
123.3016351477
 20
415.9867963827
 11
115.7861357625
 21
415.9867072786
  0
LINE
  5
240
100
AcDbEntity
  8
0
100
AcDbLine
 62
9
  6
CONTINUOUS
 10
164.2835583745
 20
415.9867072786
 11
156.7680570357
 21
415.9867811085
  0
LINE
  5
241
100
AcDbEntity
  8
BEZUGSACHSEN
100
AcDbLine
 62
7
  6
CONTINUOUS
 10
162.58077331
 20
452.9866192746
 11
168.0348470685
 21
446.4867072786
  0
LINE
  5
242
100
AcDbEntity
  8
BEZUGSACHSEN
100
AcDbLine
 62
7
  6
CONTINUOUS
 10
134.5348470685
 20
431.9867072786
 11
145.5348470685
 21
431.9867072786
  0
LINE
  5
243
100
AcDbEntity
  8
RUNDUNGEN
100
AcDbLine
 62
9
  6
CONTINUOUS
 10
152.8308239449
 20
416.6925896315
 11
156.7680475992
 21
415.9867072786
  0
LINE
  5
244
100
AcDbEntity
  8
KONSTRUKTIONSELEMENTE
100
AcDbLine
 62
7
  6
CONTINUOUS
 10
164.2835583745
 20
443.4867072786
 11
145.5348470685
 21
443.4867072786
  0
LINE
  5
245
100
AcDbEntity
  8
KONSTRUKTIONSELEMENTE
100
AcDbLine
 62
7
  6
CONTINUOUS
 10
134.5348470685
 20
443.4867072786
 11
115.7861357625
 21
443.4867072786
  0
LINE
  5
246
100
AcDbEntity
  8
BEZUGSACHSEN
100
AcDbLine
 62
7
  6
CONTINUOUS
 10
134.5348470685
 20
443.9867072786
 11
145.5348470685
 21
443.9867072786
  0
LINE
  5
247
100
AcDbEntity
  8
KONSTRUKTIONSELEMENTE
100
AcDbLine
 62
9
  6
CONTINUOUS
 10
164.5571952026
 20
444.4940537433
 11
145.5348470685
 21
444.4940537433
  0
LINE
  5
248
100
AcDbEntity
  8
KONSTRUKTIONSELEMENTE
100
AcDbLine
 62
9
  6
CONTINUOUS
 10
134.5348470685
 20
444.4940537433
 11
115.5124989344
 21
444.4940537433
  0
LINE
  5
249
100
AcDbEntity
  8
KONSTRUKTIONSELEMENTE
100
AcDbLine
 62
7
  6
CONTINUOUS
 10
168.0348470685
 20
446.4867072786
 11
165.1595361213
 21
446.4867072786
  0
LINE
  5
24A
100
AcDbEntity
  8
KONSTRUKTIONSELEMENTE
100
AcDbLine
 62
7
  6
CONTINUOUS
 10
114.9101580157
 20
446.4867072786
 11
112.0348470685
 21
446.4867072786
  0
LINE
  5
24B
100
AcDbEntity
  8
KONSTRUKTIONSELEMENTE
100
AcDbLine
 62
7
  6
CONTINUOUS
 10
117.4889796132
 20
452.9867072786
 11
134.5348470685
 21
452.9867072786
  0
LINE
  5
24C
100
AcDbEntity
  8
KONSTRUKTIONSELEMENTE
100
AcDbLine
 62
7
  6
CONTINUOUS
 10
145.5348470685
 20
452.9867072786
 11
162.5807150588
 21
452.9867072786
  0
LINE
  5
24D
100
AcDbEntity
  8
KONSTRUKTIONSELEMENTE
100
AcDbLine
 62
7
  6
CONTINUOUS
 10
297.3015464035
 20
16.0006756684
 11
289.3015464035
 21
16.0006756684
  0
LINE
  5
24E
100
AcDbEntity
  8
RUNDUNGEN
100
AcDbLine
 62
9
  6
CONTINUOUS
 10
297.3015464035
 20
42.9779494901
 11
289.3015464035
 21
42.9779494901
  0
LINE
  5
24F
100
AcDbEntity
  8
RUNDUNGEN
100
AcDbLine
 62
7
  6
CONTINUOUS
 10
289.3015464035
 20
75.1068972838
 11
297.3015464035
 21
75.1068972838
  0
LINE
  5
250
100
AcDbEntity
  8
RUNDUNGEN
100
AcDbLine
 62
9
  6
CONTINUOUS
 10
302.3015464035
 20
93.5800391779
 11
300.0543378397
 21
93.5800391779
  0
LINE
  5
251
100
AcDbEntity
  8
RUNDUNGEN
100
AcDbLine
 62
9
  6
CONTINUOUS
 10
284.3015464035
 20
93.5800391779
 11
286.5487549674
 21
93.5800391779
  0
LINE
  5
252
100
AcDbEntity
  8
RUNDUNGEN
100
AcDbLine
 62
7
  6
CONTINUOUS
 10
306.5513350412
 20
107.1867072786
 11
302.283040345
 21
107.1867072786
  0
LINE
  5
253
100
AcDbEntity
  8
RUNDUNGEN
100
AcDbLine
 62
7
  6
CONTINUOUS
 10
280.0517462801
 20
107.1867072786
 11
284.3200535157
 21
107.1867072786
  0
LINE
  5
254
100
AcDbEntity
  8
RUNDUNGEN
100
AcDbLine
 62
7
  6
CONTINUOUS
 10
284.5543550978
 20
109.1867072786
 11
290.2507258187
 21
109.1867072786
  0
LINE
  5
255
100
AcDbEntity
  8
RUNDUNGEN
100
AcDbLine
 62
7
  6
CONTINUOUS
 10
296.3523669884
 20
109.1867072786
 11
302.0487377093
 21
109.1867072786
  0
LINE
  5
256
100
AcDbEntity
  8
KONSTRUKTIONSELEMENTE
100
AcDbLine
 62
7
  6
CONTINUOUS
 10
279.7865753718
 20
444.4940537433
 11
279.3015464035
 21
443.4867072786
  0
LINE
  5
257
100
AcDbEntity
  8
0
100
AcDbLine
 62
7
  6
CONTINUOUS
 10
265.3015464035
 20
405.9867072786
 11
265.3015464035
 21
370.9867072786
  0
LINE
  5
258
100
AcDbEntity
  8
0
100
AcDbLine
 62
7
  6
CONTINUOUS
 10
279.3015464035
 20
415.9867072786
 11
279.3015464035
 21
443.4867072786
  0
LINE
  5
259
100
AcDbEntity
  8
KONSTRUKTIONSELEMENTE
100
AcDbLine
 62
7
  6
CONTINUOUS
 10
280.0515464035
 20
107.1867072786
 11
280.0515464035
 21
370.9867072786
  0
LINE
  5
25A
100
AcDbEntity
  8
0
100
AcDbLine
 62
7
  6
CONTINUOUS
 10
296.2205499066
 20
109.742418149
 11
302.3052812928
 21
84.090572946
  0
LINE
  5
25B
100
AcDbEntity
  8
KONSTRUKTIONSELEMENTE
100
AcDbLine
 62
7
  6
CONTINUOUS
 10
284.3015464035
 20
84.1058691219
 11
284.3015464035
 21
77.6679035715
  0
LINE
  5
25C
100
AcDbEntity
  8
RUNDUNGEN
100
AcDbLine
 62
7
  6
CONTINUOUS
 10
284.3015464035
 20
21.0006772015
 11
284.3015464035
 21
77.6679035715
  0
LINE
  5
25D
100
AcDbEntity
  8
RUNDUNGEN
100
AcDbLine
 62
7
  6
CONTINUOUS
 10
284.3015464035
 20
84.1058691219
 11
284.3015464035
 21
107.1867072786
  0
LINE
  5
25E
100
AcDbEntity
  8
RUNDUNGEN
100
AcDbLine
 62
9
  6
CONTINUOUS
 10
289.3015464035
 20
16.0006756684
 11
289.3015464035
 21
75.1068972838
  0
LINE
  5
25F
100
AcDbEntity
  8
RUNDUNGEN
100
AcDbLine
 62
9
  6
CONTINUOUS
 10
289.3015464035
 20
105.1851824975
 11
289.3015464035
 21
109.1867072786
  0
LINE
  5
260
100
AcDbEntity
  8
RUNDUNGEN
100
AcDbLine
 62
9
  6
CONTINUOUS
 10
297.3015464035
 20
109.1867072786
 11
297.3015464035
 21
105.1851824975
  0
LINE
  5
261
100
AcDbEntity
  8
RUNDUNGEN
100
AcDbLine
 62
9
  6
CONTINUOUS
 10
297.3015464035
 20
75.1068972838
 11
297.3015464035
 21
16.0006756684
  0
LINE
  5
262
100
AcDbEntity
  8
RUNDUNGEN
100
AcDbLine
 62
7
  6
CONTINUOUS
 10
302.3015464035
 20
107.1867072786
 11
302.3015464035
 21
84.1058691219
  0
LINE
  5
263
100
AcDbEntity
  8
0
100
AcDbLine
 62
7
  6
CONTINUOUS
 10
302.3015464035
 20
84.1058691219
 11
302.3015464035
 21
77.6679035715
  0
LINE
  5
264
100
AcDbEntity
  8
RUNDUNGEN
100
AcDbLine
 62
7
  6
CONTINUOUS
 10
302.3015464035
 20
21.0006772015
 11
302.3015464035
 21
77.6679035715
  0
LINE
  5
265
100
AcDbEntity
  8
BEZUGSACHSEN
100
AcDbLine
 62
7
  6
CONTINUOUS
 10
306.5515464035
 20
107.1867072786
 11
306.5515464035
 21
370.9867072786
  0
LINE
  5
266
100
AcDbEntity
  8
0
100
AcDbLine
 62
7
  6
CONTINUOUS
 10
307.3015464035
 20
443.4867072786
 11
307.3015464035
 21
415.9867072786
  0
LINE
  5
267
100
AcDbEntity
  8
BEZUGSACHSEN
100
AcDbLine
 62
7
  6
CONTINUOUS
 10
321.3015464035
 20
405.9867072786
 11
321.3015464035
 21
370.9867072786
  0
LINE
  5
268
100
AcDbEntity
  8
BEZUGSACHSEN
100
AcDbLine
 62
7
  6
CONTINUOUS
 10
284.2978115143
 20
84.090572946
 11
290.3825429004
 21
109.742418149
  0
LINE
  5
269
100
AcDbEntity
  8
KONSTRUKTIONSELEMENTE
100
AcDbLine
 62
7
  6
CONTINUOUS
 10
307.3015464035
 20
443.4867072786
 11
306.8165174353
 21
444.4940537433
  0
LINE
  5
26A
100
AcDbEntity
  8
0
100
AcDbLine
 62
7
  6
CONTINUOUS
 10
265.3017744809
 20
370.9867072786
 11
321.3013183262
 21
370.9867072786
  0
LINE
  5
26B
100
AcDbEntity
  8
0
100
AcDbLine
 62
7
  6
CONTINUOUS
 10
265.3015464035
 20
405.9867072786
 11
269.3015464035
 21
405.9867072786
  0
LINE
  5
26C
100
AcDbEntity
  8
0
100
AcDbLine
 62
7
  6
CONTINUOUS
 10
317.3015464035
 20
405.9867072786
 11
321.3015464035
 21
405.9867072786
  0
LINE
  5
26D
100
AcDbEntity
  8
KONSTRUKTIONSELEMENTE
100
AcDbLine
 62
7
  6
CONTINUOUS
 10
305.6607534979
 20
446.4867072786
 11
280.9423393092
 21
446.4867072786
  0
ARC
  5
26E
100
AcDbEntity
  8
RUNDUNGEN
100
AcDbCircle
 62
7
  6
CONTINUOUS
 10
107.5248470685
 20
66.0006597015
 40
50.0
100
AcDbArc
 50
270.1023877065
 51
360.0
  0
ARC
  5
26F
100
AcDbEntity
  8
RUNDUNGEN
100
AcDbCircle
 62
9
  6
CONTINUOUS
 10
107.5248470685
 20
66.0006597015
 40
45.0
100
AcDbArc
 50
270.1023877065
 51
360.0
  0
ARC
  5
270
100
AcDbEntity
  8
RUNDUNGEN
100
AcDbCircle
 62
7
  6
CONTINUOUS
 10
107.5427170849
 20
56.0006756684
 40
40.0
100
AcDbArc
 50
199.0
 51
270.1023877065
  0
ARC
  5
271
100
AcDbEntity
  8
RUNDUNGEN
100
AcDbCircle
 62
7
  6
CONTINUOUS
 10
157.5248470685
 20
93.5800391779
 40
35.0
100
AcDbArc
 50
153.5187576662
 51
180.0
  0
ARC
  5
272
100
AcDbEntity
  8
RUNDUNGEN
100
AcDbCircle
 62
7
  6
CONTINUOUS
 10
122.5248470685
 20
93.5800391779
 40
35.0
100
AcDbArc
 50
0.0
 51
26.4812423338
  0
ARC
  5
273
100
AcDbEntity
  8
RUNDUNGEN
100
AcDbCircle
 62
9
  6
CONTINUOUS
 10
107.5427170849
 20
56.0006756684
 40
35.0
100
AcDbArc
 50
199.0
 51
270.1023877065
  0
ARC
  5
274
100
AcDbEntity
  8
KONSTRUKTIONSELEMENTE
100
AcDbCircle
 62
7
  6
CONTINUOUS
 10
195.0040741237
 20
436.3779114303
 40
31.5100650916
100
AcDbArc
 50
161.2879831096
 51
165.0738982565
  0
ARC
  5
275
100
AcDbEntity
  8
KONSTRUKTIONSELEMENTE
100
AcDbCircle
 62
7
  6
CONTINUOUS
 10
85.7294836564
 20
436.5785846681
 40
30.8169214837
100
AcDbArc
 50
14.8835087385
 51
18.7546098955
  0
ARC
  5
276
100
AcDbEntity
  8
RUNDUNGEN
100
AcDbCircle
 62
9
  6
CONTINUOUS
 10
122.5248470685
 20
93.5800391779
 40
30.0
100
AcDbArc
 50
0.0
 51
26.9720376563
  0
ARC
  5
277
100
AcDbEntity
  8
RUNDUNGEN
100
AcDbCircle
 62
9
  6
CONTINUOUS
 10
157.5248470685
 20
93.5800391779
 40
30.0
100
AcDbArc
 50
153.0279623437
 51
180.0
  0
ARC
  5
278
100
AcDbEntity
  8
RUNDUNGEN
100
AcDbCircle
 62
9
  6
CONTINUOUS
 10
107.5248470685
 20
66.0006597015
 40
20.0
100
AcDbArc
 50
215.0
 51
360.0
  0
ARC
  5
279
100
AcDbEntity
  8
RUNDUNGEN
100
AcDbCircle
 62
9
  6
CONTINUOUS
 10
140.0348470685
 20
418.9867072786
 40
17.0
100
AcDbArc
 50
349.8360019178
 51
71.1234963694
  0
ARC
  5
27A
100
AcDbEntity
  8
RUNDUNGEN
100
AcDbCircle
 62
9
  6
CONTINUOUS
 10
140.0348470685
 20
418.9867072786
 40
17.0
100
AcDbArc
 50
108.8765036306
 51
190.1639462491
  0
ARC
  5
27B
100
AcDbEntity
  8
RUNDUNGEN
100
AcDbCircle
 62
7
  6
CONTINUOUS
 10
107.5248470685
 20
66.0006597015
 40
15.0
100
AcDbArc
 50
215.0
 51
360.0
  0
ARC
  5
27C
100
AcDbEntity
  8
RUNDUNGEN
100
AcDbCircle
 62
7
  6
CONTINUOUS
 10
140.0348470685
 20
418.9867072786
 40
13.0
100
AcDbArc
 50
115.0289994876
 51
64.9710005124
  0
ARC
  5
27D
100
AcDbEntity
  8
0
100
AcDbCircle
 62
7
  6
CONTINUOUS
 10
52.5874689001
 20
109.0500175794
 40
3.0
100
AcDbArc
 50
38.8672285952
 51
195.1327714048
  0
CIRCLE
  5
27E
100
AcDbEntity
  8
BEZUGSACHSEN
100
AcDbCircle
 62
7
  6
CONTINUOUS
 10
122.3348470685
 20
437.9867072786
 40
2.5
  0
ARC
  5
27F
100
AcDbEntity
  8
KONSTRUKTIONSELEMENTE
100
AcDbCircle
 62
7
  6
CONTINUOUS
 10
293.3015464035
 20
437.9867072786
 40
15.0
100
AcDbArc
 50
25.7104293723
 51
154.2895706277
  0
ARC
  5
280
100
AcDbEntity
  8
0
100
AcDbCircle
 62
7
  6
CONTINUOUS
 10
269.3015464035
 20
415.9867072786
 40
10.0
100
AcDbArc
 50
270.0
 51
360.0
  0
ARC
  5
281
100
AcDbEntity
  8
0
100
AcDbCircle
 62
7
  6
CONTINUOUS
 10
317.3015464035
 20
415.9867072786
 40
10.0
100
AcDbArc
 50
180.0
 51
270.0
  0
CIRCLE
  5
282
100
AcDbEntity
  8
BEZUGSACHSEN
100
AcDbCircle
 62
7
  6
CONTINUOUS
 10
293.3015464035
 20
437.9867072786
 40
6.0
  0
ARC
  5
283
100
AcDbEntity
  8
RUNDUNGEN
100
AcDbCircle
 62
7
  6
CONTINUOUS
 10
289.3015464035
 20
21.0006756684
 40
5.0
100
AcDbArc
 50
180.0
 51
270.0
  0
ARC
  5
284
100
AcDbEntity
  8
RUNDUNGEN
100
AcDbCircle
 62
7
  6
CONTINUOUS
 10
297.3015464035
 20
21.0006756684
 40
5.0
100
AcDbArc
 50
270.0
 51
360.0
  0
ARC
  5
285
100
AcDbEntity
  8
BEZUGSACHSEN
100
AcDbCircle
 62
7
  6
CONTINUOUS
 10
293.3015491471
 20
109.0500141089
 40
3.0000034705
100
AcDbArc
 50
90.0000523984
 51
166.6557607643
  0
ARC
  5
286
100
AcDbEntity
  8
0
100
AcDbCircle
 62
7
  6
CONTINUOUS
 10
293.3015487485
 20
109.0500220092
 40
2.9999955702
100
AcDbArc
 50
13.343571451
 51
90.0000447857
  0
SPLINE
  5
287
100
AcDbEntity
  8
BEZUGSACHSEN
100
AcDbSpline
 62
7
  6
CONTINUOUS
 70
0
 71
3
 72
28
 73
24
 74
0
 42
0.0000001
 43
0.0000001
 44
0.0000000001
 40
0.0
 40
0.0
 40
0.0
 40
0.0
 40
0.0003084386
 40
0.0012324681
 40
0.0027701594
 40
0.0049195846
 40
0.0076788163
 40
0.0110459284
 40
0.0195960922
 40
0.0305493849
 40
0.0438665563
 40
0.0595043721
 40
0.0774197114
 40
0.1198798599
 40
0.1707606994
 40
0.2295322663
 40
0.2955873401
 40
0.3682899992
 40
0.4469458204
 40
0.5308340863
 40
0.619161274
 40
0.8058515034
 40
1.0
 40
1.0
 40
1.0
 40
1.0
 10
168.0348470685
 20
443.9867072786
 30
0.0
 10
168.0353446486
 20
443.9870798945
 30
0.0
 10
168.0332909474
 20
443.9822668231
 30
0.0
 10
168.0335936092
 20
443.9791096428
 30
0.0
 10
168.0308056858
 20
443.9687128172
 30
0.0
 10
168.0284623754
 20
443.9565851821
 30
0.0
 10
168.0248461214
 20
443.9400482089
 30
0.0
 10
168.018775684
 20
443.9112190765
 30
0.0
 10
168.0092153356
 20
443.8660487516
 30
0.0
 10
167.9956761046
 20
443.8013359757
 30
0.0
 10
167.9793780289
 20
443.7225601482
 30
0.0
 10
167.960520943
 20
443.630001941
 30
0.0
 10
167.930427771
 20
443.479785807
 30
0.0
 10
167.887647861
 20
443.259674344
 30
0.0
 10
167.8319980366
 20
442.9581907993
 30
0.0
 10
167.7715158293
 20
442.6092611228
 30
0.0
 10
167.7085214805
 20
442.2161594166
 30
0.0
 10
167.6453792898
 20
441.7825359996
 30
0.0
 10
167.5844585033
 20
441.3123231721
 30
0.0
 10
167.5281709248
 20
440.8098263482
 30
0.0
 10
167.4608295601
 20
440.089584952
 30
0.0
 10
167.4009325706
 20
439.145645948
 30
0.0
 10
167.3844357309
 20
438.3779983769
 30
0.0
 10
167.3844357309
 20
437.9867072786
 30
0.0
  0
SPLINE
  5
288
100
AcDbEntity
  8
BEZUGSACHSEN
100
AcDbSpline
 62
7
  6
CONTINUOUS
 70
0
 71
3
 72
26
 73
22
 74
0
 42
0.0000001
 43
0.0000001
 44
0.0000000001
 40
0.0
 40
0.0
 40
0.0
 40
0.0
 40
0.0003084408
 40
0.001232477
 40
0.0027701795
 40
0.0049196202
 40
0.011046008
 40
0.0195962338
 40
0.030549606
 40
0.0438668741
 40
0.0595048035
 40
0.0774202731
 40
0.11988073
 40
0.1707619393
 40
0.2295339333
 40
0.2955894873
 40
0.368292675
 40
0.4469490683
 40
0.6191585011
 40
0.8058500894
 40
1.0
 40
1.0
 40
1.0
 40
1.0
 10
112.0348470685
 20
431.9867072786
 30
0.0
 10
112.0344896374
 20
431.9861986809
 30
0.0
 10
112.0362023093
 20
431.9913425127
 30
0.0
 10
112.0362292709
 20
431.9941818901
 30
0.0
 10
112.0388250635
 20
432.004749301
 30
0.0
 10
112.0425634176
 20
432.0231930687
 30
0.0
 10
112.0499010143
 20
432.0570308227
 30
0.0
 10
112.0604247827
 20
432.1072526052
 30
0.0
 10
112.0740377178
 20
432.172119831
 30
0.0
 10
112.0903093369
 20
432.2508402167
 30
0.0
 10
112.1091753855
 20
432.3434172051
 30
0.0
 10
112.1392647659
 20
432.4936253932
 30
0.0
 10
112.1820469639
 20
432.7137416437
 30
0.0
 10
112.2376958503
 20
433.015223255
 30
0.0
 10
112.2981784592
 20
433.3641536164
 30
0.0
 10
112.3611722821
 20
433.7572549065
 30
0.0
 10
112.424316345
 20
434.1908792893
 30
0.0
 10
112.5080983052
 20
434.8376213352
 30
0.0
 10
112.5981393389
 20
435.7150895581
 30
0.0
 10
112.6687666216
 20
436.8277610661
 30
0.0
 10
112.6852584062
 20
437.5954161765
 30
0.0
 10
112.6852584062
 20
437.9867072786
 30
0.0
  0
SPLINE
  5
289
100
AcDbEntity
  8
BEZUGSACHSEN
100
AcDbSpline
 62
7
  6
CONTINUOUS
 70
0
 71
3
 72
29
 73
25
 74
0
 42
0.0000001
 43
0.0000001
 44
0.0000000001
 40
0.0
 40
0.0
 40
0.0
 40
0.0
 40
0.1941484801
 40
0.3808386929
 40
0.4691658721
 40
0.5530541301
 40
0.6317099439
 40
0.7044125959
 40
0.7704676633
 40
0.8292392244
 40
0.8801200589
 40
0.9024346937
 40
0.9225802963
 40
0.9404956339
 40
0.9561334482
 40
0.9694506182
 40
0.9804039098
 40
0.9889540727
 40
0.9923211844
 40
0.9950804158
 40
0.9972298408
 40
0.998767532
 40
0.9996915614
 40
1.0
 40
1.0
 40
1.0
 40
1.0
 10
167.3844357309
 20
437.9867072786
 30
0.0
 10
167.3844357309
 20
437.595416177
 30
0.0
 10
167.4009325714
 20
436.8277686014
 30
0.0
 10
167.4608295597
 20
435.8838295927
 30
0.0
 10
167.5281709282
 20
435.1635881965
 30
0.0
 10
167.5844584973
 20
434.6610913715
 30
0.0
 10
167.6453793167
 20
434.1908785524
 30
0.0
 10
167.7085213978
 20
433.757255112
 30
0.0
 10
167.7715161011
 20
433.3641534873
 30
0.0
 10
167.8319971985
 20
433.0152235628
 30
0.0
 10
167.8802797519
 20
432.7536686056
 30
0.0
 10
167.9157898062
 20
432.568928146
 30
0.0
 10
167.9392625792
 20
432.4495313807
 30
0.0
 10
167.9605208745
 20
432.3434126823
 30
0.0
 10
167.9793778376
 20
432.2508540263
 30
0.0
 10
167.9956767441
 20
432.1720797196
 30
0.0
 10
168.0092135669
 20
432.1073626706
 30
0.0
 10
168.0187794694
 20
432.0622021834
 30
0.0
 10
168.0248414029
 20
432.0333579929
 30
0.0
 10
168.028475537
 20
432.0168526819
 30
0.0
 10
168.0307725955
 20
432.0046431448
 30
0.0
 10
168.0336653588
 20
431.9944319681
 30
0.0
 10
168.0331785092
 20
431.9909486305
 30
0.0
 10
168.035423109
 20
431.986473599
 30
0.0
 10
168.0348470685
 20
431.9867072786
 30
0.0
  0
SPLINE
  5
28A
100
AcDbEntity
  8
BEZUGSACHSEN
100
AcDbSpline
 62
7
  6
CONTINUOUS
 70
0
 71
3
 72
28
 73
24
 74
0
 42
0.0000001
 43
0.0000001
 44
0.0000000001
 40
0.0
 40
0.0
 40
0.0
 40
0.0
 40
0.1941484966
 40
0.380838726
 40
0.4691659137
 40
0.5530541796
 40
0.6317100008
 40
0.7044126599
 40
0.7704677337
 40
0.8292393006
 40
0.88012014
 40
0.9225802885
 40
0.9404956278
 40
0.9561334437
 40
0.969450615
 40
0.9804039078
 40
0.9889540716
 40
0.9923211837
 40
0.9950804154
 40
0.9972298405
 40
0.9987675319
 40
0.9996915614
 40
1.0
 40
1.0
 40
1.0
 40
1.0
 10
112.6852584062
 20
437.9867072786
 30
0.0
 10
112.6852584062
 20
438.3779983769
 30
0.0
 10
112.6687615664
 20
439.145645948
 30
0.0
 10
112.608864577
 20
440.0895849519
 30
0.0
 10
112.5415232122
 20
440.809826348
 30
0.0
 10
112.4852356337
 20
441.3123231718
 30
0.0
 10
112.4243148472
 20
441.7825359993
 30
0.0
 10
112.3611726565
 20
442.2161594164
 30
0.0
 10
112.2981783077
 20
442.6092611225
 30
0.0
 10
112.2376961006
 20
442.958190799
 30
0.0
 10
112.1820462759
 20
443.2596743431
 30
0.0
 10
112.1392663668
 20
443.4797858072
 30
0.0
 10
112.1091731933
 20
443.6300019394
 30
0.0
 10
112.0903161108
 20
443.7225601512
 30
0.0
 10
112.074018025
 20
443.8013359656
 30
0.0
 10
112.0604788217
 20
443.8660487785
 30
0.0
 10
112.0509184097
 20
443.9112190184
 30
0.0
 10
112.0448480697
 20
443.9400482811
 30
0.0
 10
112.0412316109
 20
443.9565849802
 30
0.0
 10
112.0388888303
 20
443.9687133246
 30
0.0
 10
112.0360997059
 20
443.9791085425
 30
0.0
 10
112.0364044776
 20
443.9822685474
 30
0.0
 10
112.0343485896
 20
443.9870786913
 30
0.0
 10
112.0348470685
 20
443.9867072786
 30
0.0
  0
SPLINE
  5
28B
100
AcDbEntity
  8
KONSTRUKTIONSELEMENTE
100
AcDbSpline
 62
7
  6
CONTINUOUS
 70
0
 71
3
 72
29
 73
25
 74
0
 42
0.0000001
 43
0.0000001
 44
0.0000000001
 40
0.0
 40
0.0
 40
0.0
 40
0.0
 40
0.0002606761
 40
0.0010425124
 40
0.0023452176
 40
0.0041685046
 40
0.0065120903
 40
0.0093756955
 40
0.016661866
 40
0.0260241908
 40
0.0374564763
 40
0.0509517718
 40
0.0665036046
 40
0.0841049975
 40
0.1037443596
 40
0.1490882759
 40
0.2024324817
 40
0.2636251754
 40
0.3324874597
 40
0.4087688768
 40
0.492166029
 40
0.5822788807
 40
0.7807967412
 40
1.0
 40
1.0
 40
1.0
 40
1.0
 10
117.4889946714
 20
452.9867072785
 30
0.0
 10
117.4884160482
 20
452.9869035282
 30
0.0
 10
117.4891650973
 20
452.9825503146
 30
0.0
 10
117.4871130128
 20
452.9790110275
 30
0.0
 10
117.4861855787
 20
452.9689157367
 30
0.0
 10
117.4836916264
 20
452.9567609465
 30
0.0
 10
117.4809324417
 20
452.9403505736
 30
0.0
 10
117.47573698
 20
452.9116099952
 30
0.0
 10
117.4676231753
 20
452.8665499953
 30
0.0
 10
117.455676111
 20
452.8018469316
 30
0.0
 10
117.4406910507
 20
452.7228757121
 30
0.0
 10
117.4223915877
 20
452.6297795133
 30
0.0
 10
117.4005343232
 20
452.5226451997
 30
0.0
 10
117.3748684702
 20
452.4015945773
 30
0.0
 10
117.3330222616
 20
452.2125992509
 30
0.0
 10
117.2688235817
 20
451.9427609877
 30
0.0
 10
117.1738393097
 20
451.5802165576
 30
0.0
 10
117.05416846
 20
451.1672860786
 30
0.0
 10
116.9065612677
 20
450.7066589298
 30
0.0
 10
116.7278745759
 20
450.2015750305
 30
0.0
 10
116.5154838377
 20
449.6558645053
 30
0.0
 10
116.1735741566
 20
448.8535518846
 30
0.0
 10
115.6534039896
 20
447.7819931824
 30
0.0
 10
115.173466812
 20
446.9278973036
 30
0.0
 10
114.9101580157
 20
446.4867072786
 30
0.0
  0
SPLINE
  5
28C
100
AcDbEntity
  8
KONSTRUKTIONSELEMENTE
100
AcDbSpline
 62
7
  6
CONTINUOUS
 70
0
 71
3
 72
29
 73
25
 74
0
 42
0.0000001
 43
0.0000001
 44
0.0000000001
 40
0.0
 40
0.0
 40
0.0
 40
0.0
 40
0.2192032623
 40
0.4177211195
 40
0.5078339686
 40
0.5912311193
 40
0.6675125352
 40
0.7363748207
 40
0.7975675151
 40
0.8509117224
 40
0.8962556393
 40
0.9158950019
 40
0.933496395
 40
0.9490482278
 40
0.9625435235
 40
0.9739758091
 40
0.983338134
 40
0.9906243044
 40
0.9934879097
 40
0.9958314954
 40
0.9976547824
 40
0.9989574877
 40
0.9997393239
 40
1.0
 40
1.0
 40
1.0
 40
1.0
 10
165.1595361213
 20
446.4867072786
 30
0.0
 10
164.8962273209
 20
446.9278973106
 30
0.0
 10
164.4162901497
 20
447.7819931931
 30
0.0
 10
163.8961199735
 20
448.8535518849
 30
0.0
 10
163.5542103075
 20
449.6558644932
 30
0.0
 10
163.3418195651
 20
450.2015750035
 30
0.0
 10
163.1631328832
 20
450.7066589024
 30
0.0
 10
163.0155256829
 20
451.1672860503
 30
0.0
 10
162.8958548341
 20
451.5802165378
 30
0.0
 10
162.8008705579
 20
451.9427609739
 30
0.0
 10
162.736671876
 20
452.2125992428
 30
0.0
 10
162.69482567
 20
452.4015945729
 30
0.0
 10
162.6691598136
 20
452.5226451959
 30
0.0
 10
162.6473025473
 20
452.6297795109
 30
0.0
 10
162.6290030874
 20
452.7228757088
 30
0.0
 10
162.6140180274
 20
452.8018469368
 30
0.0
 10
162.6020709663
 20
452.8665499802
 30
0.0
 10
162.5939571438
 20
452.9116100255
 30
0.0
 10
162.5887617078
 20
452.9403505345
 30
0.0
 10
162.5860024743
 20
452.9567610546
 30
0.0
 10
162.5835086533
 20
452.9689154668
 30
0.0
 10
162.5825809263
 20
452.9790116143
 30
0.0
 10
162.580529357
 20
452.9825493988
 30
0.0
 10
162.5812778715
 20
452.9869041673
 30
0.0
 10
162.5806994656
 20
452.9867072785
 30
0.0
  0
SPLINE
  5
28D
100
AcDbEntity
  8
0
100
AcDbSpline
 62
7
  6
CONTINUOUS
 70
0
 71
3
 72
18
 73
14
 74
0
 42
0.0000001
 43
0.0000001
 44
0.0000000001
 40
0.0
 40
0.0
 40
0.0
 40
0.0
 40
0.1486205805
 40
0.2203693226
 40
0.2892888343
 40
0.4170074253
 40
0.4763186069
 40
0.5333575728
 40
0.5890470177
 40
0.6443416902
 40
0.7567041217
 40
0.8748406252
 40
1.0
 40
1.0
 40
1.0
 40
1.0
 10
115.7861357625
 20
415.9867072786
 30
0.0
 10
115.7861357625
 20
415.1851893336
 30
0.0
 10
115.8666948048
 20
413.9939871264
 30
0.0
 10
116.1520262331
 20
412.4584546002
 30
0.0
 10
116.5394752775
 20
411.0629048148
 30
0.0
 10
117.1043565716
 20
409.7873393843
 30
0.0
 10
117.8664126282
 20
408.7095309847
 30
0.0
 10
118.5048158742
 20
408.031832839
 30
0.0
 10
119.2167349227
 20
407.4662549266
 30
0.0
 10
120.2572167001
 20
406.8526654108
 30
0.0
 10
121.7230384668
 20
406.3322103349
 30
0.0
 10
123.6241366586
 20
406.0336783787
 30
0.0
 10
124.9376514331
 20
405.9867072786
 30
0.0
 10
125.6126419667
 20
405.9867072786
 30
0.0
  0
SPLINE
  5
28E
100
AcDbEntity
  8
RUNDUNGEN
100
AcDbSpline
 62
9
  6
CONTINUOUS
 70
0
 71
3
 72
15
 73
11
 74
0
 42
0.0000001
 43
0.0000001
 44
0.0000000001
 40
0.0
 40
0.0
 40
0.0
 40
0.0
 40
0.2357811978
 40
0.355142522
 40
0.4762680983
 40
0.6001034199
 40
0.7279254735
 40
0.8611439923
 40
0.9300803505
 40
1.0
 40
1.0
 40
1.0
 40
1.0
 10
140.0348470685
 20
405.9867072786
 30
0.0
 10
138.395730016
 20
405.9867777651
 30
0.0
 10
135.9155818195
 20
406.2412731703
 30
0.0
 10
132.7167255732
 20
407.1159389141
 30
0.0
 10
130.3653641901
 20
408.076475995
 30
0.0
 10
128.1159078645
 20
409.3827991946
 30
0.0
 10
126.0432880956
 20
411.0968159982
 30
0.0
 10
124.5994024664
 20
412.9101150028
 30
0.0
 10
123.7311676517
 20
414.5965465722
 30
0.0
 10
123.4199658501
 20
415.5153520521
 30
0.0
 10
123.3016205055
 20
415.9867963826
 30
0.0
  0
SPLINE
  5
28F
100
AcDbEntity
  8
0
100
AcDbSpline
 62
7
  6
CONTINUOUS
 70
0
 71
3
 72
18
 73
14
 74
0
 42
0.0000001
 43
0.0000001
 44
0.0000000001
 40
0.0
 40
0.0
 40
0.0
 40
0.0
 40
0.1251594145
 40
0.2432959644
 40
0.355658432
 40
0.4109531108
 40
0.4666425537
 40
0.5236815046
 40
0.5829926716
 40
0.7107112408
 40
0.7796307366
 40
0.8513794647
 40
1.0
 40
1.0
 40
1.0
 40
1.0
 10
154.4570521704
 20
405.9867072786
 30
0.0
 10
155.1320429178
 20
405.9867072786
 30
0.0
 10
156.4455581547
 20
406.0336784195
 30
0.0
 10
158.3466570002
 20
406.3322105902
 30
0.0
 10
159.8124791024
 20
406.8526661633
 30
0.0
 10
160.8529609715
 20
407.4662559768
 30
0.0
 10
161.5648796495
 20
408.0318342679
 30
0.0
 10
162.2032826011
 20
408.7095324358
 30
0.0
 10
162.9653383002
 20
409.78734075
 30
0.0
 10
163.5302192902
 20
411.0629059932
 30
0.0
 10
163.9176681347
 20
412.4584555443
 30
0.0
 10
164.2029993478
 20
413.9939876964
 30
0.0
 10
164.2835583745
 20
415.1851895774
 30
0.0
 10
164.2835583745
 20
415.9867072786
 30
0.0
  0
SPLINE
  5
290
100
AcDbEntity
  8
RUNDUNGEN
100
AcDbSpline
 62
9
  6
CONTINUOUS
 70
0
 71
3
 72
15
 73
11
 74
0
 42
0.0000001
 43
0.0000001
 44
0.0000000001
 40
0.0
 40
0.0
 40
0.0
 40
0.0
 40
0.2357817191
 40
0.3551432566
 40
0.4762689955
 40
0.6001044821
 40
0.7279266154
 40
0.8611449485
 40
0.9300807725
 40
1.0
 40
1.0
 40
1.0
 40
1.0
 10
140.0348470685
 20
405.9867072786
 30
0.0
 10
141.6739664664
 20
405.9867803374
 30
0.0
 10
144.154117678
 20
406.241274324
 30
0.0
 10
147.352977585
 20
407.1159414474
 30
0.0
 10
149.7043396075
 20
408.0764816293
 30
0.0
 10
151.9537961839
 20
409.3828059584
 30
0.0
 10
154.0264130646
 20
411.0968239029
 30
0.0
 10
155.4702933171
 20
412.9101184695
 30
0.0
 10
156.338524625
 20
414.5965420275
 30
0.0
 10
156.6497185879
 20
415.5153415057
 30
0.0
 10
156.7680691586
 20
415.9867811085
 30
0.0
  0
SPLINE
  5
291
100
AcDbEntity
  8
RUNDUNGEN
100
AcDbSpline
 62
7
  6
CONTINUOUS
 70
0
 71
3
 72
9
 73
5
 74
0
 42
0.0000001
 43
0.0000001
 44
0.0000000001
 40
0.0
 40
0.0
 40
0.0
 40
0.0
 40
0.4975369109
 40
1.0
 40
1.0
 40
1.0
 40
1.0
 10
130.0825034118
 20
109.1867072786
 30
0.0
 10
130.1455133122
 20
108.8589434893
 30
0.0
 10
130.2354363591
 20
108.1931051287
 30
0.0
 10
130.2804456069
 20
107.5234540409
 30
0.0
 10
130.2936971549
 20
107.1866445615
 30
0.0
  0
SPLINE
  5
292
100
AcDbEntity
  8
0
100
AcDbSpline
 62
7
  6
CONTINUOUS
 70
0
 71
3
 72
27
 73
23
 74
0
 42
0.0000001
 43
0.0000001
 44
0.0000000001
 40
0.0
 40
0.0
 40
0.0
 40
0.0
 40
0.0624900142
 40
0.1249817228
 40
0.1874726569
 40
0.2499634246
 40
0.3124513508
 40
0.3749245495
 40
0.406191087
 40
0.4374639104
 40
0.4687406357
 40
0.5000013651
 40
0.5312623776
 40
0.562538156
 40
0.5938095598
 40
0.6250760577
 40
0.6875488954
 40
0.7500366867
 40
0.81252741
 40
0.8750183146
 40
0.9375099957
 40
1.0
 40
1.0
 40
1.0
 40
1.0
 10
71.4529627885
 20
81.6257009909
 30
0.0
 10
71.2297514162
 20
81.7955086885
 30
0.0
 10
70.7788108713
 20
82.1292678923
 30
0.0
 10
70.0861802686
 20
82.6073149197
 30
0.0
 10
69.3736863069
 20
83.0554475963
 30
0.0
 10
68.6364372294
 20
83.4623181764
 30
0.0
 10
67.8685899145
 20
83.8085635741
 30
0.0
 10
67.1960720802
 20
84.0186386842
 30
0.0
 10
66.6403640795
 20
84.1041510494
 30
0.0
 10
66.2178283964
 20
84.1131257255
 30
0.0
 10
65.798973198
 20
84.0499190439
 30
0.0
 10
65.4015037115
 20
83.9010146115
 30
0.0
 10
65.0474063469
 20
83.6669872599
 30
0.0
 10
64.7501066461
 20
83.3652599557
 30
0.0
 10
64.5090032743
 20
83.0181638166
 30
0.0
 10
64.2515593715
 20
82.5183254576
 30
0.0
 10
64.0262137799
 20
81.8507732191
 30
0.0
 10
63.8550054793
 20
81.026055059
 30
0.0
 10
63.7508265976
 20
80.1904566475
 30
0.0
 10
63.6945805503
 20
79.3506315153
 30
0.0
 10
63.6742104318
 20
78.5092929222
 30
0.0
 10
63.6791710352
 20
77.9482957812
 30
0.0
 10
63.6853479946
 20
77.6679035715
 30
0.0
  0
SPLINE
  5
293
100
AcDbEntity
  8
RUNDUNGEN
100
AcDbSpline
 62
7
  6
CONTINUOUS
 70
0
 71
3
 72
9
 73
5
 74
0
 42
0.0000001
 43
0.0000001
 44
0.0000000001
 40
0.0
 40
0.0
 40
0.0
 40
0.0
 40
0.502579534
 40
1.0
 40
1.0
 40
1.0
 40
1.0
 10
149.7789145463
 20
107.1867072786
 30
0.0
 10
149.7928453609
 20
107.5236418463
 30
0.0
 10
149.836961506
 20
108.1935184432
 30
0.0
 10
149.9298335131
 20
108.8591766086
 30
0.0
 10
149.9940201394
 20
109.1867072786
 30
0.0
  0
SPLINE
  5
294
100
AcDbEntity
  8
0
100
AcDbSpline
 62
7
  6
CONTINUOUS
 70
0
 71
3
 72
14
 73
10
 74
0
 42
0.0000001
 43
0.0000001
 44
0.0000000001
 40
0.0
 40
0.0
 40
0.0
 40
0.0
 40
0.0930438734
 40
0.1972661233
 40
0.3122739377
 40
0.4370676237
 40
0.5701704299
 40
0.7097656536
 40
1.0
 40
1.0
 40
1.0
 40
1.0
 10
284.3015464035
 20
77.6679035715
 30
0.0
 10
284.5174036376
 20
77.4655648126
 30
0.0
 10
285.0154339171
 20
77.0790556094
 30
0.0
 10
285.8782331982
 20
76.583070499
 30
0.0
 10
286.8833264434
 20
76.1462655937
 30
0.0
 10
288.0115963094
 20
75.7768477295
 30
0.0
 10
289.2419683177
 20
75.4817592211
 30
0.0
 10
291.0093732275
 20
75.1915158137
 30
0.0
 10
292.3786505748
 20
75.1068972838
 30
0.0
 10
293.3015464035
 20
75.1068972838
 30
0.0
  0
SPLINE
  5
295
100
AcDbEntity
  8
0
100
AcDbSpline
 62
9
  6
CONTINUOUS
 70
0
 71
3
 72
15
 73
11
 74
0
 42
0.0000001
 43
0.0000001
 44
0.0000000001
 40
0.0
 40
0.0
 40
0.0
 40
0.0
 40
0.0773403459
 40
0.1607562909
 40
0.2595658054
 40
0.3775045644
 40
0.5141822005
 40
0.6666278489
 40
0.8304078378
 40
1.0
 40
1.0
 40
1.0
 40
1.0
 10
296.2205552519
 20
109.7423904049
 30
0.0
 10
296.2420099962
 20
109.6518758644
 30
0.0
 10
296.2428393441
 20
109.450076339
 30
0.0
 10
296.0991258479
 20
109.1634695665
 30
0.0
 10
295.8369837111
 20
108.9088858785
 30
0.0
 10
295.4710859164
 20
108.6876008659
 30
0.0
 10
295.0147697918
 20
108.5056136222
 30
0.0
 10
294.4859988125
 20
108.3696711527
 30
0.0
 10
293.906769034
 20
108.2857039799
 30
0.0
 10
293.5055264749
 20
108.2668475204
 30
0.0
 10
293.3015464035
 20
108.2668475204
 30
0.0
  0
SPLINE
  5
296
100
AcDbEntity
  8
0
100
AcDbSpline
 62
7
  6
CONTINUOUS
 70
0
 71
3
 72
14
 73
10
 74
0
 42
0.0000001
 43
0.0000001
 44
0.0000000001
 40
0.0
 40
0.0
 40
0.0
 40
0.0
 40
0.0930438734
 40
0.1972661233
 40
0.3122739377
 40
0.4370676237
 40
0.5701704299
 40
0.7097656536
 40
1.0
 40
1.0
 40
1.0
 40
1.0
 10
302.3015464035
 20
77.6679035715
 30
0.0
 10
302.0856891695
 20
77.4655648126
 30
0.0
 10
301.58765889
 20
77.0790556094
 30
0.0
 10
300.7248596089
 20
76.583070499
 30
0.0
 10
299.7197663637
 20
76.1462655937
 30
0.0
 10
298.5914964977
 20
75.7768477295
 30
0.0
 10
297.3611244894
 20
75.4817592211
 30
0.0
 10
295.5937195796
 20
75.1915158137
 30
0.0
 10
294.2244422323
 20
75.1068972838
 30
0.0
 10
293.3015464035
 20
75.1068972838
 30
0.0
  0
SPLINE
  5
297
100
AcDbEntity
  8
0
100
AcDbSpline
 62
9
  6
CONTINUOUS
 70
0
 71
3
 72
15
 73
11
 74
0
 42
0.0000001
 43
0.0000001
 44
0.0000000001
 40
0.0
 40
0.0
 40
0.0
 40
0.0
 40
0.0773407184
 40
0.1607561055
 40
0.2595648372
 40
0.3775030522
 40
0.5141805551
 40
0.6666264845
 40
0.8304070677
 40
1.0
 40
1.0
 40
1.0
 40
1.0
 10
290.3825441179
 20
109.7424180896
 30
0.0
 10
290.3610851011
 20
109.6519033589
 30
0.0
 10
290.3602463545
 20
109.450102274
 30
0.0
 10
290.5039514398
 20
109.1634890792
 30
0.0
 10
290.7660897023
 20
108.9089000931
 30
0.0
 10
291.1319866559
 20
108.6876104385
 30
0.0
 10
291.5883048656
 20
108.5056191948
 30
0.0
 10
292.1170803843
 20
108.3696736004
 30
0.0
 10
292.6963164972
 20
108.2857044301
 30
0.0
 10
293.0975638218
 20
108.2668475204
 30
0.0
 10
293.3015464035
 20
108.2668475204
 30
0.0
  0
SPLINE
  5
298
100
AcDbEntity
  8
RUNDUNGEN
100
AcDbSpline
 62
9
  6
CONTINUOUS
 70
0
 71
3
 72
17
 73
13
 74
0
 42
0.0000001
 43
0.0000001
 44
0.0000000001
 40
0.0
 40
0.0
 40
0.0
 40
0.0
 40
0.0290992297
 40
0.060427245
 40
0.095691582
 40
0.1360028686
 40
0.2335851393
 40
0.3542442911
 40
0.49570182
 40
0.6539651758
 40
0.8239614113
 40
1.0
 40
1.0
 40
1.0
 40
1.0
 10
284.3015464035
 20
44.6057902624
 30
0.0
 10
284.3015464035
 20
44.552013408
 30
0.0
 10
284.3191990167
 20
44.439754549
 30
0.0
 10
284.3955138419
 20
44.2781833796
 30
0.0
 10
284.5188496126
 20
44.1221564355
 30
0.0
 10
284.7588160285
 20
43.9086596975
 30
0.0
 10
285.1765295971
 20
43.6682891222
 30
0.0
 10
285.7985051502
 20
43.4300712107
 30
0.0
 10
286.5516782827
 20
43.2340704643
 30
0.0
 10
287.4082174725
 20
43.088133328
 30
0.0
 10
288.3365342818
 20
42.9981068533
 30
0.0
 10
288.9762181507
 20
42.9779494901
 30
0.0
 10
289.3015464035
 20
42.9779494901
 30
0.0
  0
SPLINE
  5
299
100
AcDbEntity
  8
RUNDUNGEN
100
AcDbSpline
 62
7
  6
CONTINUOUS
 70
0
 71
3
 72
9
 73
5
 74
0
 42
0.0000001
 43
0.0000001
 44
0.0000000001
 40
0.0
 40
0.0
 40
0.0
 40
0.0
 40
0.4980510958
 40
1.0
 40
1.0
 40
1.0
 40
1.0
 10
302.0487377093
 20
109.1867072786
 30
0.0
 10
302.1202355028
 20
108.8598274816
 30
0.0
 10
302.2200214226
 20
108.1939783098
 30
0.0
 10
302.2689568343
 20
107.5235643866
 30
0.0
 10
302.2833334395
 20
107.1866445615
 30
0.0
  0
SPLINE
  5
29A
100
AcDbEntity
  8
RUNDUNGEN
100
AcDbSpline
 62
9
  6
CONTINUOUS
 70
0
 71
3
 72
17
 73
13
 74
0
 42
0.0000001
 43
0.0000001
 44
0.0000000001
 40
0.0
 40
0.0
 40
0.0
 40
0.0
 40
0.0290992297
 40
0.060427245
 40
0.095691582
 40
0.1360028686
 40
0.2335851393
 40
0.3542442911
 40
0.49570182
 40
0.6539651758
 40
0.8239614113
 40
1.0
 40
1.0
 40
1.0
 40
1.0
 10
302.3015464035
 20
44.6057902624
 30
0.0
 10
302.3015464035
 20
44.552013408
 30
0.0
 10
302.2838937904
 20
44.439754549
 30
0.0
 10
302.2075789651
 20
44.2781833796
 30
0.0
 10
302.0842431944
 20
44.1221564355
 30
0.0
 10
301.8442767786
 20
43.9086596975
 30
0.0
 10
301.4265632099
 20
43.6682891222
 30
0.0
 10
300.8045876569
 20
43.4300712107
 30
0.0
 10
300.0514145244
 20
43.2340704643
 30
0.0
 10
299.1948753345
 20
43.088133328
 30
0.0
 10
298.2665585253
 20
42.9981068533
 30
0.0
 10
297.6268746564
 20
42.9779494902
 30
0.0
 10
297.3015464035
 20
42.9779494902
 30
0.0
  0
SPLINE
  5
29B
100
AcDbEntity
  8
RUNDUNGEN
100
AcDbSpline
 62
7
  6
CONTINUOUS
 70
0
 71
3
 72
9
 73
5
 74
0
 42
0.0000001
 43
0.0000001
 44
0.0000000001
 40
0.0
 40
0.0
 40
0.0
 40
0.0
 40
0.5019488925
 40
1.0
 40
1.0
 40
1.0
 40
1.0
 10
284.3197606898
 20
107.1866446163
 30
0.0
 10
284.3341373512
 20
107.5235644071
 30
0.0
 10
284.383070449
 20
108.1939784603
 30
0.0
 10
284.4828573077
 20
108.8598274972
 30
0.0
 10
284.5543550978
 20
109.1867072786
 30
0.0
  0
ELLIPSE
  5
29C
100
AcDbEntity
  8
KONSTRUKTIONSELEMENTE
100
AcDbEllipse
 62
7
  6
CONTINUOUS
 10
140.0348470685
 20
472.5630128773
 30
0.0
 11
-0.0
 21
58.1526111974
 31
0.0
 40
0.4814917065
 41
-4.2086795812
 42
-4.1887902048
  0
ELLIPSE
  5
29D
100
AcDbEntity
  8
KONSTRUKTIONSELEMENTE
100
AcDbEllipse
 62
7
  6
CONTINUOUS
 10
140.0348470685
 20
472.5630128773
 30
0.0
 11
0.0
 21
58.1526111974
 31
0.0
 40
0.4814917065
 41
-2.0943951024
 42
-2.074505726
  0
ELLIPSE
  5
29E
100
AcDbEntity
  8
RUNDUNGEN
100
AcDbEllipse
 62
7
  6
CONTINUOUS
 10
297.3015464035
 20
77.3991579053
 30
0.0
 11
5.0
 21
0.0
 31
0.0
 40
0.4584521243
 41
-1.5707963268
 42
-0.0
  0
ELLIPSE
  5
29F
100
AcDbEntity
  8
RUNDUNGEN
100
AcDbEllipse
 62
7
  6
CONTINUOUS
 10
289.3015464035
 20
77.3991579053
 30
0.0
 11
5.0
 21
0.0
 31
0.0
 40
0.4584521243
 41
3.1415926536
 42
4.7123889804
  0
ENDSEC
  0
SECTION
  2
OBJECTS
  0
DICTIONARY
  5
C
100
AcDbDictionary
280
0
281
1
  3
ACAD_GROUP
350
D
  3
ACAD_MLINESTYLE
350
17
  3
ACAD_LAYOUT
350
1A
  3
ACAD_PLOTSETTINGS
350
19
  3
ACAD_PLOTSTYLENAME
350
E
  0
DICTIONARY
  5
D
102
{ACAD_REACTORS
330
C
102
}
100
AcDbDictionary
280
0
281
1
  0
ACDBDICTIONARYWDFLT
  5
E
102
{ACAD_REACTORS
330
C
102
}
100
AcDbDictionary
281
1
  3
Normal
350
F
100
AcDbDictionaryWithDefault
340
F
  0
DICTIONARY
  5
17
102
{ACAD_REACTORS
330
C
102
}
100
AcDbDictionary
280
0
281
1
  3
Standard
350
18
  0
DICTIONARY
  5
19
102
{ACAD_REACTORS
330
C
102
}
100
AcDbDictionary
281
1
  0
DICTIONARY
  5
1A
102
{ACAD_REACTORS
330
C
102
}
100
AcDbDictionary
281
1
  3
Model
350
2A0
  3
Layout1
350
2A1
  0
ACDBPLACEHOLDER
  5
F
102
{ACAD_REACTORS
330
E
102
}
  0
MLINESTYLE
  5
18
102
{ACAD_REACTORS
330
17
102
}
100
AcDbMlineStyle
  2
STANDARD
 70
0
  3

 62
256
 51
90.0
 52
90.0
 71
2
 49
0.5
 62
256
  6
BYLAYER
 49
-0.5
 62
256
  6
BYLAYER
  0
LAYOUT
  5
2A0
102
{ACAD_REACTORS
330
1A
102
}
100
AcDbPlotSettings
  1

  2
none_device
  4
ISO_A3_(420.00_x_297.00_MM)
  6

 40
0.0
 41
0.0
 42
0.0
 43
0.0
 44
420.0
 45
297.0
 46
0.0
 47
0.0
 48
0.0
 49
0.0
140
0.0
141
0.0
142
1.0
143
1.0
 70
1024
 72
1
 73
0
 74
0
  7

 75
0
147
1.0
148
0.0
149
0.0
100
AcDbLayout
  1
Model
 70
0
 71
0
 10
0.0
 20
0.0
 11
420.0
 21
297.0
 12
0.0
 22
0.0
 32
0.0
 14
0.0
 24
0.0
 34
0.0
 15
0.0
 25
0.0
 35
0.0
146
0.0
 13
0.0
 23
0.0
 33
0.0
 16
1.0
 26
0.0
 36
0.0
 17
0.0
 27
1.0
 37
0.0
 76
0
330
20B
345
0
346
0
  0
LAYOUT
  5
2A1
102
{ACAD_REACTORS
330
1A
102
}
100
AcDbPlotSettings
  1

  2
none_device
  4
ISO_A3_(420.00_x_297.00_MM)
  6

 40
0.0
 41
0.0
 42
0.0
 43
0.0
 44
420.0
 45
297.0
 46
0.0
 47
0.0
 48
0.0
 49
0.0
140
0.0
141
0.0
142
1.0
143
1.0
 70
0
 72
1
 73
0
 74
0
  7

 75
0
147
1.0
148
0.0
149
0.0
100
AcDbLayout
  1
Layout1
 70
0
 71
1
 10
0.0
 20
0.0
 11
420.0
 21
297.0
 12
0.0
 22
0.0
 32
0.0
 14
0.0
 24
0.0
 34
0.0
 15
0.0
 25
0.0
 35
0.0
146
0.0
 13
0.0
 23
0.0
 33
0.0
 16
1.0
 26
0.0
 36
0.0
 17
0.0
 27
1.0
 37
0.0
 76
0
330
20C
345
0
346
0
  0
ENDSEC
  0
EOF
