999
DXF file: psa-vrs-m20-dxf.dxf
999
Pro/ENGINEER 2010140 by Parametric Technology Corporation
  0
SECTION
  2
HEADER
  9
$ACADVER
  1
AC1021
  9
$DWGCODEPAGE
  3
ANSI_1252
  9
$EXTMAX
 10
420.0
 20
297.0
 30
0.0
  9
$EXTMIN
 10
0.0
 20
0.0
 30
0.0
  9
$LIMMIN
 10
0.0
 20
0.0
  9
$LIMMAX
 10
420.0
 20
297.0
  9
$VIEWCTR
 10
210.0
 20
148.5
  9
$VIEWSIZE
 40
297.0
  9
$CLAYER
  8
0
  9
$LTSCALE
 40
23.1
  9
$CELTYPE
  6
BYLAYER
  9
$DIMSCALE
 40
1.0
  9
$DIMASZ
 40
3.5
  9
$DIMEXO
 40
2.625
  9
$DIMDLI
 40
15.96
  9
$DIMEXE
 40
7.56
  9
$DIMCEN
 40
3.78
  9
$DIMLFAC
 40
1.0
  9
$DIMBLK
  1
_FILLED
  9
$DIMTXT
 40
3.5
  9
$DIMTOL
 70
1
  9
$DIMLIM
 70
0
  9
$DIMTFAC
 40
1.0
  9
$DIMTP
 40
0.005
  9
$DIMTM
 40
0.005
  9
$PDMODE
 70
3
  9
$PDSIZE
 40
0.3125
  9
$HANDSEED
  5
569
  9
$TILEMODE
 70
1
  9
$MEASUREMENT
 70
1
  9
$INSUNITS
 70
4
  0
ENDSEC
  0
SECTION
  2
CLASSES
  0
CLASS
  1
ACDBDICTIONARYWDFLT
  2
AcDbDictionaryWithDefault
  3
AutoCAD 2000
 90
0
 91
1
280
0
281
0
  0
CLASS
  1
ACDBPLACEHOLDER
  2
AcDbPlaceHolder
  3
AutoCAD 2000
 90
0
 91
1
280
0
281
0
  0
CLASS
  1
LAYOUT
  2
AcDbLayout
  3
AutoCAD 2000
 90
0
 91
0
280
0
281
0
  0
ENDSEC
  0
SECTION
  2
TABLES
  0
TABLE
  2
VPORT
  5
8
100
AcDbSymbolTable
 70
2
  0
VPORT
  5
1F4
100
AcDbSymbolTableRecord
100
AcDbViewportTableRecord
  2
*ACTIVE
 70
0
 10
0.0
 20
0.0
 11
1.0
 21
1.0
 12
210.0
 22
148.5
 13
0.0
 23
0.0
 14
1.0
 24
1.0
 15
0.0
 25
0.0
 16
0.0
 26
0.0
 36
1.0
 17
0.0
 27
0.0
 37
0.0
 40
297.0
 41
1.4141414141
 42
50.0
 43
0.0
 44
0.0
 50
0.0
 51
0.0
 71
0
 72
100
 73
1
 74
1
 75
0
 76
0
 77
0
 78
0
  0
ENDTAB
  0
TABLE
  2
LTYPE
  5
5
100
AcDbSymbolTable
 70
6
  0
LTYPE
  5
14
100
AcDbSymbolTableRecord
100
AcDbLinetypeTableRecord
  2
BYBLOCK
 70
0
  3

 72
65
 73
0
 40
0.0
  0
LTYPE
  5
15
100
AcDbSymbolTableRecord
100
AcDbLinetypeTableRecord
  2
BYLAYER
 70
0
  3

 72
65
 73
0
 40
0.0
  0
LTYPE
  5
16
100
AcDbSymbolTableRecord
100
AcDbLinetypeTableRecord
  2
CONTINUOUS
 70
64
  3
Solid line
 72
65
 73
0
 40
0.0
  0
LTYPE
  5
1F5
100
AcDbSymbolTableRecord
100
AcDbLinetypeTableRecord
  2
CENTER
 70
64
  3
____ _ ____ _ ____ _ ____ _ ____ _ ____ _ ____
 72
65
 73
4
 40
0.6
 49
0.375
 74
0
 49
-0.075
 74
0
 49
0.075
 74
0
 49
-0.075
 74
0
  0
LTYPE
  5
1F6
100
AcDbSymbolTableRecord
100
AcDbLinetypeTableRecord
  2
HIDDEN
 70
64
  3
- - - - - - - - - - - - - - - - - - - -
 72
65
 73
2
 40
0.2
 49
0.1
 74
0
 49
-0.1
 74
0
  0
LTYPE
  5
1F7
100
AcDbSymbolTableRecord
100
AcDbLinetypeTableRecord
  2
PHANTOM
 70
64
  3
_____ _ _ _____ _ _ _____ _ _ _____
 72
65
 73
6
 40
0.8
 49
0.45
 74
0
 49
-0.05
 74
0
 49
0.1
 74
0
 49
-0.05
 74
0
 49
0.1
 74
0
 49
-0.05
 74
0
  0
LTYPE
  5
1F8
100
AcDbSymbolTableRecord
100
AcDbLinetypeTableRecord
  2
DOT
 70
64
  3
. . . . . . . . . . . . . . . . . . . .
 72
65
 73
2
 40
0.2
 49
0.1
 74
0
 49
-0.1
 74
0
  0
LTYPE
  5
1F9
100
AcDbSymbolTableRecord
100
AcDbLinetypeTableRecord
  2
DASHED
 70
64
  3
- - - - - - - - - - - - - - - - - - - -
 72
65
 73
2
 40
0.2
 49
0.1
 74
0
 49
-0.1
 74
0
  0
ENDTAB
  0
TABLE
  2
LAYER
  5
2
100
AcDbSymbolTable
 70
36
  0
LAYER
  5
10
100
AcDbSymbolTableRecord
100
AcDbLayerTableRecord
  2
0
 70
0
 62
7
  6
CONTINUOUS
370
-3
390
F
  0
LAYER
  5
1FA
100
AcDbSymbolTableRecord
100
AcDbLayerTableRecord
  2
DEFAULT_1
 70
0
 62
7
  6
CENTER
370
-3
390
F
  0
LAYER
  5
1FB
100
AcDbSymbolTableRecord
100
AcDbLayerTableRecord
  2
DEFAULT_2
 70
0
 62
8
  6
HIDDEN
370
-3
390
F
  0
LAYER
  5
1FC
100
AcDbSymbolTableRecord
100
AcDbLayerTableRecord
  2
DEFAULT_3
 70
0
 62
7
  6
PHANTOM
370
-3
390
F
  0
LAYER
  5
1FD
100
AcDbSymbolTableRecord
100
AcDbLayerTableRecord
  2
B-ACHSEN
 70
0
 62
7
  6
CONTINUOUS
370
-3
390
F
  0
LAYER
  5
1FE
100
AcDbSymbolTableRecord
100
AcDbLayerTableRecord
  2
B-EBENEN
 70
0
 62
7
  6
CONTINUOUS
370
-3
390
F
  0
LAYER
  5
1FF
100
AcDbSymbolTableRecord
100
AcDbLayerTableRecord
  2
B-KOORSYS
 70
0
 62
7
  6
CONTINUOUS
370
-3
390
F
  0
LAYER
  5
200
100
AcDbSymbolTableRecord
100
AcDbLayerTableRecord
  2
B-KURVEN
 70
0
 62
7
  6
CONTINUOUS
370
-3
390
F
  0
LAYER
  5
201
100
AcDbSymbolTableRecord
100
AcDbLayerTableRecord
  2
BEMASSUNG
 70
0
 62
7
  6
CONTINUOUS
370
-3
390
F
  0
LAYER
  5
202
100
AcDbSymbolTableRecord
100
AcDbLayerTableRecord
  2
BG_STARTBEZUEGE
 70
0
 62
7
  6
CONTINUOUS
370
-3
390
F
  0
LAYER
  5
203
100
AcDbSymbolTableRecord
100
AcDbLayerTableRecord
  2
BOHRUNGEN
 70
0
 62
7
  6
CONTINUOUS
370
-3
390
F
  0
LAYER
  5
204
100
AcDbSymbolTableRecord
100
AcDbLayerTableRecord
  2
HILFEN
 70
0
 62
7
  6
CONTINUOUS
370
-3
390
F
  0
LAYER
  5
205
100
AcDbSymbolTableRecord
100
AcDbLayerTableRecord
  2
KURVENELEMENTE
 70
0
 62
7
  6
CONTINUOUS
370
-3
390
F
  0
LAYER
  5
206
100
AcDbSymbolTableRecord
100
AcDbLayerTableRecord
  2
NOTIZEN
 70
0
 62
7
  6
CONTINUOUS
370
-3
390
F
  0
LAYER
  5
207
100
AcDbSymbolTableRecord
100
AcDbLayerTableRecord
  2
PLATZIERUNG
 70
0
 62
7
  6
CONTINUOUS
370
-3
390
F
  0
LAYER
  5
208
100
AcDbSymbolTableRecord
100
AcDbLayerTableRecord
  2
RUNDUNGEN
 70
0
 62
7
  6
CONTINUOUS
370
-3
390
F
  0
LAYER
  5
209
100
AcDbSymbolTableRecord
100
AcDbLayerTableRecord
  2
VERBUNDFLAECHEN
 70
0
 62
7
  6
CONTINUOUS
370
-3
390
F
  0
LAYER
  5
20A
100
AcDbSymbolTableRecord
100
AcDbLayerTableRecord
  2
ZEICHNUNGSBEMASSUNGEN
 70
0
 62
7
  6
CONTINUOUS
370
-3
390
F
  0
ENDTAB
  0
TABLE
  2
STYLE
  5
3
100
AcDbSymbolTable
 70
1
  0
STYLE
  5
11
100
AcDbSymbolTableRecord
100
AcDbTextStyleTableRecord
  2
STANDARD
 70
0
 40
0.0
 41
0.7
 50
0.0
 71
0
 42
0.2
  3
txt
  4

  0
STYLE
  5
20B
100
AcDbSymbolTableRecord
100
AcDbTextStyleTableRecord
  2
TEXTSTYLE_1
 70
0
 40
0.0
 41
0.8
 50
0.0
 71
0
 42
0.2
  3
gdt
  4

  0
ENDTAB
  0
TABLE
  2
VIEW
  5
6
100
AcDbSymbolTable
 70
0
  0
ENDTAB
  0
TABLE
  2
UCS
  5
7
100
AcDbSymbolTable
 70
0
  0
ENDTAB
  0
TABLE
  2
APPID
  5
9
100
AcDbSymbolTable
 70
1
  0
APPID
  5
20C
100
AcDbSymbolTableRecord
100
AcDbRegAppTableRecord
  2
ACAD
 70
0
  0
ENDTAB
  0
TABLE
  2
BLOCK_RECORD
  5
1
100
AcDbSymbolTable
 70
0
  0
BLOCK_RECORD
  5
20D
100
AcDbSymbolTableRecord
100
AcDbBlockTableRecord
  2
*Model_Space
  0
BLOCK_RECORD
  5
20E
100
AcDbSymbolTableRecord
100
AcDbBlockTableRecord
  2
*Paper_Space
  0
ENDTAB
  0
TABLE
  2
DIMSTYLE
  5
A
100
AcDbSymbolTable
 70
1
100
AcDbDimStyleTable
 71
0
  0
DIMSTYLE
105
20F
100
AcDbSymbolTableRecord
100
AcDbDimStyleTableRecord
  2
STANDARD
 70
0
  3

  4

 40
1.0
 41
3.5
 42
0.0625
 43
0.38
 44
0.18
 45
0.0
 46
0.0
 47
0.005
 48
0.005
140
3.5
141
0.09
142
0.0
143
25.4
144
1.0
145
0.0
146
1.0
147
0.09
 71
1.0
 72
0.0
 73
0
 74
0
 75
0
 76
0
 77
1
 78
8
170
0
171
2
172
0
173
0
174
0
175
0
176
0
177
0
178
5
270
2
271
3
272
3
273
2
274
2
275
0
280
0
281
0
282
0
283
1
284
8
285
0
286
0
287
3
288
0
340
11
  0
ENDTAB
  0
ENDSEC
  0
SECTION
  2
BLOCKS
  0
BLOCK
  5
20
100
AcDbEntity
  8
0
100
AcDbBlockBegin
  2
*Model_Space
 70
0
 10
0.0
 20
0.0
 30
0.0
  3
*Model_Space
  1

  0
ENDBLK
  5
21
100
AcDbEntity
  8
0
100
AcDbBlockEnd
  0
BLOCK
  5
1C
100
AcDbEntity
  8
0
100
AcDbBlockBegin
  2
*Paper_Space
 70
0
 10
0.0
 20
0.0
 30
0.0
  3
*Paper_Space
  1

  0
ENDBLK
  5
1D
100
AcDbEntity
  8
0
100
AcDbBlockEnd
  0
ENDSEC
  0
SECTION
  2
ENTITIES
  0
MTEXT
  5
210
100
AcDbEntity
  8
0
100
AcDbMText
 62
5
  6
CONTINUOUS
  7
STANDARD
 71
1
 72
1
 10
72.5350147701
 20
112.6976398022
 30
0.0
 11
1.0
 21
0.0
 31
0.0
 44
0.9
  1
PSA-VRS M20
 40
3.5
 41
31.3333333333
  0
MTEXT
  5
211
100
AcDbEntity
  8
0
100
AcDbMText
 62
5
  6
CONTINUOUS
  7
STANDARD
 71
1
 72
1
 10
128.5375001728
 20
120.1548666691
 30
0.0
 11
1.0
 21
0.0
 31
0.0
 44
0.9
  1
RUD
 40
3.5
 41
8.6666666667
  0
MTEXT
  5
212
100
AcDbEntity
  8
0
100
AcDbMText
 62
5
  6
CONTINUOUS
  7
STANDARD
 71
1
 72
1
 10
287.2528955756
 20
201.6547294305
 30
0.0
 11
0.0
 21
1.0
 31
0.0
 44
0.9
  1
RUD
 40
3.5
 41
8.6666666667
  0
MTEXT
  5
213
100
AcDbEntity
  8
0
100
AcDbMText
 62
5
  6
CONTINUOUS
  7
STANDARD
 71
1
 72
1
 10
296.1672091001
 20
202.0313905653
 30
0.0
 11
0.0
 21
1.0
 31
0.0
 44
0.9
  1
PSA-VRS M20
 40
3.5
 41
31.3333333333
  0
LINE
  5
214
100
AcDbEntity
  8
0
100
AcDbLine
 62
7
  6
CONTINUOUS
 10
0.0
 20
0.0
 11
0.0
 21
297.0
  0
LINE
  5
215
100
AcDbEntity
  8
0
100
AcDbLine
 62
7
  6
CONTINUOUS
 10
0.0
 20
0.0
 11
420.0
 21
0.0
  0
LINE
  5
216
100
AcDbEntity
  8
0
100
AcDbLine
 62
7
  6
CONTINUOUS
 10
0.0
 20
297.0
 11
420.0
 21
297.0
  0
LINE
  5
217
100
AcDbEntity
  8
0
100
AcDbLine
 62
7
  6
CONTINUOUS
 10
420.0
 20
0.0
 11
420.0
 21
297.0
  0
LINE
  5
218
100
AcDbEntity
  8
B-ACHSEN
100
AcDbLine
 62
7
  6
CONTINUOUS
 10
117.5664767969
 20
160.4542754499
 11
100.5664767969
 21
160.4542754499
  0
LINE
  5
219
100
AcDbEntity
  8
RUNDUNGEN
100
AcDbLine
 62
7
  6
CONTINUOUS
 10
107.7270847836
 20
265.2832081229
 11
83.6180285446
 21
255.2969100527
  0
LINE
  5
21A
100
AcDbEntity
  8
B-ACHSEN
100
AcDbLine
 62
7
  6
CONTINUOUS
 10
119.0664767969
 20
161.9542754499
 11
99.0664767969
 21
161.9542754499
  0
LINE
  5
21B
100
AcDbEntity
  8
0
100
AcDbLine
 62
7
  6
CONTINUOUS
 10
85.0197553447
 20
248.2325589254
 11
84.7914886446
 21
248.0759692699
  0
LINE
  5
21C
100
AcDbEntity
  8
0
100
AcDbLine
 62
7
  6
CONTINUOUS
 10
86.0455948351
 20
250.4586988209
 11
85.7259865647
 21
250.2775084057
  0
LINE
  5
21D
100
AcDbEntity
  8
0
100
AcDbLine
 62
7
  6
CONTINUOUS
 10
86.0459353913
 20
250.0783281313
 11
86.25140979
 21
250.1812224897
  0
LINE
  5
21E
100
AcDbEntity
  8
B-ACHSEN
100
AcDbLine
 62
7
  6
CONTINUOUS
 10
99.0664767969
 20
161.9542754499
 11
100.5664767969
 21
160.4542754499
  0
LINE
  5
21F
100
AcDbEntity
  8
RUNDUNGEN
100
AcDbLine
 62
7
  6
CONTINUOUS
 10
81.7238421941
 20
253.4027237022
 11
71.7375441239
 21
229.2936674632
  0
LINE
  5
220
100
AcDbEntity
  8
0
100
AcDbLine
 62
7
  6
CONTINUOUS
 10
85.7259865647
 20
250.2775084057
 11
85.5206824441
 21
249.9844287025
  0
LINE
  5
221
100
AcDbEntity
  8
0
100
AcDbLine
 62
7
  6
CONTINUOUS
 10
84.7914886446
 20
248.0759692699
 11
84.586184524
 21
247.7828895666
  0
LINE
  5
222
100
AcDbEntity
  8
0
100
AcDbLine
 62
7
  6
CONTINUOUS
 10
85.8634235721
 20
249.8389437252
 11
86.0459353913
 21
250.0783281313
  0
LINE
  5
223
100
AcDbEntity
  8
0
100
AcDbLine
 62
7
  6
CONTINUOUS
 10
84.9061323073
 20
247.5837068342
 11
85.0886441265
 21
247.8230912403
  0
LINE
  5
224
100
AcDbEntity
  8
0
100
AcDbLine
 62
7
  6
CONTINUOUS
 10
81.9651999746
 20
241.4176504202
 11
81.7826881554
 21
241.1782660141
  0
LINE
  5
225
100
AcDbEntity
  8
0
100
AcDbLine
 62
7
  6
CONTINUOUS
 10
80.9851158868
 20
239.1087170032
 11
80.8026045893
 21
238.869333826
  0
LINE
  5
226
100
AcDbEntity
  8
0
100
AcDbLine
 62
7
  6
CONTINUOUS
 10
88.3997082552
 20
248.7623547504
 11
88.2171974794
 21
248.5229728023
  0
LINE
  5
227
100
AcDbEntity
  8
0
100
AcDbLine
 62
7
  6
CONTINUOUS
 10
83.35895698
 20
240.8894057266
 11
83.1764456825
 21
240.6500225495
  0
LINE
  5
228
100
AcDbEntity
  8
0
100
AcDbLine
 62
7
  6
CONTINUOUS
 10
82.2167703321
 20
241.0573805675
 11
82.3536965052
 21
241.1893719213
  0
LINE
  5
229
100
AcDbEntity
  8
0
100
AcDbLine
 62
7
  6
CONTINUOUS
 10
81.1681380186
 20
238.7775441458
 11
81.3050641917
 21
238.9095354997
  0
LINE
  5
22A
100
AcDbEntity
  8
0
100
AcDbLine
 62
7
  6
CONTINUOUS
 10
83.0396897875
 20
240.3278458508
 11
82.9027636144
 21
240.1958544969
  0
LINE
  5
22B
100
AcDbEntity
  8
0
100
AcDbLine
 62
7
  6
CONTINUOUS
 10
106.6998101938
 20
256.9017222635
 11
106.9664767969
 21
257.0719350092
  0
LINE
  5
22C
100
AcDbEntity
  8
0
100
AcDbLine
 62
7
  6
CONTINUOUS
 10
88.2175380596
 20
248.1426021025
 11
88.5371453046
 21
248.3237900521
  0
LINE
  5
22D
100
AcDbEntity
  8
0
100
AcDbLine
 62
7
  6
CONTINUOUS
 10
85.0886441265
 20
247.8230912403
 11
85.2941185252
 21
247.9259855988
  0
LINE
  5
22E
100
AcDbEntity
  8
0
100
AcDbLine
 62
7
  6
CONTINUOUS
 10
88.2171974794
 20
248.5229728023
 11
88.0117230807
 21
248.4200784439
  0
LINE
  5
22F
100
AcDbEntity
  8
0
100
AcDbLine
 62
7
  6
CONTINUOUS
 10
106.6331434
 20
257.3272541277
 11
106.4331434
 21
257.2421477548
  0
LINE
  5
230
100
AcDbEntity
  8
0
100
AcDbLine
 62
7
  6
CONTINUOUS
 10
109.4331435907
 20
255.5400201194
 11
109.1664767969
 21
255.4549137465
  0
LINE
  5
231
100
AcDbEntity
  8
0
100
AcDbLine
 62
7
  6
CONTINUOUS
 10
112.6331432093
 20
255.5400201194
 11
112.3664767969
 21
255.4549137465
  0
LINE
  5
232
100
AcDbEntity
  8
0
100
AcDbLine
 62
7
  6
CONTINUOUS
 10
76.9050614522
 20
229.6872976056
 11
76.8824390376
 21
229.4434160419
  0
LINE
  5
233
100
AcDbEntity
  8
0
100
AcDbLine
 62
7
  6
CONTINUOUS
 10
77.8439874472
 20
226.944019231
 11
77.8894024892
 21
227.2415968599
  0
LINE
  5
234
100
AcDbEntity
  8
0
100
AcDbLine
 62
7
  6
CONTINUOUS
 10
84.586184524
 20
247.7828895666
 11
84.4950132318
 21
247.5681034622
  0
LINE
  5
235
100
AcDbEntity
  8
0
100
AcDbLine
 62
7
  6
CONTINUOUS
 10
83.9251973506
 20
246.2257013702
 11
83.7200635081
 21
245.7424363221
  0
LINE
  5
236
100
AcDbEntity
  8
0
100
AcDbLine
 62
7
  6
CONTINUOUS
 10
83.0362840332
 20
244.1315528286
 11
82.8311501908
 21
243.6482877805
  0
LINE
  5
237
100
AcDbEntity
  8
0
100
AcDbLine
 62
7
  6
CONTINUOUS
 10
81.7826881554
 20
241.1782660141
 11
81.6687250835
 21
240.9097858415
  0
LINE
  5
238
100
AcDbEntity
  8
0
100
AcDbLine
 62
7
  6
CONTINUOUS
 10
80.8026045893
 20
238.869333826
 11
80.2555810094
 21
237.5806270312
  0
LINE
  5
239
100
AcDbEntity
  8
0
100
AcDbLine
 62
7
  6
CONTINUOUS
 10
80.0732394683
 20
237.1510572802
 11
79.9364835733
 21
236.8288805815
  0
LINE
  5
23A
100
AcDbEntity
  8
0
100
AcDbLine
 62
7
  6
CONTINUOUS
 10
79.2982894837
 20
235.3253895257
 11
79.1615335888
 21
235.003212827
  0
LINE
  5
23B
100
AcDbEntity
  8
0
100
AcDbLine
 62
7
  6
CONTINUOUS
 10
78.1130718143
 20
232.5331916751
 11
77.930730534
 21
232.1036225387
  0
LINE
  5
23C
100
AcDbEntity
  8
0
100
AcDbLine
 62
7
  6
CONTINUOUS
 10
77.0190246545
 20
229.9557780854
 11
76.9050614522
 21
229.6872976056
  0
LINE
  5
23D
100
AcDbEntity
  8
0
100
AcDbLine
 62
7
  6
CONTINUOUS
 10
76.0617333897
 20
227.7005411945
 11
75.5147098098
 21
226.4118343996
  0
LINE
  5
23E
100
AcDbEntity
  8
0
100
AcDbLine
 62
7
  6
CONTINUOUS
 10
75.9942068328
 20
226.588526121
 11
76.4272671451
 21
227.6087522824
  0
LINE
  5
23F
100
AcDbEntity
  8
0
100
AcDbLine
 62
7
  6
CONTINUOUS
 10
80.7350780323
 20
237.7573187526
 11
81.1681380186
 21
238.7775441458
  0
LINE
  5
240
100
AcDbEntity
  8
0
100
AcDbLine
 62
7
  6
CONTINUOUS
 10
84.8149620584
 20
247.3689231877
 11
84.9061323073
 21
247.5837068342
  0
LINE
  5
241
100
AcDbEntity
  8
0
100
AcDbLine
 62
7
  6
CONTINUOUS
 10
77.3163508058
 20
229.5127156328
 11
77.4531067007
 21
229.8348923315
  0
LINE
  5
242
100
AcDbEntity
  8
0
100
AcDbLine
 62
7
  6
CONTINUOUS
 10
82.0800144371
 20
240.7352038687
 11
82.2167703321
 21
241.0573805675
  0
LINE
  5
243
100
AcDbEntity
  8
0
100
AcDbLine
 62
7
  6
CONTINUOUS
 10
77.9326037237
 20
230.0115840529
 11
78.0693596186
 21
230.3337607516
  0
LINE
  5
244
100
AcDbEntity
  8
0
100
AcDbLine
 62
7
  6
CONTINUOUS
 10
82.696267355
 20
241.2340722889
 11
82.83302325
 21
241.5562489876
  0
LINE
  5
245
100
AcDbEntity
  8
0
100
AcDbLine
 62
7
  6
CONTINUOUS
 10
84.8843616746
 20
246.3888994682
 11
84.9983247465
 21
246.6573796408
  0
LINE
  5
246
100
AcDbEntity
  8
0
100
AcDbLine
 62
7
  6
CONTINUOUS
 10
83.1764456825
 20
240.6500225495
 11
83.0396897875
 21
240.3278458508
  0
LINE
  5
247
100
AcDbEntity
  8
0
100
AcDbLine
 62
7
  6
CONTINUOUS
 10
82.1963615946
 20
238.3410891324
 11
81.7633016083
 21
237.3208637392
  0
LINE
  5
248
100
AcDbEntity
  8
0
100
AcDbLine
 62
7
  6
CONTINUOUS
 10
78.4127820511
 20
229.4275343136
 11
78.2760261561
 21
229.1053576149
  0
LINE
  5
249
100
AcDbEntity
  8
0
100
AcDbLine
 62
7
  6
CONTINUOUS
 10
77.4554907211
 20
227.172297269
 11
77.0224304088
 21
226.1520711076
  0
LINE
  5
24A
100
AcDbEntity
  8
0
100
AcDbLine
 62
7
  6
CONTINUOUS
 10
84.3625150033
 20
242.4912942905
 11
84.0434175673
 21
241.7395478409
  0
LINE
  5
24B
100
AcDbEntity
  8
0
100
AcDbLine
 62
7
  6
CONTINUOUS
 10
80.6928984013
 20
233.846219337
 11
80.3738012261
 21
233.0944735019
  0
LINE
  5
24C
100
AcDbEntity
  8
0
100
AcDbLine
 62
7
  6
CONTINUOUS
 10
77.4337197623
 20
225.9774891348
 11
77.8439874472
 21
226.944019231
  0
LINE
  5
24D
100
AcDbEntity
  8
0
100
AcDbLine
 62
7
  6
CONTINUOUS
 10
78.6873155097
 20
228.9307756421
 11
78.8240714047
 21
229.2529523408
  0
LINE
  5
24E
100
AcDbEntity
  8
0
100
AcDbLine
 62
7
  6
CONTINUOUS
 10
82.1745909619
 20
237.1462817664
 11
82.5620658238
 21
238.0591153364
  0
LINE
  5
24F
100
AcDbEntity
  8
0
100
AcDbLine
 62
7
  6
CONTINUOUS
 10
83.4509791411
 20
240.153263878
 11
83.587735036
 21
240.4754405767
  0
LINE
  5
250
100
AcDbEntity
  8
0
100
AcDbLine
 62
7
  6
CONTINUOUS
 10
80.7165424501
 20
232.9489884838
 11
81.0356396253
 21
233.700734319
  0
LINE
  5
251
100
AcDbEntity
  8
0
100
AcDbLine
 62
7
  6
CONTINUOUS
 10
84.3861587913
 20
241.5940628228
 11
84.7052562273
 21
242.3458092725
  0
LINE
  5
252
100
AcDbEntity
  8
0
100
AcDbLine
 62
7
  6
CONTINUOUS
 10
80.3520304286
 20
231.8996654806
 11
79.9417627437
 21
230.9331353845
  0
LINE
  5
253
100
AcDbEntity
  8
0
100
AcDbLine
 62
7
  6
CONTINUOUS
 10
83.7714383763
 20
239.3835262994
 11
83.6346824814
 21
239.0613496007
  0
LINE
  5
254
100
AcDbEntity
  8
0
100
AcDbLine
 62
7
  6
CONTINUOUS
 10
79.0077748754
 20
228.1610383707
 11
78.8710189804
 21
227.838861672
  0
LINE
  5
255
100
AcDbEntity
  8
0
100
AcDbLine
 62
7
  6
CONTINUOUS
 10
80.193162823
 20
230.7630508765
 11
80.6490158932
 21
231.8369734104
  0
LINE
  5
256
100
AcDbEntity
  8
0
100
AcDbLine
 62
7
  6
CONTINUOUS
 10
84.615958564
 20
240.0389855837
 11
84.4336175446
 21
239.6094170617
  0
LINE
  5
257
100
AcDbEntity
  8
0
100
AcDbLine
 62
7
  6
CONTINUOUS
 10
79.8522949326
 20
228.8164973477
 11
79.6699536524
 21
228.3869282113
  0
LINE
  5
258
100
AcDbEntity
  8
0
100
AcDbLine
 62
7
  6
CONTINUOUS
 10
87.8071000726
 20
247.3662573614
 11
87.1689052005
 21
245.8627644621
  0
LINE
  5
259
100
AcDbEntity
  8
0
100
AcDbLine
 62
7
  6
CONTINUOUS
 10
88.5371453046
 20
248.3237900521
 11
88.7424494312
 21
248.6168697528
  0
LINE
  5
25A
100
AcDbEntity
  8
0
100
AcDbLine
 62
7
  6
CONTINUOUS
 10
77.2015360824
 20
230.1951615698
 11
77.0190246545
 21
229.9557780854
  0
LINE
  5
25B
100
AcDbEntity
  8
0
100
AcDbLine
 62
7
  6
CONTINUOUS
 10
84.662395121
 20
239.195450665
 11
84.8449069462
 21
239.4348350686
  0
LINE
  5
25C
100
AcDbEntity
  8
0
100
AcDbLine
 62
7
  6
CONTINUOUS
 10
76.2442448829
 20
227.9399248325
 11
76.0617333897
 21
227.7005411945
  0
LINE
  5
25D
100
AcDbEntity
  8
0
100
AcDbLine
 62
7
  6
CONTINUOUS
 10
78.595293479
 20
229.6669177979
 11
78.4127820511
 21
229.4275343136
  0
LINE
  5
25E
100
AcDbEntity
  8
0
100
AcDbLine
 62
7
  6
CONTINUOUS
 10
83.587735036
 20
240.4754405767
 11
83.7474540322
 21
240.6611284567
  0
LINE
  5
25F
100
AcDbEntity
  8
0
100
AcDbLine
 62
7
  6
CONTINUOUS
 10
83.2912601449
 20
239.967575998
 11
83.4509791411
 21
240.153263878
  0
LINE
  5
260
100
AcDbEntity
  8
0
100
AcDbLine
 62
7
  6
CONTINUOUS
 10
84.4336175446
 20
239.6094170617
 11
84.2738985485
 21
239.4237291817
  0
LINE
  5
261
100
AcDbEntity
  8
0
100
AcDbLine
 62
7
  6
CONTINUOUS
 10
78.8240714047
 20
229.2529523408
 11
78.98379014
 21
229.4386396063
  0
LINE
  5
262
100
AcDbEntity
  8
0
100
AcDbLine
 62
7
  6
CONTINUOUS
 10
78.527596644
 20
228.7450880693
 11
78.6873155097
 21
228.9307756421
  0
LINE
  5
263
100
AcDbEntity
  8
0
100
AcDbLine
 62
7
  6
CONTINUOUS
 10
77.4531067007
 20
229.8348923315
 11
77.5900328738
 21
229.9668836854
  0
LINE
  5
264
100
AcDbEntity
  8
0
100
AcDbLine
 62
7
  6
CONTINUOUS
 10
76.4272671451
 20
227.6087522824
 11
76.5641933182
 21
227.7407436363
  0
LINE
  5
265
100
AcDbEntity
  8
0
100
AcDbLine
 62
7
  6
CONTINUOUS
 10
83.5872242017
 20
241.0459966112
 11
83.35895698
 21
240.8894057266
  0
LINE
  5
266
100
AcDbEntity
  8
0
100
AcDbLine
 62
7
  6
CONTINUOUS
 10
83.0629934449
 20
239.8109863424
 11
83.2912601449
 21
239.967575998
  0
LINE
  5
267
100
AcDbEntity
  8
0
100
AcDbLine
 62
7
  6
CONTINUOUS
 10
109.4998100031
 20
255.0293818302
 11
109.7664767969
 21
255.1995945982
  0
LINE
  5
268
100
AcDbEntity
  8
0
100
AcDbLine
 62
7
  6
CONTINUOUS
 10
112.6998103846
 20
255.0293818302
 11
112.9664767969
 21
255.1995945982
  0
LINE
  5
269
100
AcDbEntity
  8
0
100
AcDbLine
 62
7
  6
CONTINUOUS
 10
84.3427873543
 20
239.0142614864
 11
84.662395121
 21
239.195450665
  0
LINE
  5
26A
100
AcDbEntity
  8
0
100
AcDbLine
 62
7
  6
CONTINUOUS
 10
83.7474540322
 20
240.6611284567
 11
83.9529284309
 21
240.7640228152
  0
LINE
  5
26B
100
AcDbEntity
  8
0
100
AcDbLine
 62
7
  6
CONTINUOUS
 10
82.9027636144
 20
240.1958544969
 11
82.6972892157
 21
240.0929601385
  0
LINE
  5
26C
100
AcDbEntity
  8
0
100
AcDbLine
 62
7
  6
CONTINUOUS
 10
82.2620149003
 20
241.5451430803
 11
81.9651999746
 21
241.4176504202
  0
LINE
  5
26D
100
AcDbEntity
  8
0
100
AcDbLine
 62
7
  6
CONTINUOUS
 10
81.2819313341
 20
239.2362108922
 11
80.9851158868
 21
239.1087170032
  0
LINE
  5
26E
100
AcDbEntity
  8
0
100
AcDbLine
 62
7
  6
CONTINUOUS
 10
77.3165210839
 20
229.322530288
 11
77.3163508058
 21
229.5127156328
  0
LINE
  5
26F
100
AcDbEntity
  8
0
100
AcDbLine
 62
7
  6
CONTINUOUS
 10
77.455320443
 20
227.3624826138
 11
77.4554907211
 21
227.172297269
  0
LINE
  5
270
100
AcDbEntity
  8
0
100
AcDbLine
 62
7
  6
CONTINUOUS
 10
79.8749172167
 20
229.0603786042
 11
79.8522949326
 21
228.8164973477
  0
LINE
  5
271
100
AcDbEntity
  8
0
100
AcDbLine
 62
7
  6
CONTINUOUS
 10
81.6687250835
 20
240.9097858415
 11
81.6461025386
 21
240.6659039706
  0
LINE
  5
272
100
AcDbEntity
  8
0
100
AcDbLine
 62
7
  6
CONTINUOUS
 10
80.2635843342
 20
228.6419153546
 11
80.308999305
 21
228.9394928324
  0
LINE
  5
273
100
AcDbEntity
  8
0
100
AcDbLine
 62
7
  6
CONTINUOUS
 10
84.7695466904
 20
247.0713447907
 11
84.8149620584
 21
247.3689231877
  0
LINE
  5
274
100
AcDbEntity
  8
0
100
AcDbLine
 62
7
  6
CONTINUOUS
 10
85.8180092474
 20
249.5413677861
 11
85.8634235721
 21
249.8389437252
  0
LINE
  5
275
100
AcDbEntity
  8
0
100
AcDbLine
 62
7
  6
CONTINUOUS
 10
85.5206824441
 20
249.9844287025
 11
85.4524747747
 21
249.6331550083
  0
LINE
  5
276
100
AcDbEntity
  8
0
100
AcDbLine
 62
7
  6
CONTINUOUS
 10
84.4950132318
 20
247.5681034622
 11
84.4040132611
 21
247.1631344709
  0
LINE
  5
277
100
AcDbEntity
  8
0
100
AcDbLine
 62
7
  6
CONTINUOUS
 10
78.7364767969
 20
225.0442754499
 11
78.8732326919
 21
225.3664521486
  0
LINE
  5
278
100
AcDbEntity
  8
0
100
AcDbLine
 62
7
  6
CONTINUOUS
 10
80.081243054
 20
228.2123462181
 11
80.2635843342
 21
228.6419153546
  0
LINE
  5
279
100
AcDbEntity
  8
0
100
AcDbLine
 62
7
  6
CONTINUOUS
 10
80.7878152215
 20
229.8769259306
 11
80.9245711164
 21
230.1991026293
  0
LINE
  5
27A
100
AcDbEntity
  8
0
100
AcDbLine
 62
7
  6
CONTINUOUS
 10
81.562765206
 20
231.7025936851
 11
81.699521101
 21
232.0247703838
  0
LINE
  5
27B
100
AcDbEntity
  8
0
100
AcDbLine
 62
7
  6
CONTINUOUS
 10
82.7479831363
 20
234.4947921502
 11
82.9303241557
 21
234.9243606721
  0
LINE
  5
27C
100
AcDbEntity
  8
0
100
AcDbLine
 62
7
  6
CONTINUOUS
 10
83.4773479965
 20
236.2130680815
 11
83.6141038914
 21
236.5352447802
  0
LINE
  5
27D
100
AcDbEntity
  8
0
100
AcDbLine
 62
7
  6
CONTINUOUS
 10
84.1839197727
 20
237.8776468721
 11
84.3434684907
 21
238.253520097
  0
LINE
  5
27E
100
AcDbEntity
  8
0
100
AcDbLine
 62
7
  6
CONTINUOUS
 10
84.8449069462
 20
239.4348350686
 11
85.0272479656
 21
239.8644035905
  0
LINE
  5
27F
100
AcDbEntity
  8
0
100
AcDbLine
 62
7
  6
CONTINUOUS
 10
86.0529171779
 20
242.2807288308
 11
86.1896730728
 21
242.6029055295
  0
LINE
  5
280
100
AcDbEntity
  8
0
100
AcDbLine
 62
7
  6
CONTINUOUS
 10
86.5087699872
 20
243.3546507502
 11
86.6911115283
 21
243.7842205011
  0
LINE
  5
281
100
AcDbEntity
  8
0
100
AcDbLine
 62
7
  6
CONTINUOUS
 10
87.0102084427
 20
244.5359657218
 11
87.1469643376
 21
244.8581424205
  0
LINE
  5
282
100
AcDbEntity
  8
0
100
AcDbLine
 62
7
  6
CONTINUOUS
 10
87.329305357
 20
245.2877109424
 11
88.1498412486
 21
247.2207723637
  0
LINE
  5
283
100
AcDbEntity
  8
0
100
AcDbLine
 62
7
  6
CONTINUOUS
 10
79.8987316201
 20
227.9729627363
 11
80.081243054
 21
228.2123462181
  0
LINE
  5
284
100
AcDbEntity
  8
0
100
AcDbLine
 62
7
  6
CONTINUOUS
 10
106.7664767969
 20
257.4974668733
 11
106.6331434
 21
257.3272541277
  0
LINE
  5
285
100
AcDbEntity
  8
0
100
AcDbLine
 62
7
  6
CONTINUOUS
 10
79.6699536524
 20
228.3869282113
 11
79.5102349171
 21
228.2012409458
  0
LINE
  5
286
100
AcDbEntity
  8
0
100
AcDbLine
 62
7
  6
CONTINUOUS
 10
78.2760261561
 20
229.1053576149
 11
78.139099983
 21
228.973366261
  0
LINE
  5
287
100
AcDbEntity
  8
0
100
AcDbLine
 62
7
  6
CONTINUOUS
 10
109.6331435907
 20
255.7102329246
 11
109.4331435907
 21
255.5400201194
  0
LINE
  5
288
100
AcDbEntity
  8
0
100
AcDbLine
 62
7
  6
CONTINUOUS
 10
112.8331432093
 20
255.7102329246
 11
112.6331432093
 21
255.5400201194
  0
LINE
  5
289
100
AcDbEntity
  8
0
100
AcDbLine
 62
7
  6
CONTINUOUS
 10
78.8235605703
 20
229.8235083752
 11
78.595293479
 21
229.6669177979
  0
LINE
  5
28A
100
AcDbEntity
  8
0
100
AcDbLine
 62
7
  6
CONTINUOUS
 10
78.2993295527
 20
228.588497492
 11
78.527596644
 21
228.7450880693
  0
LINE
  5
28B
100
AcDbEntity
  8
RUNDUNGEN
100
AcDbLine
 62
7
  6
CONTINUOUS
 10
81.6860820368
 20
202.5969882816
 11
81.6875814816
 21
202.5933683016
  0
LINE
  5
28C
100
AcDbEntity
  8
RUNDUNGEN
100
AcDbLine
 62
7
  6
CONTINUOUS
 10
81.6834660086
 20
202.6033039324
 11
71.7375441239
 21
226.6148834367
  0
LINE
  5
28D
100
AcDbEntity
  8
0
100
AcDbLine
 62
7
  6
CONTINUOUS
 10
76.8824390376
 20
229.4434160419
 11
76.9283648487
 21
229.1704374828
  0
LINE
  5
28E
100
AcDbEntity
  8
0
100
AcDbLine
 62
7
  6
CONTINUOUS
 10
82.0801847152
 20
240.5450185239
 11
82.0800144371
 21
240.7352038687
  0
LINE
  5
28F
100
AcDbEntity
  8
0
100
AcDbLine
 62
7
  6
CONTINUOUS
 10
82.1961913165
 20
238.5312744772
 11
82.1963615946
 21
238.3410891324
  0
LINE
  5
290
100
AcDbEntity
  8
0
100
AcDbLine
 62
7
  6
CONTINUOUS
 10
84.6385811089
 20
240.2828674546
 11
84.615958564
 21
240.0389855837
  0
LINE
  5
291
100
AcDbEntity
  8
0
100
AcDbLine
 62
7
  6
CONTINUOUS
 10
85.0272479656
 20
239.8644035905
 11
85.0726628059
 21
240.1619807611
  0
LINE
  5
292
100
AcDbEntity
  8
0
100
AcDbLine
 62
7
  6
CONTINUOUS
 10
88.4451236232
 20
249.0599331475
 11
88.3997082552
 21
248.7623547504
  0
LINE
  5
293
100
AcDbEntity
  8
0
100
AcDbLine
 62
7
  6
CONTINUOUS
 10
88.7424494312
 20
248.6168697528
 11
88.8106570946
 21
248.9681434495
  0
LINE
  5
294
100
AcDbEntity
  8
0
100
AcDbLine
 62
7
  6
CONTINUOUS
 10
106.9664767969
 20
257.0719350092
 11
107.1664767969
 21
257.4123605005
  0
LINE
  5
295
100
AcDbEntity
  8
0
100
AcDbLine
 62
7
  6
CONTINUOUS
 10
109.7664767969
 20
255.1995945982
 11
110.0331435907
 21
255.5400201194
  0
LINE
  5
296
100
AcDbEntity
  8
0
100
AcDbLine
 62
7
  6
CONTINUOUS
 10
79.5791237229
 20
227.7917732505
 11
79.8987316201
 21
227.9729627363
  0
LINE
  5
297
100
AcDbEntity
  8
0
100
AcDbLine
 62
7
  6
CONTINUOUS
 10
78.98379014
 20
229.4386396063
 11
79.1892645387
 21
229.5415339647
  0
LINE
  5
298
100
AcDbEntity
  8
0
100
AcDbLine
 62
7
  6
CONTINUOUS
 10
78.139099983
 20
228.973366261
 11
77.9336255844
 21
228.8704719025
  0
LINE
  5
299
100
AcDbEntity
  8
0
100
AcDbLine
 62
7
  6
CONTINUOUS
 10
77.4983513994
 20
230.3226551516
 11
77.2015360824
 21
230.1951615698
  0
LINE
  5
29A
100
AcDbEntity
  8
0
100
AcDbLine
 62
7
  6
CONTINUOUS
 10
76.5410601346
 20
228.0674182607
 11
76.2442448829
 21
227.9399248325
  0
LINE
  5
29B
100
AcDbEntity
  8
B-ACHSEN
100
AcDbLine
 62
7
  6
CONTINUOUS
 10
119.0664767969
 20
182.9542754499
 11
99.0664767969
 21
182.9542754499
  0
LINE
  5
29C
100
AcDbEntity
  8
0
100
AcDbLine
 62
7
  6
CONTINUOUS
 10
77.8894024892
 20
227.2415968599
 11
77.7749283873
 21
227.5436722609
  0
LINE
  5
29D
100
AcDbEntity
  8
0
100
AcDbLine
 62
7
  6
CONTINUOUS
 10
77.3852395876
 20
229.1032479477
 11
77.3165210839
 21
229.322530288
  0
LINE
  5
29E
100
AcDbEntity
  8
B-ACHSEN
100
AcDbLine
 62
7
  6
CONTINUOUS
 10
85.9121049631
 20
198.2339515163
 11
88.0664767969
 21
190.4542754499
  0
LINE
  5
29F
100
AcDbEntity
  8
0
100
AcDbLine
 62
7
  6
CONTINUOUS
 10
80.308999305
 20
228.9394928324
 11
80.2630734759
 21
229.2124713992
  0
LINE
  5
2A0
100
AcDbEntity
  8
0
100
AcDbLine
 62
7
  6
CONTINUOUS
 10
112.9664767969
 20
255.1995945982
 11
113.2331432093
 21
255.5400201194
  0
LINE
  5
2A1
100
AcDbEntity
  8
0
100
AcDbLine
 62
7
  6
CONTINUOUS
 10
131.3196170317
 20
245.249232674
 11
130.9264767969
 21
245.0863886568
  0
LINE
  5
2A2
100
AcDbEntity
  8
B-ACHSEN
100
AcDbLine
 62
7
  6
CONTINUOUS
 10
130.0664767969
 20
190.4542754499
 11
88.0664767969
 21
190.4542754499
  0
LINE
  5
2A3
100
AcDbEntity
  8
0
100
AcDbLine
 62
7
  6
CONTINUOUS
 10
77.3638093118
 20
227.5280688888
 11
77.455320443
 21
227.3624826138
  0
LINE
  5
2A4
100
AcDbEntity
  8
0
100
AcDbLine
 62
7
  6
CONTINUOUS
 10
76.9283648487
 20
229.1704374828
 11
77.1113872414
 21
228.8392652399
  0
LINE
  5
2A5
100
AcDbEntity
  8
0
100
AcDbLine
 62
7
  6
CONTINUOUS
 10
79.806198665
 20
229.2796609648
 11
79.8749172167
 21
229.0603786042
  0
LINE
  5
2A6
100
AcDbEntity
  8
0
100
AcDbLine
 62
7
  6
CONTINUOUS
 10
81.6461025386
 20
240.6659039706
 11
81.6920287409
 21
240.3929263332
  0
LINE
  5
2A7
100
AcDbEntity
  8
0
100
AcDbLine
 62
7
  6
CONTINUOUS
 10
82.5617252675
 20
238.439486026
 11
82.5157995869
 21
238.7124648924
  0
LINE
  5
2A8
100
AcDbEntity
  8
0
100
AcDbLine
 62
7
  6
CONTINUOUS
 10
109.7664767969
 20
255.9655520431
 11
109.6331435907
 21
255.7102329246
  0
LINE
  5
2A9
100
AcDbEntity
  8
0
100
AcDbLine
 62
7
  6
CONTINUOUS
 10
112.9664767969
 20
255.9655520431
 11
112.8331432093
 21
255.7102329246
  0
LINE
  5
2AA
100
AcDbEntity
  8
0
100
AcDbLine
 62
7
  6
CONTINUOUS
 10
134.7137951125
 20
243.9491667674
 11
134.5565388203
 21
243.8840290784
  0
LINE
  5
2AB
100
AcDbEntity
  8
0
100
AcDbLine
 62
7
  6
CONTINUOUS
 10
132.074527094
 20
242.3147500593
 11
132.4676673288
 21
242.4775940765
  0
LINE
  5
2AC
100
AcDbEntity
  8
0
100
AcDbLine
 62
7
  6
CONTINUOUS
 10
134.7478805365
 20
243.4220893122
 11
134.9051368286
 21
243.4872270012
  0
LINE
  5
2AD
100
AcDbEntity
  8
0
100
AcDbLine
 62
7
  6
CONTINUOUS
 10
77.7749283873
 20
227.5436722609
 11
77.5691134324
 21
227.8211485921
  0
LINE
  5
2AE
100
AcDbEntity
  8
0
100
AcDbLine
 62
7
  6
CONTINUOUS
 10
80.2630734759
 20
229.2124713992
 11
80.0800510592
 21
229.5436436522
  0
LINE
  5
2AF
100
AcDbEntity
  8
0
100
AcDbLine
 62
7
  6
CONTINUOUS
 10
82.1489032189
 20
240.3257361837
 11
82.0801847152
 21
240.5450185239
  0
LINE
  5
2B0
100
AcDbEntity
  8
0
100
AcDbLine
 62
7
  6
CONTINUOUS
 10
84.5698625572
 20
240.5021498152
 11
84.6385811089
 21
240.2828674546
  0
LINE
  5
2B1
100
AcDbEntity
  8
0
100
AcDbLine
 62
7
  6
CONTINUOUS
 10
85.0726628059
 20
240.1619807611
 11
85.0267371073
 21
240.4349596351
  0
LINE
  5
2B2
100
AcDbEntity
  8
0
100
AcDbLine
 62
7
  6
CONTINUOUS
 10
84.4040132611
 20
247.1631344709
 11
84.4499389417
 21
246.8901556045
  0
LINE
  5
2B3
100
AcDbEntity
  8
0
100
AcDbLine
 62
7
  6
CONTINUOUS
 10
106.8331434
 20
257.7527859918
 11
106.7664767969
 21
257.4974668733
  0
LINE
  5
2B4
100
AcDbEntity
  8
0
100
AcDbLine
 62
7
  6
CONTINUOUS
 10
107.1664767969
 20
257.4123605005
 11
107.2331434
 21
257.667679619
  0
LINE
  5
2B5
100
AcDbEntity
  8
0
100
AcDbLine
 62
7
  6
CONTINUOUS
 10
110.0331435907
 20
255.5400201194
 11
110.1664767969
 21
255.8804456703
  0
LINE
  5
2B6
100
AcDbEntity
  8
0
100
AcDbLine
 62
7
  6
CONTINUOUS
 10
113.2331432093
 20
255.5400201194
 11
113.3664767969
 21
255.8804456703
  0
LINE
  5
2B7
100
AcDbEntity
  8
0
100
AcDbLine
 62
7
  6
CONTINUOUS
 10
137.5559011809
 20
239.5340461172
 11
133.8603830509
 21
238.0033123878
  0
LINE
  5
2B8
100
AcDbEntity
  8
0
100
AcDbLine
 62
7
  6
CONTINUOUS
 10
134.0517249495
 20
237.541372181
 11
135.7029139247
 21
238.2253170485
  0
LINE
  5
2B9
100
AcDbEntity
  8
0
100
AcDbLine
 62
7
  6
CONTINUOUS
 10
136.1746821404
 20
238.4207298417
 11
137.3541028999
 21
238.9092619161
  0
LINE
  5
2BA
100
AcDbEntity
  8
0
100
AcDbLine
 62
7
  6
CONTINUOUS
 10
79.6461393735
 20
229.4743443889
 11
79.806198665
 21
229.2796609648
  0
LINE
  5
2BB
100
AcDbEntity
  8
0
100
AcDbLine
 62
7
  6
CONTINUOUS
 10
82.1046805114
 20
238.6968615204
 11
82.1961913165
 21
238.5312744772
  0
LINE
  5
2BC
100
AcDbEntity
  8
0
100
AcDbLine
 62
7
  6
CONTINUOUS
 10
84.8382651941
 20
246.8520624504
 11
84.7695466904
 21
247.0713447907
  0
LINE
  5
2BD
100
AcDbEntity
  8
0
100
AcDbLine
 62
7
  6
CONTINUOUS
 10
85.8867277512
 20
249.3220854458
 11
85.8180092474
 21
249.5413677861
  0
LINE
  5
2BE
100
AcDbEntity
  8
0
100
AcDbLine
 62
7
  6
CONTINUOUS
 10
85.4524747747
 20
249.6331550083
 11
85.5441569013
 21
249.2773850783
  0
LINE
  5
2BF
100
AcDbEntity
  8
B-ACHSEN
100
AcDbLine
 62
7
  6
CONTINUOUS
 10
99.0664767969
 20
182.9542754499
 11
99.0664767969
 21
161.9542754499
  0
LINE
  5
2C0
100
AcDbEntity
  8
0
100
AcDbLine
 62
7
  6
CONTINUOUS
 10
109.8331435907
 20
256.3059775345
 11
109.7664767969
 21
255.9655520431
  0
LINE
  5
2C1
100
AcDbEntity
  8
0
100
AcDbLine
 62
7
  6
CONTINUOUS
 10
134.9051368286
 20
243.4872270012
 11
135.1877587168
 21
243.6944920843
  0
LINE
  5
2C2
100
AcDbEntity
  8
0
100
AcDbLine
 62
7
  6
CONTINUOUS
 10
137.6795917133
 20
236.7891003905
 11
137.4437073852
 21
236.6913939026
  0
LINE
  5
2C3
100
AcDbEntity
  8
0
100
AcDbLine
 62
7
  6
CONTINUOUS
 10
137.5564210654
 20
236.1968853375
 11
137.8709334295
 21
236.3271606242
  0
LINE
  5
2C4
100
AcDbEntity
  8
0
100
AcDbLine
 62
7
  6
CONTINUOUS
 10
136.555689905
 20
234.6097777123
 11
136.7129459769
 21
234.67491531
  0
LINE
  5
2C5
100
AcDbEntity
  8
0
100
AcDbLine
 62
7
  6
CONTINUOUS
 10
137.0593487601
 20
234.7282000027
 11
137.1379767961
 21
234.7607688016
  0
LINE
  5
2C6
100
AcDbEntity
  8
0
100
AcDbLine
 62
7
  6
CONTINUOUS
 10
137.8863008387
 20
233.1765484186
 11
137.7290447668
 21
233.1114108208
  0
LINE
  5
2C7
100
AcDbEntity
  8
0
100
AcDbLine
 62
7
  6
CONTINUOUS
 10
77.1809572625
 20
227.6690559405
 11
77.3638093118
 21
227.5280688888
  0
LINE
  5
2C8
100
AcDbEntity
  8
0
100
AcDbLine
 62
7
  6
CONTINUOUS
 10
77.5691134324
 20
227.8211485921
 11
77.3862613831
 21
227.9621356437
  0
LINE
  5
2C9
100
AcDbEntity
  8
0
100
AcDbLine
 62
7
  6
CONTINUOUS
 10
80.0800510592
 20
229.5436436522
 11
79.8514434941
 21
229.7674240922
  0
LINE
  5
2CA
100
AcDbEntity
  8
0
100
AcDbLine
 62
7
  6
CONTINUOUS
 10
81.6920287409
 20
240.3929263332
 11
81.8750508728
 21
240.0617534759
  0
LINE
  5
2CB
100
AcDbEntity
  8
0
100
AcDbLine
 62
7
  6
CONTINUOUS
 10
85.0267371073
 20
240.4349596351
 11
84.8437149514
 21
240.7661325027
  0
LINE
  5
2CC
100
AcDbEntity
  8
0
100
AcDbLine
 62
7
  6
CONTINUOUS
 10
88.3764051195
 20
249.2792154878
 11
88.4451236232
 21
249.0599331475
  0
LINE
  5
2CD
100
AcDbEntity
  8
0
100
AcDbLine
 62
7
  6
CONTINUOUS
 10
88.8106570946
 20
248.9681434495
 11
88.7189759934
 21
249.3239158451
  0
LINE
  5
2CE
100
AcDbEntity
  8
0
100
AcDbLine
 62
7
  6
CONTINUOUS
 10
104.7664767969
 20
258.9442754499
 11
104.7664767969
 21
254.9442754499
  0
LINE
  5
2CF
100
AcDbEntity
  8
0
100
AcDbLine
 62
7
  6
CONTINUOUS
 10
105.1664767969
 20
254.9442754499
 11
105.1664767969
 21
256.7315095178
  0
LINE
  5
2D0
100
AcDbEntity
  8
0
100
AcDbLine
 62
7
  6
CONTINUOUS
 10
105.1664767969
 20
257.2421477548
 11
105.1664767969
 21
258.5187435858
  0
LINE
  5
2D1
100
AcDbEntity
  8
0
100
AcDbLine
 62
7
  6
CONTINUOUS
 10
106.8331434
 20
258.0081053488
 11
106.8331434
 21
257.7527859918
  0
LINE
  5
2D2
100
AcDbEntity
  8
0
100
AcDbLine
 62
7
  6
CONTINUOUS
 10
110.1664767969
 20
255.8804456703
 11
110.2331435907
 21
256.3059775345
  0
LINE
  5
2D3
100
AcDbEntity
  8
0
100
AcDbLine
 62
7
  6
CONTINUOUS
 10
113.3664767969
 20
255.8804456703
 11
113.4331432093
 21
256.3059775345
  0
LINE
  5
2D4
100
AcDbEntity
  8
0
100
AcDbLine
 62
7
  6
CONTINUOUS
 10
113.0331432093
 20
256.3059775345
 11
112.9664767969
 21
255.9655520431
  0
LINE
  5
2D5
100
AcDbEntity
  8
0
100
AcDbLine
 62
7
  6
CONTINUOUS
 10
136.55349479
 20
235.0598645279
 11
136.1136167387
 21
234.7874620673
  0
LINE
  5
2D6
100
AcDbEntity
  8
0
100
AcDbLine
 62
7
  6
CONTINUOUS
 10
137.5739836997
 20
232.5961863619
 11
137.8884959536
 21
232.726461603
  0
LINE
  5
2D7
100
AcDbEntity
  8
0
100
AcDbLine
 62
7
  6
CONTINUOUS
 10
139.0871547949
 20
232.5013672074
 11
136.5710574243
 21
231.4591655523
  0
LINE
  5
2D8
100
AcDbEntity
  8
0
100
AcDbLine
 62
7
  6
CONTINUOUS
 10
136.7305089761
 20
231.0742154534
 11
138.3030699153
 21
231.7255915221
  0
LINE
  5
2D9
100
AcDbEntity
  8
0
100
AcDbLine
 62
7
  6
CONTINUOUS
 10
138.774838131
 20
231.9210043153
 11
139.2466063467
 21
232.1164171085
  0
LINE
  5
2DA
100
AcDbEntity
  8
0
100
AcDbLine
 62
7
  6
CONTINUOUS
 10
139.2680397637
 20
230.9527039143
 11
139.6611799434
 21
231.1155479087
  0
LINE
  5
2DB
100
AcDbEntity
  8
0
100
AcDbLine
 62
7
  6
CONTINUOUS
 10
139.4445337727
 20
230.3042160145
 11
139.2872777008
 21
230.2390784167
  0
LINE
  5
2DC
100
AcDbEntity
  8
0
100
AcDbLine
 62
7
  6
CONTINUOUS
 10
77.1113872414
 20
228.8392652399
 11
77.3627874512
 21
228.6691810392
  0
LINE
  5
2DD
100
AcDbEntity
  8
0
100
AcDbLine
 62
7
  6
CONTINUOUS
 10
77.5680917638
 20
228.962260661
 11
77.3852395876
 21
229.1032479477
  0
LINE
  5
2DE
100
AcDbEntity
  8
0
100
AcDbLine
 62
7
  6
CONTINUOUS
 10
79.9417627437
 20
230.9331353845
 11
78.296094207
 21
232.2020194323
  0
LINE
  5
2DF
100
AcDbEntity
  8
0
100
AcDbLine
 62
7
  6
CONTINUOUS
 10
80.9245711164
 20
230.1991026293
 11
80.193162823
 21
230.7630508765
  0
LINE
  5
2E0
100
AcDbEntity
  8
0
100
AcDbLine
 62
7
  6
CONTINUOUS
 10
77.930730534
 20
232.1036225387
 11
80.7878152215
 21
229.8769259306
  0
LINE
  5
2E1
100
AcDbEntity
  8
0
100
AcDbLine
 62
7
  6
CONTINUOUS
 10
82.5157995869
 20
238.7124648924
 11
82.309984632
 21
238.9899412236
  0
LINE
  5
2E2
100
AcDbEntity
  8
0
100
AcDbLine
 62
7
  6
CONTINUOUS
 10
84.4499389417
 20
246.8901556045
 11
84.6329615952
 21
246.5589839762
  0
LINE
  5
2E3
100
AcDbEntity
  8
0
100
AcDbLine
 62
7
  6
CONTINUOUS
 10
85.5441569013
 20
249.2773850783
 11
85.6814236306
 21
249.0290057426
  0
LINE
  5
2E4
100
AcDbEntity
  8
0
100
AcDbLine
 62
7
  6
CONTINUOUS
 10
85.9110527476
 20
247.6641125581
 11
86.9865641811
 21
245.4331959401
  0
LINE
  5
2E5
100
AcDbEntity
  8
0
100
AcDbLine
 62
7
  6
CONTINUOUS
 10
87.1689052005
 20
245.8627644621
 11
86.2306610179
 21
247.8453029733
  0
LINE
  5
2E6
100
AcDbEntity
  8
0
100
AcDbLine
 62
7
  6
CONTINUOUS
 10
107.2331434
 20
257.667679619
 11
107.2331434
 21
258.0081053488
  0
LINE
  5
2E7
100
AcDbEntity
  8
0
100
AcDbLine
 62
7
  6
CONTINUOUS
 10
107.8331434
 20
258.9442754499
 11
107.8331434
 21
256.3059775345
  0
LINE
  5
2E8
100
AcDbEntity
  8
0
100
AcDbLine
 62
7
  6
CONTINUOUS
 10
108.2331435907
 20
256.3059775345
 11
108.2331435907
 21
258.9442754499
  0
LINE
  5
2E9
100
AcDbEntity
  8
B-ACHSEN
100
AcDbLine
 62
2
  6
CENTER
 10
109.0664767969
 20
157.4542754499
 11
109.0664767969
 21
269.2693671964
  0
LINE
  5
2EA
100
AcDbEntity
  8
0
100
AcDbLine
 62
7
  6
CONTINUOUS
 10
109.8331435907
 20
258.9442754499
 11
109.8331435907
 21
256.3059775345
  0
LINE
  5
2EB
100
AcDbEntity
  8
0
100
AcDbLine
 62
7
  6
CONTINUOUS
 10
110.2331435907
 20
256.3059775345
 11
110.2331435907
 21
258.9442754499
  0
LINE
  5
2EC
100
AcDbEntity
  8
0
100
AcDbLine
 62
7
  6
CONTINUOUS
 10
110.7664767969
 20
258.9442754499
 11
110.7664767969
 21
254.9442754499
  0
LINE
  5
2ED
100
AcDbEntity
  8
0
100
AcDbLine
 62
7
  6
CONTINUOUS
 10
111.1664767969
 20
255.4549137465
 11
111.1664767969
 21
258.4336372129
  0
LINE
  5
2EE
100
AcDbEntity
  8
B-ACHSEN
100
AcDbLine
 62
7
  6
CONTINUOUS
 10
100.5334029385
 20
187.8838421342
 11
99.0664767969
 21
182.9542754499
  0
LINE
  5
2EF
100
AcDbEntity
  8
0
100
AcDbLine
 62
7
  6
CONTINUOUS
 10
137.8835856567
 20
236.9637964544
 11
137.6795917133
 21
236.7891003905
  0
LINE
  5
2F0
100
AcDbEntity
  8
0
100
AcDbLine
 62
7
  6
CONTINUOUS
 10
137.8709334295
 20
236.3271606242
 11
138.0749273729
 21
236.5018566882
  0
LINE
  5
2F1
100
AcDbEntity
  8
0
100
AcDbLine
 62
7
  6
CONTINUOUS
 10
136.3516963265
 20
234.4350807673
 11
136.555689905
 21
234.6097777123
  0
LINE
  5
2F2
100
AcDbEntity
  8
0
100
AcDbLine
 62
7
  6
CONTINUOUS
 10
137.8884959536
 20
232.726461603
 11
138.171117933
 21
232.9337264658
  0
LINE
  5
2F3
100
AcDbEntity
  8
0
100
AcDbLine
 62
7
  6
CONTINUOUS
 10
138.8924625281
 20
227.1891600405
 11
139.0497186
 21
227.2542976382
  0
LINE
  5
2F4
100
AcDbEntity
  8
0
100
AcDbLine
 62
7
  6
CONTINUOUS
 10
139.0689565371
 20
226.5406721407
 11
138.6758163023
 21
226.3778281235
  0
LINE
  5
2F5
100
AcDbEntity
  8
0
100
AcDbLine
 62
7
  6
CONTINUOUS
 10
138.8352674892
 20
225.9928789057
 11
139.228407724
 21
226.1557229228
  0
LINE
  5
2F6
100
AcDbEntity
  8
0
100
AcDbLine
 62
7
  6
CONTINUOUS
 10
75.5147098098
 20
226.4118343996
 11
78.7364767969
 21
225.0442754499
  0
LINE
  5
2F7
100
AcDbEntity
  8
0
100
AcDbLine
 62
7
  6
CONTINUOUS
 10
78.8732326919
 20
225.3664521486
 11
77.4337197623
 21
225.9774891348
  0
LINE
  5
2F8
100
AcDbEntity
  8
0
100
AcDbLine
 62
7
  6
CONTINUOUS
 10
77.0224304088
 20
226.1520711076
 11
75.9942068328
 21
226.588526121
  0
LINE
  5
2F9
100
AcDbEntity
  8
0
100
AcDbLine
 62
7
  6
CONTINUOUS
 10
76.9753123937
 20
227.7563470083
 11
77.1809572625
 21
227.6690559405
  0
LINE
  5
2FA
100
AcDbEntity
  8
0
100
AcDbLine
 62
7
  6
CONTINUOUS
 10
82.9303241557
 20
234.9243606721
 11
80.0732394683
 21
237.1510572802
  0
LINE
  5
2FB
100
AcDbEntity
  8
0
100
AcDbLine
 62
7
  6
CONTINUOUS
 10
79.9364835733
 20
236.8288805815
 11
82.4278642445
 21
234.8841584043
  0
LINE
  5
2FC
100
AcDbEntity
  8
0
100
AcDbLine
 62
7
  6
CONTINUOUS
 10
84.4098030049
 20
240.6968326249
 11
84.5698625572
 21
240.5021498152
  0
LINE
  5
2FD
100
AcDbEntity
  8
0
100
AcDbLine
 62
7
  6
CONTINUOUS
 10
88.7189759934
 20
249.3239158451
 11
88.5817092401
 21
249.572295191
  0
LINE
  5
2FE
100
AcDbEntity
  8
B-ACHSEN
100
AcDbLine
 62
7
  6
CONTINUOUS
 10
117.5995506553
 20
187.8838421342
 11
119.0664767969
 21
182.9542754499
  0
LINE
  5
2FF
100
AcDbEntity
  8
0
100
AcDbLine
 62
7
  6
CONTINUOUS
 10
113.0331432093
 20
257.5825732462
 11
113.0331432093
 21
256.3059775345
  0
LINE
  5
300
100
AcDbEntity
  8
0
100
AcDbLine
 62
7
  6
CONTINUOUS
 10
113.4331432093
 20
256.3059775345
 11
113.4331432093
 21
257.5825732462
  0
LINE
  5
301
100
AcDbEntity
  8
0
100
AcDbLine
 62
7
  6
CONTINUOUS
 10
134.8858986178
 20
244.2008531595
 11
134.7137951125
 21
243.9491667674
  0
LINE
  5
302
100
AcDbEntity
  8
0
100
AcDbLine
 62
7
  6
CONTINUOUS
 10
136.1136167387
 20
234.7874620673
 11
135.8628852336
 21
234.5032066332
  0
LINE
  5
303
100
AcDbEntity
  8
0
100
AcDbLine
 62
7
  6
CONTINUOUS
 10
136.2263304189
 20
234.2929535022
 11
136.3516963265
 21
234.4350807673
  0
LINE
  5
304
100
AcDbEntity
  8
0
100
AcDbLine
 62
7
  6
CONTINUOUS
 10
77.3862613831
 20
227.9621356437
 11
77.1120682886
 21
228.0785237071
  0
LINE
  5
305
100
AcDbEntity
  8
0
100
AcDbLine
 62
7
  6
CONTINUOUS
 10
77.3627874512
 20
228.6691810392
 11
77.6369805456
 21
228.5527929759
  0
LINE
  5
306
100
AcDbEntity
  8
0
100
AcDbLine
 62
7
  6
CONTINUOUS
 10
77.7051882149
 20
228.90406667
 11
77.5680917638
 21
228.962260661
  0
LINE
  5
307
100
AcDbEntity
  8
0
100
AcDbLine
 62
7
  6
CONTINUOUS
 10
79.4404946967
 20
229.5616353753
 11
79.6461393735
 21
229.4743443889
  0
LINE
  5
308
100
AcDbEntity
  8
0
100
AcDbLine
 62
7
  6
CONTINUOUS
 10
79.8514434941
 20
229.7674240922
 11
79.5087023661
 21
229.9129090695
  0
LINE
  5
309
100
AcDbEntity
  8
0
100
AcDbLine
 62
7
  6
CONTINUOUS
 10
81.921828136
 20
238.8378478039
 11
82.1046805114
 21
238.6968615204
  0
LINE
  5
30A
100
AcDbEntity
  8
0
100
AcDbLine
 62
7
  6
CONTINUOUS
 10
82.309984632
 20
238.9899412236
 11
82.1271322566
 21
239.1309275071
  0
LINE
  5
30B
100
AcDbEntity
  8
0
100
AcDbLine
 62
7
  6
CONTINUOUS
 10
82.3317552647
 20
240.1847485896
 11
82.1489032189
 21
240.3257361837
  0
LINE
  5
30C
100
AcDbEntity
  8
0
100
AcDbLine
 62
7
  6
CONTINUOUS
 10
84.8437149514
 20
240.7661325027
 11
84.6151071254
 21
240.9899123281
  0
LINE
  5
30D
100
AcDbEntity
  8
0
100
AcDbLine
 62
7
  6
CONTINUOUS
 10
84.9983247465
 20
246.6573796408
 11
84.8382651941
 21
246.8520624504
  0
LINE
  5
30E
100
AcDbEntity
  8
0
100
AcDbLine
 62
7
  6
CONTINUOUS
 10
86.2306610179
 20
247.8453029733
 11
86.0706009439
 21
248.0399845539
  0
LINE
  5
30F
100
AcDbEntity
  8
0
100
AcDbLine
 62
7
  6
CONTINUOUS
 10
86.2068460045
 20
248.9327172871
 11
85.8867277512
 21
249.3220854458
  0
LINE
  5
310
100
AcDbEntity
  8
0
100
AcDbLine
 62
7
  6
CONTINUOUS
 10
107.8331434
 20
256.3059775345
 11
107.8998101938
 21
255.8804456703
  0
LINE
  5
311
100
AcDbEntity
  8
B-ACHSEN
100
AcDbLine
 62
7
  6
CONTINUOUS
 10
119.0664767969
 20
182.9542754499
 11
119.0664767969
 21
161.9542754499
  0
LINE
  5
312
100
AcDbEntity
  8
0
100
AcDbLine
 62
7
  6
CONTINUOUS
 10
138.0292289604
 20
229.7179775664
 11
137.7784978478
 21
229.4337212626
  0
LINE
  5
313
100
AcDbEntity
  8
0
100
AcDbLine
 62
7
  6
CONTINUOUS
 10
78.8710189804
 20
227.838861672
 11
79.1680045102
 21
227.7761697554
  0
LINE
  5
314
100
AcDbEntity
  8
0
100
AcDbLine
 62
7
  6
CONTINUOUS
 10
77.6369805456
 20
228.5527929759
 11
77.9339661406
 21
228.4901012129
  0
LINE
  5
315
100
AcDbEntity
  8
0
100
AcDbLine
 62
7
  6
CONTINUOUS
 10
80.3738012261
 20
233.0944735019
 11
80.7165424501
 21
232.9489884838
  0
LINE
  5
316
100
AcDbEntity
  8
0
100
AcDbLine
 62
7
  6
CONTINUOUS
 10
81.0356396253
 20
233.700734319
 11
80.6928984013
 21
233.846219337
  0
LINE
  5
317
100
AcDbEntity
  8
0
100
AcDbLine
 62
7
  6
CONTINUOUS
 10
81.8750508728
 20
240.0617534759
 11
82.1264509521
 21
239.8916689679
  0
LINE
  5
318
100
AcDbEntity
  8
0
100
AcDbLine
 62
7
  6
CONTINUOUS
 10
83.7200635081
 20
245.7424363221
 11
86.2571995818
 21
243.7149206233
  0
LINE
  5
319
100
AcDbEntity
  8
0
100
AcDbLine
 62
7
  6
CONTINUOUS
 10
86.6911115283
 20
243.7842205011
 11
84.4739237115
 21
245.6125547169
  0
LINE
  5
31A
100
AcDbEntity
  8
0
100
AcDbLine
 62
7
  6
CONTINUOUS
 10
85.6824454913
 20
247.8878935922
 11
85.9110527476
 21
247.6641125581
  0
LINE
  5
31B
100
AcDbEntity
  8
0
100
AcDbLine
 62
7
  6
CONTINUOUS
 10
85.6814236306
 20
249.0290057426
 11
85.9100308869
 21
248.8052247085
  0
LINE
  5
31C
100
AcDbEntity
  8
0
100
AcDbLine
 62
7
  6
CONTINUOUS
 10
88.0562859668
 20
249.6685811274
 11
88.3764051195
 21
249.2792154878
  0
LINE
  5
31D
100
AcDbEntity
  8
0
100
AcDbLine
 62
7
  6
CONTINUOUS
 10
107.2998101938
 20
254.9442754499
 11
106.6998101938
 21
256.9017222635
  0
LINE
  5
31E
100
AcDbEntity
  8
0
100
AcDbLine
 62
7
  6
CONTINUOUS
 10
106.2998100985
 20
256.7315095178
 11
106.8331434
 21
254.9442754499
  0
LINE
  5
31F
100
AcDbEntity
  8
0
100
AcDbLine
 62
7
  6
CONTINUOUS
 10
106.7664767969
 20
258.2634244673
 11
106.8331434
 21
258.0081053488
  0
LINE
  5
320
100
AcDbEntity
  8
0
100
AcDbLine
 62
7
  6
CONTINUOUS
 10
107.2331434
 20
258.0081053488
 11
107.1664767969
 21
258.2634244673
  0
LINE
  5
321
100
AcDbEntity
  8
0
100
AcDbLine
 62
7
  6
CONTINUOUS
 10
108.2998100031
 20
255.9655520431
 11
108.2331435907
 21
256.3059775345
  0
LINE
  5
322
100
AcDbEntity
  8
0
100
AcDbLine
 62
7
  6
CONTINUOUS
 10
113.4331432093
 20
257.5825732462
 11
113.3664767969
 21
258.0081053488
  0
LINE
  5
323
100
AcDbEntity
  8
0
100
AcDbLine
 62
7
  6
CONTINUOUS
 10
135.1877587168
 20
243.6944920843
 11
135.3747096556
 21
244.1327272708
  0
LINE
  5
324
100
AcDbEntity
  8
0
100
AcDbLine
 62
7
  6
CONTINUOUS
 10
138.0749273729
 20
236.5018566882
 11
138.2937686586
 21
236.8631017668
  0
LINE
  5
325
100
AcDbEntity
  8
0
100
AcDbLine
 62
7
  6
CONTINUOUS
 10
138.171117933
 20
232.9337264658
 11
138.3899592187
 21
233.2949715445
  0
LINE
  5
326
100
AcDbEntity
  8
0
100
AcDbLine
 62
7
  6
CONTINUOUS
 10
138.0584042528
 20
233.428235031
 11
137.8863008387
 21
233.1765484186
  0
LINE
  5
327
100
AcDbEntity
  8
0
100
AcDbLine
 62
7
  6
CONTINUOUS
 10
138.0633146047
 20
229.1909002024
 11
138.1886808772
 21
229.3330265864
  0
LINE
  5
328
100
AcDbEntity
  8
0
100
AcDbLine
 62
7
  6
CONTINUOUS
 10
139.2872777008
 20
230.2390784167
 11
139.0365466157
 21
229.9548221244
  0
LINE
  5
329
100
AcDbEntity
  8
0
100
AcDbLine
 62
7
  6
CONTINUOUS
 10
139.3213633451
 20
229.7120010527
 11
139.4467296175
 21
229.8541274368
  0
LINE
  5
32A
100
AcDbEntity
  8
0
100
AcDbLine
 62
7
  6
CONTINUOUS
 10
139.0156330108
 20
227.781375025
 11
138.8902666832
 21
227.6392486182
  0
LINE
  5
32B
100
AcDbEntity
  8
0
100
AcDbLine
 62
7
  6
CONTINUOUS
 10
139.0497186
 20
227.2542976382
 11
139.3004497402
 21
227.5385539534
  0
LINE
  5
32C
100
AcDbEntity
  8
0
100
AcDbLine
 62
7
  6
CONTINUOUS
 10
140.2736816961
 20
228.3024758526
 11
140.1483154236
 21
228.1603494686
  0
LINE
  5
32D
100
AcDbEntity
  8
0
100
AcDbLine
 62
7
  6
CONTINUOUS
 10
140.3077673404
 20
227.7753984886
 11
140.5584984255
 21
228.0596547809
  0
LINE
  5
32E
100
AcDbEntity
  8
B-ACHSEN
100
AcDbLine
 62
2
  6
CENTER
 10
145.7144029173
 20
222.9542754499
 11
72.4185451146
 21
222.9542754499
  0
LINE
  5
32F
100
AcDbEntity
  8
0
100
AcDbLine
 62
7
  6
CONTINUOUS
 10
76.7468750895
 20
227.7899419295
 11
76.9753123937
 21
227.7563470083
  0
LINE
  5
330
100
AcDbEntity
  8
0
100
AcDbLine
 62
7
  6
CONTINUOUS
 10
77.1120682886
 20
228.0785237071
 11
76.8836309844
 21
228.1121186282
  0
LINE
  5
331
100
AcDbEntity
  8
0
100
AcDbLine
 62
7
  6
CONTINUOUS
 10
79.2362122448
 20
228.1274436032
 11
79.0077748754
 21
228.1610383707
  0
LINE
  5
332
100
AcDbEntity
  8
0
100
AcDbLine
 62
7
  6
CONTINUOUS
 10
77.9336255844
 20
228.8704719025
 11
77.7051882149
 21
228.90406667
  0
LINE
  5
333
100
AcDbEntity
  8
0
100
AcDbLine
 62
7
  6
CONTINUOUS
 10
78.0693596186
 20
230.3337607516
 11
77.8409222492
 21
230.3673555192
  0
LINE
  5
334
100
AcDbEntity
  8
0
100
AcDbLine
 62
7
  6
CONTINUOUS
 10
80.2555810094
 20
237.5806270312
 11
83.4773479965
 21
236.2130680815
  0
LINE
  5
335
100
AcDbEntity
  8
0
100
AcDbLine
 62
7
  6
CONTINUOUS
 10
83.6141038914
 20
236.5352447802
 11
82.1745909619
 21
237.1462817664
  0
LINE
  5
336
100
AcDbEntity
  8
0
100
AcDbLine
 62
7
  6
CONTINUOUS
 10
81.7633016083
 20
237.3208637392
 11
80.7350780323
 21
237.7573187526
  0
LINE
  5
337
100
AcDbEntity
  8
0
100
AcDbLine
 62
7
  6
CONTINUOUS
 10
81.7161832672
 20
238.9251388718
 11
81.921828136
 21
238.8378478039
  0
LINE
  5
338
100
AcDbEntity
  8
0
100
AcDbLine
 62
7
  6
CONTINUOUS
 10
82.1271322566
 20
239.1309275071
 11
81.8529391621
 21
239.2473155705
  0
LINE
  5
339
100
AcDbEntity
  8
0
100
AcDbLine
 62
7
  6
CONTINUOUS
 10
82.1264509521
 20
239.8916689679
 11
82.4006440465
 21
239.7752809045
  0
LINE
  5
33A
100
AcDbEntity
  8
0
100
AcDbLine
 62
7
  6
CONTINUOUS
 10
84.6329615952
 20
246.5589839762
 11
84.8843616746
 21
246.3888994682
  0
LINE
  5
33B
100
AcDbEntity
  8
0
100
AcDbLine
 62
7
  6
CONTINUOUS
 10
85.9100308869
 20
248.8052247085
 11
86.0928834543
 21
248.6642383435
  0
LINE
  5
33C
100
AcDbEntity
  8
0
100
AcDbLine
 62
7
  6
CONTINUOUS
 10
88.5817092401
 20
249.572295191
 11
88.3531019358
 21
249.7960762455
  0
LINE
  5
33D
100
AcDbEntity
  8
0
100
AcDbLine
 62
7
  6
CONTINUOUS
 10
107.8998101938
 20
255.8804456703
 11
108.0331435907
 21
255.5400201194
  0
LINE
  5
33E
100
AcDbEntity
  8
0
100
AcDbLine
 62
7
  6
CONTINUOUS
 10
112.9664767969
 20
257.9229987375
 11
113.0331432093
 21
257.5825732462
  0
LINE
  5
33F
100
AcDbEntity
  8
0
100
AcDbLine
 62
7
  6
CONTINUOUS
 10
134.9474838316
 20
244.4969606404
 11
134.8858986178
 21
244.2008531595
  0
LINE
  5
340
100
AcDbEntity
  8
0
100
AcDbLine
 62
7
  6
CONTINUOUS
 10
135.8628852336
 20
234.5032066332
 11
135.7694094629
 21
234.2840896894
  0
LINE
  5
341
100
AcDbEntity
  8
0
100
AcDbLine
 62
7
  6
CONTINUOUS
 10
136.0861171141
 20
233.9642771996
 11
136.2263304189
 21
234.2929535022
  0
LINE
  5
342
100
AcDbEntity
  8
0
100
AcDbLine
 62
7
  6
CONTINUOUS
 10
137.9770610349
 20
237.182914268
 11
137.8835856567
 21
236.9637964544
  0
LINE
  5
343
100
AcDbEntity
  8
0
100
AcDbLine
 62
7
  6
CONTINUOUS
 10
137.0571532802
 20
235.1782876994
 11
136.55349479
 21
235.0598645279
  0
LINE
  5
344
100
AcDbEntity
  8
0
100
AcDbLine
 62
7
  6
CONTINUOUS
 10
136.7558131208
 20
232.3474880177
 11
137.102215484
 21
232.4007735687
  0
LINE
  5
345
100
AcDbEntity
  8
0
100
AcDbLine
 62
7
  6
CONTINUOUS
 10
136.9427642972
 20
232.7857227865
 11
136.6749896049
 21
232.7650069155
  0
LINE
  5
346
100
AcDbEntity
  8
0
100
AcDbLine
 62
7
  6
CONTINUOUS
 10
79.1680045102
 20
227.7761697554
 11
79.5791237229
 21
227.7917732505
  0
LINE
  5
347
100
AcDbEntity
  8
0
100
AcDbLine
 62
7
  6
CONTINUOUS
 10
79.5087023661
 20
229.9129090695
 11
79.1889239824
 21
229.9219046544
  0
LINE
  5
348
100
AcDbEntity
  8
0
100
AcDbLine
 62
7
  6
CONTINUOUS
 10
77.7727145798
 20
230.016081825
 11
77.9326037237
 21
230.0115840529
  0
LINE
  5
349
100
AcDbEntity
  8
0
100
AcDbLine
 62
7
  6
CONTINUOUS
 10
138.8902666832
 20
227.6392486182
 11
138.7011208119
 21
227.6510998067
  0
LINE
  5
34A
100
AcDbEntity
  8
0
100
AcDbLine
 62
7
  6
CONTINUOUS
 10
82.4278642445
 20
234.8841584043
 11
79.2982894837
 21
235.3253895257
  0
LINE
  5
34B
100
AcDbEntity
  8
0
100
AcDbLine
 62
7
  6
CONTINUOUS
 10
81.699521101
 20
232.0247703838
 11
78.1130718143
 21
232.5331916751
  0
LINE
  5
34C
100
AcDbEntity
  8
0
100
AcDbLine
 62
7
  6
CONTINUOUS
 10
79.1615335888
 20
235.003212827
 11
82.7479831363
 21
234.4947921502
  0
LINE
  5
34D
100
AcDbEntity
  8
0
100
AcDbLine
 62
7
  6
CONTINUOUS
 10
80.6490158932
 20
231.8369734104
 11
81.562765206
 21
231.7025936851
  0
LINE
  5
34E
100
AcDbEntity
  8
0
100
AcDbLine
 62
7
  6
CONTINUOUS
 10
78.296094207
 20
232.2020194323
 11
80.3520304286
 21
231.8996654806
  0
LINE
  5
34F
100
AcDbEntity
  8
0
100
AcDbLine
 62
7
  6
CONTINUOUS
 10
82.4688517159
 20
240.1265545987
 11
82.3317552647
 21
240.1847485896
  0
LINE
  5
350
100
AcDbEntity
  8
0
100
AcDbLine
 62
7
  6
CONTINUOUS
 10
84.2041583281
 20
240.7841236113
 11
84.4098030049
 21
240.6968326249
  0
LINE
  5
351
100
AcDbEntity
  8
0
100
AcDbLine
 62
7
  6
CONTINUOUS
 10
84.6151071254
 20
240.9899123281
 11
84.2723659975
 21
241.1353973054
  0
LINE
  5
352
100
AcDbEntity
  8
0
100
AcDbLine
 62
7
  6
CONTINUOUS
 10
84.0434175673
 20
241.7395478409
 11
84.3861587913
 21
241.5940628228
  0
LINE
  5
353
100
AcDbEntity
  8
0
100
AcDbLine
 62
7
  6
CONTINUOUS
 10
84.7052562273
 20
242.3458092725
 11
84.3625150033
 21
242.4912942905
  0
LINE
  5
354
100
AcDbEntity
  8
0
100
AcDbLine
 62
7
  6
CONTINUOUS
 10
82.8311501908
 20
243.6482877805
 11
86.0529171779
 21
242.2807288308
  0
LINE
  5
355
100
AcDbEntity
  8
0
100
AcDbLine
 62
7
  6
CONTINUOUS
 10
86.1896730728
 20
242.6029055295
 11
83.6533883417
 21
243.6794945246
  0
LINE
  5
356
100
AcDbEntity
  8
0
100
AcDbLine
 62
7
  6
CONTINUOUS
 10
86.0928834543
 20
248.6642383435
 11
86.4128312375
 21
248.4650556111
  0
LINE
  5
357
100
AcDbEntity
  8
0
100
AcDbLine
 62
7
  6
CONTINUOUS
 10
86.0706009439
 20
248.0399845539
 11
85.8192013862
 21
248.2100702909
  0
LINE
  5
358
100
AcDbEntity
  8
0
100
AcDbLine
 62
7
  6
CONTINUOUS
 10
88.3531019358
 20
249.7960762455
 11
88.1702495604
 21
249.937062529
  0
LINE
  5
359
100
AcDbEntity
  8
0
100
AcDbLine
 62
7
  6
CONTINUOUS
 10
108.4331435907
 20
255.7102329246
 11
108.2998100031
 21
255.9655520431
  0
LINE
  5
35A
100
AcDbEntity
  8
0
100
AcDbLine
 62
7
  6
CONTINUOUS
 10
135.3747096556
 20
244.1327272708
 11
135.4044046138
 21
244.5058246393
  0
LINE
  5
35B
100
AcDbEntity
  8
0
100
AcDbLine
 62
7
  6
CONTINUOUS
 10
135.7694094629
 20
234.2840896894
 11
135.7078242353
 21
233.9879822028
  0
LINE
  5
35C
100
AcDbEntity
  8
0
100
AcDbLine
 62
7
  6
CONTINUOUS
 10
138.1199894666
 20
233.7243425118
 11
138.0584042528
 21
233.428235031
  0
LINE
  5
35D
100
AcDbEntity
  8
0
100
AcDbLine
 62
7
  6
CONTINUOUS
 10
138.2937686586
 20
236.8631017668
 11
138.402091379
 21
237.268768595
  0
LINE
  5
35E
100
AcDbEntity
  8
0
100
AcDbLine
 62
7
  6
CONTINUOUS
 10
76.8836309844
 20
228.1121186282
 11
76.5410601346
 21
228.0674182607
  0
LINE
  5
35F
100
AcDbEntity
  8
0
100
AcDbLine
 62
7
  6
CONTINUOUS
 10
77.8409222492
 20
230.3673555192
 11
77.4983513994
 21
230.3226551516
  0
LINE
  5
360
100
AcDbEntity
  8
0
100
AcDbLine
 62
7
  6
CONTINUOUS
 10
79.1892645387
 20
229.5415339647
 11
79.4404946967
 21
229.5616353753
  0
LINE
  5
361
100
AcDbEntity
  8
0
100
AcDbLine
 62
7
  6
CONTINUOUS
 10
137.2886467932
 20
236.1761686082
 11
137.5564210654
 21
236.1968853375
  0
LINE
  5
362
100
AcDbEntity
  8
0
100
AcDbLine
 62
7
  6
CONTINUOUS
 10
137.4437073852
 20
236.6913939026
 11
137.1759331129
 21
236.6706771733
  0
LINE
  5
363
100
AcDbEntity
  8
0
100
AcDbLine
 62
7
  6
CONTINUOUS
 10
139.4467296175
 20
229.8541274368
 11
139.6358754889
 21
229.8422762482
  0
LINE
  5
364
100
AcDbEntity
  8
0
100
AcDbLine
 62
7
  6
CONTINUOUS
 10
84.3434684907
 20
238.253520097
 11
82.5617252675
 21
238.439486026
  0
LINE
  5
365
100
AcDbEntity
  8
0
100
AcDbLine
 62
7
  6
CONTINUOUS
 10
82.5620658238
 20
238.0591153364
 11
84.1839197727
 21
237.8776468721
  0
LINE
  5
366
100
AcDbEntity
  8
0
100
AcDbLine
 62
7
  6
CONTINUOUS
 10
81.487746289
 20
238.958734561
 11
81.7161832672
 21
238.9251388718
  0
LINE
  5
367
100
AcDbEntity
  8
0
100
AcDbLine
 62
7
  6
CONTINUOUS
 10
81.8529391621
 20
239.2473155705
 11
81.624502184
 21
239.2809112598
  0
LINE
  5
368
100
AcDbEntity
  8
0
100
AcDbLine
 62
7
  6
CONTINUOUS
 10
83.9998758762
 20
239.3499318391
 11
83.7714383763
 21
239.3835262994
  0
LINE
  5
369
100
AcDbEntity
  8
0
100
AcDbLine
 62
7
  6
CONTINUOUS
 10
138.5927973341
 20
227.2454347293
 11
138.8924625281
 21
227.1891600405
  0
LINE
  5
36A
100
AcDbEntity
  8
0
100
AcDbLine
 62
7
  6
CONTINUOUS
 10
139.7441989392
 20
230.2479413142
 11
139.4445337727
 21
230.3042160145
  0
LINE
  5
36B
100
AcDbEntity
  8
0
100
AcDbLine
 62
7
  6
CONTINUOUS
 10
83.6346824814
 20
239.0613496007
 11
83.9316682068
 21
238.9986581449
  0
LINE
  5
36C
100
AcDbEntity
  8
0
100
AcDbLine
 62
7
  6
CONTINUOUS
 10
82.4006440465
 20
239.7752809045
 11
82.6976297719
 21
239.7125894488
  0
LINE
  5
36D
100
AcDbEntity
  8
0
100
AcDbLine
 62
7
  6
CONTINUOUS
 10
84.4739237115
 20
245.6125547169
 11
87.0102084427
 21
244.5359657218
  0
LINE
  5
36E
100
AcDbEntity
  8
0
100
AcDbLine
 62
7
  6
CONTINUOUS
 10
87.1469643376
 20
244.8581424205
 11
83.9251973506
 21
246.2257013702
  0
LINE
  5
36F
100
AcDbEntity
  8
0
100
AcDbLine
 62
7
  6
CONTINUOUS
 10
86.9865641811
 20
245.4331959401
 11
87.329305357
 21
245.2877109424
  0
LINE
  5
370
100
AcDbEntity
  8
0
100
AcDbLine
 62
7
  6
CONTINUOUS
 10
85.5453488481
 20
247.9460876646
 11
85.6824454913
 21
247.8878935922
  0
LINE
  5
371
100
AcDbEntity
  8
0
100
AcDbLine
 62
7
  6
CONTINUOUS
 10
86.5953430567
 20
248.7044400172
 11
86.2068460045
 21
248.9327172871
  0
LINE
  5
372
100
AcDbEntity
  8
0
100
AcDbLine
 62
7
  6
CONTINUOUS
 10
87.6677898619
 20
249.896860896
 11
88.0562859668
 21
249.6685811274
  0
LINE
  5
373
100
AcDbEntity
  8
0
100
AcDbLine
 62
7
  6
CONTINUOUS
 10
88.1702495604
 20
249.937062529
 11
87.8503006377
 21
250.1362428442
  0
LINE
  5
374
100
AcDbEntity
  8
0
100
AcDbLine
 62
7
  6
CONTINUOUS
 10
107.1664767969
 20
258.2634244673
 11
106.9664767969
 21
258.6038499586
  0
LINE
  5
375
100
AcDbEntity
  8
0
100
AcDbLine
 62
7
  6
CONTINUOUS
 10
113.3664767969
 20
258.0081053488
 11
113.2331432093
 21
258.3485308401
  0
LINE
  5
376
100
AcDbEntity
  8
0
100
AcDbLine
 62
7
  6
CONTINUOUS
 10
135.7078242353
 20
233.9879822028
 11
135.7248670506
 21
233.7244435179
  0
LINE
  5
377
100
AcDbEntity
  8
0
100
AcDbLine
 62
7
  6
CONTINUOUS
 10
136.0712697719
 20
233.777728185
 11
136.0861171141
 21
233.9642771996
  0
LINE
  5
378
100
AcDbEntity
  8
0
100
AcDbLine
 62
7
  6
CONTINUOUS
 10
138.0484676274
 20
229.0043503066
 11
138.0633146047
 21
229.1909002024
  0
LINE
  5
379
100
AcDbEntity
  8
0
100
AcDbLine
 62
7
  6
CONTINUOUS
 10
138.3899592187
 20
233.2949715445
 11
138.4663917747
 21
233.77762804
  0
LINE
  5
37A
100
AcDbEntity
  8
0
100
AcDbLine
 62
7
  6
CONTINUOUS
 10
137.7784978478
 20
229.4337212626
 11
137.7169126202
 21
229.137613776
  0
LINE
  5
37B
100
AcDbEntity
  8
0
100
AcDbLine
 62
7
  6
CONTINUOUS
 10
139.2597781313
 20
229.4158935719
 11
139.3213633451
 21
229.7120010527
  0
LINE
  5
37C
100
AcDbEntity
  8
0
100
AcDbLine
 62
7
  6
CONTINUOUS
 10
139.0772182246
 20
228.0774825059
 11
139.0156330108
 21
227.781375025
  0
LINE
  5
37D
100
AcDbEntity
  8
0
100
AcDbLine
 62
7
  6
CONTINUOUS
 10
140.5584984255
 20
228.0596547809
 11
140.6200836393
 21
228.3557622618
  0
LINE
  5
37E
100
AcDbEntity
  8
0
100
AcDbLine
 62
7
  6
CONTINUOUS
 10
139.0365466157
 20
229.9548221244
 11
138.9282230552
 21
229.5491570128
  0
LINE
  5
37F
100
AcDbEntity
  8
0
100
AcDbLine
 62
7
  6
CONTINUOUS
 10
139.3004497402
 20
227.5385539534
 11
139.4087731905
 21
227.9442190194
  0
LINE
  5
380
100
AcDbEntity
  8
B-ACHSEN
100
AcDbLine
 62
7
  6
CONTINUOUS
 10
132.2208486307
 20
198.2339515163
 11
130.0664767969
 21
190.4542754499
  0
LINE
  5
381
100
AcDbEntity
  8
0
100
AcDbLine
 62
7
  6
CONTINUOUS
 10
79.5102349171
 20
228.2012409458
 11
79.2362122448
 21
228.1274436032
  0
LINE
  5
382
100
AcDbEntity
  8
0
100
AcDbLine
 62
7
  6
CONTINUOUS
 10
76.5641933182
 20
227.7407436363
 11
76.7468750895
 21
227.7899419295
  0
LINE
  5
383
100
AcDbEntity
  8
0
100
AcDbLine
 62
7
  6
CONTINUOUS
 10
77.9339661406
 20
228.4901012129
 11
78.2993295527
 21
228.588497492
  0
LINE
  5
384
100
AcDbEntity
  8
0
100
AcDbLine
 62
7
  6
CONTINUOUS
 10
79.1889239824
 20
229.9219046544
 11
78.8235605703
 21
229.8235083752
  0
LINE
  5
385
100
AcDbEntity
  8
0
100
AcDbLine
 62
7
  6
CONTINUOUS
 10
77.5900328738
 20
229.9668836854
 11
77.7727145798
 21
230.016081825
  0
LINE
  5
386
100
AcDbEntity
  8
0
100
AcDbLine
 62
7
  6
CONTINUOUS
 10
134.4014781371
 20
243.3688040043
 11
134.7478805365
 21
243.4220893122
  0
LINE
  5
387
100
AcDbEntity
  8
0
100
AcDbLine
 62
7
  6
CONTINUOUS
 10
137.1379767961
 20
234.7607688016
 11
137.3271230323
 21
234.748916732
  0
LINE
  5
388
100
AcDbEntity
  8
0
100
AcDbLine
 62
7
  6
CONTINUOUS
 10
137.4354461177
 20
235.1545826791
 11
137.0571532802
 21
235.1782876994
  0
LINE
  5
389
100
AcDbEntity
  8
0
100
AcDbLine
 62
7
  6
CONTINUOUS
 10
82.6972892157
 20
240.0929601385
 11
82.4688517159
 21
240.1265545987
  0
LINE
  5
38A
100
AcDbEntity
  8
0
100
AcDbLine
 62
7
  6
CONTINUOUS
 10
82.83302325
 20
241.5562489876
 11
82.6045857502
 21
241.5898434478
  0
LINE
  5
38B
100
AcDbEntity
  8
0
100
AcDbLine
 62
7
  6
CONTINUOUS
 10
138.3030699153
 20
231.7255915221
 11
138.7132529172
 21
231.6248968344
  0
LINE
  5
38C
100
AcDbEntity
  8
0
100
AcDbLine
 62
7
  6
CONTINUOUS
 10
88.1498412486
 20
247.2207723637
 11
87.8071000726
 21
247.3662573614
  0
LINE
  5
38D
100
AcDbEntity
  8
0
100
AcDbLine
 62
7
  6
CONTINUOUS
 10
85.8192013862
 20
248.2100702909
 11
85.682104743
 21
248.2682643633
  0
LINE
  5
38E
100
AcDbEntity
  8
0
100
AcDbLine
 62
7
  6
CONTINUOUS
 10
86.4128312375
 20
248.4650556111
 11
87.0297652679
 21
248.2031826519
  0
LINE
  5
38F
100
AcDbEntity
  8
0
100
AcDbLine
 62
7
  6
CONTINUOUS
 10
87.0751806359
 20
248.500761049
 11
86.5953430567
 21
248.7044400172
  0
LINE
  5
390
100
AcDbEntity
  8
0
100
AcDbLine
 62
7
  6
CONTINUOUS
 10
87.1879522827
 20
250.1005398643
 11
87.6677898619
 21
249.896860896
  0
LINE
  5
391
100
AcDbEntity
  8
0
100
AcDbLine
 62
7
  6
CONTINUOUS
 10
87.8503006377
 20
250.1362428442
 11
87.2333666074
 21
250.3981158033
  0
LINE
  5
392
100
AcDbEntity
  8
0
100
AcDbLine
 62
7
  6
CONTINUOUS
 10
108.0331435907
 20
255.5400201194
 11
108.2998100031
 21
255.1995945982
  0
LINE
  5
393
100
AcDbEntity
  8
0
100
AcDbLine
 62
7
  6
CONTINUOUS
 10
106.6331434
 20
258.4336372129
 11
106.7664767969
 21
258.2634244673
  0
LINE
  5
394
100
AcDbEntity
  8
0
100
AcDbLine
 62
7
  6
CONTINUOUS
 10
112.8331432093
 20
258.1783180944
 11
112.9664767969
 21
257.9229987375
  0
LINE
  5
395
100
AcDbEntity
  8
0
100
AcDbLine
 62
7
  6
CONTINUOUS
 10
138.9282230552
 20
229.5491570128
 11
139.0772182246
 21
228.0774825059
  0
LINE
  5
396
100
AcDbEntity
  8
0
100
AcDbLine
 62
7
  6
CONTINUOUS
 10
139.4087731905
 20
227.9442190194
 11
139.2597781313
 21
229.4158935719
  0
LINE
  5
397
100
AcDbEntity
  8
0
100
AcDbLine
 62
7
  6
CONTINUOUS
 10
137.7169126202
 20
229.137613776
 11
137.7339554355
 21
228.8740750912
  0
LINE
  5
398
100
AcDbEntity
  8
0
100
AcDbLine
 62
7
  6
CONTINUOUS
 10
137.9600182128
 20
237.44645295
 11
137.9770610349
 21
237.182914268
  0
LINE
  5
399
100
AcDbEntity
  8
0
100
AcDbLine
 62
7
  6
CONTINUOUS
 10
140.6200836393
 20
228.3557622618
 11
140.6030408171
 21
228.6193009438
  0
LINE
  5
39A
100
AcDbEntity
  8
0
100
AcDbLine
 62
7
  6
CONTINUOUS
 10
140.2885286733
 20
228.4890257483
 11
140.2736816961
 21
228.3024758526
  0
LINE
  5
39B
100
AcDbEntity
  8
RUNDUNGEN
100
AcDbLine
 62
7
  6
CONTINUOUS
 10
136.4453786636
 20
202.5933841179
 11
146.3953778648
 21
226.6148071351
  0
LINE
  5
39C
100
AcDbEntity
  8
0
100
AcDbLine
 62
7
  6
CONTINUOUS
 10
134.1353792493
 20
246.2351608675
 11
133.7889768185
 21
246.1818756354
  0
LINE
  5
39D
100
AcDbEntity
  8
0
100
AcDbLine
 62
7
  6
CONTINUOUS
 10
81.624502184
 20
239.2809112598
 11
81.2819313341
 21
239.2362108922
  0
LINE
  5
39E
100
AcDbEntity
  8
0
100
AcDbLine
 62
7
  6
CONTINUOUS
 10
83.9529284309
 20
240.7640228152
 11
84.2041583281
 21
240.7841236113
  0
LINE
  5
39F
100
AcDbEntity
  8
0
100
AcDbLine
 62
7
  6
CONTINUOUS
 10
83.9316682068
 20
238.9986581449
 11
84.3427873543
 21
239.0142614864
  0
LINE
  5
3A0
100
AcDbEntity
  8
0
100
AcDbLine
 62
7
  6
CONTINUOUS
 10
84.2723659975
 20
241.1353973054
 11
83.9525878746
 21
241.1443935048
  0
LINE
  5
3A1
100
AcDbEntity
  8
0
100
AcDbLine
 62
7
  6
CONTINUOUS
 10
82.5363780808
 20
241.2385697537
 11
82.696267355
 21
241.2340722889
  0
LINE
  5
3A2
100
AcDbEntity
  8
0
100
AcDbLine
 62
7
  6
CONTINUOUS
 10
83.6533883417
 20
243.6794945246
 11
86.5087699872
 21
243.3546507502
  0
LINE
  5
3A3
100
AcDbEntity
  8
0
100
AcDbLine
 62
7
  6
CONTINUOUS
 10
86.2571995818
 20
243.7149206233
 11
83.0362840332
 21
244.1315528286
  0
LINE
  5
3A4
100
AcDbEntity
  8
0
100
AcDbLine
 62
7
  6
CONTINUOUS
 10
85.682104743
 20
248.2682643633
 11
85.3851184959
 21
248.33095459
  0
LINE
  5
3A5
100
AcDbEntity
  8
0
100
AcDbLine
 62
7
  6
CONTINUOUS
 10
136.8784637913
 20
236.2768632959
 11
137.2886467932
 21
236.1761686082
  0
LINE
  5
3A6
100
AcDbEntity
  8
0
100
AcDbLine
 62
7
  6
CONTINUOUS
 10
87.0297652679
 20
248.2031826519
 11
87.3952998366
 21
248.111395389
  0
LINE
  5
3A7
100
AcDbEntity
  8
0
100
AcDbLine
 62
7
  6
CONTINUOUS
 10
87.2333666074
 20
250.3981158033
 11
86.867833178
 21
250.4899054835
  0
LINE
  5
3A8
100
AcDbEntity
  8
0
100
AcDbLine
 62
7
  6
CONTINUOUS
 10
87.5092623869
 20
248.3798743326
 11
87.0751806359
 21
248.500761049
  0
LINE
  5
3A9
100
AcDbEntity
  8
0
100
AcDbLine
 62
7
  6
CONTINUOUS
 10
86.7538695844
 20
250.2214240819
 11
87.1879522827
 21
250.1005398643
  0
LINE
  5
3AA
100
AcDbEntity
  8
0
100
AcDbLine
 62
7
  6
CONTINUOUS
 10
136.4242581273
 20
232.4807514928
 11
136.7558131208
 21
232.3474880177
  0
LINE
  5
3AB
100
AcDbEntity
  8
0
100
AcDbLine
 62
7
  6
CONTINUOUS
 10
138.9958745316
 20
231.8321625783
 11
138.774838131
 21
231.9210043153
  0
LINE
  5
3AC
100
AcDbEntity
  8
0
100
AcDbLine
 62
7
  6
CONTINUOUS
 10
137.3271230323
 20
234.748916732
 11
137.6586779983
 21
234.6156532455
  0
LINE
  5
3AD
100
AcDbEntity
  8
0
100
AcDbLine
 62
7
  6
CONTINUOUS
 10
137.6564825184
 20
235.0657409421
 11
137.4354461177
 21
235.1545826791
  0
LINE
  5
3AE
100
AcDbEntity
  8
0
100
AcDbLine
 62
7
  6
CONTINUOUS
 10
136.6749896049
 20
232.7650069155
 11
136.4220626749
 21
232.9308392009
  0
LINE
  5
3AF
100
AcDbEntity
  8
0
100
AcDbLine
 62
7
  6
CONTINUOUS
 10
139.2488014616
 20
231.666330293
 11
138.9958745316
 21
231.8321625783
  0
LINE
  5
3B0
100
AcDbEntity
  8
0
100
AcDbLine
 62
7
  6
CONTINUOUS
 10
108.6331435907
 20
255.5400201194
 11
108.4331435907
 21
255.7102329246
  0
LINE
  5
3B1
100
AcDbEntity
  8
0
100
AcDbLine
 62
7
  6
CONTINUOUS
 10
138.307980584
 20
227.4882557924
 11
138.5927973341
 21
227.2454347293
  0
LINE
  5
3B2
100
AcDbEntity
  8
0
100
AcDbLine
 62
7
  6
CONTINUOUS
 10
138.7011208119
 20
227.6510998067
 11
138.5587117173
 21
227.7725121047
  0
LINE
  5
3B3
100
AcDbEntity
  8
0
100
AcDbLine
 62
7
  6
CONTINUOUS
 10
106.9664767969
 20
258.6038499586
 11
106.6998101938
 21
258.8591690771
  0
LINE
  5
3B4
100
AcDbEntity
  8
0
100
AcDbLine
 62
7
  6
CONTINUOUS
 10
113.2331432093
 20
258.3485308401
 11
112.9664767969
 21
258.6889563314
  0
LINE
  5
3B5
100
AcDbEntity
  8
0
100
AcDbLine
 62
7
  6
CONTINUOUS
 10
138.5587117173
 20
227.7725121047
 11
138.3525229963
 21
228.0479019638
  0
LINE
  5
3B6
100
AcDbEntity
  8
0
100
AcDbLine
 62
7
  6
CONTINUOUS
 10
138.038010825
 20
227.9176267569
 11
138.307980584
 21
227.4882557924
  0
LINE
  5
3B7
100
AcDbEntity
  8
0
100
AcDbLine
 62
7
  6
CONTINUOUS
 10
130.9264767969
 20
245.0863886568
 11
132.074527094
 21
242.3147500593
  0
LINE
  5
3B8
100
AcDbEntity
  8
0
100
AcDbLine
 62
7
  6
CONTINUOUS
 10
133.8603830509
 20
238.0033123878
 11
134.0517249495
 21
237.541372181
  0
LINE
  5
3B9
100
AcDbEntity
  8
0
100
AcDbLine
 62
7
  6
CONTINUOUS
 10
136.5710574243
 20
231.4591655523
 11
136.7305089761
 21
231.0742154534
  0
LINE
  5
3BA
100
AcDbEntity
  8
0
100
AcDbLine
 62
7
  6
CONTINUOUS
 10
137.8466691088
 20
228.3795665232
 11
138.038010825
 21
227.9176267569
  0
LINE
  5
3BB
100
AcDbEntity
  8
0
100
AcDbLine
 62
7
  6
CONTINUOUS
 10
138.6758163023
 20
226.3778281235
 11
138.8352674892
 21
225.9928789057
  0
LINE
  5
3BC
100
AcDbEntity
  8
0
100
AcDbLine
 62
7
  6
CONTINUOUS
 10
138.3525229963
 20
228.0479019638
 11
138.1611812801
 21
228.5098417301
  0
LINE
  5
3BD
100
AcDbEntity
  8
0
100
AcDbLine
 62
7
  6
CONTINUOUS
 10
139.228407724
 20
226.1557229228
 11
139.0689565371
 21
226.5406721407
  0
LINE
  5
3BE
100
AcDbEntity
  8
0
100
AcDbLine
 62
7
  6
CONTINUOUS
 10
132.4676673288
 20
242.4775940765
 11
131.5747393276
 21
244.6333129673
  0
LINE
  5
3BF
100
AcDbEntity
  8
0
100
AcDbLine
 62
7
  6
CONTINUOUS
 10
135.7248670506
 20
233.7244435179
 11
135.8375807239
 21
233.22993495
  0
LINE
  5
3C0
100
AcDbEntity
  8
0
100
AcDbLine
 62
7
  6
CONTINUOUS
 10
137.7339554355
 20
228.8740750912
 11
137.8466691088
 21
228.3795665232
  0
LINE
  5
3C1
100
AcDbEntity
  8
0
100
AcDbLine
 62
7
  6
CONTINUOUS
 10
138.1611812801
 20
228.5098417301
 11
138.0484676274
 21
229.0043503066
  0
LINE
  5
3C2
100
AcDbEntity
  8
0
100
AcDbLine
 62
7
  6
CONTINUOUS
 10
135.4044046138
 20
244.5058246393
 11
135.2916909336
 21
245.0003332044
  0
LINE
  5
3C3
100
AcDbEntity
  8
0
100
AcDbLine
 62
7
  6
CONTINUOUS
 10
138.0072757863
 20
234.218851077
 11
138.1199894666
 21
233.7243425118
  0
LINE
  5
3C4
100
AcDbEntity
  8
0
100
AcDbLine
 62
7
  6
CONTINUOUS
 10
134.8666604526
 20
244.9144792078
 11
134.9474838316
 21
244.4969606404
  0
LINE
  5
3C5
100
AcDbEntity
  8
0
100
AcDbLine
 62
7
  6
CONTINUOUS
 10
136.1202027309
 20
233.4371998242
 11
136.0712697719
 21
233.777728185
  0
LINE
  5
3C6
100
AcDbEntity
  8
0
100
AcDbLine
 62
7
  6
CONTINUOUS
 10
84.2738985485
 20
239.4237291817
 11
83.9998758762
 21
239.3499318391
  0
LINE
  5
3C7
100
AcDbEntity
  8
0
100
AcDbLine
 62
7
  6
CONTINUOUS
 10
81.3050641917
 20
238.9095354997
 11
81.487746289
 21
238.958734561
  0
LINE
  5
3C8
100
AcDbEntity
  8
0
100
AcDbLine
 62
7
  6
CONTINUOUS
 10
82.6976297719
 20
239.7125894488
 11
83.0629934449
 21
239.8109863424
  0
LINE
  5
3C9
100
AcDbEntity
  8
0
100
AcDbLine
 62
7
  6
CONTINUOUS
 10
83.9525878746
 20
241.1443935048
 11
83.5872242017
 21
241.0459966112
  0
LINE
  5
3CA
100
AcDbEntity
  8
0
100
AcDbLine
 62
7
  6
CONTINUOUS
 10
82.3536965052
 20
241.1893719213
 11
82.5363780808
 21
241.2385697537
  0
LINE
  5
3CB
100
AcDbEntity
  8
0
100
AcDbLine
 62
7
  6
CONTINUOUS
 10
82.6045857502
 20
241.5898434478
 11
82.2620149003
 21
241.5451430803
  0
LINE
  5
3CC
100
AcDbEntity
  8
0
100
AcDbLine
 62
7
  6
CONTINUOUS
 10
87.6237368148
 20
248.0777996997
 11
87.9435154113
 21
248.0688047497
  0
LINE
  5
3CD
100
AcDbEntity
  8
0
100
AcDbLine
 62
7
  6
CONTINUOUS
 10
134.5565388203
 20
243.8840290784
 11
134.178246074
 21
243.9077338785
  0
LINE
  5
3CE
100
AcDbEntity
  8
0
100
AcDbLine
 62
7
  6
CONTINUOUS
 10
87.3952998366
 20
248.111395389
 11
87.6237368148
 21
248.0777996997
  0
LINE
  5
3CF
100
AcDbEntity
  8
0
100
AcDbLine
 62
7
  6
CONTINUOUS
 10
86.867833178
 20
250.4899054835
 11
86.6393960078
 21
250.5235012543
  0
LINE
  5
3D0
100
AcDbEntity
  8
0
100
AcDbLine
 62
7
  6
CONTINUOUS
 10
134.1018134267
 20
243.4250776032
 11
134.4014781371
 21
243.3688040043
  0
LINE
  5
3D1
100
AcDbEntity
  8
0
100
AcDbLine
 62
7
  6
CONTINUOUS
 10
137.1759331129
 20
236.6706771733
 11
136.9548963473
 21
236.7595197914
  0
LINE
  5
3D2
100
AcDbEntity
  8
0
100
AcDbLine
 62
7
  6
CONTINUOUS
 10
136.515018296
 20
236.4871173308
 11
136.8784637913
 21
236.2768632959
  0
LINE
  5
3D3
100
AcDbEntity
  8
0
100
AcDbLine
 62
7
  6
CONTINUOUS
 10
108.2998100031
 20
255.1995945982
 11
108.5664767969
 21
255.0293818302
  0
LINE
  5
3D4
100
AcDbEntity
  8
0
100
AcDbLine
 62
7
  6
CONTINUOUS
 10
137.9094094483
 20
234.8999086567
 11
137.6564825184
 21
235.0657409421
  0
LINE
  5
3D5
100
AcDbEntity
  8
0
100
AcDbLine
 62
7
  6
CONTINUOUS
 10
112.6331432093
 20
258.3485308401
 11
112.8331432093
 21
258.1783180944
  0
LINE
  5
3D6
100
AcDbEntity
  8
0
100
AcDbLine
 62
7
  6
CONTINUOUS
 10
136.1394410123
 20
232.723573437
 11
136.4242581273
 21
232.4807514928
  0
LINE
  5
3D7
100
AcDbEntity
  8
0
100
AcDbLine
 62
7
  6
CONTINUOUS
 10
139.6358754889
 20
229.8422762482
 11
139.7782845835
 21
229.7208639502
  0
LINE
  5
3D8
100
AcDbEntity
  8
0
100
AcDbLine
 62
7
  6
CONTINUOUS
 10
140.0290156686
 20
230.0051202426
 11
139.7441989392
 21
230.2479413142
  0
LINE
  5
3D9
100
AcDbEntity
  8
0
100
AcDbLine
 62
7
  6
CONTINUOUS
 10
138.7132529172
 20
231.6248968344
 11
138.9980700115
 21
231.3820748817
  0
LINE
  5
3DA
100
AcDbEntity
  8
0
100
AcDbLine
 62
7
  6
CONTINUOUS
 10
137.6586779983
 20
234.6156532455
 11
137.8010867279
 21
234.4942418286
  0
LINE
  5
3DB
100
AcDbEntity
  8
0
100
AcDbLine
 62
7
  6
CONTINUOUS
 10
139.4231003557
 20
231.4679292087
 11
139.2488014616
 21
231.666330293
  0
LINE
  5
3DC
100
AcDbEntity
  8
0
100
AcDbLine
 62
7
  6
CONTINUOUS
 10
138.0837083424
 20
234.7015075725
 11
137.9094094483
 21
234.8999086567
  0
LINE
  5
3DD
100
AcDbEntity
  8
0
100
AcDbLine
 62
7
  6
CONTINUOUS
 10
136.9548963473
 20
236.7595197914
 11
136.7805974533
 21
236.9579208756
  0
LINE
  5
3DE
100
AcDbEntity
  8
0
100
AcDbLine
 62
7
  6
CONTINUOUS
 10
139.7782845835
 20
229.7208639502
 11
139.9844732769
 21
229.4454740797
  0
LINE
  5
3DF
100
AcDbEntity
  8
0
100
AcDbLine
 62
7
  6
CONTINUOUS
 10
137.8010867279
 20
234.4942418286
 11
138.0072757863
 21
234.218851077
  0
LINE
  5
3E0
100
AcDbEntity
  8
0
100
AcDbLine
 62
7
  6
CONTINUOUS
 10
139.6611799434
 20
231.1155479087
 11
139.4231003557
 21
231.4679292087
  0
LINE
  5
3E1
100
AcDbEntity
  8
0
100
AcDbLine
 62
7
  6
CONTINUOUS
 10
136.2769390732
 20
236.8394977497
 11
136.515018296
 21
236.4871173308
  0
LINE
  5
3E2
100
AcDbEntity
  8
0
100
AcDbLine
 62
7
  6
CONTINUOUS
 10
138.9980700115
 20
231.3820748817
 11
139.2680397637
 21
230.9527039143
  0
LINE
  5
3E3
100
AcDbEntity
  8
0
100
AcDbLine
 62
7
  6
CONTINUOUS
 10
140.2989854207
 20
229.5757492752
 11
140.0290156686
 21
230.0051202426
  0
LINE
  5
3E4
100
AcDbEntity
  8
0
100
AcDbLine
 62
7
  6
CONTINUOUS
 10
138.3536780945
 20
234.2721366051
 11
138.0837083424
 21
234.7015075725
  0
LINE
  5
3E5
100
AcDbEntity
  8
0
100
AcDbLine
 62
7
  6
CONTINUOUS
 10
135.8375807239
 20
233.22993495
 11
136.1394410123
 21
232.723573437
  0
LINE
  5
3E6
100
AcDbEntity
  8
0
100
AcDbLine
 62
7
  6
CONTINUOUS
 10
136.4220626749
 20
232.9308392009
 11
136.1202027309
 21
233.4371998242
  0
LINE
  5
3E7
100
AcDbEntity
  8
0
100
AcDbLine
 62
7
  6
CONTINUOUS
 10
138.1886808772
 20
229.3330265864
 11
138.0292289604
 21
229.7179775664
  0
LINE
  5
3E8
100
AcDbEntity
  8
0
100
AcDbLine
 62
7
  6
CONTINUOUS
 10
137.102215484
 20
232.4007735687
 11
136.9427642972
 21
232.7857227865
  0
LINE
  5
3E9
100
AcDbEntity
  8
0
100
AcDbLine
 62
7
  6
CONTINUOUS
 10
136.7129459769
 20
234.67491531
 11
137.5739836997
 21
232.5961863619
  0
LINE
  5
3EA
100
AcDbEntity
  8
0
100
AcDbLine
 62
7
  6
CONTINUOUS
 10
137.7290447668
 20
233.1114108208
 11
137.0593487601
 21
234.7282000027
  0
LINE
  5
3EB
100
AcDbEntity
  8
0
100
AcDbLine
 62
7
  6
CONTINUOUS
 10
135.7029139247
 20
238.2253170485
 11
136.2769390732
 21
236.8394977497
  0
LINE
  5
3EC
100
AcDbEntity
  8
0
100
AcDbLine
 62
7
  6
CONTINUOUS
 10
140.1483154236
 20
228.1603494686
 11
140.3077673404
 21
227.7753984886
  0
LINE
  5
3ED
100
AcDbEntity
  8
0
100
AcDbLine
 62
7
  6
CONTINUOUS
 10
136.7805974533
 20
236.9579208756
 11
136.1746821404
 21
238.4207298417
  0
LINE
  5
3EE
100
AcDbEntity
  8
0
100
AcDbLine
 62
7
  6
CONTINUOUS
 10
139.9844732769
 20
229.4454740797
 11
140.1758149931
 21
228.9835343135
  0
LINE
  5
3EF
100
AcDbEntity
  8
0
100
AcDbLine
 62
7
  6
CONTINUOUS
 10
140.4903271369
 20
229.1138095089
 11
140.2989854207
 21
229.5757492752
  0
LINE
  5
3F0
100
AcDbEntity
  8
0
100
AcDbLine
 62
7
  6
CONTINUOUS
 10
139.2466063467
 20
232.1164171085
 11
139.0871547949
 21
232.5013672074
  0
LINE
  5
3F1
100
AcDbEntity
  8
0
100
AcDbLine
 62
7
  6
CONTINUOUS
 10
133.7889768185
 20
246.1818756354
 11
133.9484282477
 21
245.7969258324
  0
LINE
  5
3F2
100
AcDbEntity
  8
0
100
AcDbLine
 62
7
  6
CONTINUOUS
 10
134.7390993389
 20
245.2224389785
 11
134.8666604526
 21
244.9144792078
  0
LINE
  5
3F3
100
AcDbEntity
  8
0
100
AcDbLine
 62
7
  6
CONTINUOUS
 10
137.3541028999
 20
238.9092619161
 11
137.9600182128
 21
237.44645295
  0
LINE
  5
3F4
100
AcDbEntity
  8
0
100
AcDbLine
 62
7
  6
CONTINUOUS
 10
138.3212682281
 20
237.6862866117
 11
137.5559011809
 21
239.5340461172
  0
LINE
  5
3F5
100
AcDbEntity
  8
0
100
AcDbLine
 62
7
  6
CONTINUOUS
 10
135.2916909336
 20
245.0003332044
 11
135.1641297743
 21
245.3082930853
  0
LINE
  5
3F6
100
AcDbEntity
  8
0
100
AcDbLine
 62
7
  6
CONTINUOUS
 10
138.4663917747
 20
233.77762804
 11
138.3536780945
 21
234.2721366051
  0
LINE
  5
3F7
100
AcDbEntity
  8
0
100
AcDbLine
 62
7
  6
CONTINUOUS
 10
140.1758149931
 20
228.9835343135
 11
140.2885286733
 21
228.4890257483
  0
LINE
  5
3F8
100
AcDbEntity
  8
0
100
AcDbLine
 62
7
  6
CONTINUOUS
 10
140.6030408171
 20
228.6193009438
 11
140.4903271369
 21
229.1138095089
  0
LINE
  5
3F9
100
AcDbEntity
  8
0
100
AcDbLine
 62
7
  6
CONTINUOUS
 10
138.402091379
 20
237.268768595
 11
138.3212682281
 21
237.6862866117
  0
LINE
  5
3FA
100
AcDbEntity
  8
0
100
AcDbLine
 62
7
  6
CONTINUOUS
 10
87.9435154113
 20
248.0688047497
 11
88.2175380596
 21
248.1426021025
  0
LINE
  5
3FB
100
AcDbEntity
  8
0
100
AcDbLine
 62
7
  6
CONTINUOUS
 10
85.2941185252
 20
247.9259855988
 11
85.5453488481
 21
247.9460876646
  0
LINE
  5
3FC
100
AcDbEntity
  8
0
100
AcDbLine
 62
7
  6
CONTINUOUS
 10
88.0117230807
 20
248.4200784439
 11
87.5092623869
 21
248.3798743326
  0
LINE
  5
3FD
100
AcDbEntity
  8
0
100
AcDbLine
 62
7
  6
CONTINUOUS
 10
86.25140979
 20
250.1812224897
 11
86.7538695844
 21
250.2214240819
  0
LINE
  5
3FE
100
AcDbEntity
  8
0
100
AcDbLine
 62
7
  6
CONTINUOUS
 10
86.6393960078
 20
250.5235012543
 11
86.3196174593
 21
250.5324961839
  0
LINE
  5
3FF
100
AcDbEntity
  8
0
100
AcDbLine
 62
7
  6
CONTINUOUS
 10
133.9484282477
 20
245.7969258324
 11
134.2480929352
 21
245.7406522886
  0
LINE
  5
400
100
AcDbEntity
  8
0
100
AcDbLine
 62
7
  6
CONTINUOUS
 10
108.8998100031
 20
255.4549137465
 11
108.6331435907
 21
255.5400201194
  0
LINE
  5
401
100
AcDbEntity
  8
0
100
AcDbLine
 62
7
  6
CONTINUOUS
 10
134.5774525353
 20
246.0574762234
 11
134.1353792493
 21
246.2351608675
  0
LINE
  5
402
100
AcDbEntity
  8
0
100
AcDbLine
 62
7
  6
CONTINUOUS
 10
134.178246074
 20
243.9077338785
 11
131.3196170317
 21
245.249232674
  0
LINE
  5
403
100
AcDbEntity
  8
0
100
AcDbLine
 62
7
  6
CONTINUOUS
 10
131.5747393276
 20
244.6333129673
 11
134.1018134267
 21
243.4250776032
  0
LINE
  5
404
100
AcDbEntity
  8
0
100
AcDbLine
 62
7
  6
CONTINUOUS
 10
112.9664767969
 20
258.6889563314
 11
112.6998103846
 21
258.8591690771
  0
LINE
  5
405
100
AcDbEntity
  8
0
100
AcDbLine
 62
7
  6
CONTINUOUS
 10
134.5010198652
 20
245.5748200032
 11
134.7390993389
 21
245.2224389785
  0
LINE
  5
406
100
AcDbEntity
  8
0
100
AcDbLine
 62
7
  6
CONTINUOUS
 10
135.1641297743
 20
245.3082930853
 11
134.8622697437
 21
245.8146539954
  0
LINE
  5
407
100
AcDbEntity
  8
RUNDUNGEN
100
AcDbLine
 62
7
  6
CONTINUOUS
 10
146.3954094699
 20
229.2936674632
 11
136.4091113997
 21
253.4027237022
  0
LINE
  5
408
100
AcDbEntity
  8
B-ACHSEN
100
AcDbLine
 62
7
  6
CONTINUOUS
 10
119.0664767969
 20
161.9542754499
 11
117.5664767969
 21
160.4542754499
  0
LINE
  5
409
100
AcDbEntity
  8
0
100
AcDbLine
 62
7
  6
CONTINUOUS
 10
85.3851184959
 20
248.33095459
 11
85.0197553447
 21
248.2325589254
  0
LINE
  5
40A
100
AcDbEntity
  8
0
100
AcDbLine
 62
7
  6
CONTINUOUS
 10
86.3196174593
 20
250.5324961839
 11
86.0455948351
 21
250.4586988209
  0
LINE
  5
40B
100
AcDbEntity
  8
0
100
AcDbLine
 62
7
  6
CONTINUOUS
 10
112.3664767969
 20
254.9442754499
 11
112.6998103846
 21
255.0293818302
  0
LINE
  5
40C
100
AcDbEntity
  8
0
100
AcDbLine
 62
7
  6
CONTINUOUS
 10
109.1664767969
 20
254.9442754499
 11
109.4998100031
 21
255.0293818302
  0
LINE
  5
40D
100
AcDbEntity
  8
0
100
AcDbLine
 62
7
  6
CONTINUOUS
 10
104.7664767969
 20
254.9442754499
 11
105.1664767969
 21
254.9442754499
  0
LINE
  5
40E
100
AcDbEntity
  8
0
100
AcDbLine
 62
7
  6
CONTINUOUS
 10
106.8331434
 20
254.9442754499
 11
107.2998101938
 21
254.9442754499
  0
LINE
  5
40F
100
AcDbEntity
  8
0
100
AcDbLine
 62
7
  6
CONTINUOUS
 10
108.8998100031
 20
254.9442754499
 11
109.1664767969
 21
254.9442754499
  0
LINE
  5
410
100
AcDbEntity
  8
0
100
AcDbLine
 62
7
  6
CONTINUOUS
 10
110.7664767969
 20
254.9442754499
 11
112.3664767969
 21
254.9442754499
  0
LINE
  5
411
100
AcDbEntity
  8
0
100
AcDbLine
 62
7
  6
CONTINUOUS
 10
112.3664767969
 20
255.4549137465
 11
111.1664767969
 21
255.4549137465
  0
LINE
  5
412
100
AcDbEntity
  8
0
100
AcDbLine
 62
7
  6
CONTINUOUS
 10
109.1664767969
 20
255.4549137465
 11
108.8998100031
 21
255.4549137465
  0
LINE
  5
413
100
AcDbEntity
  8
0
100
AcDbLine
 62
7
  6
CONTINUOUS
 10
105.1664767969
 20
256.7315095178
 11
106.2998100985
 21
256.7315095178
  0
LINE
  5
414
100
AcDbEntity
  8
0
100
AcDbLine
 62
7
  6
CONTINUOUS
 10
106.4331434
 20
257.2421477548
 11
105.1664767969
 21
257.2421477548
  0
LINE
  5
415
100
AcDbEntity
  8
0
100
AcDbLine
 62
7
  6
CONTINUOUS
 10
108.5664767969
 20
255.0293818302
 11
108.8998100031
 21
254.9442754499
  0
LINE
  5
416
100
AcDbEntity
  8
0
100
AcDbLine
 62
7
  6
CONTINUOUS
 10
106.6998101938
 20
258.8591690771
 11
106.3664767969
 21
258.9442754499
  0
LINE
  5
417
100
AcDbEntity
  8
0
100
AcDbLine
 62
7
  6
CONTINUOUS
 10
112.3664767969
 20
258.4336372129
 11
112.6331432093
 21
258.3485308401
  0
LINE
  5
418
100
AcDbEntity
  8
0
100
AcDbLine
 62
7
  6
CONTINUOUS
 10
106.4331434
 20
258.5187435858
 11
106.6331434
 21
258.4336372129
  0
LINE
  5
419
100
AcDbEntity
  8
0
100
AcDbLine
 62
7
  6
CONTINUOUS
 10
134.2480929352
 20
245.7406522886
 11
134.5010198652
 21
245.5748200032
  0
LINE
  5
41A
100
AcDbEntity
  8
0
100
AcDbLine
 62
7
  6
CONTINUOUS
 10
134.8622697437
 20
245.8146539954
 11
134.5774525353
 21
246.0574762234
  0
LINE
  5
41B
100
AcDbEntity
  8
0
100
AcDbLine
 62
7
  6
CONTINUOUS
 10
111.1664767969
 20
258.4336372129
 11
112.3664767969
 21
258.4336372129
  0
LINE
  5
41C
100
AcDbEntity
  8
0
100
AcDbLine
 62
7
  6
CONTINUOUS
 10
105.1664767969
 20
258.5187435858
 11
106.4331434
 21
258.5187435858
  0
LINE
  5
41D
100
AcDbEntity
  8
0
100
AcDbLine
 62
7
  6
CONTINUOUS
 10
112.3664767969
 20
258.9442754499
 11
110.7664767969
 21
258.9442754499
  0
LINE
  5
41E
100
AcDbEntity
  8
0
100
AcDbLine
 62
7
  6
CONTINUOUS
 10
110.2331435907
 20
258.9442754499
 11
109.8331435907
 21
258.9442754499
  0
LINE
  5
41F
100
AcDbEntity
  8
0
100
AcDbLine
 62
7
  6
CONTINUOUS
 10
108.2331435907
 20
258.9442754499
 11
107.8331434
 21
258.9442754499
  0
LINE
  5
420
100
AcDbEntity
  8
0
100
AcDbLine
 62
7
  6
CONTINUOUS
 10
106.3664767969
 20
258.9442754499
 11
104.7664767969
 21
258.9442754499
  0
LINE
  5
421
100
AcDbEntity
  8
0
100
AcDbLine
 62
7
  6
CONTINUOUS
 10
112.6998103846
 20
258.8591690771
 11
112.3664767969
 21
258.9442754499
  0
LINE
  5
422
100
AcDbEntity
  8
RUNDUNGEN
100
AcDbLine
 62
7
  6
CONTINUOUS
 10
134.5149250492
 20
255.2969100527
 11
110.4058688102
 21
265.2832081229
  0
LINE
  5
423
100
AcDbEntity
  8
B-ACHSEN
100
AcDbLine
 62
7
  6
CONTINUOUS
 10
284.4054225717
 20
160.4542754499
 11
301.4054225717
 21
160.4542754499
  0
LINE
  5
424
100
AcDbEntity
  8
B-ACHSEN
100
AcDbLine
 62
7
  6
CONTINUOUS
 10
282.9054225717
 20
161.9542754499
 11
302.9054225717
 21
161.9542754499
  0
LINE
  5
425
100
AcDbEntity
  8
B-ACHSEN
100
AcDbLine
 62
7
  6
CONTINUOUS
 10
282.9054225717
 20
161.9542754499
 11
284.4054225717
 21
160.4542754499
  0
LINE
  5
426
100
AcDbEntity
  8
B-ACHSEN
100
AcDbLine
 62
7
  6
CONTINUOUS
 10
282.9054225717
 20
182.9542754499
 11
302.9054225717
 21
182.9542754499
  0
LINE
  5
427
100
AcDbEntity
  8
B-ACHSEN
100
AcDbLine
 62
7
  6
CONTINUOUS
 10
267.9348157518
 20
204.7925778551
 11
271.9054225717
 21
190.4542754499
  0
LINE
  5
428
100
AcDbEntity
  8
B-ACHSEN
100
AcDbLine
 62
7
  6
CONTINUOUS
 10
271.9054225717
 20
190.4542754499
 11
313.9054225717
 21
190.4542754499
  0
LINE
  5
429
100
AcDbEntity
  8
B-ACHSEN
100
AcDbLine
 62
7
  6
CONTINUOUS
 10
282.9054225717
 20
182.9542754499
 11
282.9054225717
 21
161.9542754499
  0
LINE
  5
42A
100
AcDbEntity
  8
RUNDUNGEN
100
AcDbLine
 62
7
  6
CONTINUOUS
 10
283.9054225717
 20
252.4542754499
 11
283.9054225717
 21
258.9542754499
  0
LINE
  5
42B
100
AcDbEntity
  8
RUNDUNGEN
100
AcDbLine
 62
7
  6
CONTINUOUS
 10
284.9054225717
 20
222.9543696
 11
284.9054225717
 21
257.0807244192
  0
LINE
  5
42C
100
AcDbEntity
  8
0
100
AcDbLine
 62
7
  6
CONTINUOUS
 10
284.9054225717
 20
258.9542754499
 11
284.9054225717
 21
262.0496297591
  0
LINE
  5
42D
100
AcDbEntity
  8
B-ACHSEN
100
AcDbLine
 62
8
  6
HIDDEN
 10
315.6321005296
 20
207.9542754499
 11
311.7278246073
 21
207.9542754499
  0
LINE
  5
42E
100
AcDbEntity
  8
B-ACHSEN
100
AcDbLine
 62
8
  6
HIDDEN
 10
274.0830202014
 20
207.9542754499
 11
270.1787511053
 21
207.9542754499
  0
LINE
  5
42F
100
AcDbEntity
  8
B-ACHSEN
100
AcDbLine
 62
2
  6
CENTER
 10
292.9054225717
 20
157.4542754499
 11
292.9054225717
 21
270.2228291714
  0
LINE
  5
430
100
AcDbEntity
  8
B-ACHSEN
100
AcDbLine
 62
7
  6
CONTINUOUS
 10
284.3723487133
 20
187.8838421342
 11
282.9054225717
 21
182.9542754499
  0
LINE
  5
431
100
AcDbEntity
  8
B-ACHSEN
100
AcDbLine
 62
7
  6
CONTINUOUS
 10
301.4384964301
 20
187.8838421342
 11
302.9054225717
 21
182.9542754499
  0
LINE
  5
432
100
AcDbEntity
  8
RUNDUNGEN
100
AcDbLine
 62
7
  6
CONTINUOUS
 10
300.9054225717
 20
222.9543968222
 11
300.9054225717
 21
262.0496297591
  0
LINE
  5
433
100
AcDbEntity
  8
0
100
AcDbLine
 62
7
  6
CONTINUOUS
 10
301.4054225717
 20
258.9442754499
 11
301.4054225717
 21
254.9442754499
  0
LINE
  5
434
100
AcDbEntity
  8
0
100
AcDbLine
 62
7
  6
CONTINUOUS
 10
301.4054225717
 20
250.5324961839
 11
301.4054225717
 21
241.5940628228
  0
LINE
  5
435
100
AcDbEntity
  8
0
100
AcDbLine
 62
7
  6
CONTINUOUS
 10
301.4054225717
 20
241.5898434478
 11
301.4054225717
 21
225.0442754499
  0
LINE
  5
436
100
AcDbEntity
  8
B-ACHSEN
100
AcDbLine
 62
7
  6
CONTINUOUS
 10
302.9054225717
 20
182.9542754499
 11
302.9054225717
 21
161.9542754499
  0
LINE
  5
437
100
AcDbEntity
  8
0
100
AcDbLine
 62
7
  6
CONTINUOUS
 10
300.9054225717
 20
225.0442754499
 11
301.4054225717
 21
225.0442754499
  0
LINE
  5
438
100
AcDbEntity
  8
0
100
AcDbLine
 62
7
  6
CONTINUOUS
 10
300.9054225717
 20
226.4118343996
 11
301.4054225717
 21
226.4118343996
  0
LINE
  5
439
100
AcDbEntity
  8
0
100
AcDbLine
 62
7
  6
CONTINUOUS
 10
300.9054225717
 20
227.7005411945
 11
301.4054225717
 21
227.7005411945
  0
LINE
  5
43A
100
AcDbEntity
  8
0
100
AcDbLine
 62
7
  6
CONTINUOUS
 10
300.9054225717
 20
227.9399248325
 11
301.4054225717
 21
227.9399248325
  0
LINE
  5
43B
100
AcDbEntity
  8
0
100
AcDbLine
 62
7
  6
CONTINUOUS
 10
300.9054225717
 20
228.0674182607
 11
301.4054225717
 21
228.0674182607
  0
LINE
  5
43C
100
AcDbEntity
  8
0
100
AcDbLine
 62
7
  6
CONTINUOUS
 10
300.9054225717
 20
228.1121186282
 11
301.4054225717
 21
228.1121186282
  0
LINE
  5
43D
100
AcDbEntity
  8
0
100
AcDbLine
 62
7
  6
CONTINUOUS
 10
300.9054225717
 20
228.1610383707
 11
301.4054225717
 21
228.1610383707
  0
LINE
  5
43E
100
AcDbEntity
  8
0
100
AcDbLine
 62
7
  6
CONTINUOUS
 10
300.9054225717
 20
228.2012409458
 11
301.4054225717
 21
228.2012409458
  0
LINE
  5
43F
100
AcDbEntity
  8
0
100
AcDbLine
 62
7
  6
CONTINUOUS
 10
300.9054225717
 20
228.3869282113
 11
301.4054225717
 21
228.3869282113
  0
LINE
  5
440
100
AcDbEntity
  8
0
100
AcDbLine
 62
7
  6
CONTINUOUS
 10
300.9054225717
 20
228.4901012129
 11
301.4054225717
 21
228.4901012129
  0
LINE
  5
441
100
AcDbEntity
  8
0
100
AcDbLine
 62
7
  6
CONTINUOUS
 10
300.9054225717
 20
228.5527929759
 11
301.4054225717
 21
228.5527929759
  0
LINE
  5
442
100
AcDbEntity
  8
0
100
AcDbLine
 62
7
  6
CONTINUOUS
 10
300.9054225717
 20
228.6691810392
 11
301.4054225717
 21
228.6691810392
  0
LINE
  5
443
100
AcDbEntity
  8
0
100
AcDbLine
 62
7
  6
CONTINUOUS
 10
300.9054225717
 20
228.8392652399
 11
301.4054225717
 21
228.8392652399
  0
LINE
  5
444
100
AcDbEntity
  8
0
100
AcDbLine
 62
7
  6
CONTINUOUS
 10
300.9054225717
 20
229.1704374828
 11
301.4054225717
 21
229.1704374828
  0
LINE
  5
445
100
AcDbEntity
  8
0
100
AcDbLine
 62
7
  6
CONTINUOUS
 10
300.9054225717
 20
229.4434160419
 11
301.4054225717
 21
229.4434160419
  0
LINE
  5
446
100
AcDbEntity
  8
0
100
AcDbLine
 62
7
  6
CONTINUOUS
 10
300.9054225717
 20
229.6872976056
 11
301.4054225717
 21
229.6872976056
  0
LINE
  5
447
100
AcDbEntity
  8
0
100
AcDbLine
 62
7
  6
CONTINUOUS
 10
300.9054225717
 20
229.9557780854
 11
301.4054225717
 21
229.9557780854
  0
LINE
  5
448
100
AcDbEntity
  8
0
100
AcDbLine
 62
7
  6
CONTINUOUS
 10
300.9054225717
 20
230.1951615698
 11
301.4054225717
 21
230.1951615698
  0
LINE
  5
449
100
AcDbEntity
  8
0
100
AcDbLine
 62
7
  6
CONTINUOUS
 10
300.9054225717
 20
230.3226551516
 11
301.4054225717
 21
230.3226551516
  0
LINE
  5
44A
100
AcDbEntity
  8
0
100
AcDbLine
 62
7
  6
CONTINUOUS
 10
300.9054225717
 20
230.3673555192
 11
301.4054225717
 21
230.3673555192
  0
LINE
  5
44B
100
AcDbEntity
  8
0
100
AcDbLine
 62
7
  6
CONTINUOUS
 10
300.9054225717
 20
232.1036225387
 11
301.4054225717
 21
232.1036225387
  0
LINE
  5
44C
100
AcDbEntity
  8
0
100
AcDbLine
 62
7
  6
CONTINUOUS
 10
300.9054225717
 20
232.5331916751
 11
301.4054225717
 21
232.5331916751
  0
LINE
  5
44D
100
AcDbEntity
  8
0
100
AcDbLine
 62
7
  6
CONTINUOUS
 10
300.9054225717
 20
232.723573437
 11
301.4054225717
 21
232.723573437
  0
LINE
  5
44E
100
AcDbEntity
  8
0
100
AcDbLine
 62
7
  6
CONTINUOUS
 10
300.9054225717
 20
232.9489884838
 11
301.4054225717
 21
232.9489884838
  0
LINE
  5
44F
100
AcDbEntity
  8
0
100
AcDbLine
 62
7
  6
CONTINUOUS
 10
300.9054225717
 20
233.0944735019
 11
301.4054225717
 21
233.0944735019
  0
LINE
  5
450
100
AcDbEntity
  8
B-ACHSEN
100
AcDbLine
 62
7
  6
CONTINUOUS
 10
317.8760293916
 20
204.7925778551
 11
313.9054225717
 21
190.4542754499
  0
LINE
  5
451
100
AcDbEntity
  8
0
100
AcDbLine
 62
7
  6
CONTINUOUS
 10
300.9054225717
 20
233.846219337
 11
301.4054225717
 21
233.846219337
  0
LINE
  5
452
100
AcDbEntity
  8
0
100
AcDbLine
 62
7
  6
CONTINUOUS
 10
300.9054225717
 20
233.9879822028
 11
301.4054225717
 21
233.9879822028
  0
LINE
  5
453
100
AcDbEntity
  8
0
100
AcDbLine
 62
7
  6
CONTINUOUS
 10
300.9054225717
 20
234.2840896894
 11
301.4054225717
 21
234.2840896894
  0
LINE
  5
454
100
AcDbEntity
  8
0
100
AcDbLine
 62
7
  6
CONTINUOUS
 10
300.9054225717
 20
234.4947921502
 11
301.4054225717
 21
234.4947921502
  0
LINE
  5
455
100
AcDbEntity
  8
0
100
AcDbLine
 62
7
  6
CONTINUOUS
 10
300.9054225717
 20
235.003212827
 11
301.4054225717
 21
235.003212827
  0
LINE
  5
456
100
AcDbEntity
  8
0
100
AcDbLine
 62
7
  6
CONTINUOUS
 10
300.9054225717
 20
235.3253895257
 11
301.4054225717
 21
235.3253895257
  0
LINE
  5
457
100
AcDbEntity
  8
0
100
AcDbLine
 62
7
  6
CONTINUOUS
 10
300.9054225717
 20
236.8288805815
 11
301.4054225717
 21
236.8288805815
  0
LINE
  5
458
100
AcDbEntity
  8
0
100
AcDbLine
 62
7
  6
CONTINUOUS
 10
300.9054225717
 20
237.1510572802
 11
301.4054225717
 21
237.1510572802
  0
LINE
  5
459
100
AcDbEntity
  8
0
100
AcDbLine
 62
7
  6
CONTINUOUS
 10
300.9054225717
 20
237.5806270312
 11
301.4054225717
 21
237.5806270312
  0
LINE
  5
45A
100
AcDbEntity
  8
0
100
AcDbLine
 62
7
  6
CONTINUOUS
 10
300.9054225717
 20
238.869333826
 11
301.4054225717
 21
238.869333826
  0
LINE
  5
45B
100
AcDbEntity
  8
0
100
AcDbLine
 62
7
  6
CONTINUOUS
 10
300.9054225717
 20
239.1087170032
 11
301.4054225717
 21
239.1087170032
  0
LINE
  5
45C
100
AcDbEntity
  8
0
100
AcDbLine
 62
7
  6
CONTINUOUS
 10
300.9054225717
 20
239.2362108922
 11
301.4054225717
 21
239.2362108922
  0
LINE
  5
45D
100
AcDbEntity
  8
0
100
AcDbLine
 62
7
  6
CONTINUOUS
 10
300.9054225717
 20
239.2809112598
 11
301.4054225717
 21
239.2809112598
  0
LINE
  5
45E
100
AcDbEntity
  8
0
100
AcDbLine
 62
7
  6
CONTINUOUS
 10
300.9054225717
 20
239.3835262994
 11
301.4054225717
 21
239.3835262994
  0
LINE
  5
45F
100
AcDbEntity
  8
0
100
AcDbLine
 62
7
  6
CONTINUOUS
 10
300.9054225717
 20
239.4237291817
 11
301.4054225717
 21
239.4237291817
  0
LINE
  5
460
100
AcDbEntity
  8
0
100
AcDbLine
 62
7
  6
CONTINUOUS
 10
300.9054225717
 20
239.6094170617
 11
301.4054225717
 21
239.6094170617
  0
LINE
  5
461
100
AcDbEntity
  8
0
100
AcDbLine
 62
7
  6
CONTINUOUS
 10
300.9054225717
 20
239.7125894488
 11
301.4054225717
 21
239.7125894488
  0
LINE
  5
462
100
AcDbEntity
  8
0
100
AcDbLine
 62
7
  6
CONTINUOUS
 10
300.9054225717
 20
239.7752809045
 11
301.4054225717
 21
239.7752809045
  0
LINE
  5
463
100
AcDbEntity
  8
0
100
AcDbLine
 62
7
  6
CONTINUOUS
 10
300.9054225717
 20
239.8916689679
 11
301.4054225717
 21
239.8916689679
  0
LINE
  5
464
100
AcDbEntity
  8
0
100
AcDbLine
 62
7
  6
CONTINUOUS
 10
300.9054225717
 20
240.0617534759
 11
301.4054225717
 21
240.0617534759
  0
LINE
  5
465
100
AcDbEntity
  8
0
100
AcDbLine
 62
7
  6
CONTINUOUS
 10
300.9054225717
 20
240.3929263332
 11
301.4054225717
 21
240.3929263332
  0
LINE
  5
466
100
AcDbEntity
  8
0
100
AcDbLine
 62
7
  6
CONTINUOUS
 10
300.9054225717
 20
240.6659039706
 11
301.4054225717
 21
240.6659039706
  0
LINE
  5
467
100
AcDbEntity
  8
0
100
AcDbLine
 62
7
  6
CONTINUOUS
 10
300.9054225717
 20
240.9097858415
 11
301.4054225717
 21
240.9097858415
  0
LINE
  5
468
100
AcDbEntity
  8
0
100
AcDbLine
 62
7
  6
CONTINUOUS
 10
300.9054225717
 20
241.1782660141
 11
301.4054225717
 21
241.1782660141
  0
LINE
  5
469
100
AcDbEntity
  8
0
100
AcDbLine
 62
7
  6
CONTINUOUS
 10
300.9054225717
 20
241.4176504202
 11
301.4054225717
 21
241.4176504202
  0
LINE
  5
46A
100
AcDbEntity
  8
0
100
AcDbLine
 62
7
  6
CONTINUOUS
 10
300.9054225717
 20
241.5451430803
 11
301.4054225717
 21
241.5451430803
  0
LINE
  5
46B
100
AcDbEntity
  8
0
100
AcDbLine
 62
7
  6
CONTINUOUS
 10
300.9054225717
 20
241.5898434478
 11
301.4054225717
 21
241.5898434478
  0
LINE
  5
46C
100
AcDbEntity
  8
0
100
AcDbLine
 62
7
  6
CONTINUOUS
 10
300.9054225717
 20
241.5940628228
 11
301.4054225717
 21
241.5940628228
  0
LINE
  5
46D
100
AcDbEntity
  8
0
100
AcDbLine
 62
7
  6
CONTINUOUS
 10
300.9054225717
 20
241.7395478409
 11
301.4054225717
 21
241.7395478409
  0
LINE
  5
46E
100
AcDbEntity
  8
0
100
AcDbLine
 62
7
  6
CONTINUOUS
 10
300.9054225717
 20
242.4912942905
 11
301.4054225717
 21
242.4912942905
  0
LINE
  5
46F
100
AcDbEntity
  8
0
100
AcDbLine
 62
7
  6
CONTINUOUS
 10
300.9054225717
 20
243.6482877805
 11
301.4054225717
 21
243.6482877805
  0
LINE
  5
470
100
AcDbEntity
  8
0
100
AcDbLine
 62
7
  6
CONTINUOUS
 10
300.9054225717
 20
244.1315528286
 11
301.4054225717
 21
244.1315528286
  0
LINE
  5
471
100
AcDbEntity
  8
0
100
AcDbLine
 62
7
  6
CONTINUOUS
 10
300.9054225717
 20
245.7424363221
 11
301.4054225717
 21
245.7424363221
  0
LINE
  5
472
100
AcDbEntity
  8
0
100
AcDbLine
 62
7
  6
CONTINUOUS
 10
300.9054225717
 20
246.2257013702
 11
301.4054225717
 21
246.2257013702
  0
LINE
  5
473
100
AcDbEntity
  8
0
100
AcDbLine
 62
7
  6
CONTINUOUS
 10
300.9054225717
 20
246.3888994682
 11
301.4054225717
 21
246.3888994682
  0
LINE
  5
474
100
AcDbEntity
  8
0
100
AcDbLine
 62
7
  6
CONTINUOUS
 10
300.9054225717
 20
246.5589839762
 11
301.4054225717
 21
246.5589839762
  0
LINE
  5
475
100
AcDbEntity
  8
0
100
AcDbLine
 62
7
  6
CONTINUOUS
 10
300.9054225717
 20
246.8901556045
 11
301.4054225717
 21
246.8901556045
  0
LINE
  5
476
100
AcDbEntity
  8
0
100
AcDbLine
 62
7
  6
CONTINUOUS
 10
300.9054225717
 20
247.1631344709
 11
301.4054225717
 21
247.1631344709
  0
LINE
  5
477
100
AcDbEntity
  8
0
100
AcDbLine
 62
7
  6
CONTINUOUS
 10
300.9054225717
 20
247.5681034622
 11
301.4054225717
 21
247.5681034622
  0
LINE
  5
478
100
AcDbEntity
  8
0
100
AcDbLine
 62
7
  6
CONTINUOUS
 10
300.9054225717
 20
247.7828895666
 11
301.4054225717
 21
247.7828895666
  0
LINE
  5
479
100
AcDbEntity
  8
B-ACHSEN
100
AcDbLine
 62
8
  6
HIDDEN
 10
294.9054225717
 20
247.9542754499
 11
290.9054225717
 21
247.9542754499
  0
LINE
  5
47A
100
AcDbEntity
  8
0
100
AcDbLine
 62
7
  6
CONTINUOUS
 10
300.9054225717
 20
248.0759692699
 11
301.4054225717
 21
248.0759692699
  0
LINE
  5
47B
100
AcDbEntity
  8
0
100
AcDbLine
 62
7
  6
CONTINUOUS
 10
300.9054225717
 20
248.2325589254
 11
301.4054225717
 21
248.2325589254
  0
LINE
  5
47C
100
AcDbEntity
  8
0
100
AcDbLine
 62
7
  6
CONTINUOUS
 10
300.9054225717
 20
248.33095459
 11
301.4054225717
 21
248.33095459
  0
LINE
  5
47D
100
AcDbEntity
  8
0
100
AcDbLine
 62
7
  6
CONTINUOUS
 10
300.9054225717
 20
248.4650556111
 11
301.4054225717
 21
248.4650556111
  0
LINE
  5
47E
100
AcDbEntity
  8
0
100
AcDbLine
 62
7
  6
CONTINUOUS
 10
300.9054225717
 20
248.6642383435
 11
301.4054225717
 21
248.6642383435
  0
LINE
  5
47F
100
AcDbEntity
  8
0
100
AcDbLine
 62
7
  6
CONTINUOUS
 10
300.9054225717
 20
248.8052247085
 11
301.4054225717
 21
248.8052247085
  0
LINE
  5
480
100
AcDbEntity
  8
0
100
AcDbLine
 62
7
  6
CONTINUOUS
 10
300.9054225717
 20
249.0290057426
 11
301.4054225717
 21
249.0290057426
  0
LINE
  5
481
100
AcDbEntity
  8
0
100
AcDbLine
 62
7
  6
CONTINUOUS
 10
300.9054225717
 20
249.2773850783
 11
301.4054225717
 21
249.2773850783
  0
LINE
  5
482
100
AcDbEntity
  8
0
100
AcDbLine
 62
7
  6
CONTINUOUS
 10
300.9054225717
 20
249.6331550083
 11
301.4054225717
 21
249.6331550083
  0
LINE
  5
483
100
AcDbEntity
  8
0
100
AcDbLine
 62
7
  6
CONTINUOUS
 10
300.9054225717
 20
249.9844287025
 11
301.4054225717
 21
249.9844287025
  0
LINE
  5
484
100
AcDbEntity
  8
0
100
AcDbLine
 62
7
  6
CONTINUOUS
 10
300.9054225717
 20
250.2775084057
 11
301.4054225717
 21
250.2775084057
  0
LINE
  5
485
100
AcDbEntity
  8
0
100
AcDbLine
 62
7
  6
CONTINUOUS
 10
300.9054225717
 20
250.4586988209
 11
301.4054225717
 21
250.4586988209
  0
LINE
  5
486
100
AcDbEntity
  8
0
100
AcDbLine
 62
7
  6
CONTINUOUS
 10
300.9054225717
 20
250.5324961839
 11
301.4054225717
 21
250.5324961839
  0
LINE
  5
487
100
AcDbEntity
  8
RUNDUNGEN
100
AcDbLine
 62
7
  6
CONTINUOUS
 10
283.9054225717
 20
252.4542754499
 11
284.9054225717
 21
252.4542754499
  0
LINE
  5
488
100
AcDbEntity
  8
B-ACHSEN
100
AcDbLine
 62
7
  6
CONTINUOUS
 10
302.9054225717
 20
161.9542754499
 11
301.4054225717
 21
160.4542754499
  0
LINE
  5
489
100
AcDbEntity
  8
0
100
AcDbLine
 62
7
  6
CONTINUOUS
 10
300.9054225717
 20
254.9442754499
 11
301.4054225717
 21
254.9442754499
  0
LINE
  5
48A
100
AcDbEntity
  8
0
100
AcDbLine
 62
7
  6
CONTINUOUS
 10
300.9054225717
 20
258.9442754499
 11
301.4054225717
 21
258.9442754499
  0
LINE
  5
48B
100
AcDbEntity
  8
RUNDUNGEN
100
AcDbLine
 62
7
  6
CONTINUOUS
 10
283.9054225717
 20
258.9542754499
 11
285.0416868633
 21
258.9542754499
  0
LINE
  5
48C
100
AcDbEntity
  8
RUNDUNGEN
100
AcDbLine
 62
7
  6
CONTINUOUS
 10
297.4054225717
 20
265.5496297591
 11
288.4054225717
 21
265.5496297591
  0
LWPOLYLINE
  5
48D
100
AcDbEntity
  8
RUNDUNGEN
100
AcDbPolyline
 62
7
  6
CONTINUOUS
 90
7
 70
0
 10
71.4711348827
 20
110.0106877081
 10
71.4848202397
 20
109.7135247457
 10
71.5264020278
 20
109.4191258931
 10
71.5942058219
 20
109.1378538909
 10
71.6867678865
 20
108.8702956105
 10
71.8028037534
 20
108.6171013947
 10
71.8259170064
 20
108.573448644
  0
LINE
  5
48E
100
AcDbEntity
  8
RUNDUNGEN
100
AcDbLine
 62
7
  6
CONTINUOUS
 10
71.4711225103
 20
110.0108528529
 11
71.4711224877
 21
120.1590273456
  0
LWPOLYLINE
  5
48F
100
AcDbEntity
  8
RUNDUNGEN
100
AcDbPolyline
 62
7
  6
CONTINUOUS
 90
6
 70
0
 10
71.8255686119
 20
121.5962321312
 10
71.7707083606
 20
121.489371886
 10
71.6347680175
 20
121.1601417911
 10
71.5374032378
 20
120.8061292987
 10
71.4826342152
 20
120.4323044058
 10
71.4711338646
 20
120.1593385884
  0
LINE
  5
490
100
AcDbEntity
  8
RUNDUNGEN
100
AcDbLine
 62
7
  6
CONTINUOUS
 10
71.8270717177
 20
121.599010256
 11
71.8255686119
 21
121.5962321312
  0
LINE
  5
491
100
AcDbEntity
  8
0
100
AcDbLine
 62
7
  6
CONTINUOUS
 10
75.5147098098
 20
107.0851665176
 11
75.5147098098
 21
106.5851665176
  0
LINE
  5
492
100
AcDbEntity
  8
0
100
AcDbLine
 62
7
  6
CONTINUOUS
 10
76.0617333897
 20
107.0851665176
 11
76.0617333897
 21
106.5851665176
  0
LWPOLYLINE
  5
493
100
AcDbEntity
  8
RUNDUNGEN
100
AcDbPolyline
 62
7
  6
CONTINUOUS
 90
4
 70
0
 10
72.3710561905
 20
122.3308744779
 10
72.139498437
 20
122.0730105483
 10
71.9306765659
 20
121.7771138033
 10
71.8270492703
 20
121.5990225397
  0
LWPOLYLINE
  5
494
100
AcDbEntity
  8
RUNDUNGEN
100
AcDbPolyline
 62
7
  6
CONTINUOUS
 90
4
 70
0
 10
71.827037196
 20
108.5713352064
 10
71.9289951543
 20
108.3959181495
 10
72.1358386675
 20
108.1019171889
 10
72.3652453805
 20
107.8452171185
  0
LINE
  5
495
100
AcDbEntity
  8
RUNDUNGEN
100
AcDbLine
 62
7
  6
CONTINUOUS
 10
71.8259170064
 20
108.573448644
 11
71.8270557605
 21
108.5713453637
  0
LINE
  5
496
100
AcDbEntity
  8
0
100
AcDbLine
 62
7
  6
CONTINUOUS
 10
76.2442448829
 20
107.0851665176
 11
76.2442448829
 21
106.5851665176
  0
LINE
  5
497
100
AcDbEntity
  8
0
100
AcDbLine
 62
7
  6
CONTINUOUS
 10
76.5410601346
 20
107.0851665176
 11
76.5410601346
 21
106.5851665176
  0
LINE
  5
498
100
AcDbEntity
  8
0
100
AcDbLine
 62
7
  6
CONTINUOUS
 10
76.8824390376
 20
107.0851665176
 11
76.8824390376
 21
106.5851665176
  0
LINE
  5
499
100
AcDbEntity
  8
0
100
AcDbLine
 62
7
  6
CONTINUOUS
 10
76.9050614522
 20
107.0851665176
 11
76.9050614522
 21
106.5851665176
  0
LINE
  5
49A
100
AcDbEntity
  8
0
100
AcDbLine
 62
7
  6
CONTINUOUS
 10
77.0190246545
 20
107.0851665176
 11
77.0190246545
 21
106.5851665176
  0
LINE
  5
49B
100
AcDbEntity
  8
0
100
AcDbLine
 62
7
  6
CONTINUOUS
 10
77.2015360824
 20
107.0851665176
 11
77.2015360824
 21
106.5851665176
  0
LINE
  5
49C
100
AcDbEntity
  8
0
100
AcDbLine
 62
7
  6
CONTINUOUS
 10
77.4983513994
 20
107.0851665176
 11
77.4983513994
 21
106.5851665176
  0
LINE
  5
49D
100
AcDbEntity
  8
0
100
AcDbLine
 62
7
  6
CONTINUOUS
 10
77.8409222492
 20
107.0851665176
 11
77.8409222492
 21
106.5851665176
  0
LINE
  5
49E
100
AcDbEntity
  8
0
100
AcDbLine
 62
7
  6
CONTINUOUS
 10
77.930730534
 20
107.0851665176
 11
77.930730534
 21
106.5851665176
  0
LINE
  5
49F
100
AcDbEntity
  8
0
100
AcDbLine
 62
7
  6
CONTINUOUS
 10
78.1130718143
 20
107.0851665176
 11
78.1130718143
 21
106.5851665176
  0
LINE
  5
4A0
100
AcDbEntity
  8
0
100
AcDbLine
 62
7
  6
CONTINUOUS
 10
79.1615335888
 20
107.0851665176
 11
79.1615335888
 21
106.5851665176
  0
LINE
  5
4A1
100
AcDbEntity
  8
0
100
AcDbLine
 62
7
  6
CONTINUOUS
 10
79.2982894837
 20
107.0851665176
 11
79.2982894837
 21
106.5851665176
  0
LINE
  5
4A2
100
AcDbEntity
  8
0
100
AcDbLine
 62
7
  6
CONTINUOUS
 10
79.9364835733
 20
107.0851665176
 11
79.9364835733
 21
106.5851665176
  0
LINE
  5
4A3
100
AcDbEntity
  8
0
100
AcDbLine
 62
7
  6
CONTINUOUS
 10
80.0732394683
 20
107.0851665176
 11
80.0732394683
 21
106.5851665176
  0
LINE
  5
4A4
100
AcDbEntity
  8
0
100
AcDbLine
 62
7
  6
CONTINUOUS
 10
80.2555810094
 20
107.0851665176
 11
80.2555810094
 21
106.5851665176
  0
LINE
  5
4A5
100
AcDbEntity
  8
0
100
AcDbLine
 62
7
  6
CONTINUOUS
 10
80.8026045893
 20
107.0851665176
 11
80.8026045893
 21
106.5851665176
  0
LINE
  5
4A6
100
AcDbEntity
  8
0
100
AcDbLine
 62
7
  6
CONTINUOUS
 10
80.9851158868
 20
107.0851665176
 11
80.9851158868
 21
106.5851665176
  0
LINE
  5
4A7
100
AcDbEntity
  8
0
100
AcDbLine
 62
7
  6
CONTINUOUS
 10
81.2819313341
 20
107.0851665176
 11
81.2819313341
 21
106.5851665176
  0
LINE
  5
4A8
100
AcDbEntity
  8
0
100
AcDbLine
 62
7
  6
CONTINUOUS
 10
81.624502184
 20
107.0851665176
 11
81.624502184
 21
106.5851665176
  0
LINE
  5
4A9
100
AcDbEntity
  8
0
100
AcDbLine
 62
7
  6
CONTINUOUS
 10
81.6461025386
 20
107.0851665176
 11
81.6461025386
 21
106.5851665176
  0
LINE
  5
4AA
100
AcDbEntity
  8
0
100
AcDbLine
 62
7
  6
CONTINUOUS
 10
81.6687250835
 20
107.0851665176
 11
81.6687250835
 21
106.5851665176
  0
LINE
  5
4AB
100
AcDbEntity
  8
0
100
AcDbLine
 62
7
  6
CONTINUOUS
 10
81.7826881554
 20
107.0851665176
 11
81.7826881554
 21
106.5851665176
  0
LINE
  5
4AC
100
AcDbEntity
  8
0
100
AcDbLine
 62
7
  6
CONTINUOUS
 10
81.9651999746
 20
107.0851665176
 11
81.9651999746
 21
106.5851665176
  0
LINE
  5
4AD
100
AcDbEntity
  8
0
100
AcDbLine
 62
7
  6
CONTINUOUS
 10
82.2620149003
 20
107.0851665176
 11
82.2620149003
 21
106.5851665176
  0
LWPOLYLINE
  5
4AE
100
AcDbEntity
  8
RUNDUNGEN
100
AcDbPolyline
 62
7
  6
CONTINUOUS
 90
10
 70
0
 10
91.994203076
 20
134.0009913284
 10
90.2919016091
 20
132.6527213159
 10
88.4925528473
 20
131.2765391327
 10
86.7349940441
 20
129.9825134766
 10
85.0849414146
 20
128.8154509629
 10
83.6190446262
 20
127.8206868692
 10
82.2746555243
 20
126.9467741325
 10
81.0266803231
 20
126.1724694645
 10
79.8460490849
 20
125.4774917446
 10
78.6953493692
 20
124.8415292871
  0
LWPOLYLINE
  5
4AF
100
AcDbEntity
  8
RUNDUNGEN
100
AcDbPolyline
 62
7
  6
CONTINUOUS
 90
7
 70
0
 10
76.290108937
 20
123.4374632478
 10
76.1659468957
 20
123.3509554657
 10
75.9971678633
 20
123.2505187052
 10
75.8343221381
 20
123.1737778495
 10
75.6797103135
 20
123.1212966458
 10
75.5339662754
 20
123.0923867181
 10
75.4176317793
 20
123.085167718
  0
LWPOLYLINE
  5
4B0
100
AcDbEntity
  8
RUNDUNGEN
100
AcDbPolyline
 62
7
  6
CONTINUOUS
 90
8
 70
0
 10
72.3652453805
 20
107.8452171185
 10
72.6156047417
 20
107.6246363873
 10
72.8840523499
 20
107.4408037404
 10
73.1684143528
 20
107.2941691752
 10
73.4649125577
 20
107.1858096436
 10
73.7710111529
 20
107.1162198018
 10
74.0839382198
 20
107.0863150036
 10
74.1562011102
 20
107.0851580708
  0
LINE
  5
4B1
100
AcDbEntity
  8
0
100
AcDbLine
 62
7
  6
CONTINUOUS
 10
82.6045857502
 20
107.0851665176
 11
82.6045857502
 21
106.5851665176
  0
LINE
  5
4B2
100
AcDbEntity
  8
0
100
AcDbLine
 62
7
  6
CONTINUOUS
 10
82.8311501908
 20
107.0851665176
 11
82.8311501908
 21
106.5851665176
  0
LINE
  5
4B3
100
AcDbEntity
  8
0
100
AcDbLine
 62
7
  6
CONTINUOUS
 10
83.0362840332
 20
107.0851665176
 11
83.0362840332
 21
106.5851665176
  0
LINE
  5
4B4
100
AcDbEntity
  8
0
100
AcDbLine
 62
7
  6
CONTINUOUS
 10
83.7200635081
 20
107.0851665176
 11
83.7200635081
 21
106.5851665176
  0
LINE
  5
4B5
100
AcDbEntity
  8
0
100
AcDbLine
 62
7
  6
CONTINUOUS
 10
83.9251973506
 20
107.0851665176
 11
83.9251973506
 21
106.5851665176
  0
LINE
  5
4B6
100
AcDbEntity
  8
0
100
AcDbLine
 62
7
  6
CONTINUOUS
 10
84.4040132611
 20
107.0851665176
 11
84.4040132611
 21
106.5851665176
  0
LINE
  5
4B7
100
AcDbEntity
  8
0
100
AcDbLine
 62
7
  6
CONTINUOUS
 10
84.4950132318
 20
107.0851665176
 11
84.4950132318
 21
106.5851665176
  0
LINE
  5
4B8
100
AcDbEntity
  8
0
100
AcDbLine
 62
7
  6
CONTINUOUS
 10
84.586184524
 20
107.0851665176
 11
84.586184524
 21
106.5851665176
  0
LINE
  5
4B9
100
AcDbEntity
  8
0
100
AcDbLine
 62
7
  6
CONTINUOUS
 10
84.7914886446
 20
107.0851665176
 11
84.7914886446
 21
106.5851665176
  0
LINE
  5
4BA
100
AcDbEntity
  8
0
100
AcDbLine
 62
7
  6
CONTINUOUS
 10
85.0197553447
 20
107.0851665176
 11
85.0197553447
 21
106.5851665176
  0
LINE
  5
4BB
100
AcDbEntity
  8
0
100
AcDbLine
 62
7
  6
CONTINUOUS
 10
85.3851184959
 20
107.0851665176
 11
85.3851184959
 21
106.5851665176
  0
LINE
  5
4BC
100
AcDbEntity
  8
0
100
AcDbLine
 62
7
  6
CONTINUOUS
 10
85.4524747747
 20
107.0851665176
 11
85.4524747747
 21
106.5851665176
  0
LINE
  5
4BD
100
AcDbEntity
  8
0
100
AcDbLine
 62
7
  6
CONTINUOUS
 10
85.5206824441
 20
107.0851665176
 11
85.5206824441
 21
106.5851665176
  0
LINE
  5
4BE
100
AcDbEntity
  8
0
100
AcDbLine
 62
7
  6
CONTINUOUS
 10
85.7259865647
 20
107.0851665176
 11
85.7259865647
 21
106.5851665176
  0
LWPOLYLINE
  5
4BF
100
AcDbEntity
  8
RUNDUNGEN
100
AcDbPolyline
 62
7
  6
CONTINUOUS
 90
7
 70
0
 10
78.6953493692
 20
124.8415292871
 10
77.5446355501
 20
124.251949143
 10
77.2400362248
 20
124.0810522739
 10
76.9527574481
 20
123.9024399569
 10
76.6866578939
 20
123.7233256661
 10
76.4455140877
 20
123.5515063149
 10
76.2917908119
 20
123.4387098355
  0
LINE
  5
4C0
100
AcDbEntity
  8
0
100
AcDbLine
 62
7
  6
CONTINUOUS
 10
86.0455948351
 20
107.0851665176
 11
86.0455948351
 21
106.5851665176
  0
LINE
  5
4C1
100
AcDbEntity
  8
0
100
AcDbLine
 62
7
  6
CONTINUOUS
 10
86.3196174593
 20
107.0851665176
 11
86.3196174593
 21
106.5851665176
  0
LINE
  5
4C2
100
AcDbEntity
  8
0
100
AcDbLine
 62
7
  6
CONTINUOUS
 10
86.6393960078
 20
107.0851665176
 11
86.6393960078
 21
106.5851665176
  0
LINE
  5
4C3
100
AcDbEntity
  8
0
100
AcDbLine
 62
7
  6
CONTINUOUS
 10
86.867833178
 20
107.0851665176
 11
86.867833178
 21
106.5851665176
  0
LINE
  5
4C4
100
AcDbEntity
  8
0
100
AcDbLine
 62
7
  6
CONTINUOUS
 10
87.2333666074
 20
107.0851665176
 11
87.2333666074
 21
106.5851665176
  0
LINE
  5
4C5
100
AcDbEntity
  8
0
100
AcDbLine
 62
7
  6
CONTINUOUS
 10
87.8503006377
 20
107.0851665176
 11
87.8503006377
 21
106.5851665176
  0
LINE
  5
4C6
100
AcDbEntity
  8
0
100
AcDbLine
 62
7
  6
CONTINUOUS
 10
88.1702495604
 20
107.0851665176
 11
88.1702495604
 21
106.5851665176
  0
LINE
  5
4C7
100
AcDbEntity
  8
0
100
AcDbLine
 62
7
  6
CONTINUOUS
 10
88.3531019358
 20
107.0851665176
 11
88.3531019358
 21
106.5851665176
  0
LINE
  5
4C8
100
AcDbEntity
  8
0
100
AcDbLine
 62
7
  6
CONTINUOUS
 10
88.5817092401
 20
107.0851665176
 11
88.5817092401
 21
106.5851665176
  0
LINE
  5
4C9
100
AcDbEntity
  8
0
100
AcDbLine
 62
7
  6
CONTINUOUS
 10
88.7189759934
 20
107.0851665176
 11
88.7189759934
 21
106.5851665176
  0
LINE
  5
4CA
100
AcDbEntity
  8
0
100
AcDbLine
 62
7
  6
CONTINUOUS
 10
88.8106570946
 20
107.0851665176
 11
88.8106570946
 21
106.5851665176
  0
LINE
  5
4CB
100
AcDbEntity
  8
RUNDUNGEN
100
AcDbLine
 62
7
  6
CONTINUOUS
 10
77.7119760729
 20
124.3372969149
 11
77.7112808604
 21
124.3369551688
  0
LWPOLYLINE
  5
4CC
100
AcDbEntity
  8
RUNDUNGEN
100
AcDbPolyline
 62
7
  6
CONTINUOUS
 90
9
 70
0
 10
114.9648087631
 20
90.5661369426
 10
116.3886989322
 20
90.9494345526
 10
117.9668355716
 20
91.4770815611
 10
119.4964575107
 20
92.0959289627
 10
120.9732046819
 20
92.7987766665
 10
122.3930387034
 20
93.5777648029
 10
123.7526403868
 20
94.4245222357
 10
125.0491898155
 20
95.3300234614
 10
126.1385458424
 20
96.1696284242
  0
LWPOLYLINE
  5
4CD
100
AcDbEntity
  8
RUNDUNGEN
100
AcDbPolyline
 62
7
  6
CONTINUOUS
 90
6
 70
0
 10
109.9986138295
 20
90.0238858282
 10
111.1132518123
 20
90.0487130283
 10
112.1964194156
 20
90.1224080567
 10
113.2289924816
 20
90.2417002641
 10
114.2121359956
 20
90.4044268508
 10
114.9648096676
 20
90.5661305301
  0
LINE
  5
4CE
100
AcDbEntity
  8
RUNDUNGEN
100
AcDbLine
 62
7
  6
CONTINUOUS
 10
109.9988034403
 20
90.0238847653
 11
110.0018549979
 21
90.0238855358
  0
LINE
  5
4CF
100
AcDbEntity
  8
B-ACHSEN
100
AcDbLine
 62
7
  6
CONTINUOUS
 10
108.1360351892
 20
90.0238847524
 11
109.996912865
 21
90.0238847524
  0
LINE
  5
4D0
100
AcDbEntity
  8
RUNDUNGEN
100
AcDbLine
 62
7
  6
CONTINUOUS
 10
108.1341573813
 20
90.0238847655
 11
108.1311240094
 21
90.0238855238
  0
LWPOLYLINE
  5
4D1
100
AcDbEntity
  8
RUNDUNGEN
100
AcDbPolyline
 62
7
  6
CONTINUOUS
 90
6
 70
0
 10
103.1681439172
 20
90.5661305238
 10
103.9208230895
 20
90.4044259332
 10
104.9039725259
 20
90.2416986243
 10
105.9365415598
 20
90.1224074418
 10
107.0197006255
 20
90.0487130187
 10
108.1343476884
 20
90.0238857852
  0
LWPOLYLINE
  5
4D2
100
AcDbEntity
  8
RUNDUNGEN
100
AcDbPolyline
 62
7
  6
CONTINUOUS
 90
4
 70
0
 10
76.686660505
 20
106.4470067112
 10
76.9527025414
 20
106.2679258953
 10
77.2399141397
 20
106.0893623684
 10
77.5443924778
 20
105.9185104543
  0
LINE
  5
4D3
100
AcDbEntity
  8
RUNDUNGEN
100
AcDbLine
 62
7
  6
CONTINUOUS
 10
76.4927580373
 20
106.5851665176
 11
76.686660505
 21
106.4470067112
  0
LWPOLYLINE
  5
4D4
100
AcDbEntity
  8
RUNDUNGEN
100
AcDbPolyline
 62
7
  6
CONTINUOUS
 90
9
 70
0
 10
91.9944163233
 20
96.1696212823
 10
93.083788346
 20
95.3300052632
 10
94.3803509894
 20
94.424497052
 10
95.7399615648
 20
93.5777377042
 10
97.1597977166
 20
92.798752099
 10
98.6365383905
 20
92.0959106232
 10
100.1661466777
 20
91.4770706507
 10
101.7442701589
 20
90.9494297714
 10
103.1681448524
 20
90.5661370379
  0
LINE
  5
4D5
100
AcDbEntity
  8
RUNDUNGEN
100
AcDbLine
 62
7
  6
CONTINUOUS
 10
77.7110724768
 20
105.8335055143
 11
77.7119945593
 21
105.8330520587
  0
LWPOLYLINE
  5
4D6
100
AcDbEntity
  8
RUNDUNGEN
100
AcDbPolyline
 62
7
  6
CONTINUOUS
 90
11
 70
0
 10
77.5443924778
 20
105.9185104543
 10
78.6996987564
 20
105.3264871219
 10
79.8532799561
 20
104.6887079824
 10
81.0350608923
 20
103.9927933278
 10
82.2822895232
 20
103.2187082111
 10
83.6235215374
 20
102.3466723124
 10
85.0850025431
 20
101.3548397752
 10
86.7294151658
 20
100.1918453057
 10
88.4833881879
 20
98.9006720971
 10
90.2849900458
 20
97.5229947466
 10
91.9942034735
 20
96.1693415164
  0
LINE
  5
4D7
100
AcDbEntity
  8
RUNDUNGEN
100
AcDbLine
 62
7
  6
CONTINUOUS
 10
97.0664767969
 20
124.0851665176
 11
97.0664767969
 21
123.0851665176
  0
LINE
  5
4D8
100
AcDbEntity
  8
0
100
AcDbLine
 62
7
  6
CONTINUOUS
 10
104.7664767969
 20
107.0851665176
 11
104.7664767969
 21
106.5851665176
  0
LINE
  5
4D9
100
AcDbEntity
  8
0
100
AcDbLine
 62
7
  6
CONTINUOUS
 10
140.6200836393
 20
106.5851665176
 11
130.9264767969
 21
106.5851665176
  0
LINE
  5
4DA
100
AcDbEntity
  8
0
100
AcDbLine
 62
7
  6
CONTINUOUS
 10
113.4331432093
 20
106.5851665176
 11
110.7664767969
 21
106.5851665176
  0
LINE
  5
4DB
100
AcDbEntity
  8
0
100
AcDbLine
 62
7
  6
CONTINUOUS
 10
110.2331435907
 20
106.5851665176
 11
107.8331434
 21
106.5851665176
  0
LINE
  5
4DC
100
AcDbEntity
  8
0
100
AcDbLine
 62
7
  6
CONTINUOUS
 10
107.2998101938
 20
106.5851665176
 11
104.7664767969
 21
106.5851665176
  0
LINE
  5
4DD
100
AcDbEntity
  8
0
100
AcDbLine
 62
7
  6
CONTINUOUS
 10
88.8106570946
 20
106.5851665176
 11
75.5147098098
 21
106.5851665176
  0
LINE
  5
4DE
100
AcDbEntity
  8
RUNDUNGEN
100
AcDbLine
 62
7
  6
CONTINUOUS
 10
75.4176038338
 20
107.0851639149
 11
75.5147098098
 21
107.079164915
  0
LINE
  5
4DF
100
AcDbEntity
  8
0
100
AcDbLine
 62
7
  6
CONTINUOUS
 10
106.3664767969
 20
107.0851665176
 11
106.3664767969
 21
106.5851665176
  0
LINE
  5
4E0
100
AcDbEntity
  8
0
100
AcDbLine
 62
7
  6
CONTINUOUS
 10
106.6998101938
 20
107.0851665176
 11
106.6998101938
 21
106.5851665176
  0
LINE
  5
4E1
100
AcDbEntity
  8
0
100
AcDbLine
 62
7
  6
CONTINUOUS
 10
106.9664767969
 20
107.0851665176
 11
106.9664767969
 21
106.5851665176
  0
LINE
  5
4E2
100
AcDbEntity
  8
0
100
AcDbLine
 62
7
  6
CONTINUOUS
 10
107.1664767969
 20
107.0851665176
 11
107.1664767969
 21
106.5851665176
  0
LINE
  5
4E3
100
AcDbEntity
  8
0
100
AcDbLine
 62
7
  6
CONTINUOUS
 10
107.2331434
 20
107.0851665176
 11
107.2331434
 21
106.5851665176
  0
LINE
  5
4E4
100
AcDbEntity
  8
0
100
AcDbLine
 62
7
  6
CONTINUOUS
 10
107.2998101938
 20
107.0851665176
 11
107.2998101938
 21
106.5851665176
  0
LINE
  5
4E5
100
AcDbEntity
  8
0
100
AcDbLine
 62
7
  6
CONTINUOUS
 10
107.8331434
 20
107.0851665176
 11
107.8331434
 21
106.5851665176
  0
LINE
  5
4E6
100
AcDbEntity
  8
0
100
AcDbLine
 62
7
  6
CONTINUOUS
 10
108.2331435907
 20
107.0851665176
 11
108.2331435907
 21
106.5851665176
  0
LWPOLYLINE
  5
4E7
100
AcDbEntity
  8
RUNDUNGEN
100
AcDbPolyline
 62
7
  6
CONTINUOUS
 90
8
 70
0
 10
143.9768437177
 20
107.0851558234
 10
144.0293894704
 20
107.0857855712
 10
144.3448822131
 20
107.1135263085
 10
144.6541166949
 20
107.1817358538
 10
144.9539142997
 20
107.2895464242
 10
145.2414551226
 20
107.4363620514
 10
145.512636
 20
107.6209534394
 10
145.7650382126
 20
107.8425954217
  0
LINE
  5
4E8
100
AcDbEntity
  8
RUNDUNGEN
100
AcDbLine
 62
7
  6
CONTINUOUS
 10
143.9768436925
 20
107.0851695515
 11
74.1593283375
 21
107.0851665176
  0
LINE
  5
4E9
100
AcDbEntity
  8
RUNDUNGEN
100
AcDbLine
 62
7
  6
CONTINUOUS
 10
74.1562011309
 20
107.0851693819
 11
74.159328338
 21
107.0851665176
  0
LINE
  5
4EA
100
AcDbEntity
  8
0
100
AcDbLine
 62
7
  6
CONTINUOUS
 10
108.2998100031
 20
107.0851665176
 11
108.2998100031
 21
106.5851665176
  0
LINE
  5
4EB
100
AcDbEntity
  8
0
100
AcDbLine
 62
7
  6
CONTINUOUS
 10
108.4331435907
 20
107.0851665176
 11
108.4331435907
 21
106.5851665176
  0
LINE
  5
4EC
100
AcDbEntity
  8
0
100
AcDbLine
 62
7
  6
CONTINUOUS
 10
108.6331435907
 20
107.0851665176
 11
108.6331435907
 21
106.5851665176
  0
LINE
  5
4ED
100
AcDbEntity
  8
0
100
AcDbLine
 62
7
  6
CONTINUOUS
 10
108.8998100031
 20
107.0851665176
 11
108.8998100031
 21
106.5851665176
  0
LINE
  5
4EE
100
AcDbEntity
  8
B-ACHSEN
100
AcDbLine
 62
2
  6
CENTER
 10
109.0664767969
 20
115.0851665176
 11
109.0664767969
 21
86.6738200932
  0
LINE
  5
4EF
100
AcDbEntity
  8
B-ACHSEN
100
AcDbLine
 62
2
  6
CENTER
 10
109.0664767969
 20
115.0851665176
 11
109.0664767969
 21
143.496512942
  0
LINE
  5
4F0
100
AcDbEntity
  8
0
100
AcDbLine
 62
7
  6
CONTINUOUS
 10
109.1664767969
 20
107.0851665176
 11
109.1664767969
 21
106.5851665176
  0
LINE
  5
4F1
100
AcDbEntity
  8
0
100
AcDbLine
 62
7
  6
CONTINUOUS
 10
109.4331435907
 20
107.0851665176
 11
109.4331435907
 21
106.5851665176
  0
LINE
  5
4F2
100
AcDbEntity
  8
0
100
AcDbLine
 62
7
  6
CONTINUOUS
 10
109.6331435907
 20
107.0851665176
 11
109.6331435907
 21
106.5851665176
  0
LINE
  5
4F3
100
AcDbEntity
  8
0
100
AcDbLine
 62
7
  6
CONTINUOUS
 10
109.7664767969
 20
107.0851665176
 11
109.7664767969
 21
106.5851665176
  0
LINE
  5
4F4
100
AcDbEntity
  8
0
100
AcDbLine
 62
7
  6
CONTINUOUS
 10
109.8331435907
 20
107.0851665176
 11
109.8331435907
 21
106.5851665176
  0
LINE
  5
4F5
100
AcDbEntity
  8
0
100
AcDbLine
 62
7
  6
CONTINUOUS
 10
110.2331435907
 20
107.0851665176
 11
110.2331435907
 21
106.5851665176
  0
LINE
  5
4F6
100
AcDbEntity
  8
0
100
AcDbLine
 62
7
  6
CONTINUOUS
 10
110.7664767969
 20
107.0851665176
 11
110.7664767969
 21
106.5851665176
  0
LINE
  5
4F7
100
AcDbEntity
  8
0
100
AcDbLine
 62
7
  6
CONTINUOUS
 10
112.3664767969
 20
107.0851665176
 11
112.3664767969
 21
106.5851665176
  0
LINE
  5
4F8
100
AcDbEntity
  8
0
100
AcDbLine
 62
7
  6
CONTINUOUS
 10
112.6998103846
 20
107.0851665176
 11
112.6998103846
 21
106.5851665176
  0
LINE
  5
4F9
100
AcDbEntity
  8
0
100
AcDbLine
 62
7
  6
CONTINUOUS
 10
112.9664767969
 20
107.0851665176
 11
112.9664767969
 21
106.5851665176
  0
LINE
  5
4FA
100
AcDbEntity
  8
0
100
AcDbLine
 62
7
  6
CONTINUOUS
 10
113.2331432093
 20
107.0851665176
 11
113.2331432093
 21
106.5851665176
  0
LINE
  5
4FB
100
AcDbEntity
  8
0
100
AcDbLine
 62
7
  6
CONTINUOUS
 10
113.3664767969
 20
107.0851665176
 11
113.3664767969
 21
106.5851665176
  0
LINE
  5
4FC
100
AcDbEntity
  8
0
100
AcDbLine
 62
7
  6
CONTINUOUS
 10
113.4331432093
 20
107.0851665176
 11
113.4331432093
 21
106.5851665176
  0
LINE
  5
4FD
100
AcDbEntity
  8
B-ACHSEN
100
AcDbLine
 62
2
  6
CENTER
 10
109.0664767969
 20
115.0851665176
 11
70.40611507
 21
115.0851665176
  0
LINE
  5
4FE
100
AcDbEntity
  8
B-ACHSEN
100
AcDbLine
 62
2
  6
CENTER
 10
109.0664767969
 20
115.0851665176
 11
148.3749699811
 21
115.0851665176
  0
LINE
  5
4FF
100
AcDbEntity
  8
RUNDUNGEN
100
AcDbLine
 62
7
  6
CONTINUOUS
 10
121.0664767969
 20
124.0851665176
 11
121.0664767969
 21
123.0851665176
  0
LWPOLYLINE
  5
500
100
AcDbEntity
  8
RUNDUNGEN
100
AcDbPolyline
 62
7
  6
CONTINUOUS
 90
8
 70
0
 10
74.1561101154
 20
123.0851757025
 10
74.1034126752
 20
123.0845414498
 10
73.7882576379
 20
123.0568261121
 10
73.4799142254
 20
122.9889011847
 10
73.1811300777
 20
122.881700096
 10
72.8944536173
 20
122.7357080379
 10
72.6236980815
 20
122.5519710508
 10
72.3710561905
 20
122.3308744779
  0
LINE
  5
501
100
AcDbEntity
  8
RUNDUNGEN
100
AcDbLine
 62
7
  6
CONTINUOUS
 10
74.1561101378
 20
123.0851634842
 11
97.070478135
 21
123.0851665176
  0
LINE
  5
502
100
AcDbEntity
  8
RUNDUNGEN
100
AcDbLine
 62
7
  6
CONTINUOUS
 10
109.0664767969
 20
123.0851665176
 11
116.5393231506
 21
123.0851665176
  0
LINE
  5
503
100
AcDbEntity
  8
0
100
AcDbLine
 62
7
  6
CONTINUOUS
 10
101.5936304433
 20
123.0851665176
 11
116.5393231506
 21
123.0851665176
  0
LINE
  5
504
100
AcDbEntity
  8
RUNDUNGEN
100
AcDbLine
 62
7
  6
CONTINUOUS
 10
97.0664767969
 20
124.0851665176
 11
121.0664767969
 21
124.0851665176
  0
LINE
  5
505
100
AcDbEntity
  8
RUNDUNGEN
100
AcDbLine
 62
7
  6
CONTINUOUS
 10
143.9767448141
 20
123.0851636673
 11
121.0624754588
 21
123.0851665176
  0
LWPOLYLINE
  5
506
100
AcDbEntity
  8
RUNDUNGEN
100
AcDbPolyline
 62
7
  6
CONTINUOUS
 90
7
 70
0
 10
142.7153493758
 20
123.0851690942
 10
142.599476438
 20
123.0923269558
 10
142.4540441696
 20
123.1210802193
 10
142.2995545547
 20
123.1734024991
 10
142.1366135156
 20
123.2500767929
 10
141.9675312663
 20
123.3506133932
 10
141.8428316312
 20
123.4374743999
  0
LWPOLYLINE
  5
507
100
AcDbEntity
  8
RUNDUNGEN
100
AcDbPolyline
 62
7
  6
CONTINUOUS
 90
7
 70
0
 10
139.4376775135
 20
105.328842542
 10
140.5883175005
 20
105.9183832898
 10
140.892916845
 20
106.0892801979
 10
141.1801956458
 20
106.2678925672
 10
141.4462952254
 20
106.4470069223
 10
141.6874390556
 20
106.6188263457
 10
141.8411623535
 20
106.7316228829
  0
LINE
  5
508
100
AcDbEntity
  8
RUNDUNGEN
100
AcDbLine
 62
7
  6
CONTINUOUS
 10
140.4209779154
 20
105.8330359665
 11
140.4216721861
 21
105.8333772501
  0
LINE
  5
509
100
AcDbEntity
  8
0
100
AcDbLine
 62
7
  6
CONTINUOUS
 10
130.9264767969
 20
107.0851665176
 11
130.9264767969
 21
106.5851665176
  0
LINE
  5
50A
100
AcDbEntity
  8
0
100
AcDbLine
 62
7
  6
CONTINUOUS
 10
131.3196170317
 20
107.0851665176
 11
131.3196170317
 21
106.5851665176
  0
LINE
  5
50B
100
AcDbEntity
  8
0
100
AcDbLine
 62
7
  6
CONTINUOUS
 10
133.7889768185
 20
107.0851665176
 11
133.7889768185
 21
106.5851665176
  0
LWPOLYLINE
  5
50C
100
AcDbEntity
  8
RUNDUNGEN
100
AcDbPolyline
 62
7
  6
CONTINUOUS
 90
10
 70
0
 10
126.1387592488
 20
96.1693488499
 10
127.8417873651
 20
97.5181845981
 10
129.6415045681
 20
98.8946222018
 10
131.398968287
 20
100.1885474164
 10
133.0487367946
 20
101.3553840143
 10
134.5144668146
 20
102.3500167401
 10
135.8587057348
 20
103.2238179477
 10
137.1065672495
 20
103.998041546
 10
138.2870954408
 20
104.6929503752
 10
139.4376775135
 20
105.328842542
  0
LWPOLYLINE
  5
50D
100
AcDbEntity
  8
RUNDUNGEN
100
AcDbPolyline
 62
7
  6
CONTINUOUS
 90
7
 70
0
 10
141.8428445809
 20
106.7328634865
 10
141.9670091215
 20
106.8193783987
 10
142.1357746708
 20
106.9198121304
 10
142.2986046456
 20
106.9965460172
 10
142.4532210151
 20
107.0490290494
 10
142.5989814566
 20
107.0779428354
 10
142.7153234401
 20
107.0851650765
  0
LINE
  5
50E
100
AcDbEntity
  8
0
100
AcDbLine
 62
7
  6
CONTINUOUS
 10
134.1353792493
 20
107.0851665176
 11
134.1353792493
 21
106.5851665176
  0
LINE
  5
50F
100
AcDbEntity
  8
0
100
AcDbLine
 62
7
  6
CONTINUOUS
 10
134.5774525353
 20
107.0851665176
 11
134.5774525353
 21
106.5851665176
  0
LINE
  5
510
100
AcDbEntity
  8
0
100
AcDbLine
 62
7
  6
CONTINUOUS
 10
134.8622697437
 20
107.0851665176
 11
134.8622697437
 21
106.5851665176
  0
LINE
  5
511
100
AcDbEntity
  8
0
100
AcDbLine
 62
7
  6
CONTINUOUS
 10
135.1641297743
 20
107.0851665176
 11
135.1641297743
 21
106.5851665176
  0
LINE
  5
512
100
AcDbEntity
  8
0
100
AcDbLine
 62
7
  6
CONTINUOUS
 10
135.2916909336
 20
107.0851665176
 11
135.2916909336
 21
106.5851665176
  0
LINE
  5
513
100
AcDbEntity
  8
0
100
AcDbLine
 62
7
  6
CONTINUOUS
 10
135.4044046138
 20
107.0851665176
 11
135.4044046138
 21
106.5851665176
  0
LINE
  5
514
100
AcDbEntity
  8
RUNDUNGEN
100
AcDbLine
 62
7
  6
CONTINUOUS
 10
140.4218805651
 20
124.3368281418
 11
140.420958357
 21
124.3372816591
  0
LWPOLYLINE
  5
515
100
AcDbEntity
  8
RUNDUNGEN
100
AcDbPolyline
 62
7
  6
CONTINUOUS
 90
11
 70
0
 10
140.588560583
 20
124.2518231806
 10
139.4332400248
 20
124.8438540837
 10
138.2796355628
 20
125.4816468976
 10
137.0978331982
 20
126.1775755986
 10
135.8505814867
 20
126.9516771676
 10
134.5093194035
 20
127.8237354812
 10
133.0478050941
 20
128.8155942687
 10
131.403333287
 20
129.9786358216
 10
129.6493406855
 20
131.2698297354
 10
127.8478173164
 20
132.6474518701
 10
126.138758924
 20
134.000984453
  0
LINE
  5
516
100
AcDbEntity
  8
0
100
AcDbLine
 62
7
  6
CONTINUOUS
 10
137.5559011809
 20
107.0851665176
 11
137.5559011809
 21
106.5851665176
  0
LINE
  5
517
100
AcDbEntity
  8
0
100
AcDbLine
 62
7
  6
CONTINUOUS
 10
138.3212682281
 20
107.0851665176
 11
138.3212682281
 21
106.5851665176
  0
LINE
  5
518
100
AcDbEntity
  8
0
100
AcDbLine
 62
7
  6
CONTINUOUS
 10
138.402091379
 20
107.0851665176
 11
138.402091379
 21
106.5851665176
  0
LINE
  5
519
100
AcDbEntity
  8
0
100
AcDbLine
 62
7
  6
CONTINUOUS
 10
138.4663917747
 20
107.0851665176
 11
138.4663917747
 21
106.5851665176
  0
LINE
  5
51A
100
AcDbEntity
  8
0
100
AcDbLine
 62
7
  6
CONTINUOUS
 10
139.0871547949
 20
107.0851665176
 11
139.0871547949
 21
106.5851665176
  0
LINE
  5
51B
100
AcDbEntity
  8
0
100
AcDbLine
 62
7
  6
CONTINUOUS
 10
139.2466063467
 20
107.0851665176
 11
139.2466063467
 21
106.5851665176
  0
LINE
  5
51C
100
AcDbEntity
  8
0
100
AcDbLine
 62
7
  6
CONTINUOUS
 10
139.4231003557
 20
107.0851665176
 11
139.4231003557
 21
106.5851665176
  0
LINE
  5
51D
100
AcDbEntity
  8
0
100
AcDbLine
 62
7
  6
CONTINUOUS
 10
139.6611799434
 20
107.0851665176
 11
139.6611799434
 21
106.5851665176
  0
LINE
  5
51E
100
AcDbEntity
  8
0
100
AcDbLine
 62
7
  6
CONTINUOUS
 10
139.7441989392
 20
107.0851665176
 11
139.7441989392
 21
106.5851665176
  0
LINE
  5
51F
100
AcDbEntity
  8
0
100
AcDbLine
 62
7
  6
CONTINUOUS
 10
140.0290156686
 20
107.0851665176
 11
140.0290156686
 21
106.5851665176
  0
LINE
  5
520
100
AcDbEntity
  8
0
100
AcDbLine
 62
7
  6
CONTINUOUS
 10
140.2989854207
 20
107.0851665176
 11
140.2989854207
 21
106.5851665176
  0
LWPOLYLINE
  5
521
100
AcDbEntity
  8
RUNDUNGEN
100
AcDbPolyline
 62
7
  6
CONTINUOUS
 90
4
 70
0
 10
145.7650382126
 20
107.8425954217
 10
145.995904126
 20
108.1003456819
 10
146.2035476041
 20
108.395237882
 10
146.3058263773
 20
108.5711964687
  0
LWPOLYLINE
  5
522
100
AcDbEntity
  8
RUNDUNGEN
100
AcDbPolyline
 62
7
  6
CONTINUOUS
 90
9
 70
0
 10
103.1681448307
 20
139.6041960926
 10
101.7442562191
 20
139.2208989494
 10
100.1661210233
 20
138.693252583
 10
98.6365004005
 20
138.0744059732
 10
97.1597544092
 20
137.3715591848
 10
95.7399214235
 20
136.5925720591
 10
94.3803206276
 20
135.7458157021
 10
93.0837719356
 20
134.8403155854
 10
91.994416541
 20
134.0007116879
  0
LWPOLYLINE
  5
523
100
AcDbEntity
  8
RUNDUNGEN
100
AcDbPolyline
 62
7
  6
CONTINUOUS
 90
6
 70
0
 10
108.1343397643
 20
140.146447207
 10
107.0197017815
 20
140.1216200069
 10
105.9365341782
 20
140.0479249785
 10
104.9039611122
 20
139.9286327711
 10
103.9208175983
 20
139.7659061844
 10
103.1681439262
 20
139.6042025051
  0
LINE
  5
524
100
AcDbEntity
  8
RUNDUNGEN
100
AcDbLine
 62
7
  6
CONTINUOUS
 10
108.1341501536
 20
140.1464482699
 11
108.1310985959
 21
140.1464474994
  0
LINE
  5
525
100
AcDbEntity
  8
B-ACHSEN
100
AcDbLine
 62
7
  6
CONTINUOUS
 10
109.9969184046
 20
140.1464482828
 11
108.1360407288
 21
140.1464482828
  0
LINE
  5
526
100
AcDbEntity
  8
RUNDUNGEN
100
AcDbLine
 62
7
  6
CONTINUOUS
 10
109.9987962125
 20
140.1464482697
 11
110.0018295844
 21
140.1464475114
  0
LWPOLYLINE
  5
527
100
AcDbEntity
  8
RUNDUNGEN
100
AcDbPolyline
 62
7
  6
CONTINUOUS
 90
6
 70
0
 10
114.9648096766
 20
139.6042025114
 10
114.2121305043
 20
139.765907102
 10
113.2289810679
 20
139.9286344109
 10
112.1964120341
 20
140.0479255935
 10
111.1132529683
 20
140.1216200165
 10
109.9986059055
 20
140.14644725
  0
LWPOLYLINE
  5
528
100
AcDbEntity
  8
RUNDUNGEN
100
AcDbPolyline
 62
7
  6
CONTINUOUS
 90
6
 70
0
 10
141.8411481975
 20
123.4387201667
 10
141.6874178317
 20
123.5515196507
 10
141.4462926513
 20
123.7233267425
 10
141.180250587
 20
123.902407628
 10
140.8930389553
 20
124.0809712171
 10
140.588560583
 20
124.2518231806
  0
LWPOLYLINE
  5
529
100
AcDbEntity
  8
RUNDUNGEN
100
AcDbPolyline
 62
7
  6
CONTINUOUS
 90
9
 70
0
 10
126.1385460602
 20
134.0007046759
 10
125.0491734039
 20
134.8403217613
 10
123.7526100227
 20
135.7458310822
 10
122.3929985593
 20
136.592591506
 10
120.9731613712
 20
137.3715781217
 10
119.4964195177
 20
138.0744205126
 10
117.9668099146
 20
138.6932612766
 10
116.3886849908
 20
139.2209027975
 10
114.9648087414
 20
139.6041959973
  0
LINE
  5
52A
100
AcDbEntity
  8
0
100
AcDbLine
 62
7
  6
CONTINUOUS
 10
140.4903271369
 20
107.0851665176
 11
140.4903271369
 21
106.5851665176
  0
LINE
  5
52B
100
AcDbEntity
  8
0
100
AcDbLine
 62
7
  6
CONTINUOUS
 10
140.6030408171
 20
107.0851665176
 11
140.6030408171
 21
106.5851665176
  0
LINE
  5
52C
100
AcDbEntity
  8
0
100
AcDbLine
 62
7
  6
CONTINUOUS
 10
140.6200836393
 20
107.0851665176
 11
140.6200836393
 21
106.5851665176
  0
LWPOLYLINE
  5
52D
100
AcDbEntity
  8
RUNDUNGEN
100
AcDbPolyline
 62
7
  6
CONTINUOUS
 90
8
 70
0
 10
145.7666864329
 20
122.3261347785
 10
145.516249696
 20
122.5465483905
 10
145.247929297
 20
122.7301065752
 10
144.9638321321
 20
122.8764753323
 10
144.6676468373
 20
122.9846387694
 10
144.3618304696
 20
123.0541295496
 10
144.049027523
 20
123.0840171194
 10
143.9767448342
 20
123.0851747058
  0
LINE
  5
52E
100
AcDbEntity
  8
RUNDUNGEN
100
AcDbLine
 62
7
  6
CONTINUOUS
 10
146.6618311042
 20
110.0109896438
 11
146.6618311061
 21
120.1590457843
  0
LWPOLYLINE
  5
52F
100
AcDbEntity
  8
RUNDUNGEN
100
AcDbPolyline
 62
7
  6
CONTINUOUS
 90
6
 70
0
 10
146.3073926538
 20
108.5741379374
 10
146.3622520844
 20
108.6809941138
 10
146.4981916367
 20
109.010185252
 10
146.5955527477
 20
109.3641816442
 10
146.6503166522
 20
109.7380379138
 10
146.6618154042
 20
110.0110066429
  0
LINE
  5
530
100
AcDbEntity
  8
RUNDUNGEN
100
AcDbLine
 62
7
  6
CONTINUOUS
 10
146.305806776
 20
108.5712071819
 11
146.3073926538
 21
108.5741379374
  0
LWPOLYLINE
  5
531
100
AcDbEntity
  8
RUNDUNGEN
100
AcDbPolyline
 62
7
  6
CONTINUOUS
 90
4
 70
0
 10
146.3059213416
 20
121.5989921466
 10
146.2035439677
 20
121.7750835302
 10
145.9963220494
 20
122.0694021508
 10
145.7666864329
 20
122.3261347785
  0
LINE
  5
532
100
AcDbEntity
  8
RUNDUNGEN
100
AcDbLine
 62
7
  6
CONTINUOUS
 10
146.3070407968
 20
121.5968800199
 11
146.3059027653
 21
121.5989819845
  0
LWPOLYLINE
  5
533
100
AcDbEntity
  8
RUNDUNGEN
100
AcDbPolyline
 62
7
  6
CONTINUOUS
 90
7
 70
0
 10
146.6618197617
 20
120.1596437826
 10
146.6481327223
 20
120.4568178646
 10
146.6065490319
 20
120.7512164682
 10
146.5387488568
 20
121.0324688179
 10
146.4461965245
 20
121.3000109242
 10
146.3301629143
 20
121.5532101643
 10
146.3070407968
 20
121.5968800199
  0
ARC
  5
534
100
AcDbEntity
  8
RUNDUNGEN
100
AcDbCircle
 62
7
  6
CONTINUOUS
 10
82.0571848756
 20
197.1664351844
 40
4.0
100
AcDbArc
 50
15.4786381654
 51
69.8794234429
  0
ARC
  5
535
100
AcDbEntity
  8
RUNDUNGEN
100
AcDbCircle
 62
7
  6
CONTINUOUS
 10
84.4592218777
 20
203.7414142565
 40
3.0
100
AcDbArc
 50
202.5000000028
 51
250.000929556
  0
ARC
  5
536
100
AcDbEntity
  8
B-ACHSEN
100
AcDbCircle
 62
7
  6
CONTINUOUS
 10
98.6164767969
 20
188.4542754499
 40
2.0
100
AcDbArc
 50
343.4282003014
 51
90.0
  0
ARC
  5
537
100
AcDbEntity
  8
RUNDUNGEN
100
AcDbCircle
 62
7
  6
CONTINUOUS
 10
84.9574205579
 20
252.0633316889
 40
3.5
100
AcDbArc
 50
112.5
 51
157.5
  0
ARC
  5
538
100
AcDbEntity
  8
RUNDUNGEN
100
AcDbCircle
 62
7
  6
CONTINUOUS
 10
74.9711224877
 20
227.9542754499
 40
3.5
100
AcDbArc
 50
157.5
 51
202.4999999989
  0
ARC
  5
539
100
AcDbEntity
  8
RUNDUNGEN
100
AcDbCircle
 62
7
  6
CONTINUOUS
 10
136.0757687182
 20
197.1664351844
 40
4.0
100
AcDbArc
 50
110.0178612701
 51
164.5213618346
  0
ARC
  5
53A
100
AcDbEntity
  8
RUNDUNGEN
100
AcDbCircle
 62
7
  6
CONTINUOUS
 10
133.673728023
 20
203.7414053406
 40
3.0
100
AcDbArc
 50
290.068826142
 51
337.4999999987
  0
ARC
  5
53B
100
AcDbEntity
  8
B-ACHSEN
100
AcDbCircle
 62
7
  6
CONTINUOUS
 10
119.5164767969
 20
188.4542754499
 40
2.0
100
AcDbArc
 50
90.0
 51
196.5717996986
  0
ARC
  5
53C
100
AcDbEntity
  8
RUNDUNGEN
100
AcDbCircle
 62
7
  6
CONTINUOUS
 10
109.0664767969
 20
227.9542754499
 40
20.0
100
AcDbArc
 50
268.755933605
 51
271.2478473145
  0
ARC
  5
53D
100
AcDbEntity
  8
0
100
AcDbCircle
 62
7
  6
CONTINUOUS
 10
109.0664767969
 20
227.9542754499
 40
20.0
100
AcDbArc
 50
255.242178171
 51
268.755933605
  0
ARC
  5
53E
100
AcDbEntity
  8
0
100
AcDbCircle
 62
7
  6
CONTINUOUS
 10
109.0664767969
 20
227.9542754499
 40
20.0
100
AcDbArc
 50
195.0864476013
 51
200.8742004228
  0
ARC
  5
53F
100
AcDbEntity
  8
0
100
AcDbCircle
 62
7
  6
CONTINUOUS
 10
109.0664767969
 20
227.9542754499
 40
20.0
100
AcDbArc
 50
339.1257002634
 51
344.9135523987
  0
ARC
  5
540
100
AcDbEntity
  8
0
100
AcDbCircle
 62
7
  6
CONTINUOUS
 10
109.0664767969
 20
227.9542754499
 40
20.0
100
AcDbArc
 50
271.2478473145
 51
284.7586466814
  0
ARC
  5
541
100
AcDbEntity
  8
RUNDUNGEN
100
AcDbCircle
 62
7
  6
CONTINUOUS
 10
109.0664767969
 20
227.9542754499
 40
20.0
100
AcDbArc
 50
344.9135523987
 51
195.0864476013
  0
ARC
  5
542
100
AcDbEntity
  8
0
100
AcDbCircle
 62
7
  6
CONTINUOUS
 10
109.0664767969
 20
227.9542754499
 40
20.0
100
AcDbArc
 50
348.912510789
 51
191.087489211
  0
ARC
  5
543
100
AcDbEntity
  8
RUNDUNGEN
100
AcDbCircle
 62
7
  6
CONTINUOUS
 10
109.0664767969
 20
262.0496297591
 40
3.5
100
AcDbArc
 50
67.5
 51
112.5
  0
ARC
  5
544
100
AcDbEntity
  8
RUNDUNGEN
100
AcDbCircle
 62
7
  6
CONTINUOUS
 10
143.1618311061
 20
227.9542754499
 40
3.5
100
AcDbArc
 50
337.5000000025
 51
22.5
  0
ARC
  5
545
100
AcDbEntity
  8
RUNDUNGEN
100
AcDbCircle
 62
7
  6
CONTINUOUS
 10
133.1755330359
 20
252.0633316889
 40
3.5
100
AcDbArc
 50
22.5
 51
67.5
  0
ARC
  5
546
100
AcDbEntity
  8
RUNDUNGEN
100
AcDbCircle
 62
7
  6
CONTINUOUS
 10
269.9054225717
 20
222.9542754499
 40
15.0
100
AcDbArc
 50
271.4365335431
 51
0.0003596269
  0
ARC
  5
547
100
AcDbEntity
  8
0
100
AcDbCircle
 62
7
  6
CONTINUOUS
 10
269.9054225717
 20
222.9542754499
 40
15.0
100
AcDbArc
 50
348.6286772466
 51
354.3152695564
  0
ARC
  5
548
100
AcDbEntity
  8
0
100
AcDbCircle
 62
7
  6
CONTINUOUS
 10
269.9054225717
 20
222.9542754499
 40
15.0
100
AcDbArc
 50
289.6525649181
 51
292.488102958
  0
ARC
  5
549
100
AcDbEntity
  8
0
100
AcDbCircle
 62
7
  6
CONTINUOUS
 10
269.9054225717
 20
222.9542754499
 40
15.0
100
AcDbArc
 50
271.4365335431
 51
288.7577929595
  0
ARC
  5
54A
100
AcDbEntity
  8
0
100
AcDbCircle
 62
7
  6
CONTINUOUS
 10
269.9054225717
 20
222.9542754499
 40
15.0
100
AcDbArc
 50
304.9995786194
 51
336.0770460906
  0
ARC
  5
54B
100
AcDbEntity
  8
RUNDUNGEN
100
AcDbCircle
 62
7
  6
CONTINUOUS
 10
270.3441408065
 20
205.4597755625
 40
2.5
100
AcDbArc
 50
91.4365335431
 51
195.4786381654
  0
ARC
  5
54C
100
AcDbEntity
  8
B-ACHSEN
100
AcDbCircle
 62
7
  6
CONTINUOUS
 10
282.4554225717
 20
188.4542754499
 40
2.0
100
AcDbArc
 50
343.4282003014
 51
90.0
  0
ARC
  5
54D
100
AcDbEntity
  8
RUNDUNGEN
100
AcDbCircle
 62
8
  6
HIDDEN
 10
290.9054225717
 20
253.9542754499
 40
6.0
100
AcDbArc
 50
194.4745979776
 51
270.0
  0
ARC
  5
54E
100
AcDbEntity
  8
RUNDUNGEN
100
AcDbCircle
 62
7
  6
CONTINUOUS
 10
288.4054225717
 20
262.0496297591
 40
3.5
100
AcDbArc
 50
90.0
 51
180.0
  0
ARC
  5
54F
100
AcDbEntity
  8
RUNDUNGEN
100
AcDbCircle
 62
7
  6
CONTINUOUS
 10
315.9054225717
 20
222.9542754499
 40
15.0
100
AcDbArc
 50
179.9995363915
 51
268.5634664569
  0
ARC
  5
550
100
AcDbEntity
  8
0
100
AcDbCircle
 62
7
  6
CONTINUOUS
 10
315.9054225717
 20
222.9542754499
 40
15.0
100
AcDbArc
 50
247.511897042
 51
250.3474350819
  0
ARC
  5
551
100
AcDbEntity
  8
0
100
AcDbCircle
 62
7
  6
CONTINUOUS
 10
315.9054225717
 20
222.9542754499
 40
15.0
100
AcDbArc
 50
185.685128213
 51
191.3721633304
  0
ARC
  5
552
100
AcDbEntity
  8
0
100
AcDbCircle
 62
7
  6
CONTINUOUS
 10
315.9054225717
 20
222.9542754499
 40
15.0
100
AcDbArc
 50
203.9229537329
 51
235.0004213806
  0
ARC
  5
553
100
AcDbEntity
  8
0
100
AcDbCircle
 62
7
  6
CONTINUOUS
 10
315.9054225717
 20
222.9542754499
 40
15.0
100
AcDbArc
 50
251.2504514471
 51
268.5634664025
  0
ARC
  5
554
100
AcDbEntity
  8
RUNDUNGEN
100
AcDbCircle
 62
7
  6
CONTINUOUS
 10
315.4667043369
 20
205.4597755625
 40
2.5
100
AcDbArc
 50
344.5213618346
 51
88.5634664569
  0
ARC
  5
555
100
AcDbEntity
  8
B-ACHSEN
100
AcDbCircle
 62
7
  6
CONTINUOUS
 10
303.3554225717
 20
188.4542754499
 40
2.0
100
AcDbArc
 50
90.0
 51
196.5717996986
  0
ARC
  5
556
100
AcDbEntity
  8
RUNDUNGEN
100
AcDbCircle
 62
8
  6
HIDDEN
 10
294.9054225717
 20
253.9542754499
 40
6.0
100
AcDbArc
 50
270.0
 51
360.0
  0
ARC
  5
557
100
AcDbEntity
  8
RUNDUNGEN
100
AcDbCircle
 62
7
  6
CONTINUOUS
 10
297.4054225717
 20
262.0496297591
 40
3.5
100
AcDbArc
 50
0.0
 51
90.0
  0
ARC
  5
558
100
AcDbEntity
  8
0
100
AcDbCircle
 62
7
  6
CONTINUOUS
 10
109.0664767969
 20
115.0851665176
 40
18.85
100
AcDbArc
 50
205.1040253855
 51
334.894356101
  0
ARC
  5
559
100
AcDbEntity
  8
0
100
AcDbCircle
 62
7
  6
CONTINUOUS
 10
109.0664767969
 20
115.0851665176
 40
18.85
100
AcDbArc
 50
25.1040505836
 51
154.8927502065
  0
ARC
  5
55A
100
AcDbEntity
  8
B-ACHSEN
100
AcDbCircle
 62
7
  6
CONTINUOUS
 10
109.0664767969
 20
115.0851665176
 40
18.75
100
AcDbArc
 50
205.2652950467
 51
334.7347049533
  0
ARC
  5
55B
100
AcDbEntity
  8
B-ACHSEN
100
AcDbCircle
 62
7
  6
CONTINUOUS
 10
109.0664767969
 20
115.0851665176
 40
18.75
100
AcDbArc
 50
25.2652950467
 51
154.7347049533
  0
SPLINE
  5
55C
100
AcDbEntity
  8
0
100
AcDbSpline
 62
7
  6
CONTINUOUS
 70
0
 71
3
 72
9
 73
5
 74
0
 42
0.0000001
 43
0.0000001
 44
0.0000000001
 40
0.0
 40
0.0
 40
0.0
 40
0.0
 40
0.4832048093
 40
1.0
 40
1.0
 40
1.0
 40
1.0
 10
121.2344356032
 20
210.6667932937
 30
0.0
 10
120.558321845
 20
210.266681307
 30
0.0
 10
119.0509593462
 20
209.6186384609
 30
0.0
 10
117.4637932588
 20
209.2448448014
 30
0.0
 10
116.6370580892
 20
209.0947645157
 30
0.0
  0
SPLINE
  5
55D
100
AcDbEntity
  8
0
100
AcDbSpline
 62
7
  6
CONTINUOUS
 70
0
 71
3
 72
9
 73
5
 74
0
 42
0.0000001
 43
0.0000001
 44
0.0000000001
 40
0.0
 40
0.0
 40
0.0
 40
0.0
 40
0.5167933844
 40
1.0
 40
1.0
 40
1.0
 40
1.0
 10
101.4951996885
 20
209.0948908405
 30
0.0
 10
100.6685456965
 20
209.2449821863
 30
0.0
 10
99.0815330773
 20
209.6187956881
 30
0.0
 10
97.5743286405
 20
210.2668338416
 30
0.0
 10
96.8982844379
 20
210.6669315106
 30
0.0
  0
SPLINE
  5
55E
100
AcDbEntity
  8
0
100
AcDbSpline
 62
7
  6
CONTINUOUS
 70
0
 71
3
 72
9
 73
5
 74
0
 42
0.0000001
 43
0.0000001
 44
0.0000000001
 40
0.0
 40
0.0
 40
0.0
 40
0.0
 40
0.5061892288
 40
1.0
 40
1.0
 40
1.0
 40
1.0
 10
103.9717350508
 20
208.6140651991
 30
0.0
 10
103.5600447489
 20
208.7225143087
 30
0.0
 10
102.7332707221
 20
208.8831195705
 30
0.0
 10
101.9038364844
 20
209.0206969735
 30
0.0
 10
101.4951937056
 20
209.094892161
 30
0.0
  0
SPLINE
  5
55F
100
AcDbEntity
  8
0
100
AcDbSpline
 62
7
  6
CONTINUOUS
 70
0
 71
3
 72
20
 73
16
 74
0
 42
0.0000001
 43
0.0000001
 44
0.0000000001
 40
0.0
 40
0.0
 40
0.0
 40
0.0
 40
0.1382077099
 40
0.2720631396
 40
0.4026590489
 40
0.5309010325
 40
0.6574928356
 40
0.720240709
 40
0.7824435373
 40
0.8436740805
 40
0.9029243715
 40
0.9311231835
 40
0.9576174548
 40
0.9812797273
 40
1.0
 40
1.0
 40
1.0
 40
1.0
 10
96.8982827282
 20
210.6669323859
 30
0.0
 10
96.4062181055
 20
210.9581469486
 30
0.0
 10
95.4817027989
 20
211.6093593236
 30
0.0
 10
94.2689135693
 20
212.7583031866
 30
0.0
 10
93.2389669851
 20
214.019968204
 30
0.0
 10
92.3784820827
 20
215.3662352232
 30
0.0
 10
91.791243209
 20
216.5442387006
 30
0.0
 10
91.3945201405
 20
217.5066069855
 30
0.0
 10
91.1323221036
 20
218.2311142294
 30
0.0
 10
90.9029130441
 20
218.9514051033
 30
0.0
 10
90.7353060258
 20
219.5433201196
 30
0.0
 10
90.6137180459
 20
219.9987518571
 30
0.0
 10
90.5314633548
 20
220.3123469948
 30
0.0
 10
90.4568606697
 20
220.587245194
 30
0.0
 10
90.4067724444
 20
220.7555653438
 30
0.0
 10
90.3791764171
 20
220.8279299472
 30
0.0
  0
SPLINE
  5
560
100
AcDbEntity
  8
0
100
AcDbSpline
 62
7
  6
CONTINUOUS
 70
0
 71
3
 72
20
 73
16
 74
0
 42
0.0000001
 43
0.0000001
 44
0.0000000001
 40
0.0
 40
0.0
 40
0.0
 40
0.0
 40
0.018721265
 40
0.042383754
 40
0.0688776247
 40
0.0970766256
 40
0.1563271187
 40
0.2175582637
 40
0.2797622206
 40
0.3425117273
 40
0.46910599
 40
0.5973478772
 40
0.7279421715
 40
0.8617943958
 40
1.0
 40
1.0
 40
1.0
 40
1.0
 10
127.7537648214
 20
220.8278975482
 30
0.0
 10
127.7261666465
 20
220.75552769
 30
0.0
 10
127.676075726
 20
220.5871994312
 30
0.0
 10
127.6014660976
 20
220.3122936807
 30
0.0
 10
127.5192048007
 20
219.9986934589
 30
0.0
 10
127.397609543
 20
219.5432538182
 30
0.0
 10
127.2299918424
 20
218.9513246149
 30
0.0
 10
127.000572512
 20
218.2310126005
 30
0.0
 10
126.7383661417
 20
217.5064770543
 30
0.0
 10
126.3416394111
 20
216.5440642938
 30
0.0
 10
125.7543988119
 20
215.3660125722
 30
0.0
 10
124.8938777007
 20
214.0197247504
 30
0.0
 10
123.863886729
 20
212.7580788327
 30
0.0
 10
122.6510526606
 20
211.6091742444
 30
0.0
 10
121.7265129948
 20
210.9579957363
 30
0.0
 10
121.2344373312
 20
210.6667941784
 30
0.0
  0
SPLINE
  5
561
100
AcDbEntity
  8
0
100
AcDbSpline
 62
7
  6
CONTINUOUS
 70
0
 71
3
 72
9
 73
5
 74
0
 42
0.0000001
 43
0.0000001
 44
0.0000000001
 40
0.0
 40
0.0
 40
0.0
 40
0.0
 40
0.4938129623
 40
1.0
 40
1.0
 40
1.0
 40
1.0
 10
116.6370640832
 20
209.0947658386
 30
0.0
 10
116.228577817
 20
209.0206118155
 30
0.0
 10
115.3994678483
 20
208.8830989858
 30
0.0
 10
114.5730195419
 20
208.7225499451
 30
0.0
 10
114.1614943451
 20
208.6141379924
 30
0.0
  0
SPLINE
  5
562
100
AcDbEntity
  8
RUNDUNGEN
100
AcDbSpline
 62
7
  6
CONTINUOUS
 70
0
 71
3
 72
15
 73
11
 74
0
 42
0.0000001
 43
0.0000001
 44
0.0000000001
 40
0.0
 40
0.0
 40
0.0
 40
0.0
 40
0.0257540976
 40
0.0495215918
 40
0.0818772856
 40
0.1723868128
 40
0.295109115
 40
0.4451462831
 40
0.616703073
 40
1.0
 40
1.0
 40
1.0
 40
1.0
 10
285.0416868633
 20
258.9542754499
 30
0.0
 10
285.0579917766
 20
258.9542754499
 30
0.0
 10
285.0791305346
 20
258.9185619738
 30
0.0
 10
285.0864586754
 20
258.8702874347
 30
0.0
 10
285.09212901
 20
258.7759295506
 30
0.0
 10
285.0787791074
 20
258.6215936356
 30
0.0
 10
285.0465434931
 20
258.3935091723
 30
0.0
 10
285.0010186804
 20
258.1160195022
 30
0.0
 10
284.9352815478
 20
257.6746824757
 30
0.0
 10
284.9054225717
 20
257.3233896161
 30
0.0
 10
284.9054225717
 20
257.0807244192
 30
0.0
  0
SPLINE
  5
563
100
AcDbEntity
  8
RUNDUNGEN
100
AcDbSpline
 62
7
  6
CONTINUOUS
 70
0
 71
3
 72
18
 73
14
 74
0
 42
0.0000001
 43
0.0000001
 44
0.0000000001
 40
0.0
 40
0.0
 40
0.0
 40
0.0
 40
0.1864458853
 40
0.36643688
 40
0.5332916471
 40
0.6815072472
 40
0.8063783449
 40
0.8587846883
 40
0.9038159316
 40
0.9409564624
 40
0.9696687486
 40
0.9894723299
 40
1.0
 40
1.0
 40
1.0
 40
1.0
 10
99.0664767969
 20
122.948902226
 30
0.0
 10
98.9419221067
 20
122.935198168
 30
0.0
 10
98.696643371
 20
122.9121516044
 30
0.0
 10
98.3383031017
 20
122.8976307939
 30
0.0
 10
98.0054038665
 20
122.9065627351
 30
0.0
 10
97.7109931682
 20
122.9368085463
 30
0.0
 10
97.4954366533
 20
122.9752335226
 30
0.0
 10
97.3498549607
 20
123.0088912081
 30
0.0
 10
97.2623318218
 20
123.0318041833
 30
0.0
 10
97.1906753519
 20
123.0521254889
 30
0.0
 10
97.135483246
 20
123.0688988031
 30
0.0
 10
97.0974770774
 20
123.0794398743
 30
0.0
 10
97.0775535582
 20
123.0851665176
 30
0.0
 10
97.070478135
 20
123.0851665176
 30
0.0
  0
SPLINE
  5
564
100
AcDbEntity
  8
RUNDUNGEN
100
AcDbSpline
 62
7
  6
CONTINUOUS
 70
0
 71
3
 72
18
 73
14
 74
0
 42
0.0000001
 43
0.0000001
 44
0.0000000001
 40
0.0
 40
0.0
 40
0.0
 40
0.0
 40
0.010530293
 40
0.0303396173
 40
0.0590581815
 40
0.096208786
 40
0.1412507155
 40
0.1936658844
 40
0.3185467097
 40
0.4667719289
 40
0.6335974975
 40
0.8135575116
 40
1.0
 40
1.0
 40
1.0
 40
1.0
 10
121.0624754588
 20
123.0851665176
 30
0.0
 10
121.0553982716
 20
123.0851665176
 30
0.0
 10
121.0354697824
 20
123.0794353697
 30
0.0
 10
120.9974544483
 20
123.0688915323
 30
0.0
 10
120.9422470062
 20
123.0521172056
 30
0.0
 10
120.8705724661
 20
123.0317932503
 30
0.0
 10
120.7830305317
 20
123.0088733114
 30
0.0
 10
120.637428641
 20
122.9752160464
 30
0.0
 10
120.4218541969
 20
122.9367794898
 30
0.0
 10
120.1274456379
 20
122.9065832141
 30
0.0
 10
119.794582323
 20
122.8976018894
 30
0.0
 10
119.4362852267
 20
122.9121654144
 30
0.0
 10
119.1910292406
 20
122.9351984151
 30
0.0
 10
119.0664767969
 20
122.948902226
 30
0.0
  0
ELLIPSE
  5
565
100
AcDbEntity
  8
RUNDUNGEN
100
AcDbEllipse
 62
7
  6
CONTINUOUS
 10
116.5393231506
 20
119.5851665176
 30
0.0
 11
9.1459407541
 21
-0.0
 31
0.0
 40
0.3826834324
 41
1.2908394156
 42
1.5707963268
  0
ELLIPSE
  5
566
100
AcDbEntity
  8
RUNDUNGEN
100
AcDbEllipse
 62
7
  6
CONTINUOUS
 10
101.5936304433
 20
119.5851665176
 30
0.0
 11
9.1459407541
 21
0.0
 31
0.0
 40
0.3826834324
 41
1.5707963268
 42
1.850753238
  0
ENDSEC
  0
SECTION
  2
OBJECTS
  0
DICTIONARY
  5
C
100
AcDbDictionary
280
0
281
1
  3
ACAD_GROUP
350
D
  3
ACAD_MLINESTYLE
350
17
  3
ACAD_LAYOUT
350
1A
  3
ACAD_PLOTSETTINGS
350
19
  3
ACAD_PLOTSTYLENAME
350
E
  0
DICTIONARY
  5
D
102
{ACAD_REACTORS
330
C
102
}
100
AcDbDictionary
280
0
281
1
  0
ACDBDICTIONARYWDFLT
  5
E
102
{ACAD_REACTORS
330
C
102
}
100
AcDbDictionary
281
1
  3
Normal
350
F
100
AcDbDictionaryWithDefault
340
F
  0
DICTIONARY
  5
17
102
{ACAD_REACTORS
330
C
102
}
100
AcDbDictionary
280
0
281
1
  3
Standard
350
18
  0
DICTIONARY
  5
19
102
{ACAD_REACTORS
330
C
102
}
100
AcDbDictionary
281
1
  0
DICTIONARY
  5
1A
102
{ACAD_REACTORS
330
C
102
}
100
AcDbDictionary
281
1
  3
Model
350
567
  3
Layout1
350
568
  0
ACDBPLACEHOLDER
  5
F
102
{ACAD_REACTORS
330
E
102
}
  0
MLINESTYLE
  5
18
102
{ACAD_REACTORS
330
17
102
}
100
AcDbMlineStyle
  2
STANDARD
 70
0
  3

 62
256
 51
90.0
 52
90.0
 71
2
 49
0.5
 62
256
  6
BYLAYER
 49
-0.5
 62
256
  6
BYLAYER
  0
LAYOUT
  5
567
102
{ACAD_REACTORS
330
1A
102
}
100
AcDbPlotSettings
  1

  2
none_device
  4
ISO_A3_(420.00_x_297.00_MM)
  6

 40
0.0
 41
0.0
 42
0.0
 43
0.0
 44
420.0
 45
297.0
 46
0.0
 47
0.0
 48
0.0
 49
0.0
140
0.0
141
0.0
142
1.0
143
1.0
 70
1024
 72
1
 73
0
 74
0
  7

 75
0
147
1.0
148
0.0
149
0.0
100
AcDbLayout
  1
Model
 70
0
 71
0
 10
0.0
 20
0.0
 11
420.0
 21
297.0
 12
0.0
 22
0.0
 32
0.0
 14
0.0
 24
0.0
 34
0.0
 15
0.0
 25
0.0
 35
0.0
146
0.0
 13
0.0
 23
0.0
 33
0.0
 16
1.0
 26
0.0
 36
0.0
 17
0.0
 27
1.0
 37
0.0
 76
0
330
20D
345
0
346
0
  0
LAYOUT
  5
568
102
{ACAD_REACTORS
330
1A
102
}
100
AcDbPlotSettings
  1

  2
none_device
  4
ISO_A3_(420.00_x_297.00_MM)
  6

 40
0.0
 41
0.0
 42
0.0
 43
0.0
 44
420.0
 45
297.0
 46
0.0
 47
0.0
 48
0.0
 49
0.0
140
0.0
141
0.0
142
1.0
143
1.0
 70
0
 72
1
 73
0
 74
0
  7

 75
0
147
1.0
148
0.0
149
0.0
100
AcDbLayout
  1
Layout1
 70
0
 71
1
 10
0.0
 20
0.0
 11
420.0
 21
297.0
 12
0.0
 22
0.0
 32
0.0
 14
0.0
 24
0.0
 34
0.0
 15
0.0
 25
0.0
 35
0.0
146
0.0
 13
0.0
 23
0.0
 33
0.0
 16
1.0
 26
0.0
 36
0.0
 17
0.0
 27
1.0
 37
0.0
 76
0
330
20E
345
0
346
0
  0
ENDSEC
  0
EOF
