999
DXF file: 001-m33369-dxf.dxf
999
Pro/ENGINEER 2011490 by Parametric Technology Corporation
  0
SECTION
  2
HEADER
  9
$ACADVER
  1
AC1021
  9
$DWGCODEPAGE
  3
ANSI_1252
  9
$EXTMAX
 10
420.0
 20
297.0
 30
0.0
  9
$EXTMIN
 10
0.0
 20
0.0
 30
0.0
  9
$LIMMIN
 10
0.0
 20
0.0
  9
$LIMMAX
 10
420.0
 20
297.0
  9
$VIEWCTR
 10
210.0
 20
148.5
  9
$VIEWSIZE
 40
297.0
  9
$CLAYER
  8
0
  9
$LTSCALE
 40
23.1
  9
$CELTYPE
  6
BYLAYER
  9
$DIMSCALE
 40
1.0
  9
$DIMASZ
 40
3.5
  9
$DIMEXO
 40
2.625
  9
$DIMDLI
 40
15.96
  9
$DIMEXE
 40
7.56
  9
$DIMCEN
 40
3.78
  9
$DIMLFAC
 40
1.0
  9
$DIMBLK
  1
_FILLED
  9
$DIMTXT
 40
3.5
  9
$DIMTOL
 70
1
  9
$DIMLIM
 70
0
  9
$DIMTFAC
 40
1.0
  9
$DIMTP
 40
0.005
  9
$DIMTM
 40
0.005
  9
$PDMODE
 70
3
  9
$PDSIZE
 40
0.3125
  9
$HANDSEED
  5
566
  9
$TILEMODE
 70
1
  9
$MEASUREMENT
 70
1
  9
$INSUNITS
 70
4
  0
ENDSEC
  0
SECTION
  2
CLASSES
  0
CLASS
  1
ACDBDICTIONARYWDFLT
  2
AcDbDictionaryWithDefault
  3
AutoCAD 2000
 90
0
 91
1
280
0
281
0
  0
CLASS
  1
ACDBPLACEHOLDER
  2
AcDbPlaceHolder
  3
AutoCAD 2000
 90
0
 91
1
280
0
281
0
  0
CLASS
  1
LAYOUT
  2
AcDbLayout
  3
AutoCAD 2000
 90
0
 91
0
280
0
281
0
  0
ENDSEC
  0
SECTION
  2
TABLES
  0
TABLE
  2
VPORT
  5
8
100
AcDbSymbolTable
 70
2
  0
VPORT
  5
1F4
100
AcDbSymbolTableRecord
100
AcDbViewportTableRecord
  2
*ACTIVE
 70
0
 10
0.0
 20
0.0
 11
1.0
 21
1.0
 12
210.0
 22
148.5
 13
0.0
 23
0.0
 14
1.0
 24
1.0
 15
0.0
 25
0.0
 16
0.0
 26
0.0
 36
1.0
 17
0.0
 27
0.0
 37
0.0
 40
297.0
 41
1.4141414141
 42
50.0
 43
0.0
 44
0.0
 50
0.0
 51
0.0
 71
0
 72
100
 73
1
 74
1
 75
0
 76
0
 77
0
 78
0
  0
ENDTAB
  0
TABLE
  2
LTYPE
  5
5
100
AcDbSymbolTable
 70
6
  0
LTYPE
  5
14
100
AcDbSymbolTableRecord
100
AcDbLinetypeTableRecord
  2
BYBLOCK
 70
0
  3

 72
65
 73
0
 40
0.0
  0
LTYPE
  5
15
100
AcDbSymbolTableRecord
100
AcDbLinetypeTableRecord
  2
BYLAYER
 70
0
  3

 72
65
 73
0
 40
0.0
  0
LTYPE
  5
16
100
AcDbSymbolTableRecord
100
AcDbLinetypeTableRecord
  2
CONTINUOUS
 70
64
  3
Solid line
 72
65
 73
0
 40
0.0
  0
LTYPE
  5
1F5
100
AcDbSymbolTableRecord
100
AcDbLinetypeTableRecord
  2
CENTER
 70
64
  3
____ _ ____ _ ____ _ ____ _ ____ _ ____ _ ____
 72
65
 73
4
 40
0.6
 49
0.375
 74
0
 49
-0.075
 74
0
 49
0.075
 74
0
 49
-0.075
 74
0
  0
LTYPE
  5
1F6
100
AcDbSymbolTableRecord
100
AcDbLinetypeTableRecord
  2
HIDDEN
 70
64
  3
- - - - - - - - - - - - - - - - - - - -
 72
65
 73
2
 40
0.2
 49
0.1
 74
0
 49
-0.1
 74
0
  0
LTYPE
  5
1F7
100
AcDbSymbolTableRecord
100
AcDbLinetypeTableRecord
  2
PHANTOM
 70
64
  3
_____ _ _ _____ _ _ _____ _ _ _____
 72
65
 73
6
 40
0.8
 49
0.45
 74
0
 49
-0.05
 74
0
 49
0.1
 74
0
 49
-0.05
 74
0
 49
0.1
 74
0
 49
-0.05
 74
0
  0
LTYPE
  5
1F8
100
AcDbSymbolTableRecord
100
AcDbLinetypeTableRecord
  2
DOT
 70
64
  3
. . . . . . . . . . . . . . . . . . . .
 72
65
 73
2
 40
0.2
 49
0.1
 74
0
 49
-0.1
 74
0
  0
LTYPE
  5
1F9
100
AcDbSymbolTableRecord
100
AcDbLinetypeTableRecord
  2
DASHED
 70
64
  3
- - - - - - - - - - - - - - - - - - - -
 72
65
 73
2
 40
0.2
 49
0.1
 74
0
 49
-0.1
 74
0
  0
ENDTAB
  0
TABLE
  2
LAYER
  5
2
100
AcDbSymbolTable
 70
36
  0
LAYER
  5
10
100
AcDbSymbolTableRecord
100
AcDbLayerTableRecord
  2
0
 70
0
 62
7
  6
CONTINUOUS
370
-3
390
F
  0
LAYER
  5
1FA
100
AcDbSymbolTableRecord
100
AcDbLayerTableRecord
  2
DEFAULT_1
 70
0
 62
7
  6
CENTER
370
-3
390
F
  0
LAYER
  5
1FB
100
AcDbSymbolTableRecord
100
AcDbLayerTableRecord
  2
DEFAULT_2
 70
0
 62
8
  6
HIDDEN
370
-3
390
F
  0
LAYER
  5
1FC
100
AcDbSymbolTableRecord
100
AcDbLayerTableRecord
  2
DEFAULT_3
 70
0
 62
7
  6
PHANTOM
370
-3
390
F
  0
LAYER
  5
1FD
100
AcDbSymbolTableRecord
100
AcDbLayerTableRecord
  2
B-ACHSEN
 70
0
 62
7
  6
CONTINUOUS
370
-3
390
F
  0
LAYER
  5
1FE
100
AcDbSymbolTableRecord
100
AcDbLayerTableRecord
  2
B-EBENEN
 70
0
 62
7
  6
CONTINUOUS
370
-3
390
F
  0
LAYER
  5
1FF
100
AcDbSymbolTableRecord
100
AcDbLayerTableRecord
  2
B-KOORSYS
 70
0
 62
7
  6
CONTINUOUS
370
-3
390
F
  0
LAYER
  5
200
100
AcDbSymbolTableRecord
100
AcDbLayerTableRecord
  2
B-KURVEN
 70
0
 62
7
  6
CONTINUOUS
370
-3
390
F
  0
LAYER
  5
201
100
AcDbSymbolTableRecord
100
AcDbLayerTableRecord
  2
BEMASSUNG
 70
0
 62
7
  6
CONTINUOUS
370
-3
390
F
  0
LAYER
  5
202
100
AcDbSymbolTableRecord
100
AcDbLayerTableRecord
  2
BG_STARTBEZUEGE
 70
0
 62
7
  6
CONTINUOUS
370
-3
390
F
  0
LAYER
  5
203
100
AcDbSymbolTableRecord
100
AcDbLayerTableRecord
  2
BOHRUNGEN
 70
0
 62
7
  6
CONTINUOUS
370
-3
390
F
  0
LAYER
  5
204
100
AcDbSymbolTableRecord
100
AcDbLayerTableRecord
  2
HILFEN
 70
0
 62
7
  6
CONTINUOUS
370
-3
390
F
  0
LAYER
  5
205
100
AcDbSymbolTableRecord
100
AcDbLayerTableRecord
  2
KURVENELEMENTE
 70
0
 62
7
  6
CONTINUOUS
370
-3
390
F
  0
LAYER
  5
206
100
AcDbSymbolTableRecord
100
AcDbLayerTableRecord
  2
NOTIZEN
 70
0
 62
7
  6
CONTINUOUS
370
-3
390
F
  0
LAYER
  5
207
100
AcDbSymbolTableRecord
100
AcDbLayerTableRecord
  2
PLATZIERUNG
 70
0
 62
7
  6
CONTINUOUS
370
-3
390
F
  0
LAYER
  5
208
100
AcDbSymbolTableRecord
100
AcDbLayerTableRecord
  2
RUNDUNGEN
 70
0
 62
7
  6
CONTINUOUS
370
-3
390
F
  0
LAYER
  5
209
100
AcDbSymbolTableRecord
100
AcDbLayerTableRecord
  2
VERBUNDFLAECHEN
 70
0
 62
7
  6
CONTINUOUS
370
-3
390
F
  0
LAYER
  5
20A
100
AcDbSymbolTableRecord
100
AcDbLayerTableRecord
  2
ZEICHNUNGSBEMASSUNGEN
 70
0
 62
7
  6
CONTINUOUS
370
-3
390
F
  0
ENDTAB
  0
TABLE
  2
STYLE
  5
3
100
AcDbSymbolTable
 70
1
  0
STYLE
  5
11
100
AcDbSymbolTableRecord
100
AcDbTextStyleTableRecord
  2
STANDARD
 70
0
 40
0.0
 41
0.7
 50
0.0
 71
0
 42
0.2
  3
txt
  4

  0
STYLE
  5
20B
100
AcDbSymbolTableRecord
100
AcDbTextStyleTableRecord
  2
TEXTSTYLE_1
 70
0
 40
0.0
 41
0.8
 50
0.0
 71
0
 42
0.2
  3
gdt
  4

  0
ENDTAB
  0
TABLE
  2
VIEW
  5
6
100
AcDbSymbolTable
 70
0
  0
ENDTAB
  0
TABLE
  2
UCS
  5
7
100
AcDbSymbolTable
 70
0
  0
ENDTAB
  0
TABLE
  2
APPID
  5
9
100
AcDbSymbolTable
 70
1
  0
APPID
  5
20C
100
AcDbSymbolTableRecord
100
AcDbRegAppTableRecord
  2
ACAD
 70
0
  0
ENDTAB
  0
TABLE
  2
BLOCK_RECORD
  5
1
100
AcDbSymbolTable
 70
0
  0
BLOCK_RECORD
  5
20D
100
AcDbSymbolTableRecord
100
AcDbBlockTableRecord
  2
*Model_Space
  0
BLOCK_RECORD
  5
20E
100
AcDbSymbolTableRecord
100
AcDbBlockTableRecord
  2
*Paper_Space
  0
ENDTAB
  0
TABLE
  2
DIMSTYLE
  5
A
100
AcDbSymbolTable
 70
1
100
AcDbDimStyleTable
 71
0
  0
DIMSTYLE
105
20F
100
AcDbSymbolTableRecord
100
AcDbDimStyleTableRecord
  2
STANDARD
 70
0
  3

  4

 40
1.0
 41
3.5
 42
0.0625
 43
0.38
 44
0.18
 45
0.0
 46
0.0
 47
0.005
 48
0.005
140
3.5
141
0.09
142
0.0
143
25.4
144
1.0
145
0.0
146
1.0
147
0.09
 71
1.0
 72
0.0
 73
0
 74
0
 75
0
 76
0
 77
1
 78
8
170
0
171
2
172
0
173
0
174
0
175
0
176
0
177
0
178
5
270
2
271
3
272
3
273
2
274
2
275
0
280
0
281
0
282
0
283
1
284
8
285
0
286
0
287
3
288
0
340
11
  0
ENDTAB
  0
ENDSEC
  0
SECTION
  2
BLOCKS
  0
BLOCK
  5
20
100
AcDbEntity
  8
0
100
AcDbBlockBegin
  2
*Model_Space
 70
0
 10
0.0
 20
0.0
 30
0.0
  3
*Model_Space
  1

  0
ENDBLK
  5
21
100
AcDbEntity
  8
0
100
AcDbBlockEnd
  0
BLOCK
  5
1C
100
AcDbEntity
  8
0
100
AcDbBlockBegin
  2
*Paper_Space
 70
0
 10
0.0
 20
0.0
 30
0.0
  3
*Paper_Space
  1

  0
ENDBLK
  5
1D
100
AcDbEntity
  8
0
100
AcDbBlockEnd
  0
ENDSEC
  0
SECTION
  2
ENTITIES
  0
MTEXT
  5
210
100
AcDbEntity
  8
0
100
AcDbMText
 62
5
  6
CONTINUOUS
  7
STANDARD
 71
1
 72
1
 10
124.3300957445
 20
117.6603787571
 30
0.0
 11
1.0
 21
0.0
 31
0.0
 44
0.9
  1
RUD
 40
3.5
 41
8.6666666667
  0
MTEXT
  5
211
100
AcDbEntity
  8
0
100
AcDbMText
 62
5
  6
CONTINUOUS
  7
STANDARD
 71
1
 72
1
 10
80.1286377855
 20
110.8794732747
 30
0.0
 11
1.0
 21
0.0
 31
0.0
 44
0.9
  1
PSA-VRS M16
 40
3.5
 41
29.9166666667
  0
MTEXT
  5
212
100
AcDbEntity
  8
0
100
AcDbMText
 62
5
  6
CONTINUOUS
  7
STANDARD
 71
1
 72
1
 10
288.0464364926
 20
195.8471572602
 30
0.0
 11
0.0
 21
1.0
 31
0.0
 44
0.9
  1
RUD
 40
3.5
 41
8.6666666667
  0
MTEXT
  5
213
100
AcDbEntity
  8
0
100
AcDbMText
 62
5
  6
CONTINUOUS
  7
STANDARD
 71
1
 72
1
 10
297.7285076744
 20
194.8173270169
 30
0.0
 11
0.0
 21
1.0
 31
0.0
 44
0.9
  1
PSA-VRS M16
 40
3.5
 41
29.9166666667
  0
LINE
  5
214
100
AcDbEntity
  8
0
100
AcDbLine
 62
7
  6
CONTINUOUS
 10
0.0
 20
0.0
 11
0.0
 21
297.0
  0
LINE
  5
215
100
AcDbEntity
  8
0
100
AcDbLine
 62
7
  6
CONTINUOUS
 10
0.0
 20
0.0
 11
420.0
 21
0.0
  0
LINE
  5
216
100
AcDbEntity
  8
0
100
AcDbLine
 62
7
  6
CONTINUOUS
 10
0.0
 20
297.0
 11
420.0
 21
297.0
  0
LINE
  5
217
100
AcDbEntity
  8
0
100
AcDbLine
 62
7
  6
CONTINUOUS
 10
420.0
 20
0.0
 11
420.0
 21
297.0
  0
LINE
  5
218
100
AcDbEntity
  8
RUNDUNGEN
100
AcDbLine
 62
7
  6
CONTINUOUS
 10
107.6536220409
 20
256.7891673885
 11
87.3714001255
 21
248.3879959961
  0
LINE
  5
219
100
AcDbEntity
  8
B-ACHSEN
100
AcDbLine
 62
7
  6
CONTINUOUS
 10
116.1843557703
 20
168.9102559507
 11
102.1843557703
 21
168.9102559507
  0
LINE
  5
21A
100
AcDbEntity
  8
B-ACHSEN
100
AcDbLine
 62
7
  6
CONTINUOUS
 10
117.1843557703
 20
169.9102559507
 11
101.1843557703
 21
169.9102559507
  0
LINE
  5
21B
100
AcDbEntity
  8
0
100
AcDbLine
 62
7
  6
CONTINUOUS
 10
89.642899607
 20
243.8062986619
 11
89.7602648982
 21
243.9194341081
  0
LINE
  5
21C
100
AcDbEntity
  8
0
100
AcDbLine
 62
7
  6
CONTINUOUS
 10
89.7599729929
 20
244.2454661278
 11
89.4860239411
 21
244.0901621644
  0
LINE
  5
21D
100
AcDbEntity
  8
0
100
AcDbLine
 62
7
  6
CONTINUOUS
 10
89.7602648982
 20
243.9194341081
 11
89.9363858113
 21
244.0076292724
  0
LINE
  5
21E
100
AcDbEntity
  8
B-ACHSEN
100
AcDbLine
 62
7
  6
CONTINUOUS
 10
101.1843557703
 20
169.9102559507
 11
102.1843557703
 21
168.9102559507
  0
LINE
  5
21F
100
AcDbEntity
  8
RUNDUNGEN
100
AcDbLine
 62
7
  6
CONTINUOUS
 10
85.2066157249
 20
246.2232115955
 11
76.488418997
 21
225.1756228154
  0
LINE
  5
220
100
AcDbEntity
  8
0
100
AcDbLine
 62
7
  6
CONTINUOUS
 10
89.4860239411
 20
244.0901621644
 11
89.329585239
 21
243.8849755306
  0
LINE
  5
221
100
AcDbEntity
  8
0
100
AcDbLine
 62
7
  6
CONTINUOUS
 10
90.504405937
 20
243.7122018439
 11
90.3479672349
 21
243.5070152101
  0
LINE
  5
222
100
AcDbEntity
  8
0
100
AcDbLine
 62
7
  6
CONTINUOUS
 10
86.7118327798
 20
237.5545773538
 11
86.5553940776
 21
237.34939072
  0
LINE
  5
223
100
AcDbEntity
  8
0
100
AcDbLine
 62
7
  6
CONTINUOUS
 10
85.8717607045
 20
235.5754915677
 11
85.7153224495
 21
235.3703059873
  0
LINE
  5
224
100
AcDbEntity
  8
0
100
AcDbLine
 62
7
  6
CONTINUOUS
 10
90.6612824972
 20
243.4283404482
 11
90.7786477884
 21
243.5414758944
  0
LINE
  5
225
100
AcDbEntity
  8
0
100
AcDbLine
 62
7
  6
CONTINUOUS
 10
91.6996385682
 20
242.6073566561
 11
91.582273277
 21
242.4942212099
  0
LINE
  5
226
100
AcDbEntity
  8
0
100
AcDbLine
 62
7
  6
CONTINUOUS
 10
86.9274645147
 20
237.2457746228
 11
87.044829806
 21
237.358910069
  0
LINE
  5
227
100
AcDbEntity
  8
0
100
AcDbLine
 62
7
  6
CONTINUOUS
 10
86.0286368175
 20
235.2916291186
 11
86.1460021087
 21
235.4047645648
  0
LINE
  5
228
100
AcDbEntity
  8
0
100
AcDbLine
 62
7
  6
CONTINUOUS
 10
87.632824048
 20
236.6204591514
 11
87.5154587567
 21
236.5073237052
  0
LINE
  5
229
100
AcDbEntity
  8
0
100
AcDbLine
 62
7
  6
CONTINUOUS
 10
90.7783558831
 20
243.8675079141
 11
90.504405937
 21
243.7122018439
  0
LINE
  5
22A
100
AcDbEntity
  8
0
100
AcDbLine
 62
7
  6
CONTINUOUS
 10
91.5825652029
 20
242.1681891815
 11
91.8565151644
 21
242.3234952451
  0
LINE
  5
22B
100
AcDbEntity
  8
0
100
AcDbLine
 62
7
  6
CONTINUOUS
 10
90.7786477884
 20
243.5414758944
 11
90.9547687015
 21
243.6296710588
  0
LINE
  5
22C
100
AcDbEntity
  8
0
100
AcDbLine
 62
7
  6
CONTINUOUS
 10
91.582273277
 20
242.4942212099
 11
91.4061523639
 21
242.4060260455
  0
LINE
  5
22D
100
AcDbEntity
  8
0
100
AcDbLine
 62
7
  6
CONTINUOUS
 10
107.0446930457
 20
249.6208993133
 11
106.8625140457
 21
249.5433763438
  0
LINE
  5
22E
100
AcDbEntity
  8
0
100
AcDbLine
 62
7
  6
CONTINUOUS
 10
109.5951992195
 20
247.9929167913
 11
109.3522937703
 21
247.9153938218
  0
LINE
  5
22F
100
AcDbEntity
  8
0
100
AcDbLine
 62
7
  6
CONTINUOUS
 10
82.3745711891
 20
227.4999892269
 11
82.3551805481
 21
227.2909478866
  0
LINE
  5
230
100
AcDbEntity
  8
0
100
AcDbLine
 62
7
  6
CONTINUOUS
 10
89.329585239
 20
243.8849755306
 11
89.2514393114
 21
243.7008752622
  0
LINE
  5
231
100
AcDbEntity
  8
0
100
AcDbLine
 62
7
  6
CONTINUOUS
 10
88.7825619572
 20
242.5962694381
 11
88.6653421715
 21
242.3201169286
  0
LINE
  5
232
100
AcDbEntity
  8
0
100
AcDbLine
 62
7
  6
CONTINUOUS
 10
88.3918305306
 20
241.6757638823
 11
88.2160015228
 21
241.2615366983
  0
LINE
  5
233
100
AcDbEntity
  8
0
100
AcDbLine
 62
7
  6
CONTINUOUS
 10
87.62990483
 20
239.8807794181
 11
87.4540758222
 21
239.466552234
  0
LINE
  5
234
100
AcDbEntity
  8
0
100
AcDbLine
 62
7
  6
CONTINUOUS
 10
86.5553940776
 20
237.34939072
 11
86.4577114446
 21
237.1192648577
  0
LINE
  5
235
100
AcDbEntity
  8
0
100
AcDbLine
 62
7
  6
CONTINUOUS
 10
85.7153224495
 20
235.3703059873
 11
85.2464450953
 21
234.2657001632
  0
LINE
  5
236
100
AcDbEntity
  8
0
100
AcDbLine
 62
7
  6
CONTINUOUS
 10
85.0901523458
 20
233.8974975195
 11
84.9729330073
 21
233.6213460635
  0
LINE
  5
237
100
AcDbEntity
  8
0
100
AcDbLine
 62
7
  6
CONTINUOUS
 10
84.4259095019
 20
232.3326394442
 11
84.3086901633
 21
232.0564879882
  0
LINE
  5
238
100
AcDbEntity
  8
0
100
AcDbLine
 62
7
  6
CONTINUOUS
 10
83.4100086423
 20
229.9393270008
 11
83.2537161164
 21
229.5711248839
  0
LINE
  5
239
100
AcDbEntity
  8
0
100
AcDbLine
 62
7
  6
CONTINUOUS
 10
82.472253934
 20
227.7301153525
 11
82.3745711891
 21
227.4999892269
  0
LINE
  5
23A
100
AcDbEntity
  8
0
100
AcDbLine
 62
7
  6
CONTINUOUS
 10
81.6517185641
 20
225.7970551603
 11
81.18284121
 21
224.6924493361
  0
LINE
  5
23B
100
AcDbEntity
  8
0
100
AcDbLine
 62
7
  6
CONTINUOUS
 10
81.5938386582
 20
224.843899383
 11
81.9650332116
 21
225.7183789499
  0
LINE
  5
23C
100
AcDbEntity
  8
0
100
AcDbLine
 62
7
  6
CONTINUOUS
 10
85.6574425435
 20
234.4171502101
 11
86.0286368175
 21
235.2916291186
  0
LINE
  5
23D
100
AcDbEntity
  8
0
100
AcDbLine
 62
7
  6
CONTINUOUS
 10
89.5256802684
 20
243.5301472058
 11
89.642899607
 21
243.8062986619
  0
LINE
  5
23E
100
AcDbEntity
  8
0
100
AcDbLine
 62
7
  6
CONTINUOUS
 10
82.7271049207
 20
227.350347536
 11
82.8443242593
 21
227.626498992
  0
LINE
  5
23F
100
AcDbEntity
  8
0
100
AcDbLine
 62
7
  6
CONTINUOUS
 10
86.8102451762
 20
236.9696231668
 11
86.9274645147
 21
237.2457746228
  0
LINE
  5
240
100
AcDbEntity
  8
0
100
AcDbLine
 62
7
  6
CONTINUOUS
 10
83.2553217075
 20
227.7779490389
 11
83.3725410461
 21
228.054100495
  0
LINE
  5
241
100
AcDbEntity
  8
0
100
AcDbLine
 62
7
  6
CONTINUOUS
 10
87.338461963
 20
237.3972246697
 11
87.4556813015
 21
237.6733761258
  0
LINE
  5
242
100
AcDbEntity
  8
0
100
AcDbLine
 62
7
  6
CONTINUOUS
 10
90.1517260881
 20
244.0248596146
 11
90.2494091683
 21
244.2549865303
  0
LINE
  5
243
100
AcDbEntity
  8
0
100
AcDbLine
 62
7
  6
CONTINUOUS
 10
90.3479672349
 20
243.5070152101
 11
90.2502850489
 21
243.2768904013
  0
LINE
  5
244
100
AcDbEntity
  8
0
100
AcDbLine
 62
7
  6
CONTINUOUS
 10
87.7500433865
 20
236.8966106074
 11
87.632824048
 21
236.6204591514
  0
LINE
  5
245
100
AcDbEntity
  8
0
100
AcDbLine
 62
7
  6
CONTINUOUS
 10
86.9099713112
 20
234.9175248214
 11
86.5387770372
 21
234.0430459129
  0
LINE
  5
246
100
AcDbEntity
  8
0
100
AcDbLine
 62
7
  6
CONTINUOUS
 10
83.666903131
 20
227.2773349766
 11
83.5496837925
 21
227.0011835206
  0
LINE
  5
247
100
AcDbEntity
  8
0
100
AcDbLine
 62
7
  6
CONTINUOUS
 10
82.8463677053
 20
225.3442746527
 11
82.4751731519
 21
224.4697950858
  0
LINE
  5
248
100
AcDbEntity
  8
0
100
AcDbLine
 62
7
  6
CONTINUOUS
 10
90.524526006
 20
243.106162345
 11
90.6612824972
 21
243.4283404482
  0
LINE
  5
249
100
AcDbEntity
  8
0
100
AcDbLine
 62
7
  6
CONTINUOUS
 10
88.766674233
 20
238.4748435283
 11
88.4931621449
 21
237.8304894286
  0
LINE
  5
24A
100
AcDbEntity
  8
0
100
AcDbLine
 62
7
  6
CONTINUOUS
 10
85.6212885741
 20
231.0647792825
 11
85.3477767096
 21
230.4204257095
  0
LINE
  5
24B
100
AcDbEntity
  8
0
100
AcDbLine
 62
7
  6
CONTINUOUS
 10
82.8277068835
 20
224.3201533949
 11
83.1793648992
 21
225.148607763
  0
LINE
  5
24C
100
AcDbEntity
  8
0
100
AcDbLine
 62
7
  6
CONTINUOUS
 10
83.9022175241
 20
226.8515418296
 11
84.0194368627
 21
227.1276932857
  0
LINE
  5
24D
100
AcDbEntity
  8
0
100
AcDbLine
 62
7
  6
CONTINUOUS
 10
86.8913107689
 20
233.8934042219
 11
87.223432079
 21
234.6758329962
  0
LINE
  5
24E
100
AcDbEntity
  8
0
100
AcDbLine
 62
7
  6
CONTINUOUS
 10
87.9853577796
 20
236.4708174604
 11
88.1025771181
 21
236.7469689165
  0
LINE
  5
24F
100
AcDbEntity
  8
0
100
AcDbLine
 62
7
  6
CONTINUOUS
 10
85.6415549016
 20
230.2957242654
 11
85.9150667661
 21
230.9400778384
  0
LINE
  5
250
100
AcDbEntity
  8
0
100
AcDbLine
 62
7
  6
CONTINUOUS
 10
88.7869403369
 20
237.7057879846
 11
89.060452425
 21
238.3501420843
  0
LINE
  5
251
100
AcDbEntity
  8
0
100
AcDbLine
 62
7
  6
CONTINUOUS
 10
85.329116026
 20
229.3963045484
 11
84.9774580104
 21
228.5678501803
  0
LINE
  5
252
100
AcDbEntity
  8
0
100
AcDbLine
 62
7
  6
CONTINUOUS
 10
88.2600371241
 20
235.811042393
 11
88.1428177856
 21
235.534890937
  0
LINE
  5
253
100
AcDbEntity
  8
0
100
AcDbLine
 62
7
  6
CONTINUOUS
 10
84.1768969804
 20
226.1917670256
 11
84.0596776419
 21
225.9156155696
  0
LINE
  5
254
100
AcDbEntity
  8
0
100
AcDbLine
 62
7
  6
CONTINUOUS
 10
85.1929437927
 20
228.4220634592
 11
85.5836749957
 21
229.3425684882
  0
LINE
  5
255
100
AcDbEntity
  8
0
100
AcDbLine
 62
7
  6
CONTINUOUS
 10
88.9839115707
 20
236.3728646367
 11
88.8276192683
 21
236.0046630465
  0
LINE
  5
256
100
AcDbEntity
  8
0
100
AcDbLine
 62
7
  6
CONTINUOUS
 10
84.9007713152
 20
226.7535890059
 11
84.7444787893
 21
226.385386889
  0
LINE
  5
257
100
AcDbEntity
  8
0
100
AcDbLine
 62
7
  6
CONTINUOUS
 10
91.8565151644
 20
242.3234952451
 11
92.0129538717
 21
242.5286818767
  0
LINE
  5
258
100
AcDbEntity
  8
0
100
AcDbLine
 62
7
  6
CONTINUOUS
 10
87.9064816415
 20
237.1017961878
 11
87.7500433865
 21
236.8966106074
  0
LINE
  5
259
100
AcDbEntity
  8
0
100
AcDbLine
 62
7
  6
CONTINUOUS
 10
82.6286923008
 20
227.9353011963
 11
82.472253934
 21
227.7301153525
  0
LINE
  5
25A
100
AcDbEntity
  8
0
100
AcDbLine
 62
7
  6
CONTINUOUS
 10
89.0237143338
 20
235.6498347064
 11
89.1801530411
 21
235.8550213381
  0
LINE
  5
25B
100
AcDbEntity
  8
0
100
AcDbLine
 62
7
  6
CONTINUOUS
 10
81.8081569868
 20
226.0022411357
 11
81.6517185641
 21
225.7970551603
  0
LINE
  5
25C
100
AcDbEntity
  8
0
100
AcDbLine
 62
7
  6
CONTINUOUS
 10
83.8233414978
 20
227.4825208204
 11
83.666903131
 21
227.2773349766
  0
LINE
  5
25D
100
AcDbEntity
  8
0
100
AcDbLine
 62
7
  6
CONTINUOUS
 10
88.1025771181
 20
236.7469689165
 11
88.2394791148
 21
236.9061299565
  0
LINE
  5
25E
100
AcDbEntity
  8
0
100
AcDbLine
 62
7
  6
CONTINUOUS
 10
87.8484557829
 20
236.3116564204
 11
87.9853577796
 21
236.4708174604
  0
LINE
  5
25F
100
AcDbEntity
  8
0
100
AcDbLine
 62
7
  6
CONTINUOUS
 10
88.8276192683
 20
236.0046630465
 11
88.6907172716
 21
235.8455020065
  0
LINE
  5
260
100
AcDbEntity
  8
0
100
AcDbLine
 62
7
  6
CONTINUOUS
 10
84.0194368627
 20
227.1276932857
 11
84.1563386358
 21
227.286853799
  0
LINE
  5
261
100
AcDbEntity
  8
0
100
AcDbLine
 62
7
  6
CONTINUOUS
 10
83.7653156392
 20
226.692381053
 11
83.9022175241
 21
226.8515418296
  0
LINE
  5
262
100
AcDbEntity
  8
0
100
AcDbLine
 62
7
  6
CONTINUOUS
 10
82.8443242593
 20
227.626498992
 11
82.9616895505
 21
227.7396344382
  0
LINE
  5
263
100
AcDbEntity
  8
0
100
AcDbLine
 62
7
  6
CONTINUOUS
 10
88.1021392601
 20
237.236016946
 11
87.9064816415
 21
237.1017961878
  0
LINE
  5
264
100
AcDbEntity
  8
0
100
AcDbLine
 62
7
  6
CONTINUOUS
 10
87.6527986114
 20
236.1774367157
 11
87.8484557829
 21
236.3116564204
  0
LINE
  5
265
100
AcDbEntity
  8
0
100
AcDbLine
 62
7
  6
CONTINUOUS
 10
107.1054194949
 20
249.2332844659
 11
107.3483247703
 21
249.3883304049
  0
LINE
  5
266
100
AcDbEntity
  8
0
100
AcDbLine
 62
7
  6
CONTINUOUS
 10
109.6559253212
 20
247.5277789269
 11
109.8988307703
 21
247.6828248863
  0
LINE
  5
267
100
AcDbEntity
  8
0
100
AcDbLine
 62
7
  6
CONTINUOUS
 10
88.7497648195
 20
235.4945296962
 11
89.0237143338
 21
235.6498347064
  0
LINE
  5
268
100
AcDbEntity
  8
0
100
AcDbLine
 62
7
  6
CONTINUOUS
 10
88.2394791148
 20
236.9061299565
 11
88.415600028
 21
236.9943251209
  0
LINE
  5
269
100
AcDbEntity
  8
0
100
AcDbLine
 62
7
  6
CONTINUOUS
 10
87.5154587567
 20
236.5073237052
 11
87.3393378436
 21
236.4191285408
  0
LINE
  5
26A
100
AcDbEntity
  8
0
100
AcDbLine
 62
7
  6
CONTINUOUS
 10
86.9662455732
 20
237.6638567767
 11
86.7118327798
 21
237.5545773538
  0
LINE
  5
26B
100
AcDbEntity
  8
0
100
AcDbLine
 62
7
  6
CONTINUOUS
 10
86.1261739451
 20
235.6847720441
 11
85.8717607045
 21
235.5754915677
  0
LINE
  5
26C
100
AcDbEntity
  8
0
100
AcDbLine
 62
7
  6
CONTINUOUS
 10
112.510062872
 20
247.9929167913
 11
112.2671577703
 21
247.9153938218
  0
LINE
  5
26D
100
AcDbEntity
  8
0
100
AcDbLine
 62
7
  6
CONTINUOUS
 10
82.7272508734
 20
227.1873315262
 11
82.7271049207
 21
227.350347536
  0
LINE
  5
26E
100
AcDbEntity
  8
0
100
AcDbLine
 62
7
  6
CONTINUOUS
 10
82.8462217527
 20
225.5072906625
 11
82.8463677053
 21
225.3442746527
  0
LINE
  5
26F
100
AcDbEntity
  8
0
100
AcDbLine
 62
7
  6
CONTINUOUS
 10
84.9201618445
 20
226.9626300829
 11
84.9007713152
 21
226.7535890059
  0
LINE
  5
270
100
AcDbEntity
  8
0
100
AcDbLine
 62
7
  6
CONTINUOUS
 10
86.4577114446
 20
237.1192648577
 11
86.4383206918
 21
236.9102232541
  0
LINE
  5
271
100
AcDbEntity
  8
0
100
AcDbLine
 62
7
  6
CONTINUOUS
 10
83.1793648992
 20
225.148607763
 11
83.218292078
 21
225.4036743021
  0
LINE
  5
272
100
AcDbEntity
  8
0
100
AcDbLine
 62
7
  6
CONTINUOUS
 10
85.253305088
 20
226.6039472975
 11
85.2922322058
 21
226.8590137071
  0
LINE
  5
273
100
AcDbEntity
  8
0
100
AcDbLine
 62
7
  6
CONTINUOUS
 10
89.2514393114
 20
243.7008752622
 11
89.2125118531
 21
243.4458080647
  0
LINE
  5
274
100
AcDbEntity
  8
0
100
AcDbLine
 62
7
  6
CONTINUOUS
 10
91.8363950594
 20
242.9295347594
 11
91.6996385682
 21
242.6073566561
  0
LINE
  5
275
100
AcDbEntity
  8
0
100
AcDbLine
 62
7
  6
CONTINUOUS
 10
83.9443557703
 20
223.5202559507
 11
84.0615751089
 21
223.7964074067
  0
LINE
  5
276
100
AcDbEntity
  8
0
100
AcDbLine
 62
7
  6
CONTINUOUS
 10
85.0970125621
 20
226.2357451806
 11
85.253305088
 21
226.6039472975
  0
LINE
  5
277
100
AcDbEntity
  8
0
100
AcDbLine
 62
7
  6
CONTINUOUS
 10
85.7026458485
 20
227.6625277912
 11
85.8198651871
 21
227.9386792472
  0
LINE
  5
278
100
AcDbEntity
  8
0
100
AcDbLine
 62
7
  6
CONTINUOUS
 10
86.3668886924
 20
229.2273858665
 11
86.484108031
 21
229.5035373225
  0
LINE
  5
279
100
AcDbEntity
  8
0
100
AcDbLine
 62
7
  6
CONTINUOUS
 10
87.3827897755
 20
231.6206988366
 11
87.5390820779
 21
231.9889004268
  0
LINE
  5
27A
100
AcDbEntity
  8
0
100
AcDbLine
 62
7
  6
CONTINUOUS
 10
88.0079596557
 20
233.0935067777
 11
88.1251789942
 21
233.3696582337
  0
LINE
  5
27B
100
AcDbEntity
  8
0
100
AcDbLine
 62
7
  6
CONTINUOUS
 10
88.6135926067
 20
234.5202885983
 11
88.7503486507
 21
234.8424656481
  0
LINE
  5
27C
100
AcDbEntity
  8
0
100
AcDbLine
 62
7
  6
CONTINUOUS
 10
89.1801530411
 20
235.8550213381
 11
89.3364453435
 21
236.2232229283
  0
LINE
  5
27D
100
AcDbEntity
  8
0
100
AcDbLine
 62
7
  6
CONTINUOUS
 10
90.2155903826
 20
238.2943588486
 11
90.3328097211
 21
238.5705103046
  0
LINE
  5
27E
100
AcDbEntity
  8
0
100
AcDbLine
 62
7
  6
CONTINUOUS
 10
90.606321362
 20
239.2148633509
 11
90.7626141115
 21
239.5830659945
  0
LINE
  5
27F
100
AcDbEntity
  8
0
100
AcDbLine
 62
7
  6
CONTINUOUS
 10
91.0361257524
 20
240.2274190408
 11
91.1533450909
 21
240.5035704969
  0
LINE
  5
280
100
AcDbEntity
  8
0
100
AcDbLine
 62
7
  6
CONTINUOUS
 10
91.4268567318
 20
241.1479235431
 11
91.5440765175
 21
241.4240760526
  0
LINE
  5
281
100
AcDbEntity
  8
0
100
AcDbLine
 62
7
  6
CONTINUOUS
 10
92.0129538717
 20
242.5286818767
 11
92.1106360576
 21
242.7588066855
  0
LINE
  5
282
100
AcDbEntity
  8
0
100
AcDbLine
 62
7
  6
CONTINUOUS
 10
84.9405741902
 20
226.030559339
 11
85.0970125621
 21
226.2357451806
  0
LINE
  5
283
100
AcDbEntity
  8
0
100
AcDbLine
 62
7
  6
CONTINUOUS
 10
107.1661457703
 20
249.7759452523
 11
107.0446930457
 21
249.6208993133
  0
LINE
  5
284
100
AcDbEntity
  8
0
100
AcDbLine
 62
7
  6
CONTINUOUS
 10
84.7444787893
 20
226.385386889
 11
84.6075770162
 21
226.2262263757
  0
LINE
  5
285
100
AcDbEntity
  8
0
100
AcDbLine
 62
7
  6
CONTINUOUS
 10
81.9650332116
 20
225.7183789499
 11
82.0823985028
 21
225.8315143961
  0
LINE
  5
286
100
AcDbEntity
  8
0
100
AcDbLine
 62
7
  6
CONTINUOUS
 10
83.5496837925
 20
227.0011835206
 11
83.4323185013
 21
226.8880480744
  0
LINE
  5
287
100
AcDbEntity
  8
0
100
AcDbLine
 62
7
  6
CONTINUOUS
 10
109.7773782195
 20
248.1479627846
 11
109.5951992195
 21
247.9929167913
  0
LINE
  5
288
100
AcDbEntity
  8
0
100
AcDbLine
 62
7
  6
CONTINUOUS
 10
112.692241872
 20
248.1479627846
 11
112.510062872
 21
247.9929167913
  0
LINE
  5
289
100
AcDbEntity
  8
0
100
AcDbLine
 62
7
  6
CONTINUOUS
 10
84.0189990047
 20
227.6167413152
 11
83.8233414978
 21
227.4825208204
  0
LINE
  5
28A
100
AcDbEntity
  8
0
100
AcDbLine
 62
7
  6
CONTINUOUS
 10
83.5696581324
 20
226.5581605582
 11
83.7653156392
 21
226.692381053
  0
LINE
  5
28B
100
AcDbEntity
  8
0
100
AcDbLine
 62
7
  6
CONTINUOUS
 10
112.5707896686
 20
247.5277789269
 11
112.8136947703
 21
247.6828248863
  0
LINE
  5
28C
100
AcDbEntity
  8
B-ACHSEN
100
AcDbLine
 62
7
  6
CONTINUOUS
 10
117.1843557703
 20
186.9102559507
 11
101.1843557703
 21
186.9102559507
  0
LINE
  5
28D
100
AcDbEntity
  8
RUNDUNGEN
100
AcDbLine
 62
7
  6
CONTINUOUS
 10
84.8732581087
 20
203.402096784
 11
76.488418997
 21
223.6448890859
  0
LINE
  5
28E
100
AcDbEntity
  8
0
100
AcDbLine
 62
7
  6
CONTINUOUS
 10
82.3551805481
 20
227.2909478866
 11
82.394545529
 21
227.0569662645
  0
LINE
  5
28F
100
AcDbEntity
  8
0
100
AcDbLine
 62
7
  6
CONTINUOUS
 10
86.8103911289
 20
236.8066071569
 11
86.8102451762
 21
236.9696231668
  0
LINE
  5
290
100
AcDbEntity
  8
0
100
AcDbLine
 62
7
  6
CONTINUOUS
 10
86.9098253585
 20
235.0805408312
 11
86.9099713112
 21
234.9175248214
  0
LINE
  5
291
100
AcDbEntity
  8
0
100
AcDbLine
 62
7
  6
CONTINUOUS
 10
89.0033023235
 20
236.5819062404
 11
88.9839115707
 21
236.3728646367
  0
LINE
  5
292
100
AcDbEntity
  8
0
100
AcDbLine
 62
7
  6
CONTINUOUS
 10
90.2502850489
 20
243.2768904013
 11
90.2113575906
 21
243.0218232039
  0
LINE
  5
293
100
AcDbEntity
  8
0
100
AcDbLine
 62
7
  6
CONTINUOUS
 10
89.3364453435
 20
236.2232229283
 11
89.3753723495
 21
236.4782890745
  0
LINE
  5
294
100
AcDbEntity
  8
0
100
AcDbLine
 62
7
  6
CONTINUOUS
 10
92.1106360576
 20
242.7588066855
 11
92.1495635108
 21
243.0138738852
  0
LINE
  5
295
100
AcDbEntity
  8
0
100
AcDbLine
 62
7
  6
CONTINUOUS
 10
109.8988307703
 20
247.6828248863
 11
110.1417362195
 21
247.9929167913
  0
LINE
  5
296
100
AcDbEntity
  8
0
100
AcDbLine
 62
7
  6
CONTINUOUS
 10
84.666624564
 20
225.8752540654
 11
84.9405741902
 21
226.030559339
  0
LINE
  5
297
100
AcDbEntity
  8
0
100
AcDbLine
 62
7
  6
CONTINUOUS
 10
84.1563386358
 20
227.286853799
 11
84.332459549
 21
227.3750489633
  0
LINE
  5
298
100
AcDbEntity
  8
0
100
AcDbLine
 62
7
  6
CONTINUOUS
 10
83.4323185013
 20
226.8880480744
 11
83.2561975881
 21
226.79985291
  0
LINE
  5
299
100
AcDbEntity
  8
0
100
AcDbLine
 62
7
  6
CONTINUOUS
 10
82.8831054296
 20
228.0445814093
 11
82.6286923008
 21
227.9353011963
  0
LINE
  5
29A
100
AcDbEntity
  8
0
100
AcDbLine
 62
7
  6
CONTINUOUS
 10
82.0625700597
 20
226.111521217
 11
81.8081569868
 21
226.0022411357
  0
LINE
  5
29B
100
AcDbEntity
  8
0
100
AcDbLine
 62
7
  6
CONTINUOUS
 10
82.786152448
 20
226.9993752345
 11
82.7272508734
 21
227.1873315262
  0
LINE
  5
29C
100
AcDbEntity
  8
0
100
AcDbLine
 62
7
  6
CONTINUOUS
 10
85.2922322058
 20
226.8590137071
 11
85.2528672094
 21
227.0929953358
  0
LINE
  5
29D
100
AcDbEntity
  8
0
100
AcDbLine
 62
7
  6
CONTINUOUS
 10
89.5258262211
 20
243.367131196
 11
89.5256802684
 21
243.5301472058
  0
LINE
  5
29E
100
AcDbEntity
  8
0
100
AcDbLine
 62
7
  6
CONTINUOUS
 10
90.5246719587
 20
242.9431463351
 11
90.524526006
 21
243.106162345
  0
LINE
  5
29F
100
AcDbEntity
  8
0
100
AcDbLine
 62
7
  6
CONTINUOUS
 10
91.8362491068
 20
243.0925507692
 11
91.8363950594
 21
242.9295347594
  0
LINE
  5
2A0
100
AcDbEntity
  8
0
100
AcDbLine
 62
7
  6
CONTINUOUS
 10
107.3483247703
 20
249.3883304049
 11
107.5305037703
 21
249.6984222828
  0
LINE
  5
2A1
100
AcDbEntity
  8
0
100
AcDbLine
 62
7
  6
CONTINUOUS
 10
112.8136947703
 20
247.6828248863
 11
113.056599872
 21
247.9929167913
  0
LINE
  5
2A2
100
AcDbEntity
  8
0
100
AcDbLine
 62
7
  6
CONTINUOUS
 10
127.2626536497
 20
241.1804845311
 11
126.9243557703
 21
241.0425654952
  0
LINE
  5
2A3
100
AcDbEntity
  8
0
100
AcDbLine
 62
7
  6
CONTINUOUS
 10
129.9206734085
 20
240.6605685141
 11
129.7853540862
 21
240.6054008303
  0
LINE
  5
2A4
100
AcDbEntity
  8
B-ACHSEN
100
AcDbLine
 62
7
  6
CONTINUOUS
 10
126.6843557703
 20
192.9102559507
 11
91.6843557703
 21
192.9102559507
  0
LINE
  5
2A5
100
AcDbEntity
  8
0
100
AcDbLine
 62
7
  6
CONTINUOUS
 10
82.7677836403
 20
225.6492217554
 11
82.8462217527
 21
225.5072906625
  0
LINE
  5
2A6
100
AcDbEntity
  8
0
100
AcDbLine
 62
7
  6
CONTINUOUS
 10
82.394545529
 20
227.0569662645
 11
82.5514218656
 21
226.7731043421
  0
LINE
  5
2A7
100
AcDbEntity
  8
0
100
AcDbLine
 62
7
  6
CONTINUOUS
 10
83.218292078
 20
225.4036743021
 11
83.1201714192
 21
225.6625960743
  0
LINE
  5
2A8
100
AcDbEntity
  8
0
100
AcDbLine
 62
7
  6
CONTINUOUS
 10
84.8612602287
 20
227.150586392
 11
84.9201618445
 21
226.9626300829
  0
LINE
  5
2A9
100
AcDbEntity
  8
0
100
AcDbLine
 62
7
  6
CONTINUOUS
 10
86.4383206918
 20
236.9102232541
 11
86.477686008
 21
236.676242422
  0
LINE
  5
2AA
100
AcDbEntity
  8
0
100
AcDbLine
 62
7
  6
CONTINUOUS
 10
87.2231401737
 20
235.0018650159
 11
87.1837753046
 21
235.2358469014
  0
LINE
  5
2AB
100
AcDbEntity
  8
B-ACHSEN
100
AcDbLine
 62
7
  6
CONTINUOUS
 10
91.0789171188
 20
197.580782691
 11
91.6843557703
 21
192.9102559507
  0
LINE
  5
2AC
100
AcDbEntity
  8
0
100
AcDbLine
 62
7
  6
CONTINUOUS
 10
109.8988307703
 20
248.380531693
 11
109.7773782195
 21
248.1479627846
  0
LINE
  5
2AD
100
AcDbEntity
  8
0
100
AcDbLine
 62
7
  6
CONTINUOUS
 10
112.8136947703
 20
248.380531693
 11
112.692241872
 21
248.1479627846
  0
LINE
  5
2AE
100
AcDbEntity
  8
0
100
AcDbLine
 62
7
  6
CONTINUOUS
 10
127.5970432127
 20
239.3925486296
 11
127.9353410921
 21
239.5304676654
  0
LINE
  5
2AF
100
AcDbEntity
  8
0
100
AcDbLine
 62
7
  6
CONTINUOUS
 10
129.8974686599
 20
240.3303980193
 11
130.0327879823
 21
240.3855657032
  0
LINE
  5
2B0
100
AcDbEntity
  8
0
100
AcDbLine
 62
7
  6
CONTINUOUS
 10
131.8234458652
 20
238.1222947249
 11
128.6434458652
 21
236.8258558149
  0
LINE
  5
2B1
100
AcDbEntity
  8
0
100
AcDbLine
 62
7
  6
CONTINUOUS
 10
128.7555605459
 20
236.5508527417
 11
130.1764116298
 21
237.1301126884
  0
LINE
  5
2B2
100
AcDbEntity
  8
0
100
AcDbLine
 62
7
  6
CONTINUOUS
 10
130.5823690283
 20
237.2956155083
 11
131.5972627138
 21
237.7093726352
  0
LINE
  5
2B3
100
AcDbEntity
  8
0
100
AcDbLine
 62
7
  6
CONTINUOUS
 10
83.1201714192
 20
225.6625960743
 11
82.9437586007
 21
225.9004329296
  0
LINE
  5
2B4
100
AcDbEntity
  8
0
100
AcDbLine
 62
7
  6
CONTINUOUS
 10
85.2528672094
 20
227.0929953358
 11
85.0959908523
 21
227.3768572669
  0
LINE
  5
2B5
100
AcDbEntity
  8
0
100
AcDbLine
 62
7
  6
CONTINUOUS
 10
86.8692927035
 20
236.6186508653
 11
86.8103911289
 21
236.8066071569
  0
LINE
  5
2B6
100
AcDbEntity
  8
0
100
AcDbLine
 62
7
  6
CONTINUOUS
 10
89.3753723495
 20
236.4782890745
 11
89.3360074649
 21
236.7122709666
  0
LINE
  5
2B7
100
AcDbEntity
  8
B-ACHSEN
100
AcDbLine
 62
7
  6
CONTINUOUS
 10
98.1843557703
 20
224.4102559507
 11
98.1843557703
 21
227.4102559507
  0
LINE
  5
2B8
100
AcDbEntity
  8
0
100
AcDbLine
 62
7
  6
CONTINUOUS
 10
107.2268720457
 20
250.0085141607
 11
107.1661457703
 21
249.7759452523
  0
LINE
  5
2B9
100
AcDbEntity
  8
0
100
AcDbLine
 62
7
  6
CONTINUOUS
 10
107.5305037703
 20
249.6984222828
 11
107.5912300457
 21
249.9309911913
  0
LINE
  5
2BA
100
AcDbEntity
  8
0
100
AcDbLine
 62
7
  6
CONTINUOUS
 10
110.1417362195
 20
247.9929167913
 11
110.2631887703
 21
248.3030087235
  0
LINE
  5
2BB
100
AcDbEntity
  8
0
100
AcDbLine
 62
7
  6
CONTINUOUS
 10
113.056599872
 20
247.9929167913
 11
113.1780527703
 21
248.3030087235
  0
LINE
  5
2BC
100
AcDbEntity
  8
0
100
AcDbLine
 62
7
  6
CONTINUOUS
 10
130.0327879823
 20
240.3855657032
 11
130.2847405034
 21
240.5417346745
  0
LINE
  5
2BD
100
AcDbEntity
  8
0
100
AcDbLine
 62
7
  6
CONTINUOUS
 10
131.6584493014
 20
236.3980249446
 11
131.4554704126
 21
236.3152734574
  0
LINE
  5
2BE
100
AcDbEntity
  8
0
100
AcDbLine
 62
7
  6
CONTINUOUS
 10
131.4999254199
 20
236.0126868431
 11
131.7705638751
 21
236.1230221336
  0
LINE
  5
2BF
100
AcDbEntity
  8
0
100
AcDbLine
 62
7
  6
CONTINUOUS
 10
130.5249679684
 20
234.9203390961
 11
130.6602871012
 21
234.9755067027
  0
LINE
  5
2C0
100
AcDbEntity
  8
0
100
AcDbLine
 62
7
  6
CONTINUOUS
 10
130.9496113664
 20
235.0400078031
 11
131.0172709328
 21
235.0675916064
  0
LINE
  5
2C1
100
AcDbEntity
  8
0
100
AcDbLine
 62
7
  6
CONTINUOUS
 10
131.4773315073
 20
234.1326655714
 11
131.3420123745
 21
234.0774979648
  0
LINE
  5
2C2
100
AcDbEntity
  8
0
100
AcDbLine
 62
7
  6
CONTINUOUS
 10
131.164802683
 20
233.7379940535
 11
131.4354410434
 21
233.8483293053
  0
LINE
  5
2C3
100
AcDbEntity
  8
0
100
AcDbLine
 62
7
  6
CONTINUOUS
 10
132.3968420098
 20
233.8126643556
 11
130.2317356954
 21
232.9299825725
  0
LINE
  5
2C4
100
AcDbEntity
  8
0
100
AcDbLine
 62
7
  6
CONTINUOUS
 10
130.3251645781
 20
232.7008133885
 11
131.6783560957
 21
233.252489532
  0
LINE
  5
2C5
100
AcDbEntity
  8
0
100
AcDbLine
 62
7
  6
CONTINUOUS
 10
132.0843134941
 20
233.4179923518
 11
132.4902708925
 21
233.5834951716
  0
LINE
  5
2C6
100
AcDbEntity
  8
0
100
AcDbLine
 62
7
  6
CONTINUOUS
 10
84.7240665503
 20
227.3174578984
 11
84.8612602287
 21
227.150586392
  0
LINE
  5
2C7
100
AcDbEntity
  8
0
100
AcDbLine
 62
7
  6
CONTINUOUS
 10
88.9444007077
 20
236.7698625495
 11
89.0033023235
 21
236.5819062404
  0
LINE
  5
2C8
100
AcDbEntity
  8
0
100
AcDbLine
 62
7
  6
CONTINUOUS
 10
89.5847277957
 20
243.1791749043
 11
89.5258262211
 21
243.367131196
  0
LINE
  5
2C9
100
AcDbEntity
  8
0
100
AcDbLine
 62
7
  6
CONTINUOUS
 10
90.2113575906
 20
243.0218232039
 11
90.3291607399
 21
242.6459106205
  0
LINE
  5
2CA
100
AcDbEntity
  8
0
100
AcDbLine
 62
7
  6
CONTINUOUS
 10
89.2125118531
 20
243.4458080647
 11
89.2910956387
 21
243.1408603036
  0
LINE
  5
2CB
100
AcDbEntity
  8
0
100
AcDbLine
 62
7
  6
CONTINUOUS
 10
92.1495635108
 20
243.0138738852
 11
92.0709797098
 21
243.3188216529
  0
LINE
  5
2CC
100
AcDbEntity
  8
B-ACHSEN
100
AcDbLine
 62
7
  6
CONTINUOUS
 10
101.1843557703
 20
186.9102559507
 11
101.1843557703
 21
169.9102559507
  0
LINE
  5
2CD
100
AcDbEntity
  8
B-ACHSEN
100
AcDbLine
 62
7
  6
CONTINUOUS
 10
103.6387724806
 20
224.4102559507
 11
103.6387724806
 21
213.4102559507
  0
LINE
  5
2CE
100
AcDbEntity
  8
0
100
AcDbLine
 62
7
  6
CONTINUOUS
 10
109.9595572195
 20
248.690623571
 11
109.8988307703
 21
248.380531693
  0
LINE
  5
2CF
100
AcDbEntity
  8
0
100
AcDbLine
 62
7
  6
CONTINUOUS
 10
131.8427423096
 20
236.5266099815
 11
131.6584493014
 21
236.3980249446
  0
LINE
  5
2D0
100
AcDbEntity
  8
0
100
AcDbLine
 62
7
  6
CONTINUOUS
 10
131.7705638751
 20
236.1230221336
 11
131.9548568833
 21
236.2516071705
  0
LINE
  5
2D1
100
AcDbEntity
  8
0
100
AcDbLine
 62
7
  6
CONTINUOUS
 10
130.5668584323
 20
235.2046753621
 11
130.1795867249
 21
234.9933389153
  0
LINE
  5
2D2
100
AcDbEntity
  8
0
100
AcDbLine
 62
7
  6
CONTINUOUS
 10
132.394887899
 20
232.8497369062
 11
132.733185731
 21
232.9876559228
  0
LINE
  5
2D3
100
AcDbEntity
  8
0
100
AcDbLine
 62
7
  6
CONTINUOUS
 10
132.4767142883
 20
232.455483038
 11
132.3413951555
 21
232.4003154314
  0
LINE
  5
2D4
100
AcDbEntity
  8
0
100
AcDbLine
 62
7
  6
CONTINUOUS
 10
131.7214674964
 20
230.4371245562
 11
131.8567866292
 21
230.4922921628
  0
LINE
  5
2D5
100
AcDbEntity
  8
0
100
AcDbLine
 62
7
  6
CONTINUOUS
 10
131.8032938858
 20
230.042870688
 11
131.4649960064
 21
229.9049516521
  0
LINE
  5
2D6
100
AcDbEntity
  8
0
100
AcDbLine
 62
7
  6
CONTINUOUS
 10
131.5584246753
 20
229.6757829927
 11
131.8967225547
 21
229.8137020286
  0
LINE
  5
2D7
100
AcDbEntity
  8
0
100
AcDbLine
 62
7
  6
CONTINUOUS
 10
82.6110533122
 20
225.7700677997
 11
82.7677836403
 21
225.6492217554
  0
LINE
  5
2D8
100
AcDbEntity
  8
0
100
AcDbLine
 62
7
  6
CONTINUOUS
 10
85.0959908523
 20
227.3768572669
 11
84.9000415107
 21
227.5686690726
  0
LINE
  5
2D9
100
AcDbEntity
  8
0
100
AcDbLine
 62
7
  6
CONTINUOUS
 10
86.8313875256
 20
235.2224725825
 11
86.9098253585
 21
235.0805408312
  0
LINE
  5
2DA
100
AcDbEntity
  8
0
100
AcDbLine
 62
7
  6
CONTINUOUS
 10
86.477686008
 20
236.676242422
 11
86.634562121
 21
236.3923799729
  0
LINE
  5
2DB
100
AcDbEntity
  8
0
100
AcDbLine
 62
7
  6
CONTINUOUS
 10
89.3360074649
 20
236.7122709666
 11
89.1791313313
 21
236.9961334244
  0
LINE
  5
2DC
100
AcDbEntity
  8
0
100
AcDbLine
 62
7
  6
CONTINUOUS
 10
90.5835735333
 20
242.7551900435
 11
90.5246719587
 21
242.9431463351
  0
LINE
  5
2DD
100
AcDbEntity
  8
0
100
AcDbLine
 62
7
  6
CONTINUOUS
 10
91.7773475321
 20
243.2805070609
 11
91.8362491068
 21
243.0925507692
  0
LINE
  5
2DE
100
AcDbEntity
  8
0
100
AcDbLine
 62
7
  6
CONTINUOUS
 10
105.3443557703
 20
251.0938359507
 11
105.3443557703
 21
247.4502559507
  0
LINE
  5
2DF
100
AcDbEntity
  8
0
100
AcDbLine
 62
7
  6
CONTINUOUS
 10
105.7087137703
 20
247.4502559507
 11
105.7087137703
 21
249.078238527
  0
LINE
  5
2E0
100
AcDbEntity
  8
0
100
AcDbLine
 62
7
  6
CONTINUOUS
 10
105.7087137703
 20
249.5433763438
 11
105.7087137703
 21
250.7062211032
  0
LINE
  5
2E1
100
AcDbEntity
  8
0
100
AcDbLine
 62
7
  6
CONTINUOUS
 10
107.2268720457
 20
250.2410832864
 11
107.2268720457
 21
250.0085141607
  0
LINE
  5
2E2
100
AcDbEntity
  8
0
100
AcDbLine
 62
7
  6
CONTINUOUS
 10
107.5912300457
 20
249.9309911913
 11
107.5912300457
 21
250.2410832864
  0
LINE
  5
2E3
100
AcDbEntity
  8
0
100
AcDbLine
 62
7
  6
CONTINUOUS
 10
110.2631887703
 20
248.3030087235
 11
110.3239152195
 21
248.690623571
  0
LINE
  5
2E4
100
AcDbEntity
  8
0
100
AcDbLine
 62
7
  6
CONTINUOUS
 10
113.1780527703
 20
248.3030087235
 11
113.238778872
 21
248.690623571
  0
LINE
  5
2E5
100
AcDbEntity
  8
0
100
AcDbLine
 62
7
  6
CONTINUOUS
 10
112.874420872
 20
248.690623571
 11
112.8136947703
 21
248.380531693
  0
LINE
  5
2E6
100
AcDbEntity
  8
0
100
AcDbLine
 62
7
  6
CONTINUOUS
 10
130.0862805653
 20
240.8349875714
 11
129.9206734085
 21
240.6605685141
  0
LINE
  5
2E7
100
AcDbEntity
  8
0
100
AcDbLine
 62
7
  6
CONTINUOUS
 10
130.1795867249
 20
234.9933389153
 11
129.9463200078
 21
234.7913359043
  0
LINE
  5
2E8
100
AcDbEntity
  8
0
100
AcDbLine
 62
7
  6
CONTINUOUS
 10
130.2240417322
 20
234.6907523011
 11
130.340675174
 21
234.7917535347
  0
LINE
  5
2E9
100
AcDbEntity
  8
0
100
AcDbLine
 62
7
  6
CONTINUOUS
 10
130.340675174
 20
234.7917535347
 11
130.5249679684
 21
234.9203390961
  0
LINE
  5
2EA
100
AcDbEntity
  8
0
100
AcDbLine
 62
7
  6
CONTINUOUS
 10
131.4354410434
 20
233.8483293053
 11
131.687393618
 21
234.0044981456
  0
LINE
  5
2EB
100
AcDbEntity
  8
0
100
AcDbLine
 62
7
  6
CONTINUOUS
 10
82.5514218656
 20
226.7731043421
 11
82.7669077597
 21
226.6273178843
  0
LINE
  5
2EC
100
AcDbEntity
  8
0
100
AcDbLine
 62
7
  6
CONTINUOUS
 10
82.9437586007
 20
225.9004329296
 11
82.7870282727
 21
226.0212789739
  0
LINE
  5
2ED
100
AcDbEntity
  8
0
100
AcDbLine
 62
7
  6
CONTINUOUS
 10
82.9428828848
 20
226.8785289887
 11
82.786152448
 21
226.9993752345
  0
LINE
  5
2EE
100
AcDbEntity
  8
0
100
AcDbLine
 62
7
  6
CONTINUOUS
 10
84.9774580104
 20
228.5678501803
 11
83.5668849789
 21
229.6554650784
  0
LINE
  5
2EF
100
AcDbEntity
  8
0
100
AcDbLine
 62
7
  6
CONTINUOUS
 10
85.8198651871
 20
227.9386792472
 11
85.1929437927
 21
228.4220634592
  0
LINE
  5
2F0
100
AcDbEntity
  8
0
100
AcDbLine
 62
7
  6
CONTINUOUS
 10
83.2537161164
 20
229.5711248839
 11
85.7026458485
 21
227.6625277912
  0
LINE
  5
2F1
100
AcDbEntity
  8
0
100
AcDbLine
 62
7
  6
CONTINUOUS
 10
87.1837753046
 20
235.2358469014
 11
87.0073624861
 21
235.4736837567
  0
LINE
  5
2F2
100
AcDbEntity
  8
0
100
AcDbLine
 62
7
  6
CONTINUOUS
 10
90.6620122605
 20
242.613260399
 11
90.5835735333
 21
242.7551900435
  0
LINE
  5
2F3
100
AcDbEntity
  8
0
100
AcDbLine
 62
7
  6
CONTINUOUS
 10
108.1377670457
 20
251.0938359507
 11
108.1377670457
 21
248.690623571
  0
LINE
  5
2F4
100
AcDbEntity
  8
0
100
AcDbLine
 62
7
  6
CONTINUOUS
 10
108.5021252195
 20
248.690623571
 11
108.5021252195
 21
251.0938359507
  0
LINE
  5
2F5
100
AcDbEntity
  8
B-ACHSEN
100
AcDbLine
 62
2
  6
CENTER
 10
109.1843557703
 20
165.9102559507
 11
109.1843557703
 21
260.689124959
  0
LINE
  5
2F6
100
AcDbEntity
  8
0
100
AcDbLine
 62
7
  6
CONTINUOUS
 10
109.9595572195
 20
251.0938359507
 11
109.9595572195
 21
248.690623571
  0
LINE
  5
2F7
100
AcDbEntity
  8
0
100
AcDbLine
 62
7
  6
CONTINUOUS
 10
110.3239152195
 20
248.690623571
 11
110.3239152195
 21
251.0938359507
  0
LINE
  5
2F8
100
AcDbEntity
  8
0
100
AcDbLine
 62
7
  6
CONTINUOUS
 10
110.8097257703
 20
251.0938359507
 11
110.8097257703
 21
247.4502559507
  0
LINE
  5
2F9
100
AcDbEntity
  8
0
100
AcDbLine
 62
7
  6
CONTINUOUS
 10
111.1740837703
 20
247.9153938218
 11
111.1740837703
 21
250.6286981338
  0
LINE
  5
2FA
100
AcDbEntity
  8
B-ACHSEN
100
AcDbLine
 62
7
  6
CONTINUOUS
 10
102.3743557703
 20
190.9902559507
 11
101.1843557703
 21
186.9102559507
  0
LINE
  5
2FB
100
AcDbEntity
  8
0
100
AcDbLine
 62
7
  6
CONTINUOUS
 10
131.6429386106
 20
234.3070847598
 11
131.4773315073
 21
234.1326655714
  0
LINE
  5
2FC
100
AcDbEntity
  8
0
100
AcDbLine
 62
7
  6
CONTINUOUS
 10
131.2588419509
 20
231.9589745205
 11
131.0255754713
 21
231.7569709946
  0
LINE
  5
2FD
100
AcDbEntity
  8
0
100
AcDbLine
 62
7
  6
CONTINUOUS
 10
131.2356373918
 20
231.628804103
 11
131.3522710475
 21
231.7298048121
  0
LINE
  5
2FE
100
AcDbEntity
  8
0
100
AcDbLine
 62
7
  6
CONTINUOUS
 10
132.3413951555
 20
232.4003154314
 11
132.1081286996
 21
232.1983119152
  0
LINE
  5
2FF
100
AcDbEntity
  8
0
100
AcDbLine
 62
7
  6
CONTINUOUS
 10
132.3181905964
 20
232.0701450139
 11
132.4348242521
 21
232.1711457229
  0
LINE
  5
300
100
AcDbEntity
  8
0
100
AcDbLine
 62
7
  6
CONTINUOUS
 10
131.8799912357
 20
230.8224625997
 11
131.7633575327
 21
230.7214618713
  0
LINE
  5
301
100
AcDbEntity
  8
0
100
AcDbLine
 62
7
  6
CONTINUOUS
 10
131.8567866292
 20
230.4922921628
 11
132.0900531325
 21
230.6942956984
  0
LINE
  5
302
100
AcDbEntity
  8
B-ACHSEN
100
AcDbLine
 62
7
  6
CONTINUOUS
 10
114.729812836
 20
213.4102559507
 11
103.6388987046
 21
213.4102559507
  0
LINE
  5
303
100
AcDbEntity
  8
0
100
AcDbLine
 62
7
  6
CONTINUOUS
 10
81.18284121
 20
224.6924493361
 11
83.9443557703
 21
223.5202559507
  0
LINE
  5
304
100
AcDbEntity
  8
0
100
AcDbLine
 62
7
  6
CONTINUOUS
 10
84.0615751089
 20
223.7964074067
 11
82.8277068835
 21
224.3201533949
  0
LINE
  5
305
100
AcDbEntity
  8
0
100
AcDbLine
 62
7
  6
CONTINUOUS
 10
82.4751731519
 20
224.4697950858
 11
81.5938386582
 21
224.843899383
  0
LINE
  5
306
100
AcDbEntity
  8
0
100
AcDbLine
 62
7
  6
CONTINUOUS
 10
84.9729330073
 20
233.6213460635
 11
87.1084021539
 21
231.9544413401
  0
LINE
  5
307
100
AcDbEntity
  8
0
100
AcDbLine
 62
7
  6
CONTINUOUS
 10
88.8072068057
 20
236.9367335292
 11
88.9444007077
 21
236.7698625495
  0
LINE
  5
308
100
AcDbEntity
  8
0
100
AcDbLine
 62
7
  6
CONTINUOUS
 10
88.6653421715
 20
242.3201169286
 11
88.9594121865
 21
241.8693834998
  0
LINE
  5
309
100
AcDbEntity
  8
0
100
AcDbLine
 62
7
  6
CONTINUOUS
 10
89.4294573266
 20
241.6698611753
 11
89.135387147
 21
242.120594674
  0
LINE
  5
30A
100
AcDbEntity
  8
B-ACHSEN
100
AcDbLine
 62
7
  6
CONTINUOUS
 10
115.9943557703
 20
190.9902559507
 11
117.1843557703
 21
186.9102559507
  0
LINE
  5
30B
100
AcDbEntity
  8
0
100
AcDbLine
 62
7
  6
CONTINUOUS
 10
112.874420872
 20
249.8534682218
 11
112.874420872
 21
248.690623571
  0
LINE
  5
30C
100
AcDbEntity
  8
0
100
AcDbLine
 62
7
  6
CONTINUOUS
 10
113.238778872
 20
248.690623571
 11
113.238778872
 21
249.8534682218
  0
LINE
  5
30D
100
AcDbEntity
  8
B-ACHSEN
100
AcDbLine
 62
7
  6
CONTINUOUS
 10
114.72993906
 20
224.4102559507
 11
114.72993906
 21
213.4102559507
  0
LINE
  5
30E
100
AcDbEntity
  8
0
100
AcDbLine
 62
7
  6
CONTINUOUS
 10
130.2847405034
 20
240.5417346745
 11
130.4806356842
 21
240.8354051825
  0
LINE
  5
30F
100
AcDbEntity
  8
0
100
AcDbLine
 62
7
  6
CONTINUOUS
 10
129.9463200078
 20
234.7913359043
 11
129.8483722333
 21
234.644501034
  0
LINE
  5
310
100
AcDbEntity
  8
0
100
AcDbLine
 62
7
  6
CONTINUOUS
 10
130.0771202725
 20
234.4704994664
 11
130.2240417322
 21
234.6907523011
  0
LINE
  5
311
100
AcDbEntity
  8
0
100
AcDbLine
 62
7
  6
CONTINUOUS
 10
131.9548568833
 20
236.2516071705
 11
132.169437862
 21
236.4994437892
  0
LINE
  5
312
100
AcDbEntity
  8
0
100
AcDbLine
 62
7
  6
CONTINUOUS
 10
131.687393618
 20
234.0044981456
 11
131.9019745967
 21
234.2523347643
  0
LINE
  5
313
100
AcDbEntity
  8
0
100
AcDbLine
 62
7
  6
CONTINUOUS
 10
132.9625443929
 20
231.2638034913
 11
132.8459107373
 21
231.1628027822
  0
LINE
  5
314
100
AcDbEntity
  8
0
100
AcDbLine
 62
7
  6
CONTINUOUS
 10
132.9393398338
 20
230.9336330737
 11
133.1726062898
 21
231.1356365899
  0
LINE
  5
315
100
AcDbEntity
  8
0
100
AcDbLine
 62
7
  6
CONTINUOUS
 10
82.4347862818
 20
225.844888715
 11
82.6110533122
 21
225.7700677997
  0
LINE
  5
316
100
AcDbEntity
  8
0
100
AcDbLine
 62
7
  6
CONTINUOUS
 10
82.7870282727
 20
226.0212789739
 11
82.5520056204
 21
226.1210401711
  0
LINE
  5
317
100
AcDbEntity
  8
0
100
AcDbLine
 62
7
  6
CONTINUOUS
 10
82.7669077597
 20
226.6273178843
 11
83.001930412
 21
226.5275566872
  0
LINE
  5
318
100
AcDbEntity
  8
0
100
AcDbLine
 62
7
  6
CONTINUOUS
 10
83.0603941286
 20
226.828648425
 11
82.9428828848
 21
226.8785289887
  0
LINE
  5
319
100
AcDbEntity
  8
0
100
AcDbLine
 62
7
  6
CONTINUOUS
 10
84.5477996844
 20
227.3922787439
 11
84.7240665503
 21
227.3174578984
  0
LINE
  5
31A
100
AcDbEntity
  8
0
100
AcDbLine
 62
7
  6
CONTINUOUS
 10
84.9000415107
 20
227.5686690726
 11
84.6062634011
 21
227.6933704817
  0
LINE
  5
31B
100
AcDbEntity
  8
0
100
AcDbLine
 62
7
  6
CONTINUOUS
 10
86.6746569181
 20
235.3433179683
 11
86.8313875256
 21
235.2224725825
  0
LINE
  5
31C
100
AcDbEntity
  8
0
100
AcDbLine
 62
7
  6
CONTINUOUS
 10
87.0073624861
 20
235.4736837567
 11
86.8506318786
 21
235.5945291425
  0
LINE
  5
31D
100
AcDbEntity
  8
0
100
AcDbLine
 62
7
  6
CONTINUOUS
 10
87.0260230284
 20
236.4978043561
 11
86.8692927035
 21
236.6186508653
  0
LINE
  5
31E
100
AcDbEntity
  8
0
100
AcDbLine
 62
7
  6
CONTINUOUS
 10
87.5390820779
 20
231.9889004268
 11
85.0901523458
 21
233.8974975195
  0
LINE
  5
31F
100
AcDbEntity
  8
0
100
AcDbLine
 62
7
  6
CONTINUOUS
 10
89.1791313313
 20
236.9961334244
 11
88.9831817662
 21
237.1879447034
  0
LINE
  5
320
100
AcDbEntity
  8
0
100
AcDbLine
 62
7
  6
CONTINUOUS
 10
89.7219221449
 20
243.0123049781
 11
89.5847277957
 21
243.1791749043
  0
LINE
  5
321
100
AcDbEntity
  8
0
100
AcDbLine
 62
7
  6
CONTINUOUS
 10
89.2910956387
 20
243.1408603036
 11
89.4675084572
 21
242.9030234483
  0
LINE
  5
322
100
AcDbEntity
  8
0
100
AcDbLine
 62
7
  6
CONTINUOUS
 10
92.0709797098
 20
243.3188216529
 11
91.8945668707
 21
243.5566585169
  0
LINE
  5
323
100
AcDbEntity
  8
0
100
AcDbLine
 62
7
  6
CONTINUOUS
 10
108.1377670457
 20
248.690623571
 11
108.1984934949
 21
248.3030087235
  0
LINE
  5
324
100
AcDbEntity
  8
B-ACHSEN
100
AcDbLine
 62
7
  6
CONTINUOUS
 10
117.1843557703
 20
186.9102559507
 11
117.1843557703
 21
169.9102559507
  0
LINE
  5
325
100
AcDbEntity
  8
0
100
AcDbLine
 62
7
  6
CONTINUOUS
 10
130.1655424113
 20
241.0276565835
 11
130.0862805653
 21
240.8349875714
  0
LINE
  5
326
100
AcDbEntity
  8
0
100
AcDbLine
 62
7
  6
CONTINUOUS
 10
131.9406898465
 20
236.6734453666
 11
131.8427423096
 21
236.5266099815
  0
LINE
  5
327
100
AcDbEntity
  8
B-ACHSEN
100
AcDbLine
 62
2
  6
CENTER
 10
141.168572448
 20
219.9102559507
 11
77.2001390927
 21
219.9102559507
  0
LINE
  5
328
100
AcDbEntity
  8
0
100
AcDbLine
 62
7
  6
CONTINUOUS
 10
84.0596776419
 20
225.9156155696
 11
84.3142366675
 21
225.8618796411
  0
LINE
  5
329
100
AcDbEntity
  8
0
100
AcDbLine
 62
7
  6
CONTINUOUS
 10
83.001930412
 20
226.5275566872
 11
83.2564894935
 21
226.4738208903
  0
LINE
  5
32A
100
AcDbEntity
  8
0
100
AcDbLine
 62
7
  6
CONTINUOUS
 10
85.3477767096
 20
230.4204257095
 11
85.6415549016
 21
230.2957242654
  0
LINE
  5
32B
100
AcDbEntity
  8
0
100
AcDbLine
 62
7
  6
CONTINUOUS
 10
85.9150667661
 20
230.9400778384
 11
85.6212885741
 21
231.0647792825
  0
LINE
  5
32C
100
AcDbEntity
  8
0
100
AcDbLine
 62
7
  6
CONTINUOUS
 10
86.634562121
 20
236.3923799729
 11
86.8500479033
 21
236.2465932518
  0
LINE
  5
32D
100
AcDbEntity
  8
0
100
AcDbLine
 62
7
  6
CONTINUOUS
 10
88.2160015228
 20
241.2615366983
 11
90.3906895859
 21
239.5236660993
  0
LINE
  5
32E
100
AcDbEntity
  8
0
100
AcDbLine
 62
7
  6
CONTINUOUS
 10
90.7626141115
 20
239.5830659945
 11
88.8621674114
 21
241.150209608
  0
LINE
  5
32F
100
AcDbEntity
  8
0
100
AcDbLine
 62
7
  6
CONTINUOUS
 10
91.6401531418
 20
243.4473770046
 11
91.7773475321
 21
243.2805070609
  0
LINE
  5
330
100
AcDbEntity
  8
0
100
AcDbLine
 62
7
  6
CONTINUOUS
 10
107.6519564949
 20
247.4502559507
 11
107.1054194949
 21
249.2332844659
  0
LINE
  5
331
100
AcDbEntity
  8
0
100
AcDbLine
 62
7
  6
CONTINUOUS
 10
106.741061408
 20
249.078238527
 11
107.2268720457
 21
247.4502559507
  0
LINE
  5
332
100
AcDbEntity
  8
0
100
AcDbLine
 62
7
  6
CONTINUOUS
 10
107.1661457703
 20
250.4736521948
 11
107.2268720457
 21
250.2410832864
  0
LINE
  5
333
100
AcDbEntity
  8
0
100
AcDbLine
 62
7
  6
CONTINUOUS
 10
107.5912300457
 20
250.2410832864
 11
107.5305037703
 21
250.4736521948
  0
LINE
  5
334
100
AcDbEntity
  8
0
100
AcDbLine
 62
7
  6
CONTINUOUS
 10
108.5628513212
 20
248.380531693
 11
108.5021252195
 21
248.690623571
  0
LINE
  5
335
100
AcDbEntity
  8
0
100
AcDbLine
 62
7
  6
CONTINUOUS
 10
113.238778872
 20
249.8534682218
 11
113.1780527703
 21
250.2410832864
  0
LINE
  5
336
100
AcDbEntity
  8
0
100
AcDbLine
 62
7
  6
CONTINUOUS
 10
129.8483722333
 20
234.644501034
 11
129.7691103755
 21
234.4518320171
  0
LINE
  5
337
100
AcDbEntity
  8
0
100
AcDbLine
 62
7
  6
CONTINUOUS
 10
131.7222004566
 20
234.4997537719
 11
131.6429386106
 21
234.3070847598
  0
LINE
  5
338
100
AcDbEntity
  8
0
100
AcDbLine
 62
7
  6
CONTINUOUS
 10
131.0255754713
 20
231.7569709946
 11
130.9463136135
 21
231.5643019777
  0
LINE
  5
339
100
AcDbEntity
  8
0
100
AcDbLine
 62
7
  6
CONTINUOUS
 10
132.169437862
 20
236.4994437892
 11
132.2976733695
 21
236.7655307561
  0
LINE
  5
33A
100
AcDbEntity
  8
0
100
AcDbLine
 62
7
  6
CONTINUOUS
 10
132.1081286996
 20
232.1983119152
 11
131.9798926696
 21
231.9322259587
  0
LINE
  5
33B
100
AcDbEntity
  8
0
100
AcDbLine
 62
7
  6
CONTINUOUS
 10
132.0900531325
 20
230.6942956984
 11
132.2182890677
 21
230.9603816162
  0
LINE
  5
33C
100
AcDbEntity
  8
B-ACHSEN
100
AcDbLine
 62
7
  6
CONTINUOUS
 10
98.184548035
 20
224.4102559507
 11
145.6843557703
 21
224.4102559507
  0
LINE
  5
33D
100
AcDbEntity
  8
0
100
AcDbLine
 62
7
  6
CONTINUOUS
 10
82.2389828782
 20
225.8736843617
 11
82.4347862818
 21
225.844888715
  0
LINE
  5
33E
100
AcDbEntity
  8
0
100
AcDbLine
 62
7
  6
CONTINUOUS
 10
82.5520056204
 20
226.1210401711
 11
82.3562022168
 21
226.1498358177
  0
LINE
  5
33F
100
AcDbEntity
  8
0
100
AcDbLine
 62
7
  6
CONTINUOUS
 10
84.37270044
 20
226.1629715106
 11
84.1768969804
 21
226.1917670256
  0
LINE
  5
340
100
AcDbEntity
  8
0
100
AcDbLine
 62
7
  6
CONTINUOUS
 10
83.2561975881
 20
226.79985291
 11
83.0603941286
 21
226.828648425
  0
LINE
  5
341
100
AcDbEntity
  8
0
100
AcDbLine
 62
7
  6
CONTINUOUS
 10
83.3725410461
 20
228.054100495
 11
83.1767375866
 21
228.08289601
  0
LINE
  5
342
100
AcDbEntity
  8
0
100
AcDbLine
 62
7
  6
CONTINUOUS
 10
85.2464450953
 20
234.2657001632
 11
88.0079596557
 21
233.0935067777
  0
LINE
  5
343
100
AcDbEntity
  8
0
100
AcDbLine
 62
7
  6
CONTINUOUS
 10
88.1251789942
 20
233.3696582337
 11
86.8913107689
 21
233.8934042219
  0
LINE
  5
344
100
AcDbEntity
  8
0
100
AcDbLine
 62
7
  6
CONTINUOUS
 10
86.5387770372
 20
234.0430459129
 11
85.6574425435
 21
234.4171502101
  0
LINE
  5
345
100
AcDbEntity
  8
0
100
AcDbLine
 62
7
  6
CONTINUOUS
 10
86.4983898877
 20
235.4181388837
 11
86.6746569181
 21
235.3433179683
  0
LINE
  5
346
100
AcDbEntity
  8
0
100
AcDbLine
 62
7
  6
CONTINUOUS
 10
86.8506318786
 20
235.5945291425
 11
86.6156092262
 21
235.6942903397
  0
LINE
  5
347
100
AcDbEntity
  8
0
100
AcDbLine
 62
7
  6
CONTINUOUS
 10
89.8786520227
 20
242.8914574155
 11
89.7219221449
 21
243.0123049781
  0
LINE
  5
348
100
AcDbEntity
  8
0
100
AcDbLine
 62
7
  6
CONTINUOUS
 10
90.818742056
 20
242.4924128714
 11
90.6620122605
 21
242.613260399
  0
LINE
  5
349
100
AcDbEntity
  8
0
100
AcDbLine
 62
7
  6
CONTINUOUS
 10
89.4675084572
 20
242.9030234483
 11
89.7222142148
 21
242.6862728885
  0
LINE
  5
34A
100
AcDbEntity
  8
0
100
AcDbLine
 62
7
  6
CONTINUOUS
 10
91.8945668707
 20
243.5566585169
 11
91.6398612365
 21
243.7734090243
  0
LINE
  5
34B
100
AcDbEntity
  8
0
100
AcDbLine
 62
7
  6
CONTINUOUS
 10
108.1984934949
 20
248.3030087235
 11
108.3199462195
 21
247.9929167913
  0
LINE
  5
34C
100
AcDbEntity
  8
0
100
AcDbLine
 62
7
  6
CONTINUOUS
 10
112.8136947703
 20
250.1635600997
 11
112.874420872
 21
249.8534682218
  0
LINE
  5
34D
100
AcDbEntity
  8
0
100
AcDbLine
 62
7
  6
CONTINUOUS
 10
130.4806356842
 20
240.8354051825
 11
130.5412117857
 21
241.0739079527
  0
LINE
  5
34E
100
AcDbEntity
  8
0
100
AcDbLine
 62
7
  6
CONTINUOUS
 10
130.046832302
 20
234.3512478846
 11
130.0771202725
 21
234.4704994664
  0
LINE
  5
34F
100
AcDbEntity
  8
0
100
AcDbLine
 62
7
  6
CONTINUOUS
 10
131.2053496351
 20
231.5095519967
 11
131.2356373918
 21
231.628804103
  0
LINE
  5
350
100
AcDbEntity
  8
0
100
AcDbLine
 62
7
  6
CONTINUOUS
 10
131.9019745967
 20
234.2523347643
 11
132.0115244132
 21
234.5642553581
  0
LINE
  5
351
100
AcDbEntity
  8
0
100
AcDbLine
 62
7
  6
CONTINUOUS
 10
132.2389287505
 20
231.8774760018
 11
132.3181905964
 21
232.0701450139
  0
LINE
  5
352
100
AcDbEntity
  8
0
100
AcDbLine
 62
7
  6
CONTINUOUS
 10
131.9592530816
 20
231.0151316118
 11
131.8799912357
 21
230.8224625997
  0
LINE
  5
353
100
AcDbEntity
  8
0
100
AcDbLine
 62
7
  6
CONTINUOUS
 10
133.1726062898
 20
231.1356365899
 11
133.2518681357
 21
231.328305602
  0
LINE
  5
354
100
AcDbEntity
  8
0
100
AcDbLine
 62
7
  6
CONTINUOUS
 10
84.3142366675
 20
225.8618796411
 11
84.666624564
 21
225.8752540654
  0
LINE
  5
355
100
AcDbEntity
  8
B-ACHSEN
100
AcDbLine
 62
7
  6
CONTINUOUS
 10
98.184548035
 20
227.4102559507
 11
145.6843557703
 21
227.4102559507
  0
LINE
  5
356
100
AcDbEntity
  8
0
100
AcDbLine
 62
7
  6
CONTINUOUS
 10
84.6062634011
 20
227.6933704817
 11
84.3321676436
 21
227.701080983
  0
LINE
  5
357
100
AcDbEntity
  8
0
100
AcDbLine
 62
7
  6
CONTINUOUS
 10
83.11827387
 20
227.7818042721
 11
83.2553217075
 21
227.7779490389
  0
LINE
  5
358
100
AcDbEntity
  8
0
100
AcDbLine
 62
7
  6
CONTINUOUS
 10
87.1084021539
 20
231.9544413401
 11
84.4259095019
 21
232.3326394442
  0
LINE
  5
359
100
AcDbEntity
  8
0
100
AcDbLine
 62
7
  6
CONTINUOUS
 10
86.484108031
 20
229.5035373225
 11
83.4100086423
 21
229.9393270008
  0
LINE
  5
35A
100
AcDbEntity
  8
0
100
AcDbLine
 62
7
  6
CONTINUOUS
 10
84.3086901633
 20
232.0564879882
 11
87.3827897755
 21
231.6206988366
  0
LINE
  5
35B
100
AcDbEntity
  8
0
100
AcDbLine
 62
7
  6
CONTINUOUS
 10
85.5836749957
 20
229.3425684882
 11
86.3668886924
 21
229.2273858665
  0
LINE
  5
35C
100
AcDbEntity
  8
0
100
AcDbLine
 62
7
  6
CONTINUOUS
 10
83.5668849789
 20
229.6554650784
 11
85.329116026
 21
229.3963045484
  0
LINE
  5
35D
100
AcDbEntity
  8
0
100
AcDbLine
 62
7
  6
CONTINUOUS
 10
86.8500479033
 20
236.2465932518
 11
87.0850705557
 21
236.1468320546
  0
LINE
  5
35E
100
AcDbEntity
  8
0
100
AcDbLine
 62
7
  6
CONTINUOUS
 10
87.1435342723
 20
236.4479237925
 11
87.0260230284
 21
236.4978043561
  0
LINE
  5
35F
100
AcDbEntity
  8
0
100
AcDbLine
 62
7
  6
CONTINUOUS
 10
88.6309399399
 20
237.0115543747
 11
88.8072068057
 21
236.9367335292
  0
LINE
  5
360
100
AcDbEntity
  8
0
100
AcDbLine
 62
7
  6
CONTINUOUS
 10
88.9831817662
 20
237.1879447034
 11
88.6894036565
 21
237.3126461125
  0
LINE
  5
361
100
AcDbEntity
  8
0
100
AcDbLine
 62
7
  6
CONTINUOUS
 10
88.4931621449
 20
237.8304894286
 11
88.7869403369
 21
237.7057879846
  0
LINE
  5
362
100
AcDbEntity
  8
0
100
AcDbLine
 62
7
  6
CONTINUOUS
 10
89.060452425
 20
238.3501420843
 11
88.766674233
 21
238.4748435283
  0
LINE
  5
363
100
AcDbEntity
  8
0
100
AcDbLine
 62
7
  6
CONTINUOUS
 10
87.4540758222
 20
239.466552234
 11
90.2155903826
 21
238.2943588486
  0
LINE
  5
364
100
AcDbEntity
  8
0
100
AcDbLine
 62
7
  6
CONTINUOUS
 10
90.3328097211
 20
238.5705103046
 11
88.1588513802
 21
239.4933008718
  0
LINE
  5
365
100
AcDbEntity
  8
0
100
AcDbLine
 62
7
  6
CONTINUOUS
 10
89.7222142148
 20
242.6862728885
 11
90.1139664158
 21
242.4656642685
  0
LINE
  5
366
100
AcDbEntity
  8
0
100
AcDbLine
 62
7
  6
CONTINUOUS
 10
90.211649496
 20
242.6957911842
 11
89.8786520227
 21
242.8914574155
  0
LINE
  5
367
100
AcDbEntity
  8
0
100
AcDbLine
 62
7
  6
CONTINUOUS
 10
91.4834234286
 20
243.5682244973
 11
91.6401531418
 21
243.4473770046
  0
LINE
  5
368
100
AcDbEntity
  8
0
100
AcDbLine
 62
7
  6
CONTINUOUS
 10
108.6843042195
 20
248.1479627846
 11
108.5628513212
 21
248.380531693
  0
LINE
  5
369
100
AcDbEntity
  8
0
100
AcDbLine
 62
7
  6
CONTINUOUS
 10
129.7691103755
 20
234.4518320171
 11
129.75750809
 21
234.2867468059
  0
LINE
  5
36A
100
AcDbEntity
  8
0
100
AcDbLine
 62
7
  6
CONTINUOUS
 10
130.9463136135
 20
231.5643019777
 11
130.934711328
 21
231.3992167665
  0
LINE
  5
36B
100
AcDbEntity
  8
B-ACHSEN
100
AcDbLine
 62
7
  6
CONTINUOUS
 10
127.2897944218
 20
197.580782691
 11
126.6843557703
 21
192.9102559507
  0
LINE
  5
36C
100
AcDbEntity
  8
0
100
AcDbLine
 62
7
  6
CONTINUOUS
 10
132.9928321496
 20
231.3830555976
 11
132.9625443929
 21
231.2638034913
  0
LINE
  5
36D
100
AcDbEntity
  8
0
100
AcDbLine
 62
7
  6
CONTINUOUS
 10
130.9915016165
 20
235.3243445936
 11
130.5668584323
 21
235.2046753621
  0
LINE
  5
36E
100
AcDbEntity
  8
0
100
AcDbLine
 62
7
  6
CONTINUOUS
 10
130.4695212806
 20
233.5079896281
 11
130.7588452846
 21
233.5724912336
  0
LINE
  5
36F
100
AcDbEntity
  8
0
100
AcDbLine
 62
7
  6
CONTINUOUS
 10
130.6654166157
 20
233.8016598931
 11
130.4437519642
 21
233.7647426153
  0
LINE
  5
370
100
AcDbEntity
  8
0
100
AcDbLine
 62
7
  6
CONTINUOUS
 10
82.3562022168
 20
226.1498358177
 11
82.0625700597
 21
226.111521217
  0
LINE
  5
371
100
AcDbEntity
  8
0
100
AcDbLine
 62
7
  6
CONTINUOUS
 10
83.1767375866
 20
228.08289601
 11
82.8831054296
 21
228.0445814093
  0
LINE
  5
372
100
AcDbEntity
  8
0
100
AcDbLine
 62
7
  6
CONTINUOUS
 10
84.332459549
 20
227.3750489633
 11
84.5477996844
 21
227.3922787439
  0
LINE
  5
373
100
AcDbEntity
  8
0
100
AcDbLine
 62
7
  6
CONTINUOUS
 10
131.7633575327
 20
230.7214618713
 11
131.6093529227
 21
230.7121273672
  0
LINE
  5
374
100
AcDbEntity
  8
0
100
AcDbLine
 62
7
  6
CONTINUOUS
 10
132.4348242521
 20
232.1711457229
 11
132.588828862
 21
232.1804802271
  0
LINE
  5
375
100
AcDbEntity
  8
0
100
AcDbLine
 62
7
  6
CONTINUOUS
 10
131.4811169638
 20
230.4460414396
 11
131.7214674964
 21
230.4371245562
  0
LINE
  5
376
100
AcDbEntity
  8
0
100
AcDbLine
 62
7
  6
CONTINUOUS
 10
87.223432079
 20
234.6758329962
 11
88.6135926067
 21
234.5202885983
  0
LINE
  5
377
100
AcDbEntity
  8
0
100
AcDbLine
 62
7
  6
CONTINUOUS
 10
86.3025867635
 20
235.4469351888
 11
86.4983898877
 21
235.4181388837
  0
LINE
  5
378
100
AcDbEntity
  8
0
100
AcDbLine
 62
7
  6
CONTINUOUS
 10
86.6156092262
 20
235.6942903397
 11
86.4198061021
 21
235.7230866448
  0
LINE
  5
379
100
AcDbEntity
  8
0
100
AcDbLine
 62
7
  6
CONTINUOUS
 10
88.1428177856
 20
235.534890937
 11
88.3973769788
 21
235.4811554035
  0
LINE
  5
37A
100
AcDbEntity
  8
0
100
AcDbLine
 62
7
  6
CONTINUOUS
 10
87.0850705557
 20
236.1468320546
 11
87.3396297489
 21
236.0930965211
  0
LINE
  5
37B
100
AcDbEntity
  8
0
100
AcDbLine
 62
7
  6
CONTINUOUS
 10
88.8621674114
 20
241.150209608
 11
91.0361257524
 21
240.2274190408
  0
LINE
  5
37C
100
AcDbEntity
  8
0
100
AcDbLine
 62
7
  6
CONTINUOUS
 10
91.1533450909
 20
240.5035704969
 11
88.3918305306
 21
241.6757638823
  0
LINE
  5
37D
100
AcDbEntity
  8
0
100
AcDbLine
 62
7
  6
CONTINUOUS
 10
88.9594121865
 20
241.8693834998
 11
89.4294573266
 21
241.6698611753
  0
LINE
  5
37E
100
AcDbEntity
  8
0
100
AcDbLine
 62
7
  6
CONTINUOUS
 10
89.135387147
 20
242.120594674
 11
91.4268567318
 21
241.1479235431
  0
LINE
  5
37F
100
AcDbEntity
  8
0
100
AcDbLine
 62
7
  6
CONTINUOUS
 10
91.5440765175
 20
241.4240760526
 11
88.7825619572
 21
242.5962694381
  0
LINE
  5
380
100
AcDbEntity
  8
0
100
AcDbLine
 62
7
  6
CONTINUOUS
 10
90.1139664158
 20
242.4656642685
 11
90.5252557693
 21
242.2910822957
  0
LINE
  5
381
100
AcDbEntity
  8
0
100
AcDbLine
 62
7
  6
CONTINUOUS
 10
107.5305037703
 20
250.4736521948
 11
107.3483247703
 21
250.7837440727
  0
LINE
  5
382
100
AcDbEntity
  8
0
100
AcDbLine
 62
7
  6
CONTINUOUS
 10
112.692241872
 20
250.3961292253
 11
112.8136947703
 21
250.1635600997
  0
LINE
  5
383
100
AcDbEntity
  8
0
100
AcDbLine
 62
7
  6
CONTINUOUS
 10
113.1780527703
 20
250.2410832864
 11
113.056599872
 21
250.5511751643
  0
LINE
  5
384
100
AcDbEntity
  8
0
100
AcDbLine
 62
7
  6
CONTINUOUS
 10
130.1397731752
 20
241.2844093741
 11
130.1655424113
 21
241.0276565835
  0
LINE
  5
385
100
AcDbEntity
  8
0
100
AcDbLine
 62
7
  6
CONTINUOUS
 10
130.0539156897
 20
234.1403290391
 11
130.046832302
 21
234.3512478846
  0
LINE
  5
386
100
AcDbEntity
  8
0
100
AcDbLine
 62
7
  6
CONTINUOUS
 10
131.9798926696
 20
231.9322259587
 11
131.9592530816
 21
231.0151316118
  0
LINE
  5
387
100
AcDbEntity
  8
0
100
AcDbLine
 62
7
  6
CONTINUOUS
 10
132.2182890677
 20
230.9603816162
 11
132.2389287505
 21
231.8774760018
  0
LINE
  5
388
100
AcDbEntity
  8
0
100
AcDbLine
 62
7
  6
CONTINUOUS
 10
131.952292126
 20
236.8385305754
 11
131.9406898465
 21
236.6734453666
  0
LINE
  5
389
100
AcDbEntity
  8
0
100
AcDbLine
 62
7
  6
CONTINUOUS
 10
133.2518681357
 20
231.328305602
 11
133.2634704152
 21
231.4933908108
  0
LINE
  5
38A
100
AcDbEntity
  8
0
100
AcDbLine
 62
7
  6
CONTINUOUS
 10
84.6075770162
 20
226.2262263757
 11
84.37270044
 21
226.1629715106
  0
LINE
  5
38B
100
AcDbEntity
  8
0
100
AcDbLine
 62
7
  6
CONTINUOUS
 10
82.0823985028
 20
225.8315143961
 11
82.2389828782
 21
225.8736843617
  0
LINE
  5
38C
100
AcDbEntity
  8
0
100
AcDbLine
 62
7
  6
CONTINUOUS
 10
83.2564894935
 20
226.4738208903
 11
83.5696581324
 21
226.5581605582
  0
LINE
  5
38D
100
AcDbEntity
  8
0
100
AcDbLine
 62
7
  6
CONTINUOUS
 10
84.3321676436
 20
227.701080983
 11
84.0189990047
 21
227.6167413152
  0
LINE
  5
38E
100
AcDbEntity
  8
0
100
AcDbLine
 62
7
  6
CONTINUOUS
 10
82.9616895505
 20
227.7396344382
 11
83.11827387
 21
227.7818042721
  0
LINE
  5
38F
100
AcDbEntity
  8
0
100
AcDbLine
 62
7
  6
CONTINUOUS
 10
129.6081446498
 20
240.2658965642
 11
129.8974686599
 21
240.3303980193
  0
LINE
  5
390
100
AcDbEntity
  8
0
100
AcDbLine
 62
7
  6
CONTINUOUS
 10
131.2782610297
 20
235.9757690602
 11
131.4999254199
 21
236.0126868431
  0
LINE
  5
391
100
AcDbEntity
  8
0
100
AcDbLine
 62
7
  6
CONTINUOUS
 10
131.4554704126
 20
236.3152734574
 11
131.2338060224
 21
236.2783556744
  0
LINE
  5
392
100
AcDbEntity
  8
0
100
AcDbLine
 62
7
  6
CONTINUOUS
 10
131.0172709328
 20
235.0675916064
 11
131.1712757566
 21
235.076925586
  0
LINE
  5
393
100
AcDbEntity
  8
0
100
AcDbLine
 62
7
  6
CONTINUOUS
 10
131.299511478
 20
235.3430120284
 11
130.9915016165
 21
235.3243445936
  0
LINE
  5
394
100
AcDbEntity
  8
0
100
AcDbLine
 62
7
  6
CONTINUOUS
 10
132.7170647972
 20
232.4465661449
 11
132.4767142883
 21
232.455483038
  0
LINE
  5
395
100
AcDbEntity
  8
0
100
AcDbLine
 62
7
  6
CONTINUOUS
 10
131.6783560957
 20
233.252489532
 11
132.0050516481
 21
233.2253233397
  0
LINE
  5
396
100
AcDbEntity
  8
0
100
AcDbLine
 62
7
  6
CONTINUOUS
 10
88.7503486507
 20
234.8424656481
 11
87.2231401737
 21
235.0018650159
  0
LINE
  5
397
100
AcDbEntity
  8
0
100
AcDbLine
 62
7
  6
CONTINUOUS
 10
88.4558406954
 20
235.7822471414
 11
88.2600371241
 21
235.811042393
  0
LINE
  5
398
100
AcDbEntity
  8
0
100
AcDbLine
 62
7
  6
CONTINUOUS
 10
87.3393378436
 20
236.4191285408
 11
87.1435342723
 21
236.4479237925
  0
LINE
  5
399
100
AcDbEntity
  8
0
100
AcDbLine
 62
7
  6
CONTINUOUS
 10
87.4556813015
 20
237.6733761258
 11
87.2598777302
 21
237.7021713774
  0
LINE
  5
39A
100
AcDbEntity
  8
0
100
AcDbLine
 62
7
  6
CONTINUOUS
 10
90.5252557693
 20
242.2910822957
 11
90.9560823578
 21
242.1625269353
  0
LINE
  5
39B
100
AcDbEntity
  8
0
100
AcDbLine
 62
7
  6
CONTINUOUS
 10
90.3291607399
 20
242.6459106205
 11
90.211649496
 21
242.6957911842
  0
LINE
  5
39C
100
AcDbEntity
  8
0
100
AcDbLine
 62
7
  6
CONTINUOUS
 10
90.9950089218
 20
242.4175920259
 11
90.818742056
 21
242.4924128714
  0
LINE
  5
39D
100
AcDbEntity
  8
0
100
AcDbLine
 62
7
  6
CONTINUOUS
 10
91.3071565628
 20
243.6430453428
 11
91.4834234286
 21
243.5682244973
  0
LINE
  5
39E
100
AcDbEntity
  8
0
100
AcDbLine
 62
7
  6
CONTINUOUS
 10
91.6398612365
 20
243.7734090243
 11
91.3460830445
 21
243.8981104683
  0
LINE
  5
39F
100
AcDbEntity
  8
0
100
AcDbLine
 62
7
  6
CONTINUOUS
 10
108.3199462195
 20
247.9929167913
 11
108.5628513212
 21
247.6828248863
  0
LINE
  5
3A0
100
AcDbEntity
  8
0
100
AcDbLine
 62
7
  6
CONTINUOUS
 10
107.0446930457
 20
250.6286981338
 11
107.1661457703
 21
250.4736521948
  0
LINE
  5
3A1
100
AcDbEntity
  8
0
100
AcDbLine
 62
7
  6
CONTINUOUS
 10
129.75750809
 20
234.2867468059
 11
129.8019630914
 21
233.9841601893
  0
LINE
  5
3A2
100
AcDbEntity
  8
0
100
AcDbLine
 62
7
  6
CONTINUOUS
 10
130.934711328
 20
231.3992167665
 11
130.9791663295
 21
231.0966301499
  0
LINE
  5
3A3
100
AcDbEntity
  8
0
100
AcDbLine
 62
7
  6
CONTINUOUS
 10
131.2498046188
 20
231.2069653728
 11
131.2053496351
 21
231.5095519967
  0
LINE
  5
3A4
100
AcDbEntity
  8
0
100
AcDbLine
 62
7
  6
CONTINUOUS
 10
132.2976733695
 20
236.7655307561
 11
132.271904267
 21
237.0222832189
  0
LINE
  5
3A5
100
AcDbEntity
  8
RUNDUNGEN
100
AcDbLine
 62
7
  6
CONTINUOUS
 10
141.8802925437
 20
223.6448890859
 11
133.4954535312
 21
203.4020970238
  0
LINE
  5
3A6
100
AcDbEntity
  8
0
100
AcDbLine
 62
7
  6
CONTINUOUS
 10
129.6681103312
 20
242.0542501757
 11
129.3787863027
 21
241.9897487657
  0
LINE
  5
3A7
100
AcDbEntity
  8
0
100
AcDbLine
 62
7
  6
CONTINUOUS
 10
86.4198061021
 20
235.7230866448
 11
86.1261739451
 21
235.6847720441
  0
LINE
  5
3A8
100
AcDbEntity
  8
0
100
AcDbLine
 62
7
  6
CONTINUOUS
 10
88.415600028
 20
236.9943251209
 11
88.6309399399
 21
237.0115543747
  0
LINE
  5
3A9
100
AcDbEntity
  8
0
100
AcDbLine
 62
7
  6
CONTINUOUS
 10
129.7853540862
 20
240.6054008303
 11
129.4773442782
 21
240.5867332644
  0
LINE
  5
3AA
100
AcDbEntity
  8
0
100
AcDbLine
 62
7
  6
CONTINUOUS
 10
88.3973769788
 20
235.4811554035
 11
88.7497648195
 21
235.4945296962
  0
LINE
  5
3AB
100
AcDbEntity
  8
0
100
AcDbLine
 62
7
  6
CONTINUOUS
 10
88.6894036565
 20
237.3126461125
 11
88.4153081226
 21
237.3203571405
  0
LINE
  5
3AC
100
AcDbEntity
  8
0
100
AcDbLine
 62
7
  6
CONTINUOUS
 10
87.2014140136
 20
237.4010796396
 11
87.338461963
 21
237.3972246697
  0
LINE
  5
3AD
100
AcDbEntity
  8
0
100
AcDbLine
 62
7
  6
CONTINUOUS
 10
130.9515654772
 20
236.0029352524
 11
131.2782610297
 21
235.9757690602
  0
LINE
  5
3AE
100
AcDbEntity
  8
0
100
AcDbLine
 62
7
  6
CONTINUOUS
 10
88.1588513802
 20
239.4933008718
 11
90.606321362
 21
239.2148633509
  0
LINE
  5
3AF
100
AcDbEntity
  8
0
100
AcDbLine
 62
7
  6
CONTINUOUS
 10
90.3906895859
 20
239.5236660993
 11
87.62990483
 21
239.8807794181
  0
LINE
  5
3B0
100
AcDbEntity
  8
0
100
AcDbLine
 62
7
  6
CONTINUOUS
 10
91.1908129403
 20
242.3887978277
 11
90.9950089218
 21
242.4175920259
  0
LINE
  5
3B1
100
AcDbEntity
  8
0
100
AcDbLine
 62
7
  6
CONTINUOUS
 10
130.2104852708
 20
233.562739614
 11
130.4695212806
 21
233.5079896281
  0
LINE
  5
3B2
100
AcDbEntity
  8
0
100
AcDbLine
 62
7
  6
CONTINUOUS
 10
132.2570040089
 20
233.3814927045
 11
132.0843134941
 21
233.4179923518
  0
LINE
  5
3B3
100
AcDbEntity
  8
0
100
AcDbLine
 62
7
  6
CONTINUOUS
 10
131.1712757566
 20
235.076925586
 11
131.4303117427
 21
235.0221755905
  0
LINE
  5
3B4
100
AcDbEntity
  8
0
100
AcDbLine
 62
7
  6
CONTINUOUS
 10
131.4722019928
 20
235.306512381
 11
131.299511478
 21
235.3430120284
  0
LINE
  5
3B5
100
AcDbEntity
  8
0
100
AcDbLine
 62
7
  6
CONTINUOUS
 10
131.2710550492
 20
230.5742083337
 11
131.4811169638
 21
230.4460414396
  0
LINE
  5
3B6
100
AcDbEntity
  8
0
100
AcDbLine
 62
7
  6
CONTINUOUS
 10
131.6093529227
 20
230.7121273672
 11
131.5043215466
 21
230.7762118669
  0
LINE
  5
3B7
100
AcDbEntity
  8
0
100
AcDbLine
 62
7
  6
CONTINUOUS
 10
108.8664832195
 20
247.9929167913
 11
108.6843042195
 21
248.1479627846
  0
LINE
  5
3B8
100
AcDbEntity
  8
0
100
AcDbLine
 62
7
  6
CONTINUOUS
 10
107.3483247703
 20
250.7837440727
 11
107.1054194949
 21
251.0163129812
  0
LINE
  5
3B9
100
AcDbEntity
  8
0
100
AcDbLine
 62
7
  6
CONTINUOUS
 10
113.056599872
 20
250.5511751643
 11
112.8136947703
 21
250.8612670422
  0
LINE
  5
3BA
100
AcDbEntity
  8
0
100
AcDbLine
 62
7
  6
CONTINUOUS
 10
126.9243557703
 20
241.0425654952
 11
127.5970432127
 21
239.3925486296
  0
LINE
  5
3BB
100
AcDbEntity
  8
0
100
AcDbLine
 62
7
  6
CONTINUOUS
 10
128.6434458652
 20
236.8258558149
 11
128.7555605459
 21
236.5508527417
  0
LINE
  5
3BC
100
AcDbEntity
  8
0
100
AcDbLine
 62
7
  6
CONTINUOUS
 10
130.2317356954
 20
232.9299825725
 11
130.3251645781
 21
232.7008133885
  0
LINE
  5
3BD
100
AcDbEntity
  8
0
100
AcDbLine
 62
7
  6
CONTINUOUS
 10
130.9791663295
 20
231.0966301499
 11
131.0912809032
 21
230.8216273389
  0
LINE
  5
3BE
100
AcDbEntity
  8
0
100
AcDbLine
 62
7
  6
CONTINUOUS
 10
131.4649960064
 20
229.9049516521
 11
131.5584246753
 21
229.6757829927
  0
LINE
  5
3BF
100
AcDbEntity
  8
0
100
AcDbLine
 62
7
  6
CONTINUOUS
 10
131.3619191925
 20
230.9319625618
 11
131.2498046188
 21
231.2069653728
  0
LINE
  5
3C0
100
AcDbEntity
  8
0
100
AcDbLine
 62
7
  6
CONTINUOUS
 10
131.8967225547
 20
229.8137020286
 11
131.8032938858
 21
230.042870688
  0
LINE
  5
3C1
100
AcDbEntity
  8
0
100
AcDbLine
 62
7
  6
CONTINUOUS
 10
127.9353410921
 20
239.5304676654
 11
127.4121397525
 21
240.8138141056
  0
LINE
  5
3C2
100
AcDbEntity
  8
0
100
AcDbLine
 62
7
  6
CONTINUOUS
 10
131.3522710475
 20
231.7298048121
 11
131.2588419509
 21
231.9589745205
  0
LINE
  5
3C3
100
AcDbEntity
  8
0
100
AcDbLine
 62
7
  6
CONTINUOUS
 10
130.7588452846
 20
233.5724912336
 11
130.6654166157
 21
233.8016598931
  0
LINE
  5
3C4
100
AcDbEntity
  8
0
100
AcDbLine
 62
7
  6
CONTINUOUS
 10
130.6602871012
 20
234.9755067027
 11
131.164802683
 21
233.7379940535
  0
LINE
  5
3C5
100
AcDbEntity
  8
0
100
AcDbLine
 62
7
  6
CONTINUOUS
 10
130.5412117857
 20
241.0739079527
 11
130.4967567784
 21
241.3764945669
  0
LINE
  5
3C6
100
AcDbEntity
  8
0
100
AcDbLine
 62
7
  6
CONTINUOUS
 10
131.6777454492
 20
234.8023403861
 11
131.7222004566
 21
234.4997537719
  0
LINE
  5
3C7
100
AcDbEntity
  8
0
100
AcDbLine
 62
7
  6
CONTINUOUS
 10
132.0115244132
 20
234.5642553581
 11
131.9670694059
 21
234.8668419724
  0
LINE
  5
3C8
100
AcDbEntity
  8
0
100
AcDbLine
 62
7
  6
CONTINUOUS
 10
132.9483771423
 20
231.6856422118
 11
132.9928321496
 21
231.3830555976
  0
LINE
  5
3C9
100
AcDbEntity
  8
0
100
AcDbLine
 62
7
  6
CONTINUOUS
 10
133.2634704152
 20
231.4933908108
 11
133.2190154079
 21
231.7959774251
  0
LINE
  5
3CA
100
AcDbEntity
  8
0
100
AcDbLine
 62
7
  6
CONTINUOUS
 10
88.6907172716
 20
235.8455020065
 11
88.4558406954
 21
235.7822471414
  0
LINE
  5
3CB
100
AcDbEntity
  8
0
100
AcDbLine
 62
7
  6
CONTINUOUS
 10
86.1460021087
 20
235.4047645648
 11
86.3025867635
 21
235.4469351888
  0
LINE
  5
3CC
100
AcDbEntity
  8
0
100
AcDbLine
 62
7
  6
CONTINUOUS
 10
87.3396297489
 20
236.0930965211
 11
87.6527986114
 21
236.1774367157
  0
LINE
  5
3CD
100
AcDbEntity
  8
0
100
AcDbLine
 62
7
  6
CONTINUOUS
 10
88.4153081226
 20
237.3203571405
 11
88.1021392601
 21
237.236016946
  0
LINE
  5
3CE
100
AcDbEntity
  8
0
100
AcDbLine
 62
7
  6
CONTINUOUS
 10
87.044829806
 20
237.358910069
 11
87.2014140136
 21
237.4010796396
  0
LINE
  5
3CF
100
AcDbEntity
  8
0
100
AcDbLine
 62
7
  6
CONTINUOUS
 10
87.2598777302
 20
237.7021713774
 11
86.9662455732
 21
237.6638567767
  0
LINE
  5
3D0
100
AcDbEntity
  8
0
100
AcDbLine
 62
7
  6
CONTINUOUS
 10
129.3677944082
 20
240.2748128016
 11
129.6081446498
 21
240.2658965642
  0
LINE
  5
3D1
100
AcDbEntity
  8
0
100
AcDbLine
 62
7
  6
CONTINUOUS
 10
129.4722151136
 20
241.7605797579
 11
129.7125653419
 21
241.7516635533
  0
LINE
  5
3D2
100
AcDbEntity
  8
0
100
AcDbLine
 62
7
  6
CONTINUOUS
 10
90.9560823578
 20
242.1625269353
 11
91.2889330253
 21
242.1298745895
  0
LINE
  5
3D3
100
AcDbEntity
  8
0
100
AcDbLine
 62
7
  6
CONTINUOUS
 10
91.3460830445
 20
243.8981104683
 11
91.0132324182
 21
243.9307627967
  0
LINE
  5
3D4
100
AcDbEntity
  8
0
100
AcDbLine
 62
7
  6
CONTINUOUS
 10
91.1113524621
 20
243.6718395759
 11
91.3071565628
 21
243.6430453428
  0
LINE
  5
3D5
100
AcDbEntity
  8
0
100
AcDbLine
 62
7
  6
CONTINUOUS
 10
90.2494091683
 20
244.2549865303
 11
90.0536051499
 21
244.2837807285
  0
LINE
  5
3D6
100
AcDbEntity
  8
0
100
AcDbLine
 62
7
  6
CONTINUOUS
 10
131.2338060224
 20
236.2783556744
 11
131.0611152937
 21
236.3148558463
  0
LINE
  5
3D7
100
AcDbEntity
  8
0
100
AcDbLine
 62
7
  6
CONTINUOUS
 10
130.6738435863
 20
236.1035193995
 11
130.9515654772
 21
236.0029352524
  0
LINE
  5
3D8
100
AcDbEntity
  8
0
100
AcDbLine
 62
7
  6
CONTINUOUS
 10
130.4437519642
 20
233.7647426153
 11
130.2523755446
 21
233.8470764142
  0
LINE
  5
3D9
100
AcDbEntity
  8
0
100
AcDbLine
 62
7
  6
CONTINUOUS
 10
132.4483804286
 20
233.2991589056
 11
132.2570040089
 21
233.3814927045
  0
LINE
  5
3DA
100
AcDbEntity
  8
0
100
AcDbLine
 62
7
  6
CONTINUOUS
 10
131.6635784125
 20
235.2241785822
 11
131.4722019928
 21
235.306512381
  0
LINE
  5
3DB
100
AcDbEntity
  8
0
100
AcDbLine
 62
7
  6
CONTINUOUS
 10
130.0004231423
 20
233.6909070325
 11
130.2104852708
 21
233.562739614
  0
LINE
  5
3DC
100
AcDbEntity
  8
0
100
AcDbLine
 62
7
  6
CONTINUOUS
 10
132.588828862
 20
232.1804802271
 11
132.6938602381
 21
232.1163957274
  0
LINE
  5
3DD
100
AcDbEntity
  8
0
100
AcDbLine
 62
7
  6
CONTINUOUS
 10
132.927126694
 20
232.3183992436
 11
132.7170647972
 21
232.4465661449
  0
LINE
  5
3DE
100
AcDbEntity
  8
0
100
AcDbLine
 62
7
  6
CONTINUOUS
 10
132.0050516481
 20
233.2253233397
 11
132.2151137588
 21
233.0971559139
  0
LINE
  5
3DF
100
AcDbEntity
  8
0
100
AcDbLine
 62
7
  6
CONTINUOUS
 10
131.4303117427
 20
235.0221755905
 11
131.535342905
 21
234.9580916153
  0
LINE
  5
3E0
100
AcDbEntity
  8
0
100
AcDbLine
 62
7
  6
CONTINUOUS
 10
108.5628513212
 20
247.6828248863
 11
108.8057567703
 21
247.5277789269
  0
LINE
  5
3E1
100
AcDbEntity
  8
0
100
AcDbLine
 62
7
  6
CONTINUOUS
 10
112.510062872
 20
250.5511751643
 11
112.692241872
 21
250.3961292253
  0
LINE
  5
3E2
100
AcDbEntity
  8
0
100
AcDbLine
 62
7
  6
CONTINUOUS
 10
132.5720972818
 20
233.1892413034
 11
132.4483804286
 21
233.2991589056
  0
LINE
  5
3E3
100
AcDbEntity
  8
0
100
AcDbLine
 62
7
  6
CONTINUOUS
 10
131.7872952657
 20
235.11426098
 11
131.6635784125
 21
235.2241785822
  0
LINE
  5
3E4
100
AcDbEntity
  8
0
100
AcDbLine
 62
7
  6
CONTINUOUS
 10
131.5043215466
 20
230.7762118669
 11
131.3619191925
 21
230.9319625618
  0
LINE
  5
3E5
100
AcDbEntity
  8
0
100
AcDbLine
 62
7
  6
CONTINUOUS
 10
132.6938602381
 20
232.1163957274
 11
132.8362625686
 21
231.9606450228
  0
LINE
  5
3E6
100
AcDbEntity
  8
0
100
AcDbLine
 62
7
  6
CONTINUOUS
 10
131.535342905
 20
234.9580916153
 11
131.6777454492
 21
234.8023403861
  0
LINE
  5
3E7
100
AcDbEntity
  8
0
100
AcDbLine
 62
7
  6
CONTINUOUS
 10
132.733185731
 20
232.9876559228
 11
132.5720972818
 21
233.1892413034
  0
LINE
  5
3E8
100
AcDbEntity
  8
0
100
AcDbLine
 62
7
  6
CONTINUOUS
 10
130.512755351
 20
236.3051042556
 11
130.6738435863
 21
236.1035193995
  0
LINE
  5
3E9
100
AcDbEntity
  8
0
100
AcDbLine
 62
7
  6
CONTINUOUS
 10
131.0912809032
 20
230.8216273389
 11
131.2710550492
 21
230.5742083337
  0
LINE
  5
3EA
100
AcDbEntity
  8
0
100
AcDbLine
 62
7
  6
CONTINUOUS
 10
132.2151137588
 20
233.0971559139
 11
132.394887899
 21
232.8497369062
  0
LINE
  5
3EB
100
AcDbEntity
  8
0
100
AcDbLine
 62
7
  6
CONTINUOUS
 10
133.1069008342
 20
232.070980236
 11
132.927126694
 21
232.3183992436
  0
LINE
  5
3EC
100
AcDbEntity
  8
0
100
AcDbLine
 62
7
  6
CONTINUOUS
 10
131.9670694059
 20
234.8668419724
 11
131.7872952657
 21
235.11426098
  0
LINE
  5
3ED
100
AcDbEntity
  8
0
100
AcDbLine
 62
7
  6
CONTINUOUS
 10
129.8019630914
 20
233.9841601893
 11
130.0004231423
 21
233.6909070325
  0
LINE
  5
3EE
100
AcDbEntity
  8
0
100
AcDbLine
 62
7
  6
CONTINUOUS
 10
130.2523755446
 20
233.8470764142
 11
130.0539156897
 21
234.1403290391
  0
LINE
  5
3EF
100
AcDbEntity
  8
0
100
AcDbLine
 62
7
  6
CONTINUOUS
 10
131.3420123745
 20
234.0774979648
 11
130.9496113664
 21
235.0400078031
  0
LINE
  5
3F0
100
AcDbEntity
  8
0
100
AcDbLine
 62
7
  6
CONTINUOUS
 10
130.1764116298
 20
237.1301126884
 11
130.512755351
 21
236.3051042556
  0
LINE
  5
3F1
100
AcDbEntity
  8
0
100
AcDbLine
 62
7
  6
CONTINUOUS
 10
132.8459107373
 20
231.1628027822
 11
132.9393398338
 21
230.9336330737
  0
LINE
  5
3F2
100
AcDbEntity
  8
0
100
AcDbLine
 62
7
  6
CONTINUOUS
 10
130.9373984405
 20
236.4247734485
 11
130.5823690283
 21
237.2956155083
  0
LINE
  5
3F3
100
AcDbEntity
  8
0
100
AcDbLine
 62
7
  6
CONTINUOUS
 10
132.8362625686
 20
231.9606450228
 11
132.9483771423
 21
231.6856422118
  0
LINE
  5
3F4
100
AcDbEntity
  8
0
100
AcDbLine
 62
7
  6
CONTINUOUS
 10
133.2190154079
 20
231.7959774251
 11
133.1069008342
 21
232.070980236
  0
LINE
  5
3F5
100
AcDbEntity
  8
0
100
AcDbLine
 62
7
  6
CONTINUOUS
 10
132.4902708925
 20
233.5834951716
 11
132.3968420098
 21
233.8126643556
  0
LINE
  5
3F6
100
AcDbEntity
  8
0
100
AcDbLine
 62
7
  6
CONTINUOUS
 10
129.3787863027
 20
241.9897487657
 11
129.4722151136
 21
241.7605797579
  0
LINE
  5
3F7
100
AcDbEntity
  8
0
100
AcDbLine
 62
7
  6
CONTINUOUS
 10
130.0650301438
 20
241.4677445377
 11
130.1397731752
 21
241.2844093741
  0
LINE
  5
3F8
100
AcDbEntity
  8
0
100
AcDbLine
 62
7
  6
CONTINUOUS
 10
131.5972627138
 20
237.7093726352
 11
131.952292126
 21
236.8385305754
  0
LINE
  5
3F9
100
AcDbEntity
  8
0
100
AcDbLine
 62
7
  6
CONTINUOUS
 10
132.271904267
 20
237.0222832189
 11
131.8234458652
 21
238.1222947249
  0
LINE
  5
3FA
100
AcDbEntity
  8
0
100
AcDbLine
 62
7
  6
CONTINUOUS
 10
130.4967567784
 20
241.3764945669
 11
130.4220137203
 21
241.5598297961
  0
LINE
  5
3FB
100
AcDbEntity
  8
0
100
AcDbLine
 62
7
  6
CONTINUOUS
 10
112.2671577703
 20
247.4502559507
 11
112.5707896686
 21
247.5277789269
  0
LINE
  5
3FC
100
AcDbEntity
  8
0
100
AcDbLine
 62
7
  6
CONTINUOUS
 10
109.3522937703
 20
247.4502559507
 11
109.6559253212
 21
247.5277789269
  0
LINE
  5
3FD
100
AcDbEntity
  8
0
100
AcDbLine
 62
7
  6
CONTINUOUS
 10
91.2889330253
 20
242.1298745895
 11
91.5825652029
 21
242.1681891815
  0
LINE
  5
3FE
100
AcDbEntity
  8
0
100
AcDbLine
 62
7
  6
CONTINUOUS
 10
90.0536051499
 20
244.2837807285
 11
89.7599729929
 21
244.2454661278
  0
LINE
  5
3FF
100
AcDbEntity
  8
0
100
AcDbLine
 62
7
  6
CONTINUOUS
 10
91.4061523639
 20
242.4060260455
 11
91.1908129403
 21
242.3887978277
  0
LINE
  5
400
100
AcDbEntity
  8
0
100
AcDbLine
 62
7
  6
CONTINUOUS
 10
89.9363858113
 20
244.0076292724
 11
90.1517260881
 21
244.0248596146
  0
LINE
  5
401
100
AcDbEntity
  8
0
100
AcDbLine
 62
7
  6
CONTINUOUS
 10
130.0134916448
 20
241.9812501844
 11
129.6681103312
 21
242.0542501757
  0
LINE
  5
402
100
AcDbEntity
  8
0
100
AcDbLine
 62
7
  6
CONTINUOUS
 10
108.8057567703
 20
247.5277789269
 11
109.1093883212
 21
247.4502559507
  0
LINE
  5
403
100
AcDbEntity
  8
0
100
AcDbLine
 62
7
  6
CONTINUOUS
 10
129.4773442782
 20
240.5867332644
 11
127.2626536497
 21
241.1804845311
  0
LINE
  5
404
100
AcDbEntity
  8
0
100
AcDbLine
 62
7
  6
CONTINUOUS
 10
127.4121397525
 20
240.8138141056
 11
129.3677944082
 21
240.2748128016
  0
LINE
  5
405
100
AcDbEntity
  8
0
100
AcDbLine
 62
7
  6
CONTINUOUS
 10
109.1093883212
 20
247.9153938218
 11
108.8664832195
 21
247.9929167913
  0
LINE
  5
406
100
AcDbEntity
  8
0
100
AcDbLine
 62
7
  6
CONTINUOUS
 10
106.8625140457
 20
250.7062211032
 11
107.0446930457
 21
250.6286981338
  0
LINE
  5
407
100
AcDbEntity
  8
0
100
AcDbLine
 62
7
  6
CONTINUOUS
 10
129.7125653419
 20
241.7516635533
 11
129.9039417615
 21
241.6693297544
  0
LINE
  5
408
100
AcDbEntity
  8
0
100
AcDbLine
 62
7
  6
CONTINUOUS
 10
112.8136947703
 20
250.8612670422
 11
112.5707896686
 21
251.0163129812
  0
LINE
  5
409
100
AcDbEntity
  8
0
100
AcDbLine
 62
7
  6
CONTINUOUS
 10
131.0611152937
 20
236.3148558463
 11
130.9373984405
 21
236.4247734485
  0
LINE
  5
40A
100
AcDbEntity
  8
0
100
AcDbLine
 62
7
  6
CONTINUOUS
 10
129.9039417615
 20
241.6693297544
 11
130.0650301438
 21
241.4677445377
  0
LINE
  5
40B
100
AcDbEntity
  8
0
100
AcDbLine
 62
7
  6
CONTINUOUS
 10
130.4220137203
 20
241.5598297961
 11
130.2235538223
 21
241.8530825946
  0
LINE
  5
40C
100
AcDbEntity
  8
RUNDUNGEN
100
AcDbLine
 62
7
  6
CONTINUOUS
 10
140.9546771921
 20
227.4102559507
 11
133.1620958157
 21
246.2232115955
  0
LINE
  5
40D
100
AcDbEntity
  8
B-ACHSEN
100
AcDbLine
 62
7
  6
CONTINUOUS
 10
145.6843557703
 20
224.4102559507
 11
145.6843557703
 21
227.4102559507
  0
LINE
  5
40E
100
AcDbEntity
  8
B-ACHSEN
100
AcDbLine
 62
7
  6
CONTINUOUS
 10
117.1843557703
 20
169.9102559507
 11
116.1843557703
 21
168.9102559507
  0
LINE
  5
40F
100
AcDbEntity
  8
0
100
AcDbLine
 62
7
  6
CONTINUOUS
 10
90.9547687015
 20
243.6296710588
 11
91.1113524621
 21
243.6718395759
  0
LINE
  5
410
100
AcDbEntity
  8
0
100
AcDbLine
 62
7
  6
CONTINUOUS
 10
91.0132324182
 20
243.9307627967
 11
90.7783558831
 21
243.8675079141
  0
LINE
  5
411
100
AcDbEntity
  8
0
100
AcDbLine
 62
7
  6
CONTINUOUS
 10
105.3443557703
 20
247.4502559507
 11
105.7087137703
 21
247.4502559507
  0
LINE
  5
412
100
AcDbEntity
  8
0
100
AcDbLine
 62
7
  6
CONTINUOUS
 10
107.2268720457
 20
247.4502559507
 11
107.6519564949
 21
247.4502559507
  0
LINE
  5
413
100
AcDbEntity
  8
0
100
AcDbLine
 62
7
  6
CONTINUOUS
 10
109.1093883212
 20
247.4502559507
 11
109.3522937703
 21
247.4502559507
  0
LINE
  5
414
100
AcDbEntity
  8
0
100
AcDbLine
 62
7
  6
CONTINUOUS
 10
110.8097257703
 20
247.4502559507
 11
112.2671577703
 21
247.4502559507
  0
LINE
  5
415
100
AcDbEntity
  8
0
100
AcDbLine
 62
7
  6
CONTINUOUS
 10
112.2671577703
 20
247.9153938218
 11
111.1740837703
 21
247.9153938218
  0
LINE
  5
416
100
AcDbEntity
  8
0
100
AcDbLine
 62
7
  6
CONTINUOUS
 10
109.3522937703
 20
247.9153938218
 11
109.1093883212
 21
247.9153938218
  0
LINE
  5
417
100
AcDbEntity
  8
0
100
AcDbLine
 62
7
  6
CONTINUOUS
 10
105.7087137703
 20
249.078238527
 11
106.741061408
 21
249.078238527
  0
LINE
  5
418
100
AcDbEntity
  8
0
100
AcDbLine
 62
7
  6
CONTINUOUS
 10
106.8625140457
 20
249.5433763438
 11
105.7087137703
 21
249.5433763438
  0
LINE
  5
419
100
AcDbEntity
  8
0
100
AcDbLine
 62
7
  6
CONTINUOUS
 10
111.1740837703
 20
250.6286981338
 11
112.2671577703
 21
250.6286981338
  0
LINE
  5
41A
100
AcDbEntity
  8
0
100
AcDbLine
 62
7
  6
CONTINUOUS
 10
105.7087137703
 20
250.7062211032
 11
106.8625140457
 21
250.7062211032
  0
LINE
  5
41B
100
AcDbEntity
  8
0
100
AcDbLine
 62
7
  6
CONTINUOUS
 10
107.1054194949
 20
251.0163129812
 11
106.8017877703
 21
251.0938359507
  0
LINE
  5
41C
100
AcDbEntity
  8
0
100
AcDbLine
 62
7
  6
CONTINUOUS
 10
112.5707896686
 20
251.0163129812
 11
112.2671577703
 21
251.0938359507
  0
LINE
  5
41D
100
AcDbEntity
  8
0
100
AcDbLine
 62
7
  6
CONTINUOUS
 10
112.2671577703
 20
250.6286981338
 11
112.510062872
 21
250.5511751643
  0
LINE
  5
41E
100
AcDbEntity
  8
0
100
AcDbLine
 62
7
  6
CONTINUOUS
 10
130.2235538223
 20
241.8530825946
 11
130.0134916448
 21
241.9812501844
  0
LINE
  5
41F
100
AcDbEntity
  8
0
100
AcDbLine
 62
7
  6
CONTINUOUS
 10
112.2671577703
 20
251.0938359507
 11
110.8097257703
 21
251.0938359507
  0
LINE
  5
420
100
AcDbEntity
  8
0
100
AcDbLine
 62
7
  6
CONTINUOUS
 10
110.3239152195
 20
251.0938359507
 11
109.9595572195
 21
251.0938359507
  0
LINE
  5
421
100
AcDbEntity
  8
0
100
AcDbLine
 62
7
  6
CONTINUOUS
 10
108.5021252195
 20
251.0938359507
 11
108.1377670457
 21
251.0938359507
  0
LINE
  5
422
100
AcDbEntity
  8
0
100
AcDbLine
 62
7
  6
CONTINUOUS
 10
106.8017877703
 20
251.0938359507
 11
105.3443557703
 21
251.0938359507
  0
LINE
  5
423
100
AcDbEntity
  8
RUNDUNGEN
100
AcDbLine
 62
7
  6
CONTINUOUS
 10
130.9973114151
 20
248.3879959961
 11
110.7150894998
 21
256.7891673885
  0
LINE
  5
424
100
AcDbEntity
  8
B-ACHSEN
100
AcDbLine
 62
7
  6
CONTINUOUS
 10
288.3771299929
 20
168.9102559507
 11
302.3771299929
 21
168.9102559507
  0
LINE
  5
425
100
AcDbEntity
  8
B-ACHSEN
100
AcDbLine
 62
7
  6
CONTINUOUS
 10
287.3771299929
 20
169.9102559507
 11
303.3771299929
 21
169.9102559507
  0
LINE
  5
426
100
AcDbEntity
  8
B-ACHSEN
100
AcDbLine
 62
7
  6
CONTINUOUS
 10
287.3771299929
 20
169.9102559507
 11
288.3771299929
 21
168.9102559507
  0
LINE
  5
427
100
AcDbEntity
  8
B-ACHSEN
100
AcDbLine
 62
7
  6
CONTINUOUS
 10
287.3771299929
 20
186.9102559507
 11
303.3771299929
 21
186.9102559507
  0
LINE
  5
428
100
AcDbEntity
  8
B-ACHSEN
100
AcDbLine
 62
7
  6
CONTINUOUS
 10
277.8772321379
 20
192.9102559507
 11
312.8770278479
 21
192.9102559507
  0
LINE
  5
429
100
AcDbEntity
  8
B-ACHSEN
100
AcDbLine
 62
7
  6
CONTINUOUS
 10
276.2099374061
 20
205.7714559064
 11
277.8771299929
 21
192.9102559507
  0
LINE
  5
42A
100
AcDbEntity
  8
B-ACHSEN
100
AcDbLine
 62
7
  6
CONTINUOUS
 10
279.3771299929
 20
224.4102559507
 11
279.3771299929
 21
227.4102559507
  0
LINE
  5
42B
100
AcDbEntity
  8
B-ACHSEN
100
AcDbLine
 62
7
  6
CONTINUOUS
 10
284.3771299929
 20
224.4102559507
 11
284.3771299929
 21
227.4102559507
  0
LINE
  5
42C
100
AcDbEntity
  8
B-ACHSEN
100
AcDbLine
 62
7
  6
CONTINUOUS
 10
287.3771299929
 20
186.9102559507
 11
287.3771299929
 21
169.9102559507
  0
LINE
  5
42D
100
AcDbEntity
  8
RUNDUNGEN
100
AcDbLine
 62
7
  6
CONTINUOUS
 10
288.3771299929
 20
219.9102559507
 11
288.3771299929
 21
253.0936492584
  0
LINE
  5
42E
100
AcDbEntity
  8
B-ACHSEN
100
AcDbLine
 62
8
  6
HIDDEN
 10
314.3547242645
 20
206.9102559507
 11
310.3771285519
 21
206.9102559507
  0
LINE
  5
42F
100
AcDbEntity
  8
B-ACHSEN
100
AcDbLine
 62
8
  6
HIDDEN
 10
280.3771312004
 20
206.9102559507
 11
276.3995289565
 21
206.9102559507
  0
LINE
  5
430
100
AcDbEntity
  8
B-ACHSEN
100
AcDbLine
 62
2
  6
CENTER
 10
295.3771299929
 20
165.9102559507
 11
295.3771299929
 21
259.1252769202
  0
LINE
  5
431
100
AcDbEntity
  8
B-ACHSEN
100
AcDbLine
 62
7
  6
CONTINUOUS
 10
288.5671299929
 20
190.9902559507
 11
287.3771299929
 21
186.9102559507
  0
LINE
  5
432
100
AcDbEntity
  8
B-ACHSEN
100
AcDbLine
 62
7
  6
CONTINUOUS
 10
302.1871299929
 20
190.9902559507
 11
303.3771299929
 21
186.9102559507
  0
LINE
  5
433
100
AcDbEntity
  8
RUNDUNGEN
100
AcDbLine
 62
7
  6
CONTINUOUS
 10
302.3771299929
 20
219.9102559507
 11
302.3771299929
 21
253.0936492584
  0
LINE
  5
434
100
AcDbEntity
  8
0
100
AcDbLine
 62
7
  6
CONTINUOUS
 10
302.8771299929
 20
251.0938359507
 11
302.8771299929
 21
247.4502559507
  0
LINE
  5
435
100
AcDbEntity
  8
0
100
AcDbLine
 62
7
  6
CONTINUOUS
 10
302.8771299929
 20
244.2837807285
 11
302.8771299929
 21
237.7057879846
  0
LINE
  5
436
100
AcDbEntity
  8
0
100
AcDbLine
 62
7
  6
CONTINUOUS
 10
302.8771299929
 20
237.7021713774
 11
302.8771299929
 21
230.2957242654
  0
LINE
  5
437
100
AcDbEntity
  8
0
100
AcDbLine
 62
7
  6
CONTINUOUS
 10
302.8771299929
 20
230.042870688
 11
302.8771299929
 21
223.5202559507
  0
LINE
  5
438
100
AcDbEntity
  8
B-ACHSEN
100
AcDbLine
 62
7
  6
CONTINUOUS
 10
303.3771299929
 20
186.9102559507
 11
303.3771299929
 21
169.9102559507
  0
LINE
  5
439
100
AcDbEntity
  8
B-ACHSEN
100
AcDbLine
 62
7
  6
CONTINUOUS
 10
306.3771299929
 20
224.4102559507
 11
306.3771299929
 21
227.4102559507
  0
LINE
  5
43A
100
AcDbEntity
  8
0
100
AcDbLine
 62
7
  6
CONTINUOUS
 10
302.3771299929
 20
223.5202559507
 11
302.8771299929
 21
223.5202559507
  0
LINE
  5
43B
100
AcDbEntity
  8
B-ACHSEN
100
AcDbLine
 62
7
  6
CONTINUOUS
 10
279.3771299929
 20
224.4102559507
 11
288.3771299929
 21
224.4102559507
  0
LINE
  5
43C
100
AcDbEntity
  8
B-ACHSEN
100
AcDbLine
 62
7
  6
CONTINUOUS
 10
302.8771299929
 20
224.4102559507
 11
311.3771299929
 21
224.4102559507
  0
LINE
  5
43D
100
AcDbEntity
  8
0
100
AcDbLine
 62
7
  6
CONTINUOUS
 10
302.3771299929
 20
224.6924493361
 11
302.8771299929
 21
224.6924493361
  0
LINE
  5
43E
100
AcDbEntity
  8
0
100
AcDbLine
 62
7
  6
CONTINUOUS
 10
302.3771299929
 20
225.7970551603
 11
302.8771299929
 21
225.7970551603
  0
LINE
  5
43F
100
AcDbEntity
  8
0
100
AcDbLine
 62
7
  6
CONTINUOUS
 10
302.3771299929
 20
226.0022411357
 11
302.8771299929
 21
226.0022411357
  0
LINE
  5
440
100
AcDbEntity
  8
0
100
AcDbLine
 62
7
  6
CONTINUOUS
 10
302.3771299929
 20
226.111521217
 11
302.8771299929
 21
226.111521217
  0
LINE
  5
441
100
AcDbEntity
  8
0
100
AcDbLine
 62
7
  6
CONTINUOUS
 10
302.3771299929
 20
226.1498358177
 11
302.8771299929
 21
226.1498358177
  0
LINE
  5
442
100
AcDbEntity
  8
0
100
AcDbLine
 62
7
  6
CONTINUOUS
 10
302.3771299929
 20
226.1917670256
 11
302.8771299929
 21
226.1917670256
  0
LINE
  5
443
100
AcDbEntity
  8
0
100
AcDbLine
 62
7
  6
CONTINUOUS
 10
302.3771299929
 20
226.2262263757
 11
302.8771299929
 21
226.2262263757
  0
LINE
  5
444
100
AcDbEntity
  8
B-ACHSEN
100
AcDbLine
 62
7
  6
CONTINUOUS
 10
311.3771299929
 20
224.4102559507
 11
311.3771299929
 21
227.4102559507
  0
LINE
  5
445
100
AcDbEntity
  8
0
100
AcDbLine
 62
7
  6
CONTINUOUS
 10
302.3771299929
 20
226.385386889
 11
302.8771299929
 21
226.385386889
  0
LINE
  5
446
100
AcDbEntity
  8
0
100
AcDbLine
 62
7
  6
CONTINUOUS
 10
302.3771299929
 20
226.4738208903
 11
302.8771299929
 21
226.4738208903
  0
LINE
  5
447
100
AcDbEntity
  8
0
100
AcDbLine
 62
7
  6
CONTINUOUS
 10
302.3771299929
 20
226.5275566872
 11
302.8771299929
 21
226.5275566872
  0
LINE
  5
448
100
AcDbEntity
  8
0
100
AcDbLine
 62
7
  6
CONTINUOUS
 10
302.3771299929
 20
226.6273178843
 11
302.8771299929
 21
226.6273178843
  0
LINE
  5
449
100
AcDbEntity
  8
0
100
AcDbLine
 62
7
  6
CONTINUOUS
 10
302.3771299929
 20
226.7731043421
 11
302.8771299929
 21
226.7731043421
  0
LINE
  5
44A
100
AcDbEntity
  8
0
100
AcDbLine
 62
7
  6
CONTINUOUS
 10
302.3771299929
 20
227.0569662645
 11
302.8771299929
 21
227.0569662645
  0
LINE
  5
44B
100
AcDbEntity
  8
0
100
AcDbLine
 62
7
  6
CONTINUOUS
 10
302.3771299929
 20
227.2909478866
 11
302.8771299929
 21
227.2909478866
  0
LINE
  5
44C
100
AcDbEntity
  8
B-ACHSEN
100
AcDbLine
 62
7
  6
CONTINUOUS
 10
279.3771299929
 20
227.4102559507
 11
288.3771299929
 21
227.4102559507
  0
LINE
  5
44D
100
AcDbEntity
  8
B-ACHSEN
100
AcDbLine
 62
7
  6
CONTINUOUS
 10
302.8771299929
 20
227.4102559507
 11
311.3771299929
 21
227.4102559507
  0
LINE
  5
44E
100
AcDbEntity
  8
0
100
AcDbLine
 62
7
  6
CONTINUOUS
 10
302.3771299929
 20
227.4999892269
 11
302.8771299929
 21
227.4999892269
  0
LINE
  5
44F
100
AcDbEntity
  8
0
100
AcDbLine
 62
7
  6
CONTINUOUS
 10
302.3771299929
 20
227.7301153525
 11
302.8771299929
 21
227.7301153525
  0
LINE
  5
450
100
AcDbEntity
  8
0
100
AcDbLine
 62
7
  6
CONTINUOUS
 10
302.3771299929
 20
227.9353011963
 11
302.8771299929
 21
227.9353011963
  0
LINE
  5
451
100
AcDbEntity
  8
0
100
AcDbLine
 62
7
  6
CONTINUOUS
 10
302.3771299929
 20
228.0445814093
 11
302.8771299929
 21
228.0445814093
  0
LINE
  5
452
100
AcDbEntity
  8
0
100
AcDbLine
 62
7
  6
CONTINUOUS
 10
302.3771299929
 20
228.08289601
 11
302.8771299929
 21
228.08289601
  0
LINE
  5
453
100
AcDbEntity
  8
0
100
AcDbLine
 62
7
  6
CONTINUOUS
 10
302.3771299929
 20
229.5711248839
 11
302.8771299929
 21
229.5711248839
  0
LINE
  5
454
100
AcDbEntity
  8
0
100
AcDbLine
 62
7
  6
CONTINUOUS
 10
302.3771299929
 20
229.9393270008
 11
302.8771299929
 21
229.9393270008
  0
LINE
  5
455
100
AcDbEntity
  8
0
100
AcDbLine
 62
7
  6
CONTINUOUS
 10
302.3771299929
 20
230.042870688
 11
302.8771299929
 21
230.042870688
  0
LINE
  5
456
100
AcDbEntity
  8
0
100
AcDbLine
 62
7
  6
CONTINUOUS
 10
302.3771299929
 20
230.2957242654
 11
302.8771299929
 21
230.2957242654
  0
LINE
  5
457
100
AcDbEntity
  8
0
100
AcDbLine
 62
7
  6
CONTINUOUS
 10
302.3771299929
 20
230.4204257095
 11
302.8771299929
 21
230.4204257095
  0
LINE
  5
458
100
AcDbEntity
  8
0
100
AcDbLine
 62
7
  6
CONTINUOUS
 10
302.3771299929
 20
231.0647792825
 11
302.8771299929
 21
231.0647792825
  0
LINE
  5
459
100
AcDbEntity
  8
0
100
AcDbLine
 62
7
  6
CONTINUOUS
 10
302.3771299929
 20
231.0966301499
 11
302.8771299929
 21
231.0966301499
  0
LINE
  5
45A
100
AcDbEntity
  8
0
100
AcDbLine
 62
7
  6
CONTINUOUS
 10
302.3771299929
 20
231.3992167665
 11
302.8771299929
 21
231.3992167665
  0
LINE
  5
45B
100
AcDbEntity
  8
0
100
AcDbLine
 62
7
  6
CONTINUOUS
 10
302.3771299929
 20
231.5643019777
 11
302.8771299929
 21
231.5643019777
  0
LINE
  5
45C
100
AcDbEntity
  8
0
100
AcDbLine
 62
7
  6
CONTINUOUS
 10
302.3771299929
 20
231.6206988366
 11
302.8771299929
 21
231.6206988366
  0
LINE
  5
45D
100
AcDbEntity
  8
0
100
AcDbLine
 62
7
  6
CONTINUOUS
 10
302.3771299929
 20
232.0564879882
 11
302.8771299929
 21
232.0564879882
  0
LINE
  5
45E
100
AcDbEntity
  8
0
100
AcDbLine
 62
7
  6
CONTINUOUS
 10
302.3771299929
 20
232.3326394442
 11
302.8771299929
 21
232.3326394442
  0
LINE
  5
45F
100
AcDbEntity
  8
B-ACHSEN
100
AcDbLine
 62
7
  6
CONTINUOUS
 10
314.5443225798
 20
205.7714559064
 11
312.8771299929
 21
192.9102559507
  0
LINE
  5
460
100
AcDbEntity
  8
0
100
AcDbLine
 62
7
  6
CONTINUOUS
 10
302.3771299929
 20
233.6213460635
 11
302.8771299929
 21
233.6213460635
  0
LINE
  5
461
100
AcDbEntity
  8
0
100
AcDbLine
 62
7
  6
CONTINUOUS
 10
302.3771299929
 20
233.8974975195
 11
302.8771299929
 21
233.8974975195
  0
LINE
  5
462
100
AcDbEntity
  8
0
100
AcDbLine
 62
7
  6
CONTINUOUS
 10
302.3771299929
 20
234.2657001632
 11
302.8771299929
 21
234.2657001632
  0
LINE
  5
463
100
AcDbEntity
  8
0
100
AcDbLine
 62
7
  6
CONTINUOUS
 10
302.3771299929
 20
235.3703059873
 11
302.8771299929
 21
235.3703059873
  0
LINE
  5
464
100
AcDbEntity
  8
0
100
AcDbLine
 62
7
  6
CONTINUOUS
 10
302.3771299929
 20
235.5754915677
 11
302.8771299929
 21
235.5754915677
  0
LINE
  5
465
100
AcDbEntity
  8
0
100
AcDbLine
 62
7
  6
CONTINUOUS
 10
302.3771299929
 20
235.6847720441
 11
302.8771299929
 21
235.6847720441
  0
LINE
  5
466
100
AcDbEntity
  8
0
100
AcDbLine
 62
7
  6
CONTINUOUS
 10
302.3771299929
 20
235.7230866448
 11
302.8771299929
 21
235.7230866448
  0
LINE
  5
467
100
AcDbEntity
  8
0
100
AcDbLine
 62
7
  6
CONTINUOUS
 10
302.3771299929
 20
235.811042393
 11
302.8771299929
 21
235.811042393
  0
LINE
  5
468
100
AcDbEntity
  8
0
100
AcDbLine
 62
7
  6
CONTINUOUS
 10
302.3771299929
 20
235.8455020065
 11
302.8771299929
 21
235.8455020065
  0
LINE
  5
469
100
AcDbEntity
  8
0
100
AcDbLine
 62
7
  6
CONTINUOUS
 10
302.3771299929
 20
236.0046630465
 11
302.8771299929
 21
236.0046630465
  0
LINE
  5
46A
100
AcDbEntity
  8
0
100
AcDbLine
 62
7
  6
CONTINUOUS
 10
302.3771299929
 20
236.0930965211
 11
302.8771299929
 21
236.0930965211
  0
LINE
  5
46B
100
AcDbEntity
  8
0
100
AcDbLine
 62
7
  6
CONTINUOUS
 10
302.3771299929
 20
236.1468320546
 11
302.8771299929
 21
236.1468320546
  0
LINE
  5
46C
100
AcDbEntity
  8
0
100
AcDbLine
 62
7
  6
CONTINUOUS
 10
302.3771299929
 20
236.2465932518
 11
302.8771299929
 21
236.2465932518
  0
LINE
  5
46D
100
AcDbEntity
  8
0
100
AcDbLine
 62
7
  6
CONTINUOUS
 10
302.3771299929
 20
236.3923799729
 11
302.8771299929
 21
236.3923799729
  0
LINE
  5
46E
100
AcDbEntity
  8
0
100
AcDbLine
 62
7
  6
CONTINUOUS
 10
302.3771299929
 20
236.676242422
 11
302.8771299929
 21
236.676242422
  0
LINE
  5
46F
100
AcDbEntity
  8
0
100
AcDbLine
 62
7
  6
CONTINUOUS
 10
302.3771299929
 20
236.9102232541
 11
302.8771299929
 21
236.9102232541
  0
LINE
  5
470
100
AcDbEntity
  8
0
100
AcDbLine
 62
7
  6
CONTINUOUS
 10
302.3771299929
 20
237.1192648577
 11
302.8771299929
 21
237.1192648577
  0
LINE
  5
471
100
AcDbEntity
  8
0
100
AcDbLine
 62
7
  6
CONTINUOUS
 10
302.3771299929
 20
237.34939072
 11
302.8771299929
 21
237.34939072
  0
LINE
  5
472
100
AcDbEntity
  8
0
100
AcDbLine
 62
7
  6
CONTINUOUS
 10
302.3771299929
 20
237.5545773538
 11
302.8771299929
 21
237.5545773538
  0
LINE
  5
473
100
AcDbEntity
  8
0
100
AcDbLine
 62
7
  6
CONTINUOUS
 10
302.3771299929
 20
237.6638567767
 11
302.8771299929
 21
237.6638567767
  0
LINE
  5
474
100
AcDbEntity
  8
0
100
AcDbLine
 62
7
  6
CONTINUOUS
 10
302.3771299929
 20
237.7021713774
 11
302.8771299929
 21
237.7021713774
  0
LINE
  5
475
100
AcDbEntity
  8
0
100
AcDbLine
 62
7
  6
CONTINUOUS
 10
302.3771299929
 20
237.7057879846
 11
302.8771299929
 21
237.7057879846
  0
LINE
  5
476
100
AcDbEntity
  8
0
100
AcDbLine
 62
7
  6
CONTINUOUS
 10
302.3771299929
 20
237.8304894286
 11
302.8771299929
 21
237.8304894286
  0
LINE
  5
477
100
AcDbEntity
  8
0
100
AcDbLine
 62
7
  6
CONTINUOUS
 10
302.3771299929
 20
238.4748435283
 11
302.8771299929
 21
238.4748435283
  0
LINE
  5
478
100
AcDbEntity
  8
0
100
AcDbLine
 62
7
  6
CONTINUOUS
 10
302.3771299929
 20
239.466552234
 11
302.8771299929
 21
239.466552234
  0
LINE
  5
479
100
AcDbEntity
  8
0
100
AcDbLine
 62
7
  6
CONTINUOUS
 10
302.3771299929
 20
239.8807794181
 11
302.8771299929
 21
239.8807794181
  0
LINE
  5
47A
100
AcDbEntity
  8
0
100
AcDbLine
 62
7
  6
CONTINUOUS
 10
302.3771299929
 20
241.2615366983
 11
302.8771299929
 21
241.2615366983
  0
LINE
  5
47B
100
AcDbEntity
  8
0
100
AcDbLine
 62
7
  6
CONTINUOUS
 10
302.3771299929
 20
241.6757638823
 11
302.8771299929
 21
241.6757638823
  0
LINE
  5
47C
100
AcDbEntity
  8
0
100
AcDbLine
 62
7
  6
CONTINUOUS
 10
302.3771299929
 20
241.8693834998
 11
302.8771299929
 21
241.8693834998
  0
LINE
  5
47D
100
AcDbEntity
  8
B-ACHSEN
100
AcDbLine
 62
8
  6
HIDDEN
 10
297.3771299929
 20
241.9102559507
 11
293.3771299929
 21
241.9102559507
  0
LINE
  5
47E
100
AcDbEntity
  8
0
100
AcDbLine
 62
7
  6
CONTINUOUS
 10
302.3771299929
 20
242.3201169286
 11
302.8771299929
 21
242.3201169286
  0
LINE
  5
47F
100
AcDbEntity
  8
0
100
AcDbLine
 62
7
  6
CONTINUOUS
 10
302.3771299929
 20
242.5962694381
 11
302.8771299929
 21
242.5962694381
  0
LINE
  5
480
100
AcDbEntity
  8
0
100
AcDbLine
 62
7
  6
CONTINUOUS
 10
302.3771299929
 20
242.6862728885
 11
302.8771299929
 21
242.6862728885
  0
LINE
  5
481
100
AcDbEntity
  8
0
100
AcDbLine
 62
7
  6
CONTINUOUS
 10
302.3771299929
 20
242.9030234483
 11
302.8771299929
 21
242.9030234483
  0
LINE
  5
482
100
AcDbEntity
  8
0
100
AcDbLine
 62
7
  6
CONTINUOUS
 10
302.3771299929
 20
243.1408603036
 11
302.8771299929
 21
243.1408603036
  0
LINE
  5
483
100
AcDbEntity
  8
0
100
AcDbLine
 62
7
  6
CONTINUOUS
 10
302.3771299929
 20
243.4458080647
 11
302.8771299929
 21
243.4458080647
  0
LINE
  5
484
100
AcDbEntity
  8
0
100
AcDbLine
 62
7
  6
CONTINUOUS
 10
302.3771299929
 20
243.7008752622
 11
302.8771299929
 21
243.7008752622
  0
LINE
  5
485
100
AcDbEntity
  8
0
100
AcDbLine
 62
7
  6
CONTINUOUS
 10
302.3771299929
 20
243.8849755306
 11
302.8771299929
 21
243.8849755306
  0
LINE
  5
486
100
AcDbEntity
  8
0
100
AcDbLine
 62
7
  6
CONTINUOUS
 10
302.3771299929
 20
244.0901621644
 11
302.8771299929
 21
244.0901621644
  0
LINE
  5
487
100
AcDbEntity
  8
0
100
AcDbLine
 62
7
  6
CONTINUOUS
 10
302.3771299929
 20
244.2454661278
 11
302.8771299929
 21
244.2454661278
  0
LINE
  5
488
100
AcDbEntity
  8
0
100
AcDbLine
 62
7
  6
CONTINUOUS
 10
302.3771299929
 20
244.2837807285
 11
302.8771299929
 21
244.2837807285
  0
LINE
  5
489
100
AcDbEntity
  8
0
100
AcDbLine
 62
7
  6
CONTINUOUS
 10
302.3771299929
 20
247.4502559507
 11
302.8771299929
 21
247.4502559507
  0
LINE
  5
48A
100
AcDbEntity
  8
B-ACHSEN
100
AcDbLine
 62
7
  6
CONTINUOUS
 10
303.3771299929
 20
169.9102559507
 11
302.3771299929
 21
168.9102559507
  0
LINE
  5
48B
100
AcDbEntity
  8
0
100
AcDbLine
 62
7
  6
CONTINUOUS
 10
302.3771299929
 20
251.0938359507
 11
302.8771299929
 21
251.0938359507
  0
LINE
  5
48C
100
AcDbEntity
  8
RUNDUNGEN
100
AcDbLine
 62
7
  6
CONTINUOUS
 10
298.3771299929
 20
257.0936492584
 11
292.3771299929
 21
257.0936492584
  0
LWPOLYLINE
  5
48D
100
AcDbEntity
  8
RUNDUNGEN
100
AcDbPolyline
 62
7
  6
CONTINUOUS
 90
17
 70
0
 10
76.3361917365
 20
109.6134591018
 10
76.3406843025
 20
109.3870917845
 10
76.3674602206
 20
109.0187528479
 10
76.4185315962
 20
108.6539195369
 10
76.4966514818
 20
108.2857304255
 10
76.6083937979
 20
107.9060139594
 10
76.754887237
 20
107.5309085386
 10
76.9399856366
 20
107.1652370366
 10
77.1605859946
 20
106.8247981438
 10
77.4121517528
 20
106.5201032624
 10
77.6895851673
 20
106.2568424521
 10
77.9809135115
 20
106.042462488
 10
78.2852825656
 20
105.8725726406
 10
78.5938209765
 20
105.7478900648
 10
78.9144421261
 20
105.6630004111
 10
79.2556975243
 20
105.6185872181
 10
79.416097318
 20
105.6134571969
  0
LINE
  5
48E
100
AcDbEntity
  8
RUNDUNGEN
100
AcDbLine
 62
7
  6
CONTINUOUS
 10
76.336178062
 20
109.6134590969
 11
76.336178062
 21
115.6134594493
  0
LINE
  5
48F
100
AcDbEntity
  8
0
100
AcDbLine
 62
7
  6
CONTINUOUS
 10
81.18284121
 20
105.6134590964
 11
81.18284121
 21
105.1134590964
  0
LINE
  5
490
100
AcDbEntity
  8
0
100
AcDbLine
 62
7
  6
CONTINUOUS
 10
81.6517185641
 20
105.6134590964
 11
81.6517185641
 21
105.1134590964
  0
LINE
  5
491
100
AcDbEntity
  8
0
100
AcDbLine
 62
7
  6
CONTINUOUS
 10
81.8081569868
 20
105.6134590964
 11
81.8081569868
 21
105.1134590964
  0
LINE
  5
492
100
AcDbEntity
  8
0
100
AcDbLine
 62
7
  6
CONTINUOUS
 10
82.0625700597
 20
105.6134590964
 11
82.0625700597
 21
105.1134590964
  0
LINE
  5
493
100
AcDbEntity
  8
0
100
AcDbLine
 62
7
  6
CONTINUOUS
 10
82.3551805481
 20
105.6134590964
 11
82.3551805481
 21
105.1134590964
  0
LINE
  5
494
100
AcDbEntity
  8
0
100
AcDbLine
 62
7
  6
CONTINUOUS
 10
82.3745711891
 20
105.6134590964
 11
82.3745711891
 21
105.1134590964
  0
LINE
  5
495
100
AcDbEntity
  8
0
100
AcDbLine
 62
7
  6
CONTINUOUS
 10
82.472253934
 20
105.6134590964
 11
82.472253934
 21
105.1134590964
  0
LINE
  5
496
100
AcDbEntity
  8
0
100
AcDbLine
 62
7
  6
CONTINUOUS
 10
82.6286923008
 20
105.6134590964
 11
82.6286923008
 21
105.1134590964
  0
LINE
  5
497
100
AcDbEntity
  8
0
100
AcDbLine
 62
7
  6
CONTINUOUS
 10
82.8831054296
 20
105.6134590964
 11
82.8831054296
 21
105.1134590964
  0
LINE
  5
498
100
AcDbEntity
  8
0
100
AcDbLine
 62
7
  6
CONTINUOUS
 10
83.1767375866
 20
105.6134590964
 11
83.1767375866
 21
105.1134590964
  0
LINE
  5
499
100
AcDbEntity
  8
0
100
AcDbLine
 62
7
  6
CONTINUOUS
 10
83.2537161164
 20
105.6134590964
 11
83.2537161164
 21
105.1134590964
  0
LINE
  5
49A
100
AcDbEntity
  8
0
100
AcDbLine
 62
7
  6
CONTINUOUS
 10
83.4100086423
 20
105.6134590964
 11
83.4100086423
 21
105.1134590964
  0
LINE
  5
49B
100
AcDbEntity
  8
0
100
AcDbLine
 62
7
  6
CONTINUOUS
 10
84.3086901633
 20
105.6134590964
 11
84.3086901633
 21
105.1134590964
  0
LINE
  5
49C
100
AcDbEntity
  8
0
100
AcDbLine
 62
7
  6
CONTINUOUS
 10
84.4259095019
 20
105.6134590964
 11
84.4259095019
 21
105.1134590964
  0
LINE
  5
49D
100
AcDbEntity
  8
0
100
AcDbLine
 62
7
  6
CONTINUOUS
 10
84.9729330073
 20
105.6134590964
 11
84.9729330073
 21
105.1134590964
  0
LINE
  5
49E
100
AcDbEntity
  8
0
100
AcDbLine
 62
7
  6
CONTINUOUS
 10
85.0901523458
 20
105.6134590964
 11
85.0901523458
 21
105.1134590964
  0
LINE
  5
49F
100
AcDbEntity
  8
0
100
AcDbLine
 62
7
  6
CONTINUOUS
 10
85.2464450953
 20
105.6134590964
 11
85.2464450953
 21
105.1134590964
  0
LINE
  5
4A0
100
AcDbEntity
  8
0
100
AcDbLine
 62
7
  6
CONTINUOUS
 10
85.7153224495
 20
105.6134590964
 11
85.7153224495
 21
105.1134590964
  0
LINE
  5
4A1
100
AcDbEntity
  8
0
100
AcDbLine
 62
7
  6
CONTINUOUS
 10
85.8717607045
 20
105.6134590964
 11
85.8717607045
 21
105.1134590964
  0
LINE
  5
4A2
100
AcDbEntity
  8
0
100
AcDbLine
 62
7
  6
CONTINUOUS
 10
86.1261739451
 20
105.6134590964
 11
86.1261739451
 21
105.1134590964
  0
LINE
  5
4A3
100
AcDbEntity
  8
0
100
AcDbLine
 62
7
  6
CONTINUOUS
 10
86.4198061021
 20
105.6134590964
 11
86.4198061021
 21
105.1134590964
  0
LINE
  5
4A4
100
AcDbEntity
  8
0
100
AcDbLine
 62
7
  6
CONTINUOUS
 10
86.4383206918
 20
105.6134590964
 11
86.4383206918
 21
105.1134590964
  0
LINE
  5
4A5
100
AcDbEntity
  8
0
100
AcDbLine
 62
7
  6
CONTINUOUS
 10
86.4577114446
 20
105.6134590964
 11
86.4577114446
 21
105.1134590964
  0
LINE
  5
4A6
100
AcDbEntity
  8
0
100
AcDbLine
 62
7
  6
CONTINUOUS
 10
86.5553940776
 20
105.6134590964
 11
86.5553940776
 21
105.1134590964
  0
LINE
  5
4A7
100
AcDbEntity
  8
0
100
AcDbLine
 62
7
  6
CONTINUOUS
 10
86.7118327798
 20
105.6134590964
 11
86.7118327798
 21
105.1134590964
  0
LINE
  5
4A8
100
AcDbEntity
  8
0
100
AcDbLine
 62
7
  6
CONTINUOUS
 10
86.9662455732
 20
105.6134590964
 11
86.9662455732
 21
105.1134590964
  0
LINE
  5
4A9
100
AcDbEntity
  8
0
100
AcDbLine
 62
7
  6
CONTINUOUS
 10
87.2598777302
 20
105.6134590964
 11
87.2598777302
 21
105.1134590964
  0
LINE
  5
4AA
100
AcDbEntity
  8
0
100
AcDbLine
 62
7
  6
CONTINUOUS
 10
87.4540758222
 20
105.6134590964
 11
87.4540758222
 21
105.1134590964
  0
LINE
  5
4AB
100
AcDbEntity
  8
0
100
AcDbLine
 62
7
  6
CONTINUOUS
 10
87.62990483
 20
105.6134590964
 11
87.62990483
 21
105.1134590964
  0
LINE
  5
4AC
100
AcDbEntity
  8
0
100
AcDbLine
 62
7
  6
CONTINUOUS
 10
88.2160015228
 20
105.6134590964
 11
88.2160015228
 21
105.1134590964
  0
LINE
  5
4AD
100
AcDbEntity
  8
0
100
AcDbLine
 62
7
  6
CONTINUOUS
 10
88.3918305306
 20
105.6134590964
 11
88.3918305306
 21
105.1134590964
  0
LINE
  5
4AE
100
AcDbEntity
  8
0
100
AcDbLine
 62
7
  6
CONTINUOUS
 10
88.6653421715
 20
105.6134590964
 11
88.6653421715
 21
105.1134590964
  0
LINE
  5
4AF
100
AcDbEntity
  8
0
100
AcDbLine
 62
7
  6
CONTINUOUS
 10
88.7825619572
 20
105.6134590964
 11
88.7825619572
 21
105.1134590964
  0
LINE
  5
4B0
100
AcDbEntity
  8
0
100
AcDbLine
 62
7
  6
CONTINUOUS
 10
89.2125118531
 20
105.6134590964
 11
89.2125118531
 21
105.1134590964
  0
LINE
  5
4B1
100
AcDbEntity
  8
0
100
AcDbLine
 62
7
  6
CONTINUOUS
 10
89.2514393114
 20
105.6134590964
 11
89.2514393114
 21
105.1134590964
  0
LINE
  5
4B2
100
AcDbEntity
  8
0
100
AcDbLine
 62
7
  6
CONTINUOUS
 10
89.329585239
 20
105.6134590964
 11
89.329585239
 21
105.1134590964
  0
LINE
  5
4B3
100
AcDbEntity
  8
0
100
AcDbLine
 62
7
  6
CONTINUOUS
 10
89.4860239411
 20
105.6134590964
 11
89.4860239411
 21
105.1134590964
  0
LINE
  5
4B4
100
AcDbEntity
  8
0
100
AcDbLine
 62
7
  6
CONTINUOUS
 10
89.7599729929
 20
105.6134590964
 11
89.7599729929
 21
105.1134590964
  0
LINE
  5
4B5
100
AcDbEntity
  8
0
100
AcDbLine
 62
7
  6
CONTINUOUS
 10
90.0536051499
 20
105.6134590964
 11
90.0536051499
 21
105.1134590964
  0
LINE
  5
4B6
100
AcDbEntity
  8
RUNDUNGEN
100
AcDbLine
 62
7
  6
CONTINUOUS
 10
81.236178314
 20
105.099333209
 11
81.4567731671
 21
104.9759179755
  0
LWPOLYLINE
  5
4B7
100
AcDbEntity
  8
RUNDUNGEN
100
AcDbPolyline
 62
7
  6
CONTINUOUS
 90
3
 70
0
 10
80.6974285276
 20
105.4153311941
 10
81.0350158771
 20
105.2165083081
 10
81.18284121
 20
105.1304015364
  0
LINE
  5
4B8
100
AcDbEntity
  8
0
100
AcDbLine
 62
7
  6
CONTINUOUS
 10
90.2494091683
 20
105.6134590964
 11
90.2494091683
 21
105.1134590964
  0
LINE
  5
4B9
100
AcDbEntity
  8
0
100
AcDbLine
 62
7
  6
CONTINUOUS
 10
90.3479672349
 20
105.6134590964
 11
90.3479672349
 21
105.1134590964
  0
LINE
  5
4BA
100
AcDbEntity
  8
0
100
AcDbLine
 62
7
  6
CONTINUOUS
 10
90.504405937
 20
105.6134590964
 11
90.504405937
 21
105.1134590964
  0
LINE
  5
4BB
100
AcDbEntity
  8
0
100
AcDbLine
 62
7
  6
CONTINUOUS
 10
90.7783558831
 20
105.6134590964
 11
90.7783558831
 21
105.1134590964
  0
LINE
  5
4BC
100
AcDbEntity
  8
0
100
AcDbLine
 62
7
  6
CONTINUOUS
 10
91.0132324182
 20
105.6134590964
 11
91.0132324182
 21
105.1134590964
  0
LINE
  5
4BD
100
AcDbEntity
  8
0
100
AcDbLine
 62
7
  6
CONTINUOUS
 10
91.3460830445
 20
105.6134590964
 11
91.3460830445
 21
105.1134590964
  0
LINE
  5
4BE
100
AcDbEntity
  8
0
100
AcDbLine
 62
7
  6
CONTINUOUS
 10
91.6398612365
 20
105.6134590964
 11
91.6398612365
 21
105.1134590964
  0
LINE
  5
4BF
100
AcDbEntity
  8
0
100
AcDbLine
 62
7
  6
CONTINUOUS
 10
91.8945668707
 20
105.6134590964
 11
91.8945668707
 21
105.1134590964
  0
LINE
  5
4C0
100
AcDbEntity
  8
0
100
AcDbLine
 62
7
  6
CONTINUOUS
 10
92.0709797098
 20
105.6134590964
 11
92.0709797098
 21
105.1134590964
  0
LINE
  5
4C1
100
AcDbEntity
  8
0
100
AcDbLine
 62
7
  6
CONTINUOUS
 10
92.1495635108
 20
105.6134590964
 11
92.1495635108
 21
105.1134590964
  0
LWPOLYLINE
  5
4C2
100
AcDbEntity
  8
RUNDUNGEN
100
AcDbPolyline
 62
7
  6
CONTINUOUS
 90
10
 70
0
 10
96.6928688033
 20
127.6252673241
 10
96.4361057594
 20
127.4791120101
 10
94.3066795177
 20
126.3030308086
 10
92.3374366125
 20
125.2533589196
 10
90.529404018
 20
124.3246627887
 10
88.8973199189
 20
123.5177355521
 10
87.399732917
 20
122.8060804905
 10
86.0126685438
 20
122.1742803633
 10
84.7047307617
 20
121.6058187224
 10
83.4354173177
 20
121.08371144
  0
LINE
  5
4C3
100
AcDbEntity
  8
RUNDUNGEN
100
AcDbLine
 62
7
  6
CONTINUOUS
 10
80.4915667771
 20
119.6982241868
 11
80.4925555325
 21
119.6987304077
  0
LWPOLYLINE
  5
4C4
100
AcDbEntity
  8
RUNDUNGEN
100
AcDbPolyline
 62
7
  6
CONTINUOUS
 90
7
 70
0
 10
80.4915755329
 20
119.6982070984
 10
80.449792913
 20
119.6778865027
 10
80.3881636002
 20
119.6520812813
 10
80.3315703984
 20
119.6333389505
 10
80.2799930087
 20
119.6211258404
 10
80.2326711586
 20
119.6147706267
 10
80.1995156624
 20
119.6134606175
  0
LWPOLYLINE
  5
4C5
100
AcDbEntity
  8
RUNDUNGEN
100
AcDbPolyline
 62
7
  6
CONTINUOUS
 90
10
 70
0
 10
82.2057037053
 20
120.6092338029
 10
81.9386260696
 20
120.4937874293
 10
81.6852427196
 20
120.3712678211
 10
81.4483039314
 20
120.2463817403
 10
81.2287171307
 20
120.1233063365
 10
81.0285521052
 20
120.0065968022
 10
80.8491044924
 20
119.9004159023
 10
80.6929252234
 20
119.8089898316
 10
80.5636863091
 20
119.7363713661
 10
80.4925555325
 20
119.6987304077
  0
LINE
  5
4C6
100
AcDbEntity
  8
B-ACHSEN
100
AcDbLine
 62
7
  6
CONTINUOUS
 10
108.386156193
 20
93.4296715229
 11
109.9825552951
 21
93.4296715229
  0
LWPOLYLINE
  5
4C7
100
AcDbEntity
  8
RUNDUNGEN
100
AcDbPolyline
 62
7
  6
CONTINUOUS
 90
10
 70
0
 10
83.4453379895
 20
104.1392535094
 10
84.7148105122
 20
103.6168300254
 10
86.0229213163
 20
103.0480722286
 10
87.410226038
 20
102.4159540715
 10
88.9081882999
 20
101.70391398
 10
90.5407056564
 20
100.8965607535
 10
92.3492346626
 20
99.9673858129
 10
94.3188149437
 20
98.9173028651
 10
96.4481627695
 20
97.7410324186
 10
96.6925150262
 20
97.6019293418
  0
LINE
  5
4C8
100
AcDbEntity
  8
RUNDUNGEN
100
AcDbLine
 62
7
  6
CONTINUOUS
 10
80.4916748525
 20
105.5286602648
 11
80.4925183944
 21
105.5282283992
  0
LWPOLYLINE
  5
4C9
100
AcDbEntity
  8
RUNDUNGEN
100
AcDbPolyline
 62
7
  6
CONTINUOUS
 90
5
 70
0
 10
81.4567731671
 20
104.9759179755
 10
81.694772327
 20
104.8508293722
 10
81.9492215772
 20
104.7282685483
 10
82.2173895208
 20
104.6129858348
 10
83.4453379895
 20
104.1392535094
  0
LWPOLYLINE
  5
4CA
100
AcDbEntity
  8
RUNDUNGEN
100
AcDbPolyline
 62
7
  6
CONTINUOUS
 90
3
 70
0
 10
80.4925096027
 20
105.5282112181
 10
80.567216598
 20
105.4886256715
 10
80.6974285276
 20
105.4153311941
  0
LINE
  5
4CB
100
AcDbEntity
  8
RUNDUNGEN
100
AcDbLine
 62
7
  6
CONTINUOUS
 10
83.4354173177
 20
121.08371144
 11
82.2057037053
 21
120.6092338029
  0
LINE
  5
4CC
100
AcDbEntity
  8
RUNDUNGEN
100
AcDbLine
 62
7
  6
CONTINUOUS
 10
82.3486039084
 20
120.6645815789
 11
82.3497312633
 21
120.6650016127
  0
LINE
  5
4CD
100
AcDbEntity
  8
B-ACHSEN
100
AcDbLine
 62
7
  6
CONTINUOUS
 10
121.833466411
 20
96.6134590964
 11
139.1843557703
 21
96.6134590964
  0
LINE
  5
4CE
100
AcDbEntity
  8
RUNDUNGEN
100
AcDbLine
 62
7
  6
CONTINUOUS
 10
82.3484467141
 20
104.5623823097
 11
82.3497127834
 21
104.5619104345
  0
LWPOLYLINE
  5
4CF
100
AcDbEntity
  8
RUNDUNGEN
100
AcDbPolyline
 62
7
  6
CONTINUOUS
 90
17
 70
0
 10
138.9524889818
 20
105.6134570271
 10
139.1268255087
 20
105.6194955666
 10
139.4669507563
 20
105.6655458353
 10
139.787417342
 20
105.7521002228
 10
140.0960639143
 20
105.878651271
 10
140.4002266914
 20
106.0505006801
 10
140.6909956631
 20
106.2668178673
 10
140.9673079785
 20
106.5316911195
 10
141.2175138338
 20
106.8376939803
 10
141.4366913469
 20
107.1792063616
 10
141.6203294198
 20
107.5456122414
 10
141.7653512124
 20
107.9209025352
 10
141.8757277011
 20
108.3004490587
 10
141.9526859698
 20
108.6683597286
 10
142.0027135581
 20
109.0327347254
 10
142.0285407724
 20
109.4004122098
 10
142.0325197967
 20
109.6134586988
  0
LINE
  5
4D0
100
AcDbEntity
  8
B-ACHSEN
100
AcDbLine
 62
7
  6
CONTINUOUS
 10
139.7460820368
 20
102.6134590964
 11
125.2152189036
 21
102.6134590964
  0
LWPOLYLINE
  5
4D1
100
AcDbEntity
  8
RUNDUNGEN
100
AcDbPolyline
 62
7
  6
CONTINUOUS
 90
7
 70
0
 10
80.1994726609
 20
105.6134575648
 10
80.2303380751
 20
105.6123278921
 10
80.2756225063
 20
105.6065857595
 10
80.3266444964
 20
105.5949596445
 10
80.3842048363
 20
105.5763111102
 10
80.4481040138
 20
105.5498070769
 10
80.4916748525
 20
105.5286602648
  0
LINE
  5
4D2
100
AcDbEntity
  8
0
100
AcDbLine
 62
7
  6
CONTINUOUS
 10
105.3443557703
 20
105.6134590964
 11
105.3443557703
 21
105.1134590964
  0
LINE
  5
4D3
100
AcDbEntity
  8
0
100
AcDbLine
 62
7
  6
CONTINUOUS
 10
133.2634704152
 20
105.1134590964
 11
126.9243557703
 21
105.1134590964
  0
LINE
  5
4D4
100
AcDbEntity
  8
0
100
AcDbLine
 62
7
  6
CONTINUOUS
 10
113.238778872
 20
105.1134590964
 11
110.8097257703
 21
105.1134590964
  0
LINE
  5
4D5
100
AcDbEntity
  8
0
100
AcDbLine
 62
7
  6
CONTINUOUS
 10
110.3239152195
 20
105.1134590964
 11
108.1377670457
 21
105.1134590964
  0
LINE
  5
4D6
100
AcDbEntity
  8
0
100
AcDbLine
 62
7
  6
CONTINUOUS
 10
107.6519564949
 20
105.1134590964
 11
105.3443557703
 21
105.1134590964
  0
LINE
  5
4D7
100
AcDbEntity
  8
0
100
AcDbLine
 62
7
  6
CONTINUOUS
 10
92.1495635108
 20
105.1134590964
 11
81.18284121
 21
105.1134590964
  0
LINE
  5
4D8
100
AcDbEntity
  8
RUNDUNGEN
100
AcDbLine
 62
7
  6
CONTINUOUS
 10
79.416097323
 20
105.6134608876
 11
138.9524889771
 21
105.6134607107
  0
LINE
  5
4D9
100
AcDbEntity
  8
0
100
AcDbLine
 62
7
  6
CONTINUOUS
 10
106.8017877703
 20
105.6134590964
 11
106.8017877703
 21
105.1134590964
  0
LINE
  5
4DA
100
AcDbEntity
  8
0
100
AcDbLine
 62
7
  6
CONTINUOUS
 10
107.1054194949
 20
105.6134590964
 11
107.1054194949
 21
105.1134590964
  0
LINE
  5
4DB
100
AcDbEntity
  8
0
100
AcDbLine
 62
7
  6
CONTINUOUS
 10
107.3483247703
 20
105.6134590964
 11
107.3483247703
 21
105.1134590964
  0
LINE
  5
4DC
100
AcDbEntity
  8
0
100
AcDbLine
 62
7
  6
CONTINUOUS
 10
107.5305037703
 20
105.6134590964
 11
107.5305037703
 21
105.1134590964
  0
LINE
  5
4DD
100
AcDbEntity
  8
0
100
AcDbLine
 62
7
  6
CONTINUOUS
 10
107.5912300457
 20
105.6134590964
 11
107.5912300457
 21
105.1134590964
  0
LINE
  5
4DE
100
AcDbEntity
  8
0
100
AcDbLine
 62
7
  6
CONTINUOUS
 10
107.6519564949
 20
105.6134590964
 11
107.6519564949
 21
105.1134590964
  0
LINE
  5
4DF
100
AcDbEntity
  8
0
100
AcDbLine
 62
7
  6
CONTINUOUS
 10
108.1377670457
 20
105.6134590964
 11
108.1377670457
 21
105.1134590964
  0
LINE
  5
4E0
100
AcDbEntity
  8
0
100
AcDbLine
 62
7
  6
CONTINUOUS
 10
108.5021252195
 20
105.6134590964
 11
108.5021252195
 21
105.1134590964
  0
LINE
  5
4E1
100
AcDbEntity
  8
0
100
AcDbLine
 62
7
  6
CONTINUOUS
 10
108.5628513212
 20
105.6134590964
 11
108.5628513212
 21
105.1134590964
  0
LINE
  5
4E2
100
AcDbEntity
  8
0
100
AcDbLine
 62
7
  6
CONTINUOUS
 10
108.6843042195
 20
105.6134590964
 11
108.6843042195
 21
105.1134590964
  0
LINE
  5
4E3
100
AcDbEntity
  8
0
100
AcDbLine
 62
7
  6
CONTINUOUS
 10
108.8664832195
 20
105.6134590964
 11
108.8664832195
 21
105.1134590964
  0
LINE
  5
4E4
100
AcDbEntity
  8
0
100
AcDbLine
 62
7
  6
CONTINUOUS
 10
109.1093883212
 20
105.6134590964
 11
109.1093883212
 21
105.1134590964
  0
LINE
  5
4E5
100
AcDbEntity
  8
B-ACHSEN
100
AcDbLine
 62
2
  6
CENTER
 10
109.1843557703
 20
112.6134590964
 11
109.1843557703
 21
89.8985405196
  0
LINE
  5
4E6
100
AcDbEntity
  8
B-ACHSEN
100
AcDbLine
 62
2
  6
CENTER
 10
109.1843557703
 20
112.6134590964
 11
109.1843557703
 21
135.3283776732
  0
LINE
  5
4E7
100
AcDbEntity
  8
0
100
AcDbLine
 62
7
  6
CONTINUOUS
 10
109.3522937703
 20
105.6134590964
 11
109.3522937703
 21
105.1134590964
  0
LINE
  5
4E8
100
AcDbEntity
  8
0
100
AcDbLine
 62
7
  6
CONTINUOUS
 10
109.5951992195
 20
105.6134590964
 11
109.5951992195
 21
105.1134590964
  0
LINE
  5
4E9
100
AcDbEntity
  8
0
100
AcDbLine
 62
7
  6
CONTINUOUS
 10
109.7773782195
 20
105.6134590964
 11
109.7773782195
 21
105.1134590964
  0
LINE
  5
4EA
100
AcDbEntity
  8
0
100
AcDbLine
 62
7
  6
CONTINUOUS
 10
109.8988307703
 20
105.6134590964
 11
109.8988307703
 21
105.1134590964
  0
LINE
  5
4EB
100
AcDbEntity
  8
0
100
AcDbLine
 62
7
  6
CONTINUOUS
 10
109.9595572195
 20
105.6134590964
 11
109.9595572195
 21
105.1134590964
  0
LINE
  5
4EC
100
AcDbEntity
  8
0
100
AcDbLine
 62
7
  6
CONTINUOUS
 10
110.3239152195
 20
105.6134590964
 11
110.3239152195
 21
105.1134590964
  0
LINE
  5
4ED
100
AcDbEntity
  8
0
100
AcDbLine
 62
7
  6
CONTINUOUS
 10
110.8097257703
 20
105.6134590964
 11
110.8097257703
 21
105.1134590964
  0
LINE
  5
4EE
100
AcDbEntity
  8
B-ACHSEN
100
AcDbLine
 62
2
  6
CENTER
 10
109.1843557703
 20
112.6134590964
 11
86.4694371935
 21
112.6134590964
  0
LINE
  5
4EF
100
AcDbEntity
  8
BG_STARTBEZUEGE
100
AcDbLine
 62
2
  6
CENTER
 10
72.7230521322
 20
112.6134590964
 11
148.6843557703
 21
112.6134590964
  0
LINE
  5
4F0
100
AcDbEntity
  8
B-ACHSEN
100
AcDbLine
 62
2
  6
CENTER
 10
109.1843557703
 20
112.6134590964
 11
131.8992743471
 21
112.6134590964
  0
LINE
  5
4F1
100
AcDbEntity
  8
0
100
AcDbLine
 62
7
  6
CONTINUOUS
 10
112.2671577703
 20
105.6134590964
 11
112.2671577703
 21
105.1134590964
  0
LINE
  5
4F2
100
AcDbEntity
  8
0
100
AcDbLine
 62
7
  6
CONTINUOUS
 10
112.5707896686
 20
105.6134590964
 11
112.5707896686
 21
105.1134590964
  0
LINE
  5
4F3
100
AcDbEntity
  8
0
100
AcDbLine
 62
7
  6
CONTINUOUS
 10
112.8136947703
 20
105.6134590964
 11
112.8136947703
 21
105.1134590964
  0
LINE
  5
4F4
100
AcDbEntity
  8
0
100
AcDbLine
 62
7
  6
CONTINUOUS
 10
113.056599872
 20
105.6134590964
 11
113.056599872
 21
105.1134590964
  0
LINE
  5
4F5
100
AcDbEntity
  8
0
100
AcDbLine
 62
7
  6
CONTINUOUS
 10
113.1780527703
 20
105.6134590964
 11
113.1780527703
 21
105.1134590964
  0
LINE
  5
4F6
100
AcDbEntity
  8
0
100
AcDbLine
 62
7
  6
CONTINUOUS
 10
113.238778872
 20
105.6134590964
 11
113.238778872
 21
105.1134590964
  0
LWPOLYLINE
  5
4F7
100
AcDbEntity
  8
RUNDUNGEN
100
AcDbPolyline
 62
7
  6
CONTINUOUS
 90
17
 70
0
 10
79.416222471
 20
119.6134611649
 10
79.2418997561
 20
119.6074235632
 10
78.9017797201
 20
119.5613762062
 10
78.5813077182
 20
119.4748225551
 10
78.2726526193
 20
119.3482693307
 10
77.9684844908
 20
119.1764172869
 10
77.6777126073
 20
118.9600975667
 10
77.4014014962
 20
118.6952248346
 10
77.1511974854
 20
118.3892239187
 10
76.932020309
 20
118.0477120344
 10
76.7483822772
 20
117.6813063203
 10
76.6033604768
 20
117.3060160902
 10
76.492984077
 20
116.9264701092
 10
76.4160262505
 20
116.5585623761
 10
76.3659986301
 20
116.1941897599
 10
76.3401709378
 20
115.826510674
 10
76.3361917395
 20
115.6134594942
  0
LINE
  5
4F8
100
AcDbEntity
  8
RUNDUNGEN
100
AcDbLine
 62
7
  6
CONTINUOUS
 10
79.4162224758
 20
119.6134574819
 11
138.9501412784
 21
119.6134590964
  0
LINE
  5
4F9
100
AcDbEntity
  8
RUNDUNGEN
100
AcDbLine
 62
7
  6
CONTINUOUS
 10
138.9526141273
 20
119.6134573053
 11
138.9501412783
 21
119.6134590964
  0
LWPOLYLINE
  5
4FA
100
AcDbEntity
  8
RUNDUNGEN
100
AcDbPolyline
 62
7
  6
CONTINUOUS
 90
7
 70
0
 10
138.1692386803
 20
119.6134606074
 10
138.1383737264
 20
119.6145901936
 10
138.0930898813
 20
119.6203321878
 10
138.0420681809
 20
119.6319582595
 10
137.984507289
 20
119.6506069518
 10
137.9206068397
 20
119.677111575
 10
137.877035225
 20
119.6982587359
  0
LINE
  5
4FB
100
AcDbEntity
  8
B-ACHSEN
100
AcDbLine
 62
7
  6
CONTINUOUS
 10
125.2152189036
 20
122.6134590964
 11
139.7460820368
 21
122.6134590964
  0
LINE
  5
4FC
100
AcDbEntity
  8
0
100
AcDbLine
 62
7
  6
CONTINUOUS
 10
126.9243557703
 20
105.6134590964
 11
126.9243557703
 21
105.1134590964
  0
LINE
  5
4FD
100
AcDbEntity
  8
B-ACHSEN
100
AcDbLine
 62
7
  6
CONTINUOUS
 10
139.1843557703
 20
128.6134590964
 11
121.833466411
 21
128.6134590964
  0
LINE
  5
4FE
100
AcDbEntity
  8
0
100
AcDbLine
 62
7
  6
CONTINUOUS
 10
127.2626536497
 20
105.6134590964
 11
127.2626536497
 21
105.1134590964
  0
LINE
  5
4FF
100
AcDbEntity
  8
0
100
AcDbLine
 62
7
  6
CONTINUOUS
 10
129.3787863027
 20
105.6134590964
 11
129.3787863027
 21
105.1134590964
  0
LINE
  5
500
100
AcDbEntity
  8
0
100
AcDbLine
 62
7
  6
CONTINUOUS
 10
129.6681103312
 20
105.6134590964
 11
129.6681103312
 21
105.1134590964
  0
LINE
  5
501
100
AcDbEntity
  8
RUNDUNGEN
100
AcDbLine
 62
7
  6
CONTINUOUS
 10
137.8771465801
 20
105.5286946971
 11
137.8761568691
 21
105.5281879866
  0
LWPOLYLINE
  5
502
100
AcDbEntity
  8
RUNDUNGEN
100
AcDbPolyline
 62
7
  6
CONTINUOUS
 90
7
 70
0
 10
137.8771377032
 20
105.5287120214
 10
137.9189195976
 20
105.5490322811
 10
137.9805476027
 20
105.5748368733
 10
138.0371400735
 20
105.5935789702
 10
138.0887175813
 20
105.6057920898
 10
138.1360400374
 20
105.6121474467
 10
138.169196021
 20
105.6134575547
  0
LWPOLYLINE
  5
503
100
AcDbEntity
  8
RUNDUNGEN
100
AcDbPolyline
 62
7
  6
CONTINUOUS
 90
4
 70
0
 10
131.3918627689
 20
102.6134590964
 10
132.3560422449
 20
103.0526375029
 10
133.6639798835
 20
103.6210990682
 10
134.9332927257
 20
104.1432061687
  0
LWPOLYLINE
  5
504
100
AcDbEntity
  8
RUNDUNGEN
100
AcDbPolyline
 62
7
  6
CONTINUOUS
 90
10
 70
0
 10
136.1630092606
 20
104.6176836857
 10
136.4300875743
 20
104.7331305452
 10
136.6834709604
 20
104.8556505031
 10
136.9204097121
 20
104.9805367081
 10
137.1399964032
 20
105.1036122846
 10
137.3401613873
 20
105.2203219205
 10
137.5196086567
 20
105.3265027955
 10
137.675787589
 20
105.4179287197
 10
137.8050261947
 20
105.4905470799
 10
137.8761568691
 20
105.5281879866
  0
LINE
  5
505
100
AcDbEntity
  8
RUNDUNGEN
100
AcDbLine
 62
7
  6
CONTINUOUS
 10
134.9332927257
 20
104.1432061687
 11
136.1630092606
 21
104.6176836857
  0
LINE
  5
506
100
AcDbEntity
  8
RUNDUNGEN
100
AcDbLine
 62
7
  6
CONTINUOUS
 10
136.0201081986
 20
104.5623368377
 11
136.0189789625
 21
104.5619161013
  0
LINE
  5
507
100
AcDbEntity
  8
RUNDUNGEN
100
AcDbLine
 62
7
  6
CONTINUOUS
 10
136.0202652888
 20
120.6645357294
 11
136.0189987572
 21
120.6650077773
  0
LWPOLYLINE
  5
508
100
AcDbEntity
  8
RUNDUNGEN
100
AcDbPolyline
 62
7
  6
CONTINUOUS
 90
4
 70
0
 10
134.9233727608
 20
121.087664977
 10
133.6539007258
 20
121.6100883386
 10
132.3457894464
 20
122.1788462966
 10
131.3919481807
 20
122.6134590964
  0
LINE
  5
509
100
AcDbEntity
  8
RUNDUNGEN
100
AcDbLine
 62
7
  6
CONTINUOUS
 10
137.877035225
 20
119.6982587359
 11
137.8761930376
 21
119.6986899075
  0
LWPOLYLINE
  5
50A
100
AcDbEntity
  8
RUNDUNGEN
100
AcDbPolyline
 62
7
  6
CONTINUOUS
 90
3
 70
0
 10
137.8762018004
 20
119.6987070324
 10
137.8014948403
 20
119.738292558
 10
137.6712830686
 20
119.8115869771
  0
LINE
  5
50B
100
AcDbEntity
  8
0
100
AcDbLine
 62
7
  6
CONTINUOUS
 10
130.0134916448
 20
105.6134590964
 11
130.0134916448
 21
105.1134590964
  0
LINE
  5
50C
100
AcDbEntity
  8
0
100
AcDbLine
 62
7
  6
CONTINUOUS
 10
130.2235538223
 20
105.6134590964
 11
130.2235538223
 21
105.1134590964
  0
LINE
  5
50D
100
AcDbEntity
  8
0
100
AcDbLine
 62
7
  6
CONTINUOUS
 10
130.4220137203
 20
105.6134590964
 11
130.4220137203
 21
105.1134590964
  0
LINE
  5
50E
100
AcDbEntity
  8
0
100
AcDbLine
 62
7
  6
CONTINUOUS
 10
130.4967567784
 20
105.6134590964
 11
130.4967567784
 21
105.1134590964
  0
LINE
  5
50F
100
AcDbEntity
  8
0
100
AcDbLine
 62
7
  6
CONTINUOUS
 10
130.5412117857
 20
105.6134590964
 11
130.5412117857
 21
105.1134590964
  0
LINE
  5
510
100
AcDbEntity
  8
0
100
AcDbLine
 62
7
  6
CONTINUOUS
 10
131.8234458652
 20
105.6134590964
 11
131.8234458652
 21
105.1134590964
  0
LINE
  5
511
100
AcDbEntity
  8
0
100
AcDbLine
 62
7
  6
CONTINUOUS
 10
132.271904267
 20
105.6134590964
 11
132.271904267
 21
105.1134590964
  0
LINE
  5
512
100
AcDbEntity
  8
0
100
AcDbLine
 62
7
  6
CONTINUOUS
 10
132.2976733695
 20
105.6134590964
 11
132.2976733695
 21
105.1134590964
  0
LINE
  5
513
100
AcDbEntity
  8
0
100
AcDbLine
 62
7
  6
CONTINUOUS
 10
132.3968420098
 20
105.6134590964
 11
132.3968420098
 21
105.1134590964
  0
LINE
  5
514
100
AcDbEntity
  8
0
100
AcDbLine
 62
7
  6
CONTINUOUS
 10
132.4902708925
 20
105.6134590964
 11
132.4902708925
 21
105.1134590964
  0
LINE
  5
515
100
AcDbEntity
  8
B-ACHSEN
100
AcDbLine
 62
7
  6
CONTINUOUS
 10
109.9825534212
 20
131.7972466699
 11
108.3861581717
 21
131.7972466699
  0
LWPOLYLINE
  5
516
100
AcDbEntity
  8
RUNDUNGEN
100
AcDbPolyline
 62
7
  6
CONTINUOUS
 90
8
 70
0
 10
137.6712830686
 20
119.8115869771
 10
137.3336961689
 20
120.0104096173
 10
137.1325337698
 20
120.1275846561
 10
136.911939111
 20
120.2509998458
 10
136.67394012
 20
120.3760883217
 10
136.419491063
 20
120.4986492319
 10
136.1513227016
 20
120.6139321552
 10
134.9233727608
 20
121.087664977
  0
LINE
  5
517
100
AcDbEntity
  8
0
100
AcDbLine
 62
7
  6
CONTINUOUS
 10
132.5720972818
 20
105.6134590964
 11
132.5720972818
 21
105.1134590964
  0
LINE
  5
518
100
AcDbEntity
  8
0
100
AcDbLine
 62
7
  6
CONTINUOUS
 10
132.733185731
 20
105.6134590964
 11
132.733185731
 21
105.1134590964
  0
LINE
  5
519
100
AcDbEntity
  8
0
100
AcDbLine
 62
7
  6
CONTINUOUS
 10
132.927126694
 20
105.6134590964
 11
132.927126694
 21
105.1134590964
  0
LINE
  5
51A
100
AcDbEntity
  8
0
100
AcDbLine
 62
7
  6
CONTINUOUS
 10
133.1069008342
 20
105.6134590964
 11
133.1069008342
 21
105.1134590964
  0
LINE
  5
51B
100
AcDbEntity
  8
0
100
AcDbLine
 62
7
  6
CONTINUOUS
 10
133.2190154079
 20
105.6134590964
 11
133.2190154079
 21
105.1134590964
  0
LINE
  5
51C
100
AcDbEntity
  8
0
100
AcDbLine
 62
7
  6
CONTINUOUS
 10
133.2634704152
 20
105.6134590964
 11
133.2634704152
 21
105.1134590964
  0
LWPOLYLINE
  5
51D
100
AcDbEntity
  8
RUNDUNGEN
100
AcDbPolyline
 62
7
  6
CONTINUOUS
 90
17
 70
0
 10
142.0325197997
 20
115.613459091
 10
142.0280274336
 20
115.8398213615
 10
142.0012520304
 20
116.2081586036
 10
141.9501806669
 20
116.5729945623
 10
141.8720602689
 20
116.9411869149
 10
141.7603178412
 20
117.3209039525
 10
141.6138244041
 20
117.696009415
 10
141.4287259493
 20
118.0616810772
 10
141.2081252299
 20
118.4021204688
 10
140.956557528
 20
118.7068173564
 10
140.6791228806
 20
118.9700786556
 10
140.3877977326
 20
119.1844558894
 10
140.0834344739
 20
119.3543429328
 10
139.7749052092
 20
119.479023242
 10
139.4542898307
 20
119.5639137374
 10
139.1130287931
 20
119.6083300449
 10
138.9526141323
 20
119.6134609967
  0
LINE
  5
51E
100
AcDbEntity
  8
RUNDUNGEN
100
AcDbLine
 62
7
  6
CONTINUOUS
 10
142.0325334786
 20
115.6134590959
 11
142.0325334786
 21
109.6134587437
  0
LINE
  5
51F
100
AcDbEntity
  8
B-ACHSEN
100
AcDbLine
 62
7
  6
CONTINUOUS
 10
141.686787128
 20
105.218944979
 11
141.7152189036
 21
104.9634590964
  0
LINE
  5
520
100
AcDbEntity
  8
B-ACHSEN
100
AcDbLine
 62
7
  6
CONTINUOUS
 10
145.6843557703
 20
103.1134590964
 11
145.6843557703
 21
105.3134590964
  0
LINE
  5
521
100
AcDbEntity
  8
B-ACHSEN
100
AcDbLine
 62
7
  6
CONTINUOUS
 10
145.6843557703
 20
119.9134590964
 11
145.6843557703
 21
122.1134590964
  0
LINE
  5
522
100
AcDbEntity
  8
B-ACHSEN
100
AcDbLine
 62
7
  6
CONTINUOUS
 10
145.6676387696
 20
119.6569402005
 11
145.6843557703
 21
119.9134590964
  0
ARC
  5
523
100
AcDbEntity
  8
RUNDUNGEN
100
AcDbCircle
 62
7
  6
CONTINUOUS
 10
88.5193650616
 20
205.0525315089
 40
4.0001218203
100
AcDbArc
 50
202.5117342093
 51
204.353103462
  0
ARC
  5
524
100
AcDbEntity
  8
RUNDUNGEN
100
AcDbCircle
 62
7
  6
CONTINUOUS
 10
88.5687752236
 20
204.9328329643
 40
4.0
100
AcDbArc
 50
202.500034876
 51
259.5088724804
  0
ARC
  5
525
100
AcDbEntity
  8
RUNDUNGEN
100
AcDbCircle
 62
7
  6
CONTINUOUS
 10
87.1121076481
 20
197.0665666219
 40
3.9999994815
100
AcDbArc
 50
7.3860435289
 51
79.5088533886
  0
ARC
  5
526
100
AcDbEntity
  8
RUNDUNGEN
100
AcDbCircle
 62
7
  6
CONTINUOUS
 10
88.505604739
 20
205.0438318947
 40
3.9840533656
100
AcDbArc
 50
202.4719284605
 51
267.7516373861
  0
ARC
  5
527
100
AcDbEntity
  8
B-ACHSEN
100
AcDbCircle
 62
7
  6
CONTINUOUS
 10
100.9343557703
 20
191.4102559507
 40
1.5
100
AcDbArc
 50
343.7397952917
 51
90.0
  0
ARC
  5
528
100
AcDbEntity
  8
RUNDUNGEN
100
AcDbCircle
 62
7
  6
CONTINUOUS
 10
88.902133855
 20
244.692477866
 40
4.0
100
AcDbArc
 50
112.5
 51
157.5
  0
ARC
  5
529
100
AcDbEntity
  8
RUNDUNGEN
100
AcDbCircle
 62
7
  6
CONTINUOUS
 10
78.336178062
 20
224.4102559507
 40
2.0
100
AcDbArc
 50
157.5
 51
202.5
  0
ARC
  5
52A
100
AcDbEntity
  8
RUNDUNGEN
100
AcDbCircle
 62
7
  6
CONTINUOUS
 10
129.8457074531
 20
205.0541454663
 40
4.0040970504
100
AcDbArc
 50
335.6473322678
 51
336.5816890506
  0
ARC
  5
52B
100
AcDbEntity
  8
RUNDUNGEN
100
AcDbCircle
 62
7
  6
CONTINUOUS
 10
129.7999363211
 20
204.9328329742
 40
4.0
100
AcDbArc
 50
280.4911333555
 51
337.4999720131
  0
ARC
  5
52C
100
AcDbEntity
  8
RUNDUNGEN
100
AcDbCircle
 62
7
  6
CONTINUOUS
 10
131.2566038925
 20
197.0665666219
 40
3.9999994815
100
AcDbArc
 50
100.4911466114
 51
172.6139564711
  0
ARC
  5
52D
100
AcDbEntity
  8
RUNDUNGEN
100
AcDbCircle
 62
7
  6
CONTINUOUS
 10
129.8524100624
 20
205.0512434822
 40
3.9967931828
100
AcDbArc
 50
336.5816754031
 51
337.4885116222
  0
ARC
  5
52E
100
AcDbEntity
  8
RUNDUNGEN
100
AcDbCircle
 62
7
  6
CONTINUOUS
 10
129.8631208356
 20
205.0438078044
 40
3.9840265681
100
AcDbArc
 50
272.2480616013
 51
337.5283233182
  0
ARC
  5
52F
100
AcDbEntity
  8
B-ACHSEN
100
AcDbCircle
 62
7
  6
CONTINUOUS
 10
117.4343557703
 20
191.4102559507
 40
1.5
100
AcDbArc
 50
90.0
 51
196.2602047083
  0
ARC
  5
530
100
AcDbEntity
  8
RUNDUNGEN
100
AcDbCircle
 62
7
  6
CONTINUOUS
 10
109.1843557703
 20
224.4102559507
 40
17.5
100
AcDbArc
 50
249.563946579
 51
290.436053421
  0
ARC
  5
531
100
AcDbEntity
  8
0
100
AcDbCircle
 62
7
  6
CONTINUOUS
 10
109.1843557703
 20
224.4102559507
 40
17.5
100
AcDbArc
 50
325.0372662836
 51
344.4804542999
  0
ARC
  5
532
100
AcDbEntity
  8
0
100
AcDbCircle
 62
7
  6
CONTINUOUS
 10
109.1843557703
 20
224.4102559507
 40
17.5
100
AcDbArc
 50
290.436053421
 51
298.8381222912
  0
ARC
  5
533
100
AcDbEntity
  8
RUNDUNGEN
100
AcDbCircle
 62
7
  6
CONTINUOUS
 10
109.1843557703
 20
224.4102559507
 40
17.5
100
AcDbArc
 50
9.8780835552
 51
195.5195457001
  0
ARC
  5
534
100
AcDbEntity
  8
0
100
AcDbCircle
 62
7
  6
CONTINUOUS
 10
109.1843557703
 20
224.4102559507
 40
17.5
100
AcDbArc
 50
241.1554675835
 51
249.563946579
  0
ARC
  5
535
100
AcDbEntity
  8
0
100
AcDbCircle
 62
7
  6
CONTINUOUS
 10
109.1843557703
 20
224.4102559507
 40
17.5
100
AcDbArc
 50
195.5195457001
 51
214.9614227281
  0
ARC
  5
536
100
AcDbEntity
  8
RUNDUNGEN
100
AcDbCircle
 62
7
  6
CONTINUOUS
 10
109.1843557703
 20
224.4102559507
 40
17.5
100
AcDbArc
 50
344.4804542999
 51
359.999917258
  0
ARC
  5
537
100
AcDbEntity
  8
RUNDUNGEN
100
AcDbCircle
 62
7
  6
CONTINUOUS
 10
129.4665776857
 20
244.692477866
 40
4.0
100
AcDbArc
 50
22.5
 51
67.5
  0
ARC
  5
538
100
AcDbEntity
  8
RUNDUNGEN
100
AcDbCircle
 62
7
  6
CONTINUOUS
 10
109.1843557703
 20
253.0936492584
 40
4.0
100
AcDbArc
 50
67.5
 51
112.5
  0
ARC
  5
539
100
AcDbEntity
  8
RUNDUNGEN
100
AcDbCircle
 62
7
  6
CONTINUOUS
 10
140.0325280229
 20
224.4102427793
 40
2.0
100
AcDbArc
 50
337.5004084216
 51
0.0003776416
  0
ARC
  5
53A
100
AcDbEntity
  8
RUNDUNGEN
100
AcDbCircle
 62
7
  6
CONTINUOUS
 10
276.3771299929
 20
219.9102559507
 40
12.0
100
AcDbArc
 50
277.4539590741
 51
360.0
  0
ARC
  5
53B
100
AcDbEntity
  8
B-ACHSEN
100
AcDbCircle
 62
7
  6
CONTINUOUS
 10
278.1933424194
 20
206.0285639637
 40
2.0
100
AcDbArc
 50
97.4539590741
 51
187.3860431513
  0
ARC
  5
53C
100
AcDbEntity
  8
B-ACHSEN
100
AcDbCircle
 62
7
  6
CONTINUOUS
 10
287.1271299929
 20
191.4102559507
 40
1.5
100
AcDbArc
 50
343.7397952917
 51
90.0
  0
ARC
  5
53D
100
AcDbEntity
  8
RUNDUNGEN
100
AcDbCircle
 62
8
  6
HIDDEN
 10
293.3771299929
 20
246.9102559507
 40
5.0
100
AcDbArc
 50
180.0
 51
270.0
  0
ARC
  5
53E
100
AcDbEntity
  8
RUNDUNGEN
100
AcDbCircle
 62
7
  6
CONTINUOUS
 10
292.3771299929
 20
253.0936492584
 40
4.0
100
AcDbArc
 50
90.0
 51
180.0
  0
ARC
  5
53F
100
AcDbEntity
  8
RUNDUNGEN
100
AcDbCircle
 62
7
  6
CONTINUOUS
 10
314.3771299929
 20
219.9102559507
 40
12.0
100
AcDbArc
 50
180.0
 51
262.5460409259
  0
ARC
  5
540
100
AcDbEntity
  8
B-ACHSEN
100
AcDbCircle
 62
7
  6
CONTINUOUS
 10
312.5609175664
 20
206.0285639637
 40
2.0
100
AcDbArc
 50
352.6139568487
 51
82.5460409259
  0
ARC
  5
541
100
AcDbEntity
  8
B-ACHSEN
100
AcDbCircle
 62
7
  6
CONTINUOUS
 10
303.6271299929
 20
191.4102559507
 40
1.5
100
AcDbArc
 50
90.0
 51
196.2602047083
  0
ARC
  5
542
100
AcDbEntity
  8
RUNDUNGEN
100
AcDbCircle
 62
8
  6
HIDDEN
 10
297.3771299929
 20
246.9102559507
 40
5.0
100
AcDbArc
 50
270.0
 51
360.0
  0
ARC
  5
543
100
AcDbEntity
  8
RUNDUNGEN
100
AcDbCircle
 62
7
  6
CONTINUOUS
 10
298.3771299929
 20
253.0936492584
 40
4.0
100
AcDbArc
 50
0.0
 51
90.0
  0
ARC
  5
544
100
AcDbEntity
  8
RUNDUNGEN
100
AcDbCircle
 62
7
  6
CONTINUOUS
 10
108.3107218829
 20
110.6567018806
 40
21.602661383
100
AcDbArc
 50
55.7874049311
 51
56.4527128629
  0
ARC
  5
545
100
AcDbEntity
  8
RUNDUNGEN
100
AcDbCircle
 62
7
  6
CONTINUOUS
 10
108.3107605448
 20
114.5701161909
 40
21.6025562615
100
AcDbArc
 50
303.5473661177
 51
304.2126557641
  0
ARC
  5
546
100
AcDbEntity
  8
RUNDUNGEN
100
AcDbCircle
 62
7
  6
CONTINUOUS
 10
108.573713077
 20
111.0609677475
 40
21.1203989843
100
AcDbArc
 50
56.4412575139
 51
64.0796281211
  0
ARC
  5
547
100
AcDbEntity
  8
RUNDUNGEN
100
AcDbCircle
 62
7
  6
CONTINUOUS
 10
109.7948773191
 20
114.1657336788
 40
21.1201510691
100
AcDbArc
 50
236.4411999707
 51
244.0796666555
  0
ARC
  5
548
100
AcDbEntity
  8
RUNDUNGEN
100
AcDbCircle
 62
7
  6
CONTINUOUS
 10
109.724488763
 20
111.1843863037
 40
20.9785768598
100
AcDbArc
 50
115.8945141673
 51
123.5846110301
  0
ARC
  5
549
100
AcDbEntity
  8
RUNDUNGEN
100
AcDbCircle
 62
7
  6
CONTINUOUS
 10
108.6442701294
 20
114.0424443894
 40
20.9784774627
100
AcDbArc
 50
295.8945024899
 51
303.584642762
  0
ARC
  5
54A
100
AcDbEntity
  8
RUNDUNGEN
100
AcDbCircle
 62
7
  6
CONTINUOUS
 10
109.1843557703
 20
112.6134590964
 40
15.0
100
AcDbArc
 50
27.8269595736
 51
34.2106399602
  0
ARC
  5
54B
100
AcDbEntity
  8
0
100
AcDbCircle
 62
7
  6
CONTINUOUS
 10
109.1843557703
 20
112.6134590964
 40
15.0
100
AcDbArc
 50
325.7990352215
 51
332.1839126703
  0
ARC
  5
54C
100
AcDbEntity
  8
0
100
AcDbCircle
 62
7
  6
CONTINUOUS
 10
109.1843557703
 20
112.6134590964
 40
15.0
100
AcDbArc
 50
207.8145924121
 51
293.5404328218
  0
ARC
  5
54D
100
AcDbEntity
  8
RUNDUNGEN
100
AcDbCircle
 62
7
  6
CONTINUOUS
 10
109.1843557703
 20
112.6134590964
 40
15.0
100
AcDbArc
 50
66.4643784696
 51
152.1732408708
  0
ARC
  5
54E
100
AcDbEntity
  8
B-ACHSEN
100
AcDbCircle
 62
7
  6
CONTINUOUS
 10
121.833466411
 20
107.6134590964
 40
11.0
100
AcDbArc
 50
226.8637411287
 51
270.0
  0
ARC
  5
54F
100
AcDbEntity
  8
B-ACHSEN
100
AcDbCircle
 62
7
  6
CONTINUOUS
 10
121.833466411
 20
117.6134590964
 40
11.0
100
AcDbArc
 50
90.0
 51
133.1362588713
  0
ARC
  5
550
100
AcDbEntity
  8
B-ACHSEN
100
AcDbCircle
 62
7
  6
CONTINUOUS
 10
109.1843557703
 20
112.6134590964
 40
11.0
100
AcDbArc
 50
90.0
 51
140.4377445839
  0
ARC
  5
551
100
AcDbEntity
  8
B-ACHSEN
100
AcDbCircle
 62
7
  6
CONTINUOUS
 10
109.1843557703
 20
112.6134590964
 40
11.0
100
AcDbArc
 50
219.5622554161
 51
270.0
  0
ARC
  5
552
100
AcDbEntity
  8
B-ACHSEN
100
AcDbCircle
 62
7
  6
CONTINUOUS
 10
109.1843557703
 20
94.1134590964
 40
7.5
100
AcDbArc
 50
46.8637411287
 51
90.0
  0
ARC
  5
553
100
AcDbEntity
  8
B-ACHSEN
100
AcDbCircle
 62
7
  6
CONTINUOUS
 10
109.1843557703
 20
131.1134590964
 40
7.5
100
AcDbArc
 50
270.0
 51
313.1362588713
  0
ARC
  5
554
100
AcDbEntity
  8
B-ACHSEN
100
AcDbCircle
 62
7
  6
CONTINUOUS
 10
139.1843557703
 20
103.1134590964
 40
6.5
100
AcDbArc
 50
270.0
 51
360.0
  0
ARC
  5
555
100
AcDbEntity
  8
B-ACHSEN
100
AcDbCircle
 62
7
  6
CONTINUOUS
 10
139.1843557703
 20
122.1134590964
 40
6.5
100
AcDbArc
 50
0.0
 51
90.0
  0
ARC
  5
556
100
AcDbEntity
  8
B-ACHSEN
100
AcDbCircle
 62
7
  6
CONTINUOUS
 10
125.2152189036
 20
107.6134590964
 40
5.0
100
AcDbArc
 50
203.6221764485
 51
270.0
  0
ARC
  5
557
100
AcDbEntity
  8
B-ACHSEN
100
AcDbCircle
 62
7
  6
CONTINUOUS
 10
125.2152189036
 20
117.6134590964
 40
5.0
100
AcDbArc
 50
90.0
 51
156.3778235515
  0
ARC
  5
558
100
AcDbEntity
  8
B-ACHSEN
100
AcDbCircle
 62
7
  6
CONTINUOUS
 10
143.6843557703
 20
105.3134590964
 40
2.0
100
AcDbArc
 50
0.0
 51
182.7089053877
  0
ARC
  5
559
100
AcDbEntity
  8
B-ACHSEN
100
AcDbCircle
 62
7
  6
CONTINUOUS
 10
139.7460820368
 20
104.6134590964
 40
2.0
100
AcDbArc
 50
270.0
 51
10.0786581078
  0
ARC
  5
55A
100
AcDbEntity
  8
B-ACHSEN
100
AcDbCircle
 62
7
  6
CONTINUOUS
 10
139.7460820368
 20
120.6134590964
 40
2.0
100
AcDbArc
 50
349.9213418922
 51
90.0
  0
ARC
  5
55B
100
AcDbEntity
  8
B-ACHSEN
100
AcDbCircle
 62
7
  6
CONTINUOUS
 10
143.6843557703
 20
119.9134590964
 40
2.0
100
AcDbArc
 50
169.9213418922
 51
352.6302472799
  0
SPLINE
  5
55C
100
AcDbEntity
  8
0
100
AcDbSpline
 62
7
  6
CONTINUOUS
 70
0
 71
3
 72
16
 73
12
 74
0
 42
0.0000001
 43
0.0000001
 44
0.0000000001
 40
0.0
 40
0.0
 40
0.0
 40
0.0
 40
0.0452920834
 40
0.0956632986
 40
0.2055231775
 40
0.3231567229
 40
0.4465439076
 40
0.5753527027
 40
0.7100142477
 40
0.8512930282
 40
1.0
 40
1.0
 40
1.0
 40
1.0
 10
123.5260422211
 20
214.3819943577
 30
0.0
 10
123.4563757765
 20
214.2823625038
 30
0.0
 10
123.3149918624
 20
214.0679510396
 30
0.0
 10
123.0131742955
 20
213.6062242584
 30
0.0
 10
122.5883881746
 20
212.9927037287
 30
0.0
 10
121.9983062423
 20
212.2573335385
 30
0.0
 10
121.3117208425
 20
211.5384602998
 30
0.0
 10
120.5259098062
 20
210.8572401952
 30
0.0
 10
119.6407452419
 20
210.22477685
 30
0.0
 10
118.6616840166
 20
209.6394324705
 30
0.0
 10
117.974899042
 20
209.2730281617
 30
0.0
 10
117.6252420559
 20
209.0804995352
 30
0.0
  0
SPLINE
  5
55D
100
AcDbEntity
  8
0
100
AcDbSpline
 62
7
  6
CONTINUOUS
 70
0
 71
3
 72
16
 73
12
 74
0
 42
0.0000001
 43
0.0000001
 44
0.0000000001
 40
0.0
 40
0.0
 40
0.0
 40
0.0
 40
0.1487078449
 40
0.2899865181
 40
0.4246476708
 40
0.553456097
 40
0.6768432328
 40
0.7944772656
 40
0.9043376474
 40
0.9547095945
 40
1.0
 40
1.0
 40
1.0
 40
1.0
 10
100.741754604
 20
209.0814439164
 30
0.0
 10
100.3921852053
 20
209.2739752863
 30
0.0
 10
99.705565703
 20
209.6403721081
 30
0.0
 10
98.7267465201
 20
210.2256898278
 30
0.0
 10
97.8418056106
 20
210.8580974106
 30
0.0
 10
97.0562003008
 20
211.5392416808
 30
0.0
 10
96.369787803
 20
212.2580117501
 30
0.0
 10
95.7798502344
 20
212.9932653924
 30
0.0
 10
95.3551700897
 20
213.6066883464
 30
0.0
 10
95.0534382967
 20
214.0683414125
 30
0.0
 10
94.9120879461
 20
214.2827120864
 30
0.0
 10
94.8424399301
 20
214.382322439
 30
0.0
  0
SPLINE
  5
55E
100
AcDbEntity
  8
RUNDUNGEN
100
AcDbSpline
 62
7
  6
CONTINUOUS
 70
0
 71
3
 72
9
 73
5
 74
0
 42
0.0000001
 43
0.0000001
 44
0.0000000001
 40
0.0
 40
0.0
 40
0.0
 40
0.0
 40
0.4877266919
 40
1.0
 40
1.0
 40
1.0
 40
1.0
 10
93.7278050869
 20
100.3753084812
 30
0.0
 10
94.3631091894
 20
99.6729515017
 30
0.0
 10
95.7451642957
 20
98.3023243275
 30
0.0
 10
97.2907833608
 20
97.1156143374
 30
0.0
 10
98.1198167738
 20
96.5659114511
 30
0.0
  0
SPLINE
  5
55F
100
AcDbEntity
  8
B-ACHSEN
100
AcDbSpline
 62
7
  6
CONTINUOUS
 70
0
 71
3
 72
9
 73
5
 74
0
 42
0.0000001
 43
0.0000001
 44
0.0000000001
 40
0.0
 40
0.0
 40
0.0
 40
0.0
 40
0.5065303538
 40
1.0
 40
1.0
 40
1.0
 40
1.0
 10
117.8058958588
 20
95.1702126556
 30
0.0
 10
116.5842110248
 20
94.5775914094
 30
0.0
 10
114.0164984726
 20
93.7109694131
 30
0.0
 10
111.3288976606
 20
93.4310639752
 30
0.0
 10
110.0060754448
 20
93.4296769311
 30
0.0
  0
SPLINE
  5
560
100
AcDbEntity
  8
RUNDUNGEN
100
AcDbSpline
 62
7
  6
CONTINUOUS
 70
0
 71
3
 72
9
 73
5
 74
0
 42
0.0000001
 43
0.0000001
 44
0.0000000001
 40
0.0
 40
0.0
 40
0.0
 40
0.0
 40
0.512272667
 40
1.0
 40
1.0
 40
1.0
 40
1.0
 10
98.1198152088
 20
128.6610060788
 30
0.0
 10
97.2907657156
 20
128.1112936964
 30
0.0
 10
95.745127396
 20
126.9245442807
 30
0.0
 10
94.3630316564
 20
125.5539076319
 30
0.0
 10
93.7276901077
 20
124.8515573058
 30
0.0
  0
SPLINE
  5
561
100
AcDbEntity
  8
B-ACHSEN
100
AcDbSpline
 62
7
  6
CONTINUOUS
 70
0
 71
3
 72
9
 73
5
 74
0
 42
0.0000001
 43
0.0000001
 44
0.0000000001
 40
0.0
 40
0.0
 40
0.0
 40
0.0
 40
0.5065302661
 40
1.0
 40
1.0
 40
1.0
 40
1.0
 10
100.5628157774
 20
130.056705588
 30
0.0
 10
101.7844960032
 20
130.6493245729
 30
0.0
 10
104.3521986841
 20
131.5159445588
 30
0.0
 10
107.0397893401
 20
131.7958522141
 30
0.0
 10
108.3626070174
 20
131.797241237
 30
0.0
  0
SPLINE
  5
562
100
AcDbEntity
  8
B-ACHSEN
100
AcDbSpline
 62
7
  6
CONTINUOUS
 70
0
 71
3
 72
9
 73
5
 74
0
 42
0.0000001
 43
0.0000001
 44
0.0000000001
 40
0.0
 40
0.0
 40
0.0
 40
0.0
 40
0.493469729
 40
1.0
 40
1.0
 40
1.0
 40
1.0
 10
110.0061050364
 20
131.7972412365
 30
0.0
 10
111.3289226166
 20
131.7958521788
 30
0.0
 10
114.016513094
 20
131.5159444906
 30
0.0
 10
116.584215603
 20
130.6493245411
 30
0.0
 10
117.8058957633
 20
130.056705588
 30
0.0
  0
SPLINE
  5
563
100
AcDbEntity
  8
B-ACHSEN
100
AcDbSpline
 62
7
  6
CONTINUOUS
 70
0
 71
3
 72
9
 73
5
 74
0
 42
0.0000001
 43
0.0000001
 44
0.0000000001
 40
0.0
 40
0.0
 40
0.0
 40
0.0
 40
0.4934696414
 40
1.0
 40
1.0
 40
1.0
 40
1.0
 10
108.3626355724
 20
93.4296769315
 30
0.0
 10
107.0398134728
 20
93.4310640112
 30
0.0
 10
104.3522128765
 20
93.7109694712
 30
0.0
 10
101.784500538
 20
94.5775914201
 30
0.0
 10
100.5628157774
 20
95.1702126048
 30
0.0
  0
ENDSEC
  0
SECTION
  2
OBJECTS
  0
DICTIONARY
  5
C
100
AcDbDictionary
280
0
281
1
  3
ACAD_GROUP
350
D
  3
ACAD_MLINESTYLE
350
17
  3
ACAD_LAYOUT
350
1A
  3
ACAD_PLOTSETTINGS
350
19
  3
ACAD_PLOTSTYLENAME
350
E
  0
DICTIONARY
  5
D
102
{ACAD_REACTORS
330
C
102
}
100
AcDbDictionary
280
0
281
1
  0
ACDBDICTIONARYWDFLT
  5
E
102
{ACAD_REACTORS
330
C
102
}
100
AcDbDictionary
281
1
  3
Normal
350
F
100
AcDbDictionaryWithDefault
340
F
  0
DICTIONARY
  5
17
102
{ACAD_REACTORS
330
C
102
}
100
AcDbDictionary
280
0
281
1
  3
Standard
350
18
  0
DICTIONARY
  5
19
102
{ACAD_REACTORS
330
C
102
}
100
AcDbDictionary
281
1
  0
DICTIONARY
  5
1A
102
{ACAD_REACTORS
330
C
102
}
100
AcDbDictionary
281
1
  3
Model
350
564
  3
Layout1
350
565
  0
ACDBPLACEHOLDER
  5
F
102
{ACAD_REACTORS
330
E
102
}
  0
MLINESTYLE
  5
18
102
{ACAD_REACTORS
330
17
102
}
100
AcDbMlineStyle
  2
STANDARD
 70
0
  3

 62
256
 51
90.0
 52
90.0
 71
2
 49
0.5
 62
256
  6
BYLAYER
 49
-0.5
 62
256
  6
BYLAYER
  0
LAYOUT
  5
564
102
{ACAD_REACTORS
330
1A
102
}
100
AcDbPlotSettings
  1

  2
none_device
  4
ISO_A3_(420.00_x_297.00_MM)
  6

 40
0.0
 41
0.0
 42
0.0
 43
0.0
 44
420.0
 45
297.0
 46
0.0
 47
0.0
 48
0.0
 49
0.0
140
0.0
141
0.0
142
1.0
143
1.0
 70
1024
 72
1
 73
0
 74
0
  7

 75
0
147
1.0
148
0.0
149
0.0
100
AcDbLayout
  1
Model
 70
0
 71
0
 10
0.0
 20
0.0
 11
420.0
 21
297.0
 12
0.0
 22
0.0
 32
0.0
 14
0.0
 24
0.0
 34
0.0
 15
0.0
 25
0.0
 35
0.0
146
0.0
 13
0.0
 23
0.0
 33
0.0
 16
1.0
 26
0.0
 36
0.0
 17
0.0
 27
1.0
 37
0.0
 76
0
330
20D
345
0
346
0
  0
LAYOUT
  5
565
102
{ACAD_REACTORS
330
1A
102
}
100
AcDbPlotSettings
  1

  2
none_device
  4
ISO_A3_(420.00_x_297.00_MM)
  6

 40
0.0
 41
0.0
 42
0.0
 43
0.0
 44
420.0
 45
297.0
 46
0.0
 47
0.0
 48
0.0
 49
0.0
140
0.0
141
0.0
142
1.0
143
1.0
 70
0
 72
1
 73
0
 74
0
  7

 75
0
147
1.0
148
0.0
149
0.0
100
AcDbLayout
  1
Layout1
 70
0
 71
1
 10
0.0
 20
0.0
 11
420.0
 21
297.0
 12
0.0
 22
0.0
 32
0.0
 14
0.0
 24
0.0
 34
0.0
 15
0.0
 25
0.0
 35
0.0
146
0.0
 13
0.0
 23
0.0
 33
0.0
 16
1.0
 26
0.0
 36
0.0
 17
0.0
 27
1.0
 37
0.0
 76
0
330
20E
345
0
346
0
  0
ENDSEC
  0
EOF
