999
DXF file: D:\CAD-neu-fuer-DC-Rom\psa-vrs-m12x150.dxf
999
Pro/ENGINEER 2005030 by Parametric Technology Corporation
0
SECTION
2
HEADER
9
$ACADVER
1
AC1014
9
$HANDSEED
5
       3CC
9
$EXTMAX
10
420.0000000000
20
297.0000000000
9
$EXTMIN
10
0.0000000000
20
0.0000000000
9
$LIMMIN
10
0.0000000000
20
0.0000000000
9
$LIMMAX
10
420.0000000000
20
297.0000000000
9
$VIEWCTR
10
210.0000000000
20
148.5000000000
9
$VIEWSIZE
40
297.0000000000
9
$CLAYER
8
0
9
$LTSCALE
40
23.1000000000
9
$CELTYPE
6
BYLAYER
9
$DIMSCALE
40
1
9
$DIMASZ
40
3.5000000000
9
$DIMEXO
40
2.6250000000
9
$DIMDLI
40
15.9600000000
9
$DIMEXE
40
7.5600000000
9
$DIMCEN
40
3.7800000000
9
$DIMLFAC
40
1.0000000000
9
$DIMTXT
40
3.5000000000
9
$DIMTOL
70
1
9
$DIMLIM
70
0
9
$DIMTFAC
40
1.0000000000
9
$DIMTP
40
0.0050000000
9
$DIMTM
40
0.0050000000
9
$MEASUREMENT
70
1
0
ENDSEC
0
SECTION
2
CLASSES
0
ENDSEC
0
SECTION
2
TABLES
0
TABLE
2
VPORT
5
8
100
AcDbSymbolTable
70
2
0
VPORT
5
1F4
100
AcDbSymbolTableRecord
100
AcDbViewportTableRecord
2
*ACTIVE
70
0
10
0.0
20
0.0
11
1.0
21
1.0
12
210.0000000000
22
148.5000000000
13
0.0
23
0.0
14
1.0
24
1.0
15
0.0
25
0.0
16
0.0
26
0.0
36
1.0
17
0.0
27
0.0
37
0.0
40
297.0000000000
41
1.4141414141
42
50.0
43
0.0
44
0.0
50
0.0
51
0.0
71
0
72
100
73
1
74
1
75
0
76
0
77
0
78
0
0
ENDTAB
0
TABLE
2
LTYPE
5
5
100
AcDbSymbolTable
70
6
0
LTYPE
5
14
100
AcDbSymbolTableRecord
100
AcDbLinetypeTableRecord
2
BYBLOCK
70
0
3

72
65
73
0
40
0.0
0
LTYPE
5
15
100
AcDbSymbolTableRecord
100
AcDbLinetypeTableRecord
2
BYLAYER
70
0
3

72
65
73
0
40
0.0
0
LTYPE
5
16
100
AcDbSymbolTableRecord
100
AcDbLinetypeTableRecord
2
CONTINUOUS
70
64
3
Solid line
72
65
73
0
40
0
0
LTYPE
5
1F5
100
AcDbSymbolTableRecord
100
AcDbLinetypeTableRecord
2
CENTER
70
64
3
____ _ ____ _ ____ _ ____ _ ____ _ ____ _ ____
72
65
73
4
40
0.6
49
0.375
74
0
49
-0.075
74
0
49
0.075
74
0
49
-0.075
74
0
0
LTYPE
5
1F6
100
AcDbSymbolTableRecord
100
AcDbLinetypeTableRecord
2
HIDDEN
70
64
3
- - - - - - - - - - - - - - - - - - - -
72
65
73
2
40
0.2
49
0.1
74
0
49
-0.1
74
0
0
LTYPE
5
1F7
100
AcDbSymbolTableRecord
100
AcDbLinetypeTableRecord
2
PHANTOM
70
64
3
_____ _ _ _____ _ _ _____ _ _ _____
72
65
73
6
40
0.8
49
0.45
74
0
49
-0.05
74
0
49
0.1
74
0
49
-0.05
74
0
49
0.1
74
0
49
-0.05
74
0
0
LTYPE
5
1F8
100
AcDbSymbolTableRecord
100
AcDbLinetypeTableRecord
2
DOT
70
64
3
. . . . . . . . . . . . . . . . . . . .
72
65
73
2
40
0.2
49
0.1
74
0
49
-0.1
74
0
0
LTYPE
5
1F9
100
AcDbSymbolTableRecord
100
AcDbLinetypeTableRecord
2
DASHED
70
64
3
- - - - - - - - - - - - - - - - - - - -
72
65
73
2
40
0.2
49
0.1
74
0
49
-0.1
74
0
0
ENDTAB
0
TABLE
2
LAYER
5
2
100
AcDbSymbolTable
70
36
0
LAYER
5
10
100
AcDbSymbolTableRecord
100
AcDbLayerTableRecord
2
0
70
0
62
7
6
CONTINUOUS
0
LAYER
5
1FA
100
AcDbSymbolTableRecord
100
AcDbLayerTableRecord
2
DEFAULT_1
70
0
62
7
6
CENTER
0
LAYER
5
1FB
100
AcDbSymbolTableRecord
100
AcDbLayerTableRecord
2
DEFAULT_2
70
0
62
8
6
HIDDEN
0
LAYER
5
1FC
100
AcDbSymbolTableRecord
100
AcDbLayerTableRecord
2
DEFAULT_3
70
0
62
7
6
PHANTOM
0
LAYER
5
1FD
100
AcDbSymbolTableRecord
100
AcDbLayerTableRecord
2
B-ACHSEN
70
0
62
7
6
CONTINUOUS
0
LAYER
5
1FE
100
AcDbSymbolTableRecord
100
AcDbLayerTableRecord
2
B-EBENEN
70
0
62
7
6
CONTINUOUS
0
LAYER
5
1FF
100
AcDbSymbolTableRecord
100
AcDbLayerTableRecord
2
B-KOORSYS
70
0
62
7
6
CONTINUOUS
0
LAYER
5
200
100
AcDbSymbolTableRecord
100
AcDbLayerTableRecord
2
B-KURVEN
70
0
62
7
6
CONTINUOUS
0
LAYER
5
201
100
AcDbSymbolTableRecord
100
AcDbLayerTableRecord
2
BEMASSUNG
70
0
62
7
6
CONTINUOUS
0
LAYER
5
202
100
AcDbSymbolTableRecord
100
AcDbLayerTableRecord
2
BOHRUNGEN
70
0
62
7
6
CONTINUOUS
0
LAYER
5
203
100
AcDbSymbolTableRecord
100
AcDbLayerTableRecord
2
KURVENELEMENTE
70
0
62
7
6
CONTINUOUS
0
LAYER
5
204
100
AcDbSymbolTableRecord
100
AcDbLayerTableRecord
2
NOTIZEN
70
0
62
7
6
CONTINUOUS
0
LAYER
5
205
100
AcDbSymbolTableRecord
100
AcDbLayerTableRecord
2
RUNDUNGEN
70
0
62
7
6
CONTINUOUS
0
LAYER
5
206
100
AcDbSymbolTableRecord
100
AcDbLayerTableRecord
2
VERBUNDFLAECHEN
70
0
62
7
6
CONTINUOUS
0
ENDTAB
0
TABLE
2
STYLE
5
3
100
AcDbSymbolTable
70
1
0
STYLE
5
11
100
AcDbSymbolTableRecord
100
AcDbTextStyleTableRecord
2
STANDARD
70
0
40
0.0
41
0.7000000000
50
0.0
71
0
42
0.2
3
txt
4

0
ENDTAB
0
TABLE
2
VIEW
5
6
100
AcDbSymbolTable
70
0
0
ENDTAB
0
TABLE
2
UCS
5
7
100
AcDbSymbolTable
70
0
0
ENDTAB
0
TABLE
2
APPID
5
9
100
AcDbSymbolTable
70
1
0
APPID
5
207
100
AcDbSymbolTableRecord
100
AcDbRegAppTableRecord
2
ACAD
70
0
0
ENDTAB
0
TABLE
2
DIMSTYLE
5
A
100
AcDbSymbolTable
70
1
0
DIMSTYLE
105
208
100
AcDbSymbolTableRecord
100
AcDbDimStyleTableRecord
2
STANDARD
70
0
3

4

5

6

7

40
1.0
41
3.5000000000
42
0.0625
43
0.38
44
0.18
45
0.0
46
0.0
47
0.0050000000
48
0.0050000000
140
3.5000000000
141
0.09
142
0.0
143
25.4
144
1.0000000000
145
0.0
146
1.0000000000
147
0.09
71
1
72
0
73
0
74
0
75
0
76
0
77
1
78
8
170
0
171
2
172
0
173
0
174
0
175
0
176
0
177
0
178
5
270
2
271
3
272
3
273
2
274
2
340
11
275
0
280
0
281
0
282
0
283
1
284
8
285
0
286
0
287
3
288
0
0
ENDTAB
0
TABLE
2
BLOCK_RECORD
5
1
100
AcDbSymbolTable
70
0
0
BLOCK_RECORD
5
1B
100
AcDbSymbolTableRecord
100
AcDbBlockTableRecord
2
*MODEL_SPACE
0
BLOCK_RECORD
5
1C
100
AcDbSymbolTableRecord
100
AcDbBlockTableRecord
2
*PAPER_SPACE
0
ENDTAB
0
ENDSEC
0
SECTION
2
BLOCKS
0
BLOCK
5
1E
100
AcDbEntity
8
0
100
AcDbBlockBegin
2
*MODEL_SPACE
70
0
10
0.0
20
0.0
30
0.0
3
*MODEL_SPACE
1

0
ENDBLK
5
1F
100
AcDbEntity
8
0
100
AcDbBlockEnd
0
BLOCK
5
20
100
AcDbEntity
8
0
100
AcDbBlockBegin
2
*PAPER_SPACE
70
0
10
0.0
20
0.0
30
0.0
3
*PAPER_SPACE
1

0
ENDBLK
5
21
100
AcDbEntity
8
0
100
AcDbBlockEnd
0
ENDSEC
0
SECTION
2
ENTITIES
0
LINE
5
209
100
AcDbEntity
8
0
100
AcDbLine
62
7
6
CONTINUOUS
10
0.0000000000
20
0.0000000000
11
0.0000000000
21
297.0000000000
0
LINE
5
20A
100
AcDbEntity
8
0
100
AcDbLine
62
7
6
CONTINUOUS
10
0.0000000000
20
0.0000000000
11
420.0000000000
21
0.0000000000
0
LINE
5
20B
100
AcDbEntity
8
0
100
AcDbLine
62
7
6
CONTINUOUS
10
0.0000000000
20
297.0000000000
11
420.0000000000
21
297.0000000000
0
LINE
5
20C
100
AcDbEntity
8
0
100
AcDbLine
62
7
6
CONTINUOUS
10
420.0000000000
20
0.0000000000
11
420.0000000000
21
297.0000000000
0
LINE
5
20D
100
AcDbEntity
8
0
100
AcDbLine
62
7
6
CONTINUOUS
10
92.6521805412
20
34.6856710097
11
81.6521805412
21
34.6856710097
0
LINE
5
20E
100
AcDbEntity
8
0
100
AcDbLine
62
7
6
CONTINUOUS
10
93.1521805412
20
35.1856710097
11
81.1521805412
21
35.1856710097
0
LINE
5
20F
100
AcDbEntity
8
0
100
AcDbLine
62
7
6
CONTINUOUS
10
86.5781553926
20
239.5900992156
11
67.8266672067
21
231.8229784944
0
LINE
5
210
100
AcDbEntity
8
0
100
AcDbLine
62
7
6
CONTINUOUS
10
76.8836259647
20
233.3874768714
11
76.4675058125
21
233.2332181172
0
LINE
5
211
100
AcDbEntity
8
0
100
AcDbLine
62
7
6
CONTINUOUS
10
76.5905285582
20
232.8743036940
11
76.9435012657
21
232.9921042540
0
LINE
5
212
100
AcDbEntity
8
0
100
AcDbLine
62
7
6
CONTINUOUS
10
69.7272325498
20
225.6001243525
11
69.5201286210
21
225.4716097480
0
LINE
5
213
100
AcDbEntity
8
0
100
AcDbLine
62
7
6
CONTINUOUS
10
76.4675058125
20
233.2332181172
11
76.2149153106
21
233.0873849229
0
LINE
5
214
100
AcDbEntity
8
0
100
AcDbLine
62
7
6
CONTINUOUS
10
74.6362230478
20
232.1759265201
11
74.2573369337
21
231.9571765201
0
LINE
5
215
100
AcDbEntity
8
0
100
AcDbLine
62
7
6
CONTINUOUS
10
73.3732694544
20
231.4467599229
11
72.8049402832
21
231.1186349229
0
LINE
5
216
100
AcDbEntity
8
0
100
AcDbLine
62
7
6
CONTINUOUS
10
70.9105097124
20
230.0248849229
11
70.3421805412
21
229.6967599229
0
LINE
5
217
100
AcDbEntity
8
0
100
AcDbLine
62
7
6
CONTINUOUS
10
76.3379376950
20
232.7284702911
11
76.5905285582
21
232.8743036940
0
LINE
5
218
100
AcDbEntity
8
0
100
AcDbLine
62
7
6
CONTINUOUS
10
75.6141266383
20
231.7946478164
11
75.9298653077
21
231.9769396222
0
LINE
5
219
100
AcDbEntity
8
0
100
AcDbLine
62
7
6
CONTINUOUS
10
78.9785508812
20
231.0714604780
11
77.2104159227
21
230.0506272838
0
LINE
5
21A
100
AcDbEntity
8
0
100
AcDbLine
62
7
6
CONTINUOUS
10
72.0921805412
20
226.6656710097
11
72.4710666553
21
226.8844210097
0
LINE
5
21B
100
AcDbEntity
8
0
100
AcDbLine
62
7
6
CONTINUOUS
10
73.3551342249
20
227.3948376590
11
73.8603156804
21
227.6865043083
0
LINE
5
21C
100
AcDbEntity
8
0
100
AcDbLine
62
7
6
CONTINUOUS
10
74.7443833403
20
228.1969210097
11
75.1232694544
21
228.4156710097
0
LINE
5
21D
100
AcDbEntity
8
0
100
AcDbLine
62
7
6
CONTINUOUS
10
76.0073369337
20
228.9260876068
11
76.3862230478
21
229.1448376068
0
LINE
5
21E
100
AcDbEntity
8
0
100
AcDbLine
62
7
6
CONTINUOUS
10
76.8914047743
20
229.4365044126
11
79.1647210979
21
230.7490042040
0
LINE
5
21F
100
AcDbEntity
8
0
100
AcDbLine
62
7
6
CONTINUOUS
10
70.4944268595
20
223.8136036806
11
70.7856220455
21
223.9605289870
0
LINE
5
220
100
AcDbEntity
8
0
100
AcDbLine
62
7
6
CONTINUOUS
10
69.8884556697
20
225.2611588688
11
70.0760990970
21
225.3438274048
0
LINE
5
221
100
AcDbEntity
8
0
100
AcDbLine
62
7
6
CONTINUOUS
10
69.1184214590
20
224.8846386561
11
68.9307780317
21
224.8019701201
0
LINE
5
222
100
AcDbEntity
8
0
100
AcDbLine
62
7
6
CONTINUOUS
10
84.1255137998
20
234.1156709561
11
83.8905137998
21
234.0156709680
0
LINE
5
223
100
AcDbEntity
8
0
100
AcDbLine
62
7
6
CONTINUOUS
10
68.4797793687
20
226.0755302510
11
68.2080447012
21
225.9744510058
0
LINE
5
224
100
AcDbEntity
8
0
100
AcDbLine
62
7
6
CONTINUOUS
10
67.6429844861
20
224.1041650470
11
67.3712493732
21
224.0030847525
0
LINE
5
225
100
AcDbEntity
8
0
100
AcDbLine
62
7
6
CONTINUOUS
10
87.4155140239
20
232.0156709963
11
87.1021805412
21
231.9156710082
0
LINE
5
226
100
AcDbEntity
8
0
100
AcDbLine
62
7
6
CONTINUOUS
10
91.1755135757
20
232.0156709963
11
90.8621805412
21
231.9156710082
0
LINE
5
227
100
AcDbEntity
8
0
100
AcDbLine
62
7
6
CONTINUOUS
10
68.4533590614
20
225.6538962313
11
68.5763713045
21
225.7639990773
0
LINE
5
228
100
AcDbEntity
8
0
100
AcDbLine
62
7
6
CONTINUOUS
10
67.5519325492
20
223.7099642880
11
67.6749447923
21
223.8200671340
0
LINE
5
229
100
AcDbEntity
8
0
100
AcDbLine
62
7
6
CONTINUOUS
10
69.2414337022
20
224.9947415022
11
69.1184214590
21
224.8846386561
0
LINE
5
22A
100
AcDbEntity
8
0
100
AcDbLine
62
7
6
CONTINUOUS
10
76.0594334251
20
232.4816874482
11
76.3379376950
21
232.7284702911
0
LINE
5
22B
100
AcDbEntity
8
0
100
AcDbLine
62
7
6
CONTINUOUS
10
76.2149153106
20
233.0873849229
11
75.8101154284
21
232.7676852743
0
LINE
5
22C
100
AcDbEntity
8
0
100
AcDbLine
62
7
6
CONTINUOUS
10
84.2038472826
20
233.6156710157
11
84.5171805412
21
233.8156709918
0
LINE
5
22D
100
AcDbEntity
8
0
100
AcDbLine
62
7
6
CONTINUOUS
10
87.4938470584
20
231.4156710065
11
87.8071805412
21
231.6156710090
0
LINE
5
22E
100
AcDbEntity
8
0
100
AcDbLine
62
7
6
CONTINUOUS
10
91.2538475067
20
231.4156710065
11
91.5671805412
21
231.6156710090
0
LINE
5
22F
100
AcDbEntity
8
0
100
AcDbLine
62
7
6
CONTINUOUS
10
69.2796445790
20
224.5456731725
11
69.4867480623
21
224.6741867276
0
LINE
5
230
100
AcDbEntity
8
0
100
AcDbLine
62
7
6
CONTINUOUS
10
65.6600188071
20
216.0183692344
11
65.4529149896
21
215.8898548922
0
LINE
5
231
100
AcDbEntity
8
0
100
AcDbLine
62
7
6
CONTINUOUS
10
65.2124306135
20
214.9639175297
11
65.4195344310
21
215.0924318718
0
LINE
5
232
100
AcDbEntity
8
0
100
AcDbLine
62
7
6
CONTINUOUS
10
66.4272131168
20
214.2318485624
11
66.7184084141
21
214.3787741312
0
LINE
5
233
100
AcDbEntity
8
0
100
AcDbLine
62
7
6
CONTINUOUS
10
65.8212417043
20
215.6794032260
11
66.0088851316
21
215.7620717621
0
LINE
5
234
100
AcDbEntity
8
0
100
AcDbLine
62
7
6
CONTINUOUS
10
65.0512077163
20
215.3028835380
11
64.8635642890
21
215.2202150020
0
LINE
5
235
100
AcDbEntity
8
0
100
AcDbLine
62
7
6
CONTINUOUS
10
64.4125657373
20
216.4937753952
11
64.1408307358
21
216.3926953630
0
LINE
5
236
100
AcDbEntity
8
0
100
AcDbLine
62
7
6
CONTINUOUS
10
63.5952309108
20
214.5682552104
11
63.3234959649
21
214.4671753093
0
LINE
5
237
100
AcDbEntity
8
0
100
AcDbLine
62
7
6
CONTINUOUS
10
68.2080447012
20
225.9744510058
11
68.0461114551
21
225.7726560228
0
LINE
5
238
100
AcDbEntity
8
0
100
AcDbLine
62
7
6
CONTINUOUS
10
69.7459829251
20
225.1052099543
11
69.8884556697
21
225.2611588688
0
LINE
5
239
100
AcDbEntity
8
0
100
AcDbLine
62
7
6
CONTINUOUS
10
69.4867480623
20
224.6741867276
11
69.6292208070
21
224.8301356422
0
LINE
5
23A
100
AcDbEntity
8
0
100
AcDbLine
62
7
6
CONTINUOUS
10
70.5597681472
20
224.3269298468
11
70.4172954026
21
224.1709809323
0
LINE
5
23B
100
AcDbEntity
8
0
100
AcDbLine
62
7
6
CONTINUOUS
10
64.3861453186
20
216.0721411131
11
64.5091575618
21
216.1822439592
0
LINE
5
23C
100
AcDbEntity
8
0
100
AcDbLine
62
7
6
CONTINUOUS
10
63.5041792522
20
214.1740551071
11
63.6271914954
21
214.2841579532
0
LINE
5
23D
100
AcDbEntity
8
0
100
AcDbLine
62
7
6
CONTINUOUS
10
65.1742199595
20
215.4129863841
11
65.0512077163
21
215.3028835380
0
LINE
5
23E
100
AcDbEntity
8
0
100
AcDbLine
62
7
6
CONTINUOUS
10
87.6505140239
20
232.2156710425
11
87.4155140239
21
232.0156709963
0
LINE
5
23F
100
AcDbEntity
8
0
100
AcDbLine
62
7
6
CONTINUOUS
10
81.1521805412
20
35.1856710097
11
81.6521805412
21
34.6856710097
0
LINE
5
240
100
AcDbEntity
8
0
100
AcDbLine
62
7
6
CONTINUOUS
10
67.3712493732
20
224.0030847525
11
67.2093165724
21
223.8012908189
0
LINE
5
241
100
AcDbEntity
8
0
100
AcDbLine
62
7
6
CONTINUOUS
10
69.5201286210
20
225.4716097480
11
69.3581958203
21
225.2698158143
0
LINE
5
242
100
AcDbEntity
8
0
100
AcDbLine
62
7
6
CONTINUOUS
10
64.1408307358
20
216.3926953630
11
63.9788978237
21
216.1909011670
0
LINE
5
243
100
AcDbEntity
8
0
100
AcDbLine
62
7
6
CONTINUOUS
10
70.7856220455
20
223.9605289870
11
70.9475552973
21
224.1623239676
0
LINE
5
244
100
AcDbEntity
8
0
100
AcDbLine
62
7
6
CONTINUOUS
10
63.3234959649
20
214.4671753093
11
63.1615629971
21
214.2653809822
0
LINE
5
245
100
AcDbEntity
8
0
100
AcDbLine
62
7
6
CONTINUOUS
10
65.4529149896
20
215.8898548922
11
65.2909820775
21
215.6880606962
0
LINE
5
246
100
AcDbEntity
8
0
100
AcDbLine
62
7
6
CONTINUOUS
10
66.7184084141
20
214.3787741312
11
66.8803413319
21
214.5805683248
0
LINE
5
247
100
AcDbEntity
8
0
100
AcDbLine
62
7
6
CONTINUOUS
10
65.6787691823
20
215.5234548362
11
65.8212417043
21
215.6794032260
0
LINE
5
248
100
AcDbEntity
8
0
100
AcDbLine
62
7
6
CONTINUOUS
10
65.4195344310
20
215.0924318718
11
65.5620070643
21
215.2483805240
0
LINE
5
249
100
AcDbEntity
8
0
100
AcDbLine
62
7
6
CONTINUOUS
10
66.4925541818
20
214.7451742040
11
66.3500816598
21
214.5892258142
0
LINE
5
24A
100
AcDbEntity
8
0
100
AcDbLine
62
7
6
CONTINUOUS
10
91.4105135757
20
232.2156710425
11
91.1755135757
21
232.0156709963
0
LINE
5
24B
100
AcDbEntity
8
0
100
AcDbLine
62
7
6
CONTINUOUS
10
75.8101154284
20
232.7676852743
11
75.6319930028
21
232.4928695885
0
LINE
5
24C
100
AcDbEntity
8
0
100
AcDbLine
62
7
6
CONTINUOUS
10
84.2821805412
20
234.3156709322
11
84.1255137998
21
234.1156709561
0
LINE
5
24D
100
AcDbEntity
8
0
100
AcDbLine
62
7
6
CONTINUOUS
10
87.8071805412
20
231.6156710090
11
88.1205140239
21
232.0156709963
0
LINE
5
24E
100
AcDbEntity
8
0
100
AcDbLine
62
7
6
CONTINUOUS
10
67.0148730565
20
231.0111843441
11
59.4855213369
21
212.8337213068
0
LINE
5
24F
100
AcDbEntity
8
0
100
AcDbLine
62
7
6
CONTINUOUS
10
68.0461114551
20
225.7726560228
11
67.9488098385
21
225.5434277792
0
LINE
5
250
100
AcDbEntity
8
0
100
AcDbLine
62
7
6
CONTINUOUS
10
67.2093165724
20
223.8012908189
11
66.7422681001
21
222.7009935704
0
LINE
5
251
100
AcDbEntity
8
0
100
AcDbLine
62
7
6
CONTINUOUS
10
66.5865849790
20
222.3342271213
11
66.4698228610
21
222.0591528092
0
LINE
5
252
100
AcDbEntity
8
0
100
AcDbLine
62
7
6
CONTINUOUS
10
65.9249330508
20
220.7754728609
11
65.8081709327
21
220.5003985487
0
LINE
5
253
100
AcDbEntity
8
0
100
AcDbLine
62
7
6
CONTINUOUS
10
64.9129947683
20
218.3914956640
11
64.7573118700
21
218.0247297396
0
LINE
5
254
100
AcDbEntity
8
0
100
AcDbLine
62
7
6
CONTINUOUS
10
63.9788978237
20
216.1909011670
11
63.8815960957
21
215.9616726611
0
LINE
5
255
100
AcDbEntity
8
0
100
AcDbLine
62
7
6
CONTINUOUS
10
63.1615629971
20
214.2653809822
11
62.6945145248
21
213.1650837337
0
LINE
5
256
100
AcDbEntity
8
0
100
AcDbLine
62
7
6
CONTINUOUS
10
63.1344325635
20
213.3029864958
11
63.5041792522
21
214.1740551071
0
LINE
5
257
100
AcDbEntity
8
0
100
AcDbLine
62
7
6
CONTINUOUS
10
67.1821861388
20
222.8388963325
11
67.5519325492
21
223.7099642880
0
LINE
5
258
100
AcDbEntity
8
0
100
AcDbLine
62
7
6
CONTINUOUS
10
64.2693832005
20
215.7970668010
11
64.3861453186
21
216.0721411131
0
LINE
5
259
100
AcDbEntity
8
0
100
AcDbLine
62
7
6
CONTINUOUS
10
68.3365969433
20
225.3788219191
11
68.4533590614
21
225.6538962313
0
LINE
5
25A
100
AcDbEntity
8
0
100
AcDbLine
62
7
6
CONTINUOUS
10
64.8260633574
20
216.2100438752
11
64.9428254755
21
216.4851181874
0
LINE
5
25B
100
AcDbEntity
8
0
100
AcDbLine
62
7
6
CONTINUOUS
10
68.8932771001
20
225.7917989934
11
69.0100392182
21
226.0668733055
0
LINE
5
25C
100
AcDbEntity
8
0
100
AcDbLine
62
7
6
CONTINUOUS
10
69.3581958203
20
225.2698158143
11
69.2414337022
21
224.9947415022
0
LINE
5
25D
100
AcDbEntity
8
0
100
AcDbLine
62
7
6
CONTINUOUS
10
68.5214004922
20
223.2984495610
11
68.1516540819
21
222.4273816055
0
LINE
5
25E
100
AcDbEntity
8
0
100
AcDbLine
62
7
6
CONTINUOUS
10
65.2909820775
20
215.6880606962
11
65.1742199595
21
215.4129863841
0
LINE
5
25F
100
AcDbEntity
8
0
100
AcDbLine
62
7
6
CONTINUOUS
10
64.4736471953
20
213.7625403802
11
64.1039005066
21
212.8914717688
0
LINE
5
260
100
AcDbEntity
8
0
100
AcDbLine
62
7
6
CONTINUOUS
10
67.2682680415
20
219.4477753220
11
66.9958230251
21
218.8059350855
0
LINE
5
261
100
AcDbEntity
8
0
100
AcDbLine
62
7
6
CONTINUOUS
10
64.4916876114
20
212.7268659088
11
64.8419739656
21
213.5520888452
0
LINE
5
262
100
AcDbEntity
8
0
100
AcDbLine
62
7
6
CONTINUOUS
10
65.5620070643
20
215.2483805240
11
65.6787691823
21
215.5234548362
0
LINE
5
263
100
AcDbEntity
8
0
100
AcDbLine
62
7
6
CONTINUOUS
10
68.5394411867
20
222.2627757455
11
68.8702670395
21
223.0421526134
0
LINE
5
264
100
AcDbEntity
8
0
100
AcDbLine
62
7
6
CONTINUOUS
10
69.6292208070
20
224.8301356422
11
69.7459829251
21
225.1052099543
0
LINE
5
265
100
AcDbEntity
8
0
100
AcDbLine
62
7
6
CONTINUOUS
10
67.3189790363
20
218.6687634970
11
67.5914240527
21
219.3106037335
0
LINE
5
266
100
AcDbEntity
8
0
100
AcDbLine
62
7
6
CONTINUOUS
10
67.0138635874
20
217.7702607069
11
66.6635772331
21
216.9450377705
0
LINE
5
267
100
AcDbEntity
8
0
100
AcDbLine
62
7
6
CONTINUOUS
10
69.9516666920
20
224.1522035870
11
69.8349045739
21
223.8771292749
0
LINE
5
268
100
AcDbEntity
8
0
100
AcDbLine
62
7
6
CONTINUOUS
10
65.8844530606
20
214.5704487312
11
65.7676909425
21
214.2953744191
0
LINE
5
269
100
AcDbEntity
8
0
100
AcDbLine
62
7
6
CONTINUOUS
10
66.9026414682
20
216.7894544620
11
67.2918486027
21
217.7063690106
0
LINE
5
26A
100
AcDbEntity
8
0
100
AcDbLine
62
7
6
CONTINUOUS
10
70.7154508229
20
224.6936952465
11
70.5597681472
21
224.3269298468
0
LINE
5
26B
100
AcDbEntity
8
0
100
AcDbLine
62
7
6
CONTINUOUS
10
66.6482370801
20
215.1119401284
11
66.4925541818
21
214.7451742040
0
LINE
5
26C
100
AcDbEntity
8
0
100
AcDbLine
62
7
6
CONTINUOUS
10
65.7321805412
20
211.8756710097
11
65.8489426593
21
212.1507453218
0
LINE
5
26D
100
AcDbEntity
8
0
100
AcDbLine
62
7
6
CONTINUOUS
10
66.8803413319
20
214.5805683248
11
67.0360242302
21
214.9473342492
0
LINE
5
26E
100
AcDbEntity
8
0
100
AcDbLine
62
7
6
CONTINUOUS
10
67.4836123124
20
216.0017856915
11
67.6003744305
21
216.2768600036
0
LINE
5
26F
100
AcDbEntity
8
0
100
AcDbLine
62
7
6
CONTINUOUS
10
68.1452642406
20
217.5605399520
11
68.2620263587
21
217.8356142641
0
LINE
5
270
100
AcDbEntity
8
0
100
AcDbLine
62
7
6
CONTINUOUS
10
69.1572027458
20
219.9445176735
11
69.3128854215
21
220.3112830732
0
LINE
5
271
100
AcDbEntity
8
0
100
AcDbLine
62
7
6
CONTINUOUS
10
69.7799341165
20
221.4115808464
11
69.8966962346
21
221.6866551585
0
LINE
5
272
100
AcDbEntity
8
0
100
AcDbLine
62
7
6
CONTINUOUS
10
70.3832047630
20
222.8327974261
11
70.5194273825
21
223.1537178067
0
LINE
5
273
100
AcDbEntity
8
0
100
AcDbLine
62
7
6
CONTINUOUS
10
70.9475552973
20
224.1623239676
11
71.1032379729
21
224.5290893673
0
LINE
5
274
100
AcDbEntity
8
0
100
AcDbLine
62
7
6
CONTINUOUS
10
75.9444584443
20
232.2433299567
11
76.0594334251
21
232.4816874482
0
LINE
5
275
100
AcDbEntity
8
0
100
AcDbLine
62
7
6
CONTINUOUS
10
84.5171805412
20
233.8156709918
11
84.7521805412
21
234.2156709441
0
LINE
5
276
100
AcDbEntity
8
0
100
AcDbLine
62
7
6
CONTINUOUS
10
91.5671805412
20
231.6156710090
11
91.8805135757
21
232.0156709963
0
LINE
5
277
100
AcDbEntity
8
0
100
AcDbLine
62
7
6
CONTINUOUS
10
87.8071805412
20
232.5156710067
11
87.6505140239
21
232.2156710425
0
LINE
5
278
100
AcDbEntity
8
0
100
AcDbLine
62
7
6
CONTINUOUS
10
75.6319930028
20
232.4928695885
11
75.5283382920
21
232.0890712024
0
LINE
5
279
100
AcDbEntity
8
0
100
AcDbLine
62
7
6
CONTINUOUS
10
77.5425188464
20
232.3920753697
11
76.7052345576
21
229.7589606867
0
LINE
5
27A
100
AcDbEntity
8
0
100
AcDbLine
62
7
6
CONTINUOUS
10
77.2104159227
20
230.0506272838
11
77.9699589074
21
232.3808930208
0
LINE
5
27B
100
AcDbEntity
8
0
100
AcDbLine
62
7
6
CONTINUOUS
10
91.5671805412
20
232.5156710067
11
91.4105135757
21
232.2156710425
0
LINE
5
27C
100
AcDbEntity
8
0
100
AcDbLine
62
7
6
CONTINUOUS
10
63.8815960957
20
215.9616726611
11
63.8683858307
21
215.7508553889
0
LINE
5
27D
100
AcDbEntity
8
0
100
AcDbLine
62
7
6
CONTINUOUS
10
64.8419739656
20
213.5520888452
11
64.8746445651
21
213.8087517923
0
LINE
5
27E
100
AcDbEntity
8
0
100
AcDbLine
62
7
6
CONTINUOUS
10
67.0360242302
20
214.9473342492
11
67.0686947684
21
215.2039970676
0
LINE
5
27F
100
AcDbEntity
8
0
100
AcDbLine
62
7
6
CONTINUOUS
10
74.2573369337
20
231.9571765201
11
74.1390890863
21
231.2869877996
0
LINE
5
280
100
AcDbEntity
8
0
100
AcDbLine
62
7
6
CONTINUOUS
10
74.4369614955
20
230.7710576526
11
74.5552092386
21
231.4412465538
0
LINE
5
281
100
AcDbEntity
8
0
100
AcDbLine
62
7
6
CONTINUOUS
10
88.1205140239
20
232.0156709963
11
88.2771805412
21
232.4156710186
0
LINE
5
282
100
AcDbEntity
8
0
100
AcDbLine
62
7
6
CONTINUOUS
10
91.8805135757
20
232.0156709963
11
92.0371805412
21
232.4156710186
0
LINE
5
283
100
AcDbEntity
8
0
100
AcDbLine
62
7
6
CONTINUOUS
10
66.6614472338
20
215.3227571383
11
66.6482370801
21
215.1119401284
0
LINE
5
284
100
AcDbEntity
8
0
100
AcDbLine
62
7
6
CONTINUOUS
10
67.9488098385
20
225.5434277792
11
67.9355994621
21
225.3326102447
0
LINE
5
285
100
AcDbEntity
8
0
100
AcDbLine
62
7
6
CONTINUOUS
10
70.7286611993
20
224.9045127811
11
70.7154508229
21
224.6936952465
0
LINE
5
286
100
AcDbEntity
8
0
100
AcDbLine
62
7
6
CONTINUOUS
10
71.1032379729
20
224.5290893673
11
71.1359083997
21
224.7857519234
0
LINE
5
287
100
AcDbEntity
8
0
100
AcDbLine
62
7
6
CONTINUOUS
10
84.3605137998
20
234.6156708964
11
84.2821805412
21
234.3156709322
0
LINE
5
288
100
AcDbEntity
8
0
100
AcDbLine
62
7
6
CONTINUOUS
10
84.7521805412
20
234.2156709441
11
84.8305137998
21
234.5156709084
0
LINE
5
289
100
AcDbEntity
8
0
100
AcDbLine
62
7
6
CONTINUOUS
10
64.2756333256
20
215.6320953350
11
64.2693832005
21
215.7970668010
0
LINE
5
28A
100
AcDbEntity
8
0
100
AcDbLine
62
7
6
CONTINUOUS
10
64.4673970702
20
213.9275118462
11
64.4736471953
21
213.7625403802
0
LINE
5
28B
100
AcDbEntity
8
0
100
AcDbLine
62
7
6
CONTINUOUS
10
68.3428470684
20
225.2138504531
11
68.3365969433
21
225.3788219191
0
LINE
5
28C
100
AcDbEntity
8
0
100
AcDbLine
62
7
6
CONTINUOUS
10
68.5151503671
20
223.4634210271
11
68.5214004922
21
223.2984495610
0
LINE
5
28D
100
AcDbEntity
8
0
100
AcDbLine
62
7
6
CONTINUOUS
10
75.9298653077
20
231.9769396222
11
75.9444584443
21
232.2433299567
0
LINE
5
28E
100
AcDbEntity
8
0
100
AcDbLine
62
7
6
CONTINUOUS
10
77.9699589074
20
232.3808930208
11
77.9845524053
21
232.6472835639
0
LINE
5
28F
100
AcDbEntity
8
0
100
AcDbLine
62
7
6
CONTINUOUS
10
88.2771805412
20
232.4156710186
11
88.3555140239
21
232.9156709590
0
LINE
5
290
100
AcDbEntity
8
0
100
AcDbLine
62
7
6
CONTINUOUS
10
87.8855140239
20
232.9156709590
11
87.8071805412
21
232.5156710067
0
LINE
5
291
100
AcDbEntity
8
0
100
AcDbLine
62
7
6
CONTINUOUS
10
91.6455135757
20
232.9156709590
11
91.5671805412
21
232.5156710067
0
LINE
5
292
100
AcDbEntity
8
0
100
AcDbLine
62
7
6
CONTINUOUS
10
82.2026149673
20
183.1787337799
11
81.1521805412
21
179.6856710097
0
LINE
5
293
100
AcDbEntity
8
0
100
AcDbLine
62
7
6
CONTINUOUS
10
92.0371805412
20
232.4156710186
11
92.1155135757
21
232.9156709590
0
LINE
5
294
100
AcDbEntity
8
0
100
AcDbLine
62
7
6
CONTINUOUS
10
63.8683858307
20
215.7508553889
11
63.9198067498
21
215.5126038067
0
LINE
5
295
100
AcDbEntity
8
0
100
AcDbLine
62
7
6
CONTINUOUS
10
71.6054354283
20
189.1507560981
11
72.1521805412
21
184.6856710097
0
LINE
5
296
100
AcDbEntity
8
0
100
AcDbLine
62
7
6
CONTINUOUS
10
77.5198775835
20
232.7229567413
11
77.5425188464
21
232.3920753697
0
LINE
5
297
100
AcDbEntity
8
0
100
AcDbLine
62
7
6
CONTINUOUS
10
81.1521805412
20
179.6856710097
11
81.1521805412
21
35.1856710097
0
LINE
5
298
100
AcDbEntity
8
0
100
AcDbLine
62
7
6
CONTINUOUS
10
81.9321805412
20
236.0156710097
11
81.9321805412
21
231.3156710097
0
LINE
5
299
100
AcDbEntity
8
0
100
AcDbLine
62
7
6
CONTINUOUS
10
82.4021805412
20
231.3156710097
11
82.4021805412
21
233.4156710395
0
LINE
5
29A
100
AcDbEntity
8
0
100
AcDbLine
62
7
6
CONTINUOUS
10
82.4021805412
20
234.0156709680
11
82.4021805412
21
235.5156710693
0
LINE
5
29B
100
AcDbEntity
8
0
100
AcDbLine
62
7
6
CONTINUOUS
10
84.3605137998
20
234.9156711408
11
84.3605137998
21
234.6156708964
0
LINE
5
29C
100
AcDbEntity
8
0
100
AcDbLine
62
7
6
CONTINUOUS
10
84.8305137998
20
234.5156709084
11
84.8305137998
21
234.9156711408
0
LINE
5
29D
100
AcDbEntity
8
0
100
AcDbLine
62
7
6
CONTINUOUS
10
85.5355137998
20
236.0156710097
11
85.5355137998
21
232.9156709590
0
LINE
5
29E
100
AcDbEntity
8
0
100
AcDbLine
62
7
6
CONTINUOUS
10
86.0055140239
20
232.9156709590
11
86.0055140239
21
236.0156710097
0
LINE
5
29F
100
AcDbEntity
8
DEFAULT_1
100
AcDbLine
62
2
6
CENTER
10
87.1521805412
20
211.6856710097
11
87.1521805412
21
193.6856710097
0
LINE
5
2A0
100
AcDbEntity
8
DEFAULT_1
100
AcDbLine
62
2
6
CENTER
10
87.1521805412
20
31.6856710097
11
87.1521805412
21
187.6856710097
0
LINE
5
2A1
100
AcDbEntity
8
DEFAULT_1
100
AcDbLine
62
2
6
CENTER
10
87.1521805412
20
211.6856710097
11
87.1521805412
21
229.6856710097
0
LINE
5
2A2
100
AcDbEntity
8
0
100
AcDbLine
62
7
6
CONTINUOUS
10
87.8855140239
20
236.0156710097
11
87.8855140239
21
232.9156709590
0
LINE
5
2A3
100
AcDbEntity
8
0
100
AcDbLine
62
7
6
CONTINUOUS
10
107.5631208133
20
193.0207656620
11
114.8188397454
21
210.5376207126
0
LINE
5
2A4
100
AcDbEntity
8
0
100
AcDbLine
62
7
6
CONTINUOUS
10
67.0686947684
20
215.2039970676
11
67.0172738323
21
215.4422486570
0
LINE
5
2A5
100
AcDbEntity
8
0
100
AcDbLine
62
7
6
CONTINUOUS
10
67.9355994621
20
225.3326102447
11
67.9870207152
21
225.0943594494
0
LINE
5
2A6
100
AcDbEntity
8
0
100
AcDbLine
62
7
6
CONTINUOUS
10
68.8577667893
20
223.3720955455
11
68.8063459815
21
223.6103473900
0
LINE
5
2A7
100
AcDbEntity
8
0
100
AcDbLine
62
7
6
CONTINUOUS
10
88.3555140239
20
232.9156709590
11
88.3555140239
21
236.0156710097
0
LINE
5
2A8
100
AcDbEntity
8
0
100
AcDbLine
62
7
6
CONTINUOUS
10
88.9821805412
20
236.0156710097
11
88.9821805412
21
231.3156710097
0
LINE
5
2A9
100
AcDbEntity
8
0
100
AcDbLine
62
7
6
CONTINUOUS
10
89.4521805412
20
231.9156710082
11
89.4521805412
21
235.4156710812
0
LINE
5
2AA
100
AcDbEntity
8
0
100
AcDbLine
62
7
6
CONTINUOUS
10
91.6455135757
20
234.4156709203
11
91.6455135757
21
232.9156709590
0
LINE
5
2AB
100
AcDbEntity
8
0
100
AcDbLine
62
7
6
CONTINUOUS
10
92.1155135757
20
232.9156709590
11
92.1155135757
21
234.4156709203
0
LINE
5
2AC
100
AcDbEntity
8
0
100
AcDbLine
62
7
6
CONTINUOUS
10
93.1521805412
20
179.6856710097
11
93.1521805412
21
35.1856710097
0
LINE
5
2AD
100
AcDbEntity
8
0
100
AcDbLine
62
7
6
CONTINUOUS
10
66.7412402690
20
193.0207656620
11
59.4855213369
21
210.5376207126
0
LINE
5
2AE
100
AcDbEntity
8
0
100
AcDbLine
62
7
6
CONTINUOUS
10
64.3465146349
20
215.4396895589
11
64.2756333256
21
215.6320953350
0
LINE
5
2AF
100
AcDbEntity
8
0
100
AcDbLine
62
7
6
CONTINUOUS
10
66.5905658793
20
215.5151629336
11
66.6614472338
21
215.3227571383
0
LINE
5
2B0
100
AcDbEntity
8
0
100
AcDbLine
62
7
6
CONTINUOUS
10
71.1359083997
20
224.7857519234
11
71.0844875750
21
225.0240037751
0
LINE
5
2B1
100
AcDbEntity
8
0
100
AcDbLine
62
7
6
CONTINUOUS
10
72.8049402832
20
231.1186349229
11
73.4215547812
21
227.8631272838
0
LINE
5
2B2
100
AcDbEntity
8
0
100
AcDbLine
62
7
6
CONTINUOUS
10
73.8603156804
20
227.6865043083
11
73.3667237214
21
230.5830974651
0
LINE
5
2B3
100
AcDbEntity
8
0
100
AcDbLine
62
7
6
CONTINUOUS
10
102.6989256540
20
189.1507560981
11
102.1521805412
21
184.6856710097
0
LINE
5
2B4
100
AcDbEntity
8
0
100
AcDbLine
62
7
6
CONTINUOUS
10
64.8746445651
20
213.8087517923
11
64.7585924062
21
214.0744375534
0
LINE
5
2B5
100
AcDbEntity
8
0
100
AcDbLine
62
7
6
CONTINUOUS
10
68.4137283776
20
225.0214446770
11
68.3428470684
21
225.2138504531
0
LINE
5
2B6
100
AcDbEntity
8
0
100
AcDbLine
62
7
6
CONTINUOUS
10
70.6577798448
20
225.0969185764
11
70.7286611993
21
224.9045127811
0
LINE
5
2B7
100
AcDbEntity
8
0
100
AcDbLine
62
7
6
CONTINUOUS
10
85.5355137998
20
232.9156709590
11
85.6138472826
21
232.4156710186
0
LINE
5
2B8
100
AcDbEntity
8
0
100
AcDbLine
62
7
6
CONTINUOUS
10
64.3770554265
20
214.0740719474
11
64.4673970702
21
213.9275118462
0
LINE
5
2B9
100
AcDbEntity
8
0
100
AcDbLine
62
7
6
CONTINUOUS
10
63.9198067498
20
215.5126038067
11
64.1004901485
21
215.2194838668
0
LINE
5
2BA
100
AcDbEntity
8
0
100
AcDbLine
62
7
6
CONTINUOUS
10
92.1017461151
20
183.1787337799
11
93.1521805412
21
179.6856710097
0
LINE
5
2BB
100
AcDbEntity
8
0
100
AcDbLine
62
7
6
CONTINUOUS
10
75.5283382920
20
232.0890712024
11
75.6141266383
21
231.7946478164
0
LINE
5
2BC
100
AcDbEntity
8
0
100
AcDbLine
62
7
6
CONTINUOUS
10
77.9845524053
20
232.6472835639
11
77.8987636977
21
232.9417067413
0
LINE
5
2BD
100
AcDbEntity
8
0
100
AcDbLine
62
7
6
CONTINUOUS
10
84.2821805412
20
235.2156711051
11
84.3605137998
21
234.9156711408
0
LINE
5
2BE
100
AcDbEntity
8
0
100
AcDbLine
62
7
6
CONTINUOUS
10
86.0838470584
20
232.5156710067
11
86.0055140239
21
232.9156709590
0
LINE
5
2BF
100
AcDbEntity
8
0
100
AcDbLine
62
7
6
CONTINUOUS
10
92.1155135757
20
234.4156709203
11
92.0371805412
21
234.9156711408
0
LINE
5
2C0
100
AcDbEntity
8
0
100
AcDbLine
62
7
6
CONTINUOUS
10
67.0172738323
20
215.4422486570
11
66.8365904110
21
215.7353686065
0
LINE
5
2C1
100
AcDbEntity
8
0
100
AcDbLine
62
7
6
CONTINUOUS
10
84.9088472826
20
231.3156710097
11
84.2038472826
21
233.6156710157
0
LINE
5
2C2
100
AcDbEntity
8
0
100
AcDbLine
62
7
6
CONTINUOUS
10
83.7338471705
20
233.4156710395
11
84.3605137998
21
231.3156710097
0
LINE
5
2C3
100
AcDbEntity
8
0
100
AcDbLine
62
7
6
CONTINUOUS
10
84.8305137998
20
234.9156711408
11
84.7521805412
21
235.2156711051
0
LINE
5
2C4
100
AcDbEntity
8
0
100
AcDbLine
62
7
6
CONTINUOUS
10
91.5671805412
20
234.8156708726
11
91.6455135757
21
234.4156709203
0
LINE
5
2C5
100
AcDbEntity
8
0
100
AcDbLine
62
7
6
CONTINUOUS
10
64.7585924062
20
214.0744375534
11
64.5584487287
21
214.3217119495
0
LINE
5
2C6
100
AcDbEntity
8
0
100
AcDbLine
62
7
6
CONTINUOUS
10
68.4248090018
20
223.6099817840
11
68.5151503671
21
223.4634210271
0
LINE
5
2C7
100
AcDbEntity
8
0
100
AcDbLine
62
7
6
CONTINUOUS
10
67.9870207152
20
225.0943594494
11
68.1677038912
21
224.8012389849
0
LINE
5
2C8
100
AcDbEntity
8
0
100
AcDbLine
62
7
6
CONTINUOUS
10
71.0844875750
20
225.0240037751
11
70.9038043764
21
225.3171242493
0
LINE
5
2C9
100
AcDbEntity
8
0
100
AcDbLine
62
7
6
CONTINUOUS
10
70.3421805412
20
229.6967599229
11
72.0921805412
21
226.6656710097
0
LINE
5
2CA
100
AcDbEntity
8
0
100
AcDbLine
62
7
6
CONTINUOUS
10
72.4710666553
20
226.8844210097
11
71.0934070365
21
229.2705974651
0
LINE
5
2CB
100
AcDbEntity
8
0
100
AcDbLine
62
7
6
CONTINUOUS
10
73.3667237214
20
230.5830974651
11
74.7443833403
21
228.1969210097
0
LINE
5
2CC
100
AcDbEntity
8
0
100
AcDbLine
62
7
6
CONTINUOUS
10
75.1232694544
20
228.4156710097
11
73.3732694544
21
231.4467599229
0
LINE
5
2CD
100
AcDbEntity
8
0
100
AcDbLine
62
7
6
CONTINUOUS
10
74.1390890863
20
231.2869877996
11
74.4369614955
21
230.7710576526
0
LINE
5
2CE
100
AcDbEntity
8
0
100
AcDbLine
62
7
6
CONTINUOUS
10
74.5552092386
20
231.4412465538
11
76.0073369337
21
228.9260876068
0
LINE
5
2CF
100
AcDbEntity
8
0
100
AcDbLine
62
7
6
CONTINUOUS
10
85.6138472826
20
232.4156710186
11
85.7705140239
21
232.0156709963
0
LINE
5
2D0
100
AcDbEntity
8
0
100
AcDbLine
62
7
6
CONTINUOUS
10
93.1521805412
20
179.6856710097
11
81.1521805412
21
179.6856710097
0
LINE
5
2D1
100
AcDbEntity
8
0
100
AcDbLine
62
7
6
CONTINUOUS
10
66.4355931072
20
215.6891574759
11
66.5905658793
21
215.5151629336
0
LINE
5
2D2
100
AcDbEntity
8
0
100
AcDbLine
62
7
6
CONTINUOUS
10
68.8063459815
20
223.6103473900
11
68.6062023040
21
223.8576217861
0
LINE
5
2D3
100
AcDbEntity
8
0
100
AcDbLine
62
7
6
CONTINUOUS
10
76.3862230478
20
229.1448376068
11
74.6362230478
21
232.1759265201
0
LINE
5
2D4
100
AcDbEntity
8
0
100
AcDbLine
62
7
6
CONTINUOUS
10
76.7052345576
20
229.7589606867
11
76.8914047743
21
229.4365044126
0
LINE
5
2D5
100
AcDbEntity
8
0
100
AcDbLine
62
7
6
CONTINUOUS
10
77.4454094030
20
232.8519394136
11
77.5198775835
21
232.7229567413
0
LINE
5
2D6
100
AcDbEntity
8
0
100
AcDbLine
62
7
6
CONTINUOUS
10
79.1647210979
20
230.7490042040
11
78.9785508812
21
231.0714604780
0
LINE
5
2D7
100
AcDbEntity
8
0
100
AcDbLine
62
7
6
CONTINUOUS
10
77.8987636977
20
232.9417067413
11
77.8242955171
21
233.0706894136
0
LINE
5
2D8
100
AcDbEntity
8
0
100
AcDbLine
62
7
6
CONTINUOUS
10
86.2405140239
20
232.2156710425
11
86.0838470584
21
232.5156710067
0
LINE
5
2D9
100
AcDbEntity
8
0
100
AcDbLine
62
7
6
CONTINUOUS
10
92.0371805412
20
234.9156711408
11
91.8805135757
21
235.3156710931
0
LINE
5
2DA
100
AcDbEntity
8
0
100
AcDbLine
62
7
6
CONTINUOUS
10
102.1521805412
20
184.6856710097
11
72.1521805412
21
184.6856710097
0
LINE
5
2DB
100
AcDbEntity
8
0
100
AcDbLine
62
7
6
CONTINUOUS
10
64.2026222086
20
214.2022205523
11
64.3770554265
21
214.0740719474
0
LINE
5
2DC
100
AcDbEntity
8
0
100
AcDbLine
62
7
6
CONTINUOUS
10
64.5584487287
20
214.3217119495
11
64.3840155108
21
214.4498605545
0
LINE
5
2DD
100
AcDbEntity
8
0
100
AcDbLine
62
7
6
CONTINUOUS
10
64.5209479782
20
215.3115407459
11
64.3465146349
21
215.4396895589
0
LINE
5
2DE
100
AcDbEntity
8
0
100
AcDbLine
62
7
6
CONTINUOUS
10
66.8365904110
20
215.7353686065
11
66.6169864094
21
215.9367974780
0
LINE
5
2DF
100
AcDbEntity
8
0
100
AcDbLine
62
7
6
CONTINUOUS
10
70.5028068499
20
225.2709125940
11
70.6577798448
21
225.0969185764
0
LINE
5
2E0
100
AcDbEntity
8
0
100
AcDbLine
62
7
6
CONTINUOUS
10
84.7521805412
20
235.2156711051
11
84.5171805412
21
235.6156710574
0
LINE
5
2E1
100
AcDbEntity
8
0
100
AcDbLine
62
7
6
CONTINUOUS
10
91.4105135757
20
235.1156711170
11
91.5671805412
21
234.8156708726
0
LINE
5
2E2
100
AcDbEntity
8
0
100
AcDbLine
62
7
6
CONTINUOUS
10
69.1667417339
20
191.7861325267
11
68.5889993340
21
191.7861325267
0
LINE
5
2E3
100
AcDbEntity
8
0
100
AcDbLine
62
7
6
CONTINUOUS
10
105.1376192978
20
191.7861325267
11
105.7153617483
21
191.7861325267
0
LINE
5
2E4
100
AcDbEntity
8
0
100
AcDbLine
62
7
6
CONTINUOUS
10
64.1004901485
20
215.2194838668
11
64.3395544949
21
215.0639008206
0
LINE
5
2E5
100
AcDbEntity
8
0
100
AcDbLine
62
7
6
CONTINUOUS
10
66.6635772331
20
216.9450377705
11
65.0936781671
21
218.0983757241
0
LINE
5
2E6
100
AcDbEntity
8
0
100
AcDbLine
62
7
6
CONTINUOUS
10
67.6003744305
20
216.2768600036
11
66.9026414682
21
216.7894544620
0
LINE
5
2E7
100
AcDbEntity
8
0
100
AcDbLine
62
7
6
CONTINUOUS
10
64.7573118700
20
218.0247297396
11
67.4836123124
21
216.0017856915
0
LINE
5
2E8
100
AcDbEntity
8
0
100
AcDbLine
62
7
6
CONTINUOUS
10
69.3128854215
20
220.3112830732
11
66.5865849790
21
222.3342271213
0
LINE
5
2E9
100
AcDbEntity
8
0
100
AcDbLine
62
7
6
CONTINUOUS
10
66.4698228610
20
222.0591528092
11
68.8472569336
21
220.2925062526
0
LINE
5
2EA
100
AcDbEntity
8
0
100
AcDbLine
62
7
6
CONTINUOUS
10
70.9038043764
20
225.3171242493
11
70.6842001521
21
225.5185525961
0
LINE
5
2EB
100
AcDbEntity
8
0
100
AcDbLine
62
7
6
CONTINUOUS
10
85.7705140239
20
232.0156709963
11
86.0838470584
21
231.6156710090
0
LINE
5
2EC
100
AcDbEntity
8
0
100
AcDbLine
62
7
6
CONTINUOUS
10
114.8188397454
20
212.8337213068
11
107.2894880258
21
231.0111843441
0
LINE
5
2ED
100
AcDbEntity
8
0
100
AcDbLine
62
7
6
CONTINUOUS
10
62.6945145248
20
213.1650837337
11
65.7321805412
21
211.8756710097
0
LINE
5
2EE
100
AcDbEntity
8
0
100
AcDbLine
62
7
6
CONTINUOUS
10
65.8489426593
20
212.1507453218
11
64.4916876114
21
212.7268659088
0
LINE
5
2EF
100
AcDbEntity
8
0
100
AcDbLine
62
7
6
CONTINUOUS
10
64.1039005066
20
212.8914717688
11
63.1344325635
21
213.3029864958
0
LINE
5
2F0
100
AcDbEntity
8
0
100
AcDbLine
62
7
6
CONTINUOUS
10
64.0087284751
20
214.2845235592
11
64.2026222086
21
214.2022205523
0
LINE
5
2F1
100
AcDbEntity
8
0
100
AcDbLine
62
7
6
CONTINUOUS
10
64.3840155108
20
214.4498605545
11
64.1254905932
21
214.5595978713
0
LINE
5
2F2
100
AcDbEntity
8
0
100
AcDbLine
62
7
6
CONTINUOUS
10
64.3395544949
20
215.0639008206
11
64.5980794125
21
214.9541635037
0
LINE
5
2F3
100
AcDbEntity
8
0
100
AcDbLine
62
7
6
CONTINUOUS
10
64.6502103465
20
215.2566721259
11
64.5209479782
21
215.3115407459
0
LINE
5
2F4
100
AcDbEntity
8
0
100
AcDbLine
62
7
6
CONTINUOUS
10
66.2416995548
20
215.7714604059
11
66.4355931072
21
215.6891574759
0
LINE
5
2F5
100
AcDbEntity
8
0
100
AcDbLine
62
7
6
CONTINUOUS
10
66.6169864094
20
215.9367974780
11
66.2938304888
21
216.0739690280
0
LINE
5
2F6
100
AcDbEntity
8
0
100
AcDbLine
62
7
6
CONTINUOUS
10
68.1677038912
20
224.8012389849
11
68.4067681263
21
224.6456556764
0
LINE
5
2F7
100
AcDbEntity
8
0
100
AcDbLine
62
7
6
CONTINUOUS
10
68.2503755055
20
223.7381297332
11
68.4248090018
21
223.6099817840
0
LINE
5
2F8
100
AcDbEntity
8
0
100
AcDbLine
62
7
6
CONTINUOUS
10
68.6062023040
20
223.8576217861
11
68.4317688077
21
223.9857697353
0
LINE
5
2F9
100
AcDbEntity
8
0
100
AcDbLine
62
7
6
CONTINUOUS
10
68.5881616096
20
224.8932956017
11
68.4137283776
21
225.0214446770
0
LINE
5
2FA
100
AcDbEntity
8
0
100
AcDbLine
62
7
6
CONTINUOUS
10
71.0934070365
20
229.2705974651
11
73.3551342249
21
227.3948376590
0
LINE
5
2FB
100
AcDbEntity
8
0
100
AcDbLine
62
7
6
CONTINUOUS
10
73.4215547812
20
227.8631272838
11
70.9105097124
21
230.0248849229
0
LINE
5
2FC
100
AcDbEntity
8
0
100
AcDbLine
62
7
6
CONTINUOUS
10
77.8242955171
20
233.0706894136
11
77.6122119199
21
233.2921962024
0
LINE
5
2FD
100
AcDbEntity
8
0
100
AcDbLine
62
7
6
CONTINUOUS
10
84.1255137998
20
235.4156710812
11
84.2821805412
21
235.2156711051
0
LINE
5
2FE
100
AcDbEntity
8
0
100
AcDbLine
62
7
6
CONTINUOUS
10
91.8805135757
20
235.3156710931
11
91.5671805412
21
235.7156710455
0
LINE
5
2FF
100
AcDbEntity
8
0
100
AcDbLine
62
7
6
CONTINUOUS
10
65.7676909425
20
214.2953744191
11
66.0456760135
21
214.2314828541
0
LINE
5
300
100
AcDbEntity
8
0
100
AcDbLine
62
7
6
CONTINUOUS
10
64.5980794125
20
214.9541635037
11
64.8760645392
21
214.8902720698
0
LINE
5
301
100
AcDbEntity
8
0
100
AcDbLine
62
7
6
CONTINUOUS
10
66.9958230251
20
218.8059350855
11
67.3189790363
21
218.6687634970
0
LINE
5
302
100
AcDbEntity
8
0
100
AcDbLine
62
7
6
CONTINUOUS
10
67.5914240527
20
219.3106037335
11
67.2682680415
21
219.4477753220
0
LINE
5
303
100
AcDbEntity
8
0
100
AcDbLine
62
7
6
CONTINUOUS
10
66.7422681001
20
222.7009935704
11
69.7799341165
21
221.4115808464
0
LINE
5
304
100
AcDbEntity
8
0
100
AcDbLine
62
7
6
CONTINUOUS
10
69.8966962346
20
221.6866551585
11
68.5394411867
21
222.2627757455
0
LINE
5
305
100
AcDbEntity
8
0
100
AcDbLine
62
7
6
CONTINUOUS
10
68.1516540819
20
222.4273816055
11
67.1821861388
21
222.8388963325
0
LINE
5
306
100
AcDbEntity
8
0
100
AcDbLine
62
7
6
CONTINUOUS
10
84.5171805412
20
235.6156710574
11
84.2038472826
21
235.9156710216
0
LINE
5
307
100
AcDbEntity
8
0
100
AcDbLine
62
7
6
CONTINUOUS
10
93.1521805412
20
35.1856710097
11
92.6521805412
21
34.6856710097
0
LINE
5
308
100
AcDbEntity
8
0
100
AcDbLine
62
7
6
CONTINUOUS
10
66.0456760135
20
214.2314828541
11
66.4272131168
21
214.2318485624
0
LINE
5
309
100
AcDbEntity
8
DEFAULT_1
100
AcDbLine
62
2
6
CENTER
10
87.1521805412
20
211.6856710097
11
69.1521805412
21
211.6856710097
0
LINE
5
30A
100
AcDbEntity
8
DEFAULT_1
100
AcDbLine
62
2
6
CENTER
10
87.1521805412
20
211.6856710097
11
105.1521805412
21
211.6856710097
0
LINE
5
30B
100
AcDbEntity
8
0
100
AcDbLine
62
7
6
CONTINUOUS
10
66.2938304888
20
216.0739690280
11
65.9963848814
21
216.0920146942
0
LINE
5
30C
100
AcDbEntity
8
0
100
AcDbLine
62
7
6
CONTINUOUS
10
64.6773405990
20
216.2190666891
11
64.8260633574
21
216.2100438752
0
LINE
5
30D
100
AcDbEntity
8
0
100
AcDbLine
62
7
6
CONTINUOUS
10
68.2620263587
20
217.8356142641
11
64.9129947683
21
218.3914956640
0
LINE
5
30E
100
AcDbEntity
8
0
100
AcDbLine
62
7
6
CONTINUOUS
10
65.8081709327
20
220.5003985487
11
69.1572027458
21
219.9445176735
0
LINE
5
30F
100
AcDbEntity
8
0
100
AcDbLine
62
7
6
CONTINUOUS
10
63.7953745883
20
214.3209808143
11
64.0087284751
21
214.2845235592
0
LINE
5
310
100
AcDbEntity
8
0
100
AcDbLine
62
7
6
CONTINUOUS
10
64.1254905932
20
214.5595978713
11
63.9121367063
21
214.5960551264
0
LINE
5
311
100
AcDbEntity
8
0
100
AcDbLine
62
7
6
CONTINUOUS
10
66.0978070031
20
214.5339916074
11
65.8844530606
21
214.5704487312
0
LINE
5
312
100
AcDbEntity
8
0
100
AcDbLine
62
7
6
CONTINUOUS
10
64.8635642890
20
215.2202150020
11
64.6502103465
21
215.2566721259
0
LINE
5
313
100
AcDbEntity
8
0
100
AcDbLine
62
7
6
CONTINUOUS
10
64.9428254755
20
216.4851181874
11
64.7294715329
21
216.5215753112
0
LINE
5
314
100
AcDbEntity
8
0
100
AcDbLine
62
7
6
CONTINUOUS
10
67.2918486027
20
217.7063690106
11
68.1452642406
21
217.5605399520
0
LINE
5
315
100
AcDbEntity
8
0
100
AcDbLine
62
7
6
CONTINUOUS
10
65.0936781671
20
218.0983757241
11
67.0138635874
21
217.7702607069
0
LINE
5
316
100
AcDbEntity
8
0
100
AcDbLine
62
7
6
CONTINUOUS
10
68.0564817720
20
223.8204327400
11
68.2503755055
21
223.7381297332
0
LINE
5
317
100
AcDbEntity
8
0
100
AcDbLine
62
7
6
CONTINUOUS
10
68.4317688077
20
223.9857697353
11
68.1732438901
21
224.0955070522
0
LINE
5
318
100
AcDbEntity
8
0
100
AcDbLine
62
7
6
CONTINUOUS
10
68.4067681263
20
224.6456556764
11
68.6652930439
21
224.5359183595
0
LINE
5
319
100
AcDbEntity
8
0
100
AcDbLine
62
7
6
CONTINUOUS
10
68.7174239778
20
224.8384269817
11
68.5881616096
21
224.8932956017
0
LINE
5
31A
100
AcDbEntity
8
0
100
AcDbLine
62
7
6
CONTINUOUS
10
70.3089132975
20
225.3532155240
11
70.5028068499
21
225.2709125940
0
LINE
5
31B
100
AcDbEntity
8
0
100
AcDbLine
62
7
6
CONTINUOUS
10
70.6842001521
20
225.5185525961
11
70.3610442315
21
225.6557241461
0
LINE
5
31C
100
AcDbEntity
8
0
100
AcDbLine
62
7
6
CONTINUOUS
10
86.4755140239
20
232.0156709963
11
86.2405140239
21
232.2156710425
0
LINE
5
31D
100
AcDbEntity
8
0
100
AcDbLine
62
7
6
CONTINUOUS
10
91.1755135757
20
235.3156710931
11
91.4105135757
21
235.1156711170
0
LINE
5
31E
100
AcDbEntity
8
0
100
AcDbLine
62
7
6
CONTINUOUS
10
66.3500816598
20
214.5892258142
11
66.0978070031
21
214.5339916074
0
LINE
5
31F
100
AcDbEntity
8
0
100
AcDbLine
62
7
6
CONTINUOUS
10
63.6271914954
20
214.2841579532
11
63.7953745883
21
214.3209808143
0
LINE
5
320
100
AcDbEntity
8
0
100
AcDbLine
62
7
6
CONTINUOUS
10
64.8760645392
20
214.8902720698
11
65.2124306135
21
214.9639175297
0
LINE
5
321
100
AcDbEntity
8
0
100
AcDbLine
62
7
6
CONTINUOUS
10
65.9963848814
20
216.0920146942
11
65.6600188071
21
216.0183692344
0
LINE
5
322
100
AcDbEntity
8
0
100
AcDbLine
62
7
6
CONTINUOUS
10
64.5091575618
20
216.1822439592
11
64.6773405990
21
216.2190666891
0
LINE
5
323
100
AcDbEntity
8
0
100
AcDbLine
62
7
6
CONTINUOUS
10
63.9121367063
20
214.5960551264
11
63.5952309108
21
214.5682552104
0
LINE
5
324
100
AcDbEntity
8
0
100
AcDbLine
62
7
6
CONTINUOUS
10
64.7294715329
20
216.5215753112
11
64.4125657373
21
216.4937753952
0
LINE
5
325
100
AcDbEntity
8
0
100
AcDbLine
62
7
6
CONTINUOUS
10
66.0088851316
20
215.7620717621
11
66.2416995548
21
215.7714604059
0
LINE
5
326
100
AcDbEntity
8
0
100
AcDbLine
62
7
6
CONTINUOUS
10
70.5194273825
20
223.1537178067
11
68.8577667893
21
223.3720955455
0
LINE
5
327
100
AcDbEntity
8
0
100
AcDbLine
62
7
6
CONTINUOUS
10
68.8702670395
20
223.0421526134
11
70.3832047630
21
222.8327974261
0
LINE
5
328
100
AcDbEntity
8
0
100
AcDbLine
62
7
6
CONTINUOUS
10
68.8472569336
20
220.2925062526
11
65.9249330508
21
220.7754728609
0
LINE
5
329
100
AcDbEntity
8
0
100
AcDbLine
62
7
6
CONTINUOUS
10
67.8431281636
20
223.8568906509
11
68.0564817720
21
223.8204327400
0
LINE
5
32A
100
AcDbEntity
8
0
100
AcDbLine
62
7
6
CONTINUOUS
10
68.1732438901
20
224.0955070522
11
67.9598902817
21
224.1319649630
0
LINE
5
32B
100
AcDbEntity
8
0
100
AcDbLine
62
7
6
CONTINUOUS
10
70.1650207459
20
224.1157467255
11
69.9516666920
21
224.1522035870
0
LINE
5
32C
100
AcDbEntity
8
0
100
AcDbLine
62
7
6
CONTINUOUS
10
68.9307780317
20
224.8019701201
11
68.7174239778
21
224.8384269817
0
LINE
5
32D
100
AcDbEntity
8
0
100
AcDbLine
62
7
6
CONTINUOUS
10
69.0100392182
20
226.0668733055
11
68.7966851643
21
226.1033301670
0
LINE
5
32E
100
AcDbEntity
8
0
100
AcDbLine
62
7
6
CONTINUOUS
10
69.8349045739
20
223.8771292749
11
70.1128898119
21
223.8132381034
0
LINE
5
32F
100
AcDbEntity
8
0
100
AcDbLine
62
7
6
CONTINUOUS
10
68.6652930439
20
224.5359183595
11
68.9432782819
21
224.4720271880
0
LINE
5
330
100
AcDbEntity
8
0
100
AcDbLine
62
7
6
CONTINUOUS
10
77.2074123990
20
232.9724967624
11
77.4454094030
21
232.8519394136
0
LINE
5
331
100
AcDbEntity
8
0
100
AcDbLine
62
7
6
CONTINUOUS
10
86.0838470584
20
231.6156710090
11
86.3971805412
21
231.4156710065
0
LINE
5
332
100
AcDbEntity
8
0
100
AcDbLine
62
7
6
CONTINUOUS
10
91.5671805412
20
235.7156710455
11
91.2538475067
21
235.9156710216
0
LINE
5
333
100
AcDbEntity
8
0
100
AcDbLine
62
7
6
CONTINUOUS
10
90.8621805412
20
231.3156710097
11
91.2538475067
21
231.4156710065
0
LINE
5
334
100
AcDbEntity
8
0
100
AcDbLine
62
7
6
CONTINUOUS
10
87.1021805412
20
231.3156710097
11
87.4938470584
21
231.4156710065
0
LINE
5
335
100
AcDbEntity
8
0
100
AcDbLine
62
7
6
CONTINUOUS
10
70.4172954026
20
224.1709809323
11
70.1650207459
21
224.1157467255
0
LINE
5
336
100
AcDbEntity
8
0
100
AcDbLine
62
7
6
CONTINUOUS
10
67.6749447923
20
223.8200671340
11
67.8431281636
21
223.8568906509
0
LINE
5
337
100
AcDbEntity
8
0
100
AcDbLine
62
7
6
CONTINUOUS
10
68.9432782819
20
224.4720271880
11
69.2796445790
21
224.5456731725
0
LINE
5
338
100
AcDbEntity
8
0
100
AcDbLine
62
7
6
CONTINUOUS
10
70.0635988469
20
225.6737703370
11
69.7272325498
21
225.6001243525
0
LINE
5
339
100
AcDbEntity
8
0
100
AcDbLine
62
7
6
CONTINUOUS
10
68.5763713045
20
225.7639990773
11
68.7445542303
21
225.8008215449
0
LINE
5
33A
100
AcDbEntity
8
0
100
AcDbLine
62
7
6
CONTINUOUS
10
67.9598902817
20
224.1319649630
11
67.6429844861
21
224.1041650470
0
LINE
5
33B
100
AcDbEntity
8
0
100
AcDbLine
62
7
6
CONTINUOUS
10
68.7966851643
20
226.1033301670
11
68.4797793687
21
226.0755302510
0
LINE
5
33C
100
AcDbEntity
8
0
100
AcDbLine
62
7
6
CONTINUOUS
10
70.0760990970
20
225.3438274048
11
70.3089132975
21
225.3532155240
0
LINE
5
33D
100
AcDbEntity
8
0
100
AcDbLine
62
7
6
CONTINUOUS
10
70.1128898119
20
223.8132381034
11
70.4944268595
21
223.8136036806
0
LINE
5
33E
100
AcDbEntity
8
0
100
AcDbLine
62
7
6
CONTINUOUS
10
70.3610442315
20
225.6557241461
11
70.0635988469
21
225.6737703370
0
LINE
5
33F
100
AcDbEntity
8
0
100
AcDbLine
62
7
6
CONTINUOUS
10
68.7445542303
20
225.8008215449
11
68.8932771001
21
225.7917989934
0
LINE
5
340
100
AcDbEntity
8
0
100
AcDbLine
62
7
6
CONTINUOUS
10
86.3971805412
20
231.4156710065
11
86.7888470584
21
231.3156710097
0
LINE
5
341
100
AcDbEntity
8
0
100
AcDbLine
62
7
6
CONTINUOUS
10
77.6122119199
20
233.2921962024
11
77.2106852655
21
233.4043279913
0
LINE
5
342
100
AcDbEntity
8
0
100
AcDbLine
62
7
6
CONTINUOUS
10
86.7888470584
20
231.9156710082
11
86.4755140239
21
232.0156709963
0
LINE
5
343
100
AcDbEntity
8
0
100
AcDbLine
62
7
6
CONTINUOUS
10
83.8905137998
20
235.5156710693
11
84.1255137998
21
235.4156710812
0
LINE
5
344
100
AcDbEntity
8
0
100
AcDbLine
62
7
6
CONTINUOUS
10
77.2106852655
20
233.4043279913
11
76.8836259647
21
233.3874768714
0
LINE
5
345
100
AcDbEntity
8
0
100
AcDbLine
62
7
6
CONTINUOUS
10
81.9321805412
20
231.3156710097
11
82.4021805412
21
231.3156710097
0
LINE
5
346
100
AcDbEntity
8
0
100
AcDbLine
62
7
6
CONTINUOUS
10
84.3605137998
20
231.3156710097
11
84.9088472826
21
231.3156710097
0
LINE
5
347
100
AcDbEntity
8
0
100
AcDbLine
62
7
6
CONTINUOUS
10
86.7888470584
20
231.3156710097
11
87.1021805412
21
231.3156710097
0
LINE
5
348
100
AcDbEntity
8
0
100
AcDbLine
62
7
6
CONTINUOUS
10
88.9821805412
20
231.3156710097
11
90.8621805412
21
231.3156710097
0
LINE
5
349
100
AcDbEntity
8
0
100
AcDbLine
62
7
6
CONTINUOUS
10
90.8621805412
20
231.9156710082
11
89.4521805412
21
231.9156710082
0
LINE
5
34A
100
AcDbEntity
8
0
100
AcDbLine
62
7
6
CONTINUOUS
10
87.1021805412
20
231.9156710082
11
86.7888470584
21
231.9156710082
0
LINE
5
34B
100
AcDbEntity
8
0
100
AcDbLine
62
7
6
CONTINUOUS
10
82.4021805412
20
233.4156710395
11
83.7338471705
21
233.4156710395
0
LINE
5
34C
100
AcDbEntity
8
0
100
AcDbLine
62
7
6
CONTINUOUS
10
83.8905137998
20
234.0156709680
11
82.4021805412
21
234.0156709680
0
LINE
5
34D
100
AcDbEntity
8
0
100
AcDbLine
62
7
6
CONTINUOUS
10
89.4521805412
20
235.4156710812
11
90.8621805412
21
235.4156710812
0
LINE
5
34E
100
AcDbEntity
8
0
100
AcDbLine
62
7
6
CONTINUOUS
10
82.4021805412
20
235.5156710693
11
83.8905137998
21
235.5156710693
0
LINE
5
34F
100
AcDbEntity
8
0
100
AcDbLine
62
7
6
CONTINUOUS
10
90.8621805412
20
236.0156710097
11
88.9821805412
21
236.0156710097
0
LINE
5
350
100
AcDbEntity
8
0
100
AcDbLine
62
7
6
CONTINUOUS
10
88.3555140239
20
236.0156710097
11
87.8855140239
21
236.0156710097
0
LINE
5
351
100
AcDbEntity
8
0
100
AcDbLine
62
7
6
CONTINUOUS
10
86.0055140239
20
236.0156710097
11
85.5355137998
21
236.0156710097
0
LINE
5
352
100
AcDbEntity
8
0
100
AcDbLine
62
7
6
CONTINUOUS
10
83.8121805412
20
236.0156710097
11
81.9321805412
21
236.0156710097
0
LINE
5
353
100
AcDbEntity
8
0
100
AcDbLine
62
7
6
CONTINUOUS
10
76.9435012657
20
232.9921042540
11
77.2074123990
21
232.9724967624
0
LINE
5
354
100
AcDbEntity
8
0
100
AcDbLine
62
7
6
CONTINUOUS
10
84.2038472826
20
235.9156710216
11
83.8121805412
21
236.0156710097
0
LINE
5
355
100
AcDbEntity
8
0
100
AcDbLine
62
7
6
CONTINUOUS
10
91.2538475067
20
235.9156710216
11
90.8621805412
21
236.0156710097
0
LINE
5
356
100
AcDbEntity
8
0
100
AcDbLine
62
7
6
CONTINUOUS
10
90.8621805412
20
235.4156710812
11
91.1755135757
21
235.3156710931
0
LINE
5
357
100
AcDbEntity
8
0
100
AcDbLine
62
7
6
CONTINUOUS
10
106.4776938756
20
231.8229784944
11
87.7262056897
21
239.5900992156
0
LINE
5
358
100
AcDbEntity
8
0
100
AcDbLine
62
7
6
CONTINUOUS
10
190.8403980531
20
34.6856710097
11
201.8403980531
21
34.6856710097
0
LINE
5
359
100
AcDbEntity
8
0
100
AcDbLine
62
7
6
CONTINUOUS
10
190.3403980531
20
35.1856710097
11
202.3403980531
21
35.1856710097
0
LINE
5
35A
100
AcDbEntity
8
0
100
AcDbLine
62
7
6
CONTINUOUS
10
190.3403980531
20
35.1856710097
11
190.8403980531
21
34.6856710097
0
LINE
5
35B
100
AcDbEntity
8
0
100
AcDbLine
62
7
6
CONTINUOUS
10
191.3908324792
20
183.1787337799
11
190.3403980531
21
179.6856710097
0
LINE
5
35C
100
AcDbEntity
8
0
100
AcDbLine
62
7
6
CONTINUOUS
10
190.3403980531
20
179.6856710097
11
190.3403980531
21
35.1856710097
0
LINE
5
35D
100
AcDbEntity
8
0
100
AcDbLine
62
7
6
CONTINUOUS
10
179.9866025031
20
195.7416680016
11
181.3403980531
21
184.6856710097
0
LINE
5
35E
100
AcDbEntity
8
0
100
AcDbLine
62
7
6
CONTINUOUS
10
191.3403980531
20
209.1856710097
11
191.3403980531
21
238.2042799169
0
LINE
5
35F
100
AcDbEntity
8
DEFAULT_1
100
AcDbLine
62
2
6
CENTER
10
196.3403980531
20
31.6856710097
11
196.3403980531
21
241.9048547237
0
LINE
5
360
100
AcDbEntity
8
0
100
AcDbLine
62
7
6
CONTINUOUS
10
201.3403980531
20
238.2042799169
11
201.3403980531
21
209.1856710097
0
LINE
5
361
100
AcDbEntity
8
0
100
AcDbLine
62
7
6
CONTINUOUS
10
201.6403980531
20
236.0156710097
11
201.6403980531
21
226.6656710097
0
LINE
5
362
100
AcDbEntity
8
0
100
AcDbLine
62
7
6
CONTINUOUS
10
201.6403980531
20
226.1033301670
11
201.6403980531
21
224.1709809323
0
LINE
5
363
100
AcDbEntity
8
0
100
AcDbLine
62
7
6
CONTINUOUS
10
201.6403980531
20
224.1522035870
11
201.6403980531
21
219.9445176735
0
LINE
5
364
100
AcDbEntity
8
0
100
AcDbLine
62
7
6
CONTINUOUS
10
201.6403980531
20
219.4477753220
11
201.6403980531
21
218.6687634970
0
LINE
5
365
100
AcDbEntity
8
0
100
AcDbLine
62
7
6
CONTINUOUS
10
201.6403980531
20
218.3914956640
11
201.6403980531
21
211.8756710097
0
LINE
5
366
100
AcDbEntity
8
0
100
AcDbLine
62
7
6
CONTINUOUS
10
202.3403980531
20
179.6856710097
11
202.3403980531
21
35.1856710097
0
LINE
5
367
100
AcDbEntity
8
0
100
AcDbLine
62
7
6
CONTINUOUS
10
212.6941936031
20
195.7416680016
11
211.3403980531
21
184.6856710097
0
LINE
5
368
100
AcDbEntity
8
0
100
AcDbLine
62
7
6
CONTINUOUS
10
201.2899636270
20
183.1787337799
11
202.3403980531
21
179.6856710097
0
LINE
5
369
100
AcDbEntity
8
0
100
AcDbLine
62
7
6
CONTINUOUS
10
190.3403980531
20
179.6856710097
11
202.3403980531
21
179.6856710097
0
LINE
5
36A
100
AcDbEntity
8
0
100
AcDbLine
62
7
6
CONTINUOUS
10
181.3403980531
20
184.6856710097
11
211.3403980531
21
184.6856710097
0
LINE
5
36B
100
AcDbEntity
8
0
100
AcDbLine
62
7
6
CONTINUOUS
10
191.9041038010
20
191.7861325267
11
200.7767643345
21
191.7861325267
0
LINE
5
36C
100
AcDbEntity
8
DEFAULT_2
100
AcDbLine
62
8
6
HIDDEN
10
212.4787019267
20
196.6856710097
11
209.3403980495
21
196.6856710097
0
LINE
5
36D
100
AcDbEntity
8
DEFAULT_2
100
AcDbLine
62
8
6
HIDDEN
10
183.3403980568
20
196.6856710097
11
180.2020579471
21
196.6856710097
0
LINE
5
36E
100
AcDbEntity
8
0
100
AcDbLine
62
7
6
CONTINUOUS
10
202.3403980531
20
35.1856710097
11
201.8403980531
21
34.6856710097
0
LINE
5
36F
100
AcDbEntity
8
DEFAULT_1
100
AcDbLine
62
2
6
CENTER
10
189.3382424266
20
211.6856710097
11
203.1719598621
21
211.6856710097
0
LINE
5
370
100
AcDbEntity
8
0
100
AcDbLine
62
7
6
CONTINUOUS
10
201.3403980531
20
211.8756710097
11
201.6403980531
21
211.8756710097
0
LINE
5
371
100
AcDbEntity
8
0
100
AcDbLine
62
7
6
CONTINUOUS
10
201.3403980531
20
213.1650837337
11
201.6403980531
21
213.1650837337
0
LINE
5
372
100
AcDbEntity
8
0
100
AcDbLine
62
7
6
CONTINUOUS
10
201.3403980531
20
214.2653809822
11
201.6403980531
21
214.2653809822
0
LINE
5
373
100
AcDbEntity
8
0
100
AcDbLine
62
7
6
CONTINUOUS
10
201.3403980531
20
214.4671753093
11
201.6403980531
21
214.4671753093
0
LINE
5
374
100
AcDbEntity
8
0
100
AcDbLine
62
7
6
CONTINUOUS
10
201.3403980531
20
214.5682552104
11
201.6403980531
21
214.5682552104
0
LINE
5
375
100
AcDbEntity
8
0
100
AcDbLine
62
7
6
CONTINUOUS
10
201.3403980531
20
214.5960551264
11
201.6403980531
21
214.5960551264
0
LINE
5
376
100
AcDbEntity
8
0
100
AcDbLine
62
7
6
CONTINUOUS
10
201.3403980531
20
214.7451742040
11
201.6403980531
21
214.7451742040
0
LINE
5
377
100
AcDbEntity
8
0
100
AcDbLine
62
7
6
CONTINUOUS
10
201.3403980531
20
214.8902720698
11
201.6403980531
21
214.8902720698
0
LINE
5
378
100
AcDbEntity
8
0
100
AcDbLine
62
7
6
CONTINUOUS
10
201.3403980531
20
214.9541635037
11
201.6403980531
21
214.9541635037
0
LINE
5
379
100
AcDbEntity
8
0
100
AcDbLine
62
7
6
CONTINUOUS
10
201.3403980531
20
215.0639008206
11
201.6403980531
21
215.0639008206
0
LINE
5
37A
100
AcDbEntity
8
0
100
AcDbLine
62
7
6
CONTINUOUS
10
201.3403980531
20
215.2194838668
11
201.6403980531
21
215.2194838668
0
LINE
5
37B
100
AcDbEntity
8
0
100
AcDbLine
62
7
6
CONTINUOUS
10
201.3403980531
20
215.5126038067
11
201.6403980531
21
215.5126038067
0
LINE
5
37C
100
AcDbEntity
8
0
100
AcDbLine
62
7
6
CONTINUOUS
10
201.3403980531
20
215.7508553889
11
201.6403980531
21
215.7508553889
0
LINE
5
37D
100
AcDbEntity
8
0
100
AcDbLine
62
7
6
CONTINUOUS
10
201.3403980531
20
215.9616726611
11
201.6403980531
21
215.9616726611
0
LINE
5
37E
100
AcDbEntity
8
0
100
AcDbLine
62
7
6
CONTINUOUS
10
201.3403980531
20
216.1909011670
11
201.6403980531
21
216.1909011670
0
LINE
5
37F
100
AcDbEntity
8
0
100
AcDbLine
62
7
6
CONTINUOUS
10
201.3403980531
20
216.3926953630
11
201.6403980531
21
216.3926953630
0
LINE
5
380
100
AcDbEntity
8
0
100
AcDbLine
62
7
6
CONTINUOUS
10
201.3403980531
20
216.4937753952
11
201.6403980531
21
216.4937753952
0
LINE
5
381
100
AcDbEntity
8
0
100
AcDbLine
62
7
6
CONTINUOUS
10
201.3403980531
20
216.5215753112
11
201.6403980531
21
216.5215753112
0
LINE
5
382
100
AcDbEntity
8
0
100
AcDbLine
62
7
6
CONTINUOUS
10
201.3403980531
20
218.0247297396
11
201.6403980531
21
218.0247297396
0
LINE
5
383
100
AcDbEntity
8
0
100
AcDbLine
62
7
6
CONTINUOUS
10
201.3403980531
20
218.3914956640
11
201.6403980531
21
218.3914956640
0
LINE
5
384
100
AcDbEntity
8
0
100
AcDbLine
62
7
6
CONTINUOUS
10
201.3403980531
20
218.6687634970
11
201.6403980531
21
218.6687634970
0
LINE
5
385
100
AcDbEntity
8
0
100
AcDbLine
62
7
6
CONTINUOUS
10
201.3403980531
20
218.8059350855
11
201.6403980531
21
218.8059350855
0
LINE
5
386
100
AcDbEntity
8
0
100
AcDbLine
62
7
6
CONTINUOUS
10
201.3403980531
20
219.4477753220
11
201.6403980531
21
219.4477753220
0
LINE
5
387
100
AcDbEntity
8
0
100
AcDbLine
62
7
6
CONTINUOUS
10
201.3403980531
20
219.9445176735
11
201.6403980531
21
219.9445176735
0
LINE
5
388
100
AcDbEntity
8
0
100
AcDbLine
62
7
6
CONTINUOUS
10
201.3403980531
20
220.5003985487
11
201.6403980531
21
220.5003985487
0
LINE
5
389
100
AcDbEntity
8
0
100
AcDbLine
62
7
6
CONTINUOUS
10
201.3403980531
20
220.7754728609
11
201.6403980531
21
220.7754728609
0
LINE
5
38A
100
AcDbEntity
8
0
100
AcDbLine
62
7
6
CONTINUOUS
10
201.3403980531
20
222.0591528092
11
201.6403980531
21
222.0591528092
0
LINE
5
38B
100
AcDbEntity
8
0
100
AcDbLine
62
7
6
CONTINUOUS
10
201.3403980531
20
222.3342271213
11
201.6403980531
21
222.3342271213
0
LINE
5
38C
100
AcDbEntity
8
0
100
AcDbLine
62
7
6
CONTINUOUS
10
201.3403980531
20
222.7009935704
11
201.6403980531
21
222.7009935704
0
LINE
5
38D
100
AcDbEntity
8
0
100
AcDbLine
62
7
6
CONTINUOUS
10
201.3403980531
20
223.8012908189
11
201.6403980531
21
223.8012908189
0
LINE
5
38E
100
AcDbEntity
8
0
100
AcDbLine
62
7
6
CONTINUOUS
10
201.3403980531
20
224.0030847525
11
201.6403980531
21
224.0030847525
0
LINE
5
38F
100
AcDbEntity
8
0
100
AcDbLine
62
7
6
CONTINUOUS
10
201.3403980531
20
224.1041650470
11
201.6403980531
21
224.1041650470
0
LINE
5
390
100
AcDbEntity
8
0
100
AcDbLine
62
7
6
CONTINUOUS
10
201.3403980531
20
224.1319649630
11
201.6403980531
21
224.1319649630
0
LINE
5
391
100
AcDbEntity
8
0
100
AcDbLine
62
7
6
CONTINUOUS
10
201.3403980531
20
224.1522035870
11
201.6403980531
21
224.1522035870
0
LINE
5
392
100
AcDbEntity
8
0
100
AcDbLine
62
7
6
CONTINUOUS
10
201.3403980531
20
224.1709809323
11
201.6403980531
21
224.1709809323
0
LINE
5
393
100
AcDbEntity
8
0
100
AcDbLine
62
7
6
CONTINUOUS
10
201.3403980531
20
224.3269298468
11
201.6403980531
21
224.3269298468
0
LINE
5
394
100
AcDbEntity
8
0
100
AcDbLine
62
7
6
CONTINUOUS
10
201.3403980531
20
224.4720271880
11
201.6403980531
21
224.4720271880
0
LINE
5
395
100
AcDbEntity
8
0
100
AcDbLine
62
7
6
CONTINUOUS
10
201.3403980531
20
224.5359183595
11
201.6403980531
21
224.5359183595
0
LINE
5
396
100
AcDbEntity
8
0
100
AcDbLine
62
7
6
CONTINUOUS
10
201.3403980531
20
224.6456556764
11
201.6403980531
21
224.6456556764
0
LINE
5
397
100
AcDbEntity
8
0
100
AcDbLine
62
7
6
CONTINUOUS
10
201.3403980531
20
224.8012389849
11
201.6403980531
21
224.8012389849
0
LINE
5
398
100
AcDbEntity
8
0
100
AcDbLine
62
7
6
CONTINUOUS
10
201.3403980531
20
225.0943594494
11
201.6403980531
21
225.0943594494
0
LINE
5
399
100
AcDbEntity
8
0
100
AcDbLine
62
7
6
CONTINUOUS
10
201.3403980531
20
225.3326102447
11
201.6403980531
21
225.3326102447
0
LINE
5
39A
100
AcDbEntity
8
0
100
AcDbLine
62
7
6
CONTINUOUS
10
201.3403980531
20
225.5434277792
11
201.6403980531
21
225.5434277792
0
LINE
5
39B
100
AcDbEntity
8
0
100
AcDbLine
62
7
6
CONTINUOUS
10
201.3403980531
20
225.7726560228
11
201.6403980531
21
225.7726560228
0
LINE
5
39C
100
AcDbEntity
8
0
100
AcDbLine
62
7
6
CONTINUOUS
10
201.3403980531
20
225.9744510058
11
201.6403980531
21
225.9744510058
0
LINE
5
39D
100
AcDbEntity
8
0
100
AcDbLine
62
7
6
CONTINUOUS
10
201.3403980531
20
226.0755302510
11
201.6403980531
21
226.0755302510
0
LINE
5
39E
100
AcDbEntity
8
0
100
AcDbLine
62
7
6
CONTINUOUS
10
201.3403980531
20
226.1033301670
11
201.6403980531
21
226.1033301670
0
LINE
5
39F
100
AcDbEntity
8
0
100
AcDbLine
62
7
6
CONTINUOUS
10
201.3403980531
20
226.6656710097
11
201.6403980531
21
226.6656710097
0
LINE
5
3A0
100
AcDbEntity
8
DEFAULT_2
100
AcDbLine
62
8
6
HIDDEN
10
197.3403980531
20
226.6856710097
11
195.3403980531
21
226.6856710097
0
LINE
5
3A1
100
AcDbEntity
8
0
100
AcDbLine
62
7
6
CONTINUOUS
10
201.3403980531
20
229.6967599229
11
201.6403980531
21
229.6967599229
0
LINE
5
3A2
100
AcDbEntity
8
0
100
AcDbLine
62
7
6
CONTINUOUS
10
201.3403980531
20
230.0248849229
11
201.6403980531
21
230.0248849229
0
LINE
5
3A3
100
AcDbEntity
8
0
100
AcDbLine
62
7
6
CONTINUOUS
10
201.3403980531
20
231.1186349229
11
201.6403980531
21
231.1186349229
0
LINE
5
3A4
100
AcDbEntity
8
0
100
AcDbLine
62
7
6
CONTINUOUS
10
201.3403980531
20
231.4467599229
11
201.6403980531
21
231.4467599229
0
LINE
5
3A5
100
AcDbEntity
8
0
100
AcDbLine
62
7
6
CONTINUOUS
10
201.3403980531
20
231.9571765201
11
201.6403980531
21
231.9571765201
0
LINE
5
3A6
100
AcDbEntity
8
0
100
AcDbLine
62
7
6
CONTINUOUS
10
201.3403980531
20
232.1759265201
11
201.6403980531
21
232.1759265201
0
LINE
5
3A7
100
AcDbEntity
8
0
100
AcDbLine
62
7
6
CONTINUOUS
10
201.3403980531
20
232.4928695885
11
201.6403980531
21
232.4928695885
0
LINE
5
3A8
100
AcDbEntity
8
0
100
AcDbLine
62
7
6
CONTINUOUS
10
201.3403980531
20
232.7676852743
11
201.6403980531
21
232.7676852743
0
LINE
5
3A9
100
AcDbEntity
8
0
100
AcDbLine
62
7
6
CONTINUOUS
10
201.3403980531
20
233.0873849229
11
201.6403980531
21
233.0873849229
0
LINE
5
3AA
100
AcDbEntity
8
0
100
AcDbLine
62
7
6
CONTINUOUS
10
201.3403980531
20
233.2332181172
11
201.6403980531
21
233.2332181172
0
LINE
5
3AB
100
AcDbEntity
8
0
100
AcDbLine
62
7
6
CONTINUOUS
10
201.3403980531
20
233.3874768714
11
201.6403980531
21
233.3874768714
0
LINE
5
3AC
100
AcDbEntity
8
0
100
AcDbLine
62
7
6
CONTINUOUS
10
201.3403980531
20
233.4043279913
11
201.6403980531
21
233.4043279913
0
LINE
5
3AD
100
AcDbEntity
8
0
100
AcDbLine
62
7
6
CONTINUOUS
10
201.3403980531
20
236.0156710097
11
201.6403980531
21
236.0156710097
0
LINE
5
3AE
100
AcDbEntity
8
0
100
AcDbLine
62
7
6
CONTINUOUS
10
199.8403980531
20
239.7042799169
11
192.8403980531
21
239.7042799169
0
ARC
5
3AF
100
AcDbEntity
8
0
100
AcDbCircle
62
7
6
CONTINUOUS
10
68.6276762622
20
188.7861325267
40
3.0000000000
100
AcDbArc
50
6.9810574068
51
90.0000000000
0
ARC
5
3B0
100
AcDbEntity
8
0
100
AcDbCircle
62
7
6
CONTINUOUS
10
105.6766848201
20
188.7861325267
40
3.0000000000
100
AcDbArc
50
90.0000000000
51
173.0189425932
0
ARC
5
3B1
100
AcDbEntity
8
0
100
AcDbCircle
62
7
6
CONTINUOUS
10
62.2571599345
20
211.6856710097
40
3.0000000000
100
AcDbArc
50
157.5000000000
51
202.5000000000
0
ARC
5
3B2
100
AcDbEntity
8
0
100
AcDbCircle
62
7
6
CONTINUOUS
10
112.0472011479
20
211.6856710097
40
3.0000000000
100
AcDbArc
50
337.5000000000
51
22.5000000000
0
ARC
5
3B3
100
AcDbEntity
8
0
100
AcDbCircle
62
7
6
CONTINUOUS
10
68.5889993340
20
193.7861325267
40
2.0000000000
100
AcDbArc
50
202.5000000000
51
270.0000000000
0
ARC
5
3B4
100
AcDbEntity
8
0
100
AcDbCircle
62
7
6
CONTINUOUS
10
105.7153617483
20
193.7861325267
40
2.0000000000
100
AcDbArc
50
270.0000000000
51
337.5000000000
0
ARC
5
3B5
100
AcDbEntity
8
0
100
AcDbCircle
62
7
6
CONTINUOUS
10
87.1521805412
20
211.6856710097
40
15.0000000000
100
AcDbArc
50
234.2464156737
51
305.7274999592
0
ARC
5
3B6
100
AcDbEntity
8
0
100
AcDbCircle
62
7
6
CONTINUOUS
10
68.4006923553
20
230.4371591956
40
1.5000000000
100
AcDbArc
50
112.5000000000
51
157.5000000000
0
ARC
5
3B7
100
AcDbEntity
8
0
100
AcDbCircle
62
7
6
CONTINUOUS
10
105.9036687271
20
230.4371591956
40
1.5000000000
100
AcDbArc
50
22.5000000000
51
67.5000000000
0
ARC
5
3B8
100
AcDbEntity
8
0
100
AcDbCircle
62
7
6
CONTINUOUS
10
87.1521805412
20
238.2042799169
40
1.5000000000
100
AcDbArc
50
67.5000000000
51
112.5000000000
0
ARC
5
3B9
100
AcDbEntity
8
0
100
AcDbCircle
62
7
6
CONTINUOUS
10
87.1521805412
20
211.6856710097
40
15.0000000000
100
AcDbArc
50
313.5908874946
51
226.4227740398
0
ARC
5
3BA
100
AcDbEntity
8
0
100
AcDbCircle
62
7
6
CONTINUOUS
10
93.2221805412
20
183.5156710097
40
1.1700000000
100
AcDbArc
50
90.0000000000
51
196.7370923561
0
ARC
5
3BB
100
AcDbEntity
8
0
100
AcDbCircle
62
7
6
CONTINUOUS
10
81.0821805412
20
183.5156710097
40
1.1700000000
100
AcDbArc
50
343.2629076439
51
90.0000000000
0
ARC
5
3BC
100
AcDbEntity
8
DEFAULT_2
100
AcDbCircle
62
8
6
HIDDEN
10
195.3403980531
20
230.6856710097
40
4.0000000000
100
AcDbArc
50
180.0000000000
51
270.0000000000
0
ARC
5
3BD
100
AcDbEntity
8
DEFAULT_2
100
AcDbCircle
62
8
6
HIDDEN
10
197.3403980531
20
230.6856710097
40
4.0000000000
100
AcDbArc
50
270.0000000000
51
360.0000000000
0
ARC
5
3BE
100
AcDbEntity
8
0
100
AcDbCircle
62
7
6
CONTINUOUS
10
181.4060010389
20
195.9154719040
40
1.4300000000
100
AcDbArc
50
98.8475046808
51
186.9810574068
0
ARC
5
3BF
100
AcDbEntity
8
0
100
AcDbCircle
62
7
6
CONTINUOUS
10
199.8403980531
20
238.2042799169
40
1.5000000000
100
AcDbArc
50
0.0000000000
51
90.0000000000
0
ARC
5
3C0
100
AcDbEntity
8
0
100
AcDbCircle
62
7
6
CONTINUOUS
10
192.8403980531
20
238.2042799169
40
1.5000000000
100
AcDbArc
50
90.0000000000
51
180.0000000000
0
ARC
5
3C1
100
AcDbEntity
8
0
100
AcDbCircle
62
7
6
CONTINUOUS
10
211.2747950673
20
195.9154719040
40
1.4300000000
100
AcDbArc
50
353.0189425932
51
81.1524953192
0
ARC
5
3C2
100
AcDbEntity
8
0
100
AcDbCircle
62
7
6
CONTINUOUS
10
213.3403980531
20
209.1856710097
40
12.0000000000
100
AcDbArc
50
180.0000000000
51
261.1524953192
0
ARC
5
3C3
100
AcDbEntity
8
0
100
AcDbCircle
62
7
6
CONTINUOUS
10
179.3403980531
20
209.1856710097
40
12.0000000000
100
AcDbArc
50
278.8475046808
51
360.0000000000
0
ARC
5
3C4
100
AcDbEntity
8
0
100
AcDbCircle
62
7
6
CONTINUOUS
10
190.2703980531
20
183.5156710097
40
1.1700000000
100
AcDbArc
50
343.2629076439
51
90.0000000000
0
ARC
5
3C5
100
AcDbEntity
8
0
100
AcDbCircle
62
7
6
CONTINUOUS
10
202.4103980531
20
183.5156710097
40
1.1700000000
100
AcDbArc
50
90.0000000000
51
196.7370923561
0
SPLINE
5
3C6
100
AcDbEntity
8
0
100
AcDbSpline
62
7
6
CONTINUOUS
70
0
71
3
72
9
73
5
74
3
42
0.0000001000
43
0.0000001000
44
0.0000000001
12
-1.4908001633
22
-1.4192177650
32
0.0000000000
13
-1.6709476780
23
-1.2019143268
33
0.0000000000
40
0.0000000000
40
0.0000000000
40
0.0000000000
40
0.0000000000
40
0.4929521666
40
1.0000000000
40
1.0000000000
40
1.0000000000
40
1.0000000000
10
97.4947458544
20
200.8214479535
30
0.0000000000
10
97.2497814642
20
200.5882457961
30
0.0000000000
10
96.7386027653
20
200.1296484326
30
0.0000000000
10
96.1935709630
20
199.7117702886
30
0.0000000000
10
95.9111541630
20
199.5086276035
30
0.0000000000
11
97.4947458544
21
200.8214479535
31
0.0000000000
11
96.7375818035
21
200.1460075134
31
0.0000000000
11
95.9111541630
21
199.5086276035
31
0.0000000000
0
SPLINE
5
3C7
100
AcDbEntity
8
0
100
AcDbSpline
62
7
6
CONTINUOUS
70
0
71
3
72
9
73
5
74
3
42
0.0000001000
43
0.0000001000
44
0.0000000001
12
-1.6619596251
22
1.1965976719
32
0.0000000000
13
-1.4836036442
23
1.4116926049
33
0.0000000000
40
0.0000000000
40
0.0000000000
40
0.0000000000
40
0.0000000000
40
0.5067502689
40
1.0000000000
40
1.0000000000
40
1.0000000000
40
1.0000000000
10
78.3876648969
20
199.5126159232
30
0.0000000000
10
78.1069320679
20
199.7147413206
30
0.0000000000
10
77.5647942745
20
200.1306763691
30
0.0000000000
10
77.0561349838
20
200.5868765483
30
0.0000000000
10
76.8122059510
20
200.8189822142
30
0.0000000000
11
78.3876648969
21
199.5126159232
31
0.0000000000
11
77.5660722627
21
200.1466316338
31
0.0000000000
11
76.8122059510
21
200.8189822142
31
0.0000000000
0
ENDSEC
0
SECTION
2
OBJECTS
0
DICTIONARY
5
3C8
100
AcDbDictionary
3
ACAD_GROUP
350
3C9
3
ACAD_MLINESTYLE
350
3CA
0
DICTIONARY
5
3C9
102
{ACAD_REACTORS
330
3C8
102
}
100
AcDbDictionary
0
DICTIONARY
5
3CA
102
{ACAD_REACTORS
330
3C8
102
}
100
AcDbDictionary
3
STANDARD
350
3CB
0
MLINESTYLE
5
3CB
102
{ACAD_REACTORS
330
3CA
102
}
100
AcDbMlineStyle
2
STANDARD
70
0
3

62
256
51
90.0
52
90.0
71
2
49
0.5
62
256
6
BYLAYER
49
-0.5
62
256
6
BYLAYER
0
ENDSEC
0
EOF
