999
DXF file: D:\CAD-neu-fuer-DC-Rom\psa-vrs-m12.dxf
999
Pro/ENGINEER 2005030 by Parametric Technology Corporation
0
SECTION
2
HEADER
9
$ACADVER
1
AC1014
9
$HANDSEED
5
       3CC
9
$EXTMAX
10
420.0000000000
20
297.0000000000
9
$EXTMIN
10
0.0000000000
20
0.0000000000
9
$LIMMIN
10
0.0000000000
20
0.0000000000
9
$LIMMAX
10
420.0000000000
20
297.0000000000
9
$VIEWCTR
10
210.0000000000
20
148.5000000000
9
$VIEWSIZE
40
297.0000000000
9
$CLAYER
8
0
9
$LTSCALE
40
23.1000000000
9
$CELTYPE
6
BYLAYER
9
$DIMSCALE
40
1
9
$DIMASZ
40
3.5000000000
9
$DIMEXO
40
2.6250000000
9
$DIMDLI
40
15.9600000000
9
$DIMEXE
40
7.5600000000
9
$DIMCEN
40
3.7800000000
9
$DIMLFAC
40
1.0000000000
9
$DIMTXT
40
3.5000000000
9
$DIMTOL
70
1
9
$DIMLIM
70
0
9
$DIMTFAC
40
1.0000000000
9
$DIMTP
40
0.0050000000
9
$DIMTM
40
0.0050000000
9
$MEASUREMENT
70
1
0
ENDSEC
0
SECTION
2
CLASSES
0
ENDSEC
0
SECTION
2
TABLES
0
TABLE
2
VPORT
5
8
100
AcDbSymbolTable
70
2
0
VPORT
5
1F4
100
AcDbSymbolTableRecord
100
AcDbViewportTableRecord
2
*ACTIVE
70
0
10
0.0
20
0.0
11
1.0
21
1.0
12
210.0000000000
22
148.5000000000
13
0.0
23
0.0
14
1.0
24
1.0
15
0.0
25
0.0
16
0.0
26
0.0
36
1.0
17
0.0
27
0.0
37
0.0
40
297.0000000000
41
1.4141414141
42
50.0
43
0.0
44
0.0
50
0.0
51
0.0
71
0
72
100
73
1
74
1
75
0
76
0
77
0
78
0
0
ENDTAB
0
TABLE
2
LTYPE
5
5
100
AcDbSymbolTable
70
6
0
LTYPE
5
14
100
AcDbSymbolTableRecord
100
AcDbLinetypeTableRecord
2
BYBLOCK
70
0
3

72
65
73
0
40
0.0
0
LTYPE
5
15
100
AcDbSymbolTableRecord
100
AcDbLinetypeTableRecord
2
BYLAYER
70
0
3

72
65
73
0
40
0.0
0
LTYPE
5
16
100
AcDbSymbolTableRecord
100
AcDbLinetypeTableRecord
2
CONTINUOUS
70
64
3
Solid line
72
65
73
0
40
0
0
LTYPE
5
1F5
100
AcDbSymbolTableRecord
100
AcDbLinetypeTableRecord
2
CENTER
70
64
3
____ _ ____ _ ____ _ ____ _ ____ _ ____ _ ____
72
65
73
4
40
0.6
49
0.375
74
0
49
-0.075
74
0
49
0.075
74
0
49
-0.075
74
0
0
LTYPE
5
1F6
100
AcDbSymbolTableRecord
100
AcDbLinetypeTableRecord
2
HIDDEN
70
64
3
- - - - - - - - - - - - - - - - - - - -
72
65
73
2
40
0.2
49
0.1
74
0
49
-0.1
74
0
0
LTYPE
5
1F7
100
AcDbSymbolTableRecord
100
AcDbLinetypeTableRecord
2
PHANTOM
70
64
3
_____ _ _ _____ _ _ _____ _ _ _____
72
65
73
6
40
0.8
49
0.45
74
0
49
-0.05
74
0
49
0.1
74
0
49
-0.05
74
0
49
0.1
74
0
49
-0.05
74
0
0
LTYPE
5
1F8
100
AcDbSymbolTableRecord
100
AcDbLinetypeTableRecord
2
DOT
70
64
3
. . . . . . . . . . . . . . . . . . . .
72
65
73
2
40
0.2
49
0.1
74
0
49
-0.1
74
0
0
LTYPE
5
1F9
100
AcDbSymbolTableRecord
100
AcDbLinetypeTableRecord
2
DASHED
70
64
3
- - - - - - - - - - - - - - - - - - - -
72
65
73
2
40
0.2
49
0.1
74
0
49
-0.1
74
0
0
ENDTAB
0
TABLE
2
LAYER
5
2
100
AcDbSymbolTable
70
36
0
LAYER
5
10
100
AcDbSymbolTableRecord
100
AcDbLayerTableRecord
2
0
70
0
62
7
6
CONTINUOUS
0
LAYER
5
1FA
100
AcDbSymbolTableRecord
100
AcDbLayerTableRecord
2
DEFAULT_1
70
0
62
7
6
CENTER
0
LAYER
5
1FB
100
AcDbSymbolTableRecord
100
AcDbLayerTableRecord
2
DEFAULT_2
70
0
62
8
6
HIDDEN
0
LAYER
5
1FC
100
AcDbSymbolTableRecord
100
AcDbLayerTableRecord
2
DEFAULT_3
70
0
62
7
6
PHANTOM
0
LAYER
5
1FD
100
AcDbSymbolTableRecord
100
AcDbLayerTableRecord
2
B-ACHSEN
70
0
62
7
6
CONTINUOUS
0
LAYER
5
1FE
100
AcDbSymbolTableRecord
100
AcDbLayerTableRecord
2
B-EBENEN
70
0
62
7
6
CONTINUOUS
0
LAYER
5
1FF
100
AcDbSymbolTableRecord
100
AcDbLayerTableRecord
2
B-KOORSYS
70
0
62
7
6
CONTINUOUS
0
LAYER
5
200
100
AcDbSymbolTableRecord
100
AcDbLayerTableRecord
2
B-KURVEN
70
0
62
7
6
CONTINUOUS
0
LAYER
5
201
100
AcDbSymbolTableRecord
100
AcDbLayerTableRecord
2
BEMASSUNG
70
0
62
7
6
CONTINUOUS
0
LAYER
5
202
100
AcDbSymbolTableRecord
100
AcDbLayerTableRecord
2
BOHRUNGEN
70
0
62
7
6
CONTINUOUS
0
LAYER
5
203
100
AcDbSymbolTableRecord
100
AcDbLayerTableRecord
2
KURVENELEMENTE
70
0
62
7
6
CONTINUOUS
0
LAYER
5
204
100
AcDbSymbolTableRecord
100
AcDbLayerTableRecord
2
NOTIZEN
70
0
62
7
6
CONTINUOUS
0
LAYER
5
205
100
AcDbSymbolTableRecord
100
AcDbLayerTableRecord
2
RUNDUNGEN
70
0
62
7
6
CONTINUOUS
0
LAYER
5
206
100
AcDbSymbolTableRecord
100
AcDbLayerTableRecord
2
VERBUNDFLAECHEN
70
0
62
7
6
CONTINUOUS
0
ENDTAB
0
TABLE
2
STYLE
5
3
100
AcDbSymbolTable
70
1
0
STYLE
5
11
100
AcDbSymbolTableRecord
100
AcDbTextStyleTableRecord
2
STANDARD
70
0
40
0.0
41
0.7000000000
50
0.0
71
0
42
0.2
3
txt
4

0
ENDTAB
0
TABLE
2
VIEW
5
6
100
AcDbSymbolTable
70
0
0
ENDTAB
0
TABLE
2
UCS
5
7
100
AcDbSymbolTable
70
0
0
ENDTAB
0
TABLE
2
APPID
5
9
100
AcDbSymbolTable
70
1
0
APPID
5
207
100
AcDbSymbolTableRecord
100
AcDbRegAppTableRecord
2
ACAD
70
0
0
ENDTAB
0
TABLE
2
DIMSTYLE
5
A
100
AcDbSymbolTable
70
1
0
DIMSTYLE
105
208
100
AcDbSymbolTableRecord
100
AcDbDimStyleTableRecord
2
STANDARD
70
0
3

4

5

6

7

40
1.0
41
3.5000000000
42
0.0625
43
0.38
44
0.18
45
0.0
46
0.0
47
0.0050000000
48
0.0050000000
140
3.5000000000
141
0.09
142
0.0
143
25.4
144
1.0000000000
145
0.0
146
1.0000000000
147
0.09
71
1
72
0
73
0
74
0
75
0
76
0
77
1
78
8
170
0
171
2
172
0
173
0
174
0
175
0
176
0
177
0
178
5
270
2
271
3
272
3
273
2
274
2
340
11
275
0
280
0
281
0
282
0
283
1
284
8
285
0
286
0
287
3
288
0
0
ENDTAB
0
TABLE
2
BLOCK_RECORD
5
1
100
AcDbSymbolTable
70
0
0
BLOCK_RECORD
5
1B
100
AcDbSymbolTableRecord
100
AcDbBlockTableRecord
2
*MODEL_SPACE
0
BLOCK_RECORD
5
1C
100
AcDbSymbolTableRecord
100
AcDbBlockTableRecord
2
*PAPER_SPACE
0
ENDTAB
0
ENDSEC
0
SECTION
2
BLOCKS
0
BLOCK
5
1E
100
AcDbEntity
8
0
100
AcDbBlockBegin
2
*MODEL_SPACE
70
0
10
0.0
20
0.0
30
0.0
3
*MODEL_SPACE
1

0
ENDBLK
5
1F
100
AcDbEntity
8
0
100
AcDbBlockEnd
0
BLOCK
5
20
100
AcDbEntity
8
0
100
AcDbBlockBegin
2
*PAPER_SPACE
70
0
10
0.0
20
0.0
30
0.0
3
*PAPER_SPACE
1

0
ENDBLK
5
21
100
AcDbEntity
8
0
100
AcDbBlockEnd
0
ENDSEC
0
SECTION
2
ENTITIES
0
LINE
5
209
100
AcDbEntity
8
0
100
AcDbLine
62
7
6
CONTINUOUS
10
0.0000000000
20
0.0000000000
11
0.0000000000
21
297.0000000000
0
LINE
5
20A
100
AcDbEntity
8
0
100
AcDbLine
62
7
6
CONTINUOUS
10
0.0000000000
20
0.0000000000
11
420.0000000000
21
0.0000000000
0
LINE
5
20B
100
AcDbEntity
8
0
100
AcDbLine
62
7
6
CONTINUOUS
10
0.0000000000
20
297.0000000000
11
420.0000000000
21
297.0000000000
0
LINE
5
20C
100
AcDbEntity
8
0
100
AcDbLine
62
7
6
CONTINUOUS
10
420.0000000000
20
0.0000000000
11
420.0000000000
21
297.0000000000
0
LINE
5
20D
100
AcDbEntity
8
0
100
AcDbLine
62
7
6
CONTINUOUS
10
93.1930842524
20
39.0226479338
11
82.1930842524
21
39.0226479338
0
LINE
5
20E
100
AcDbEntity
8
0
100
AcDbLine
62
7
6
CONTINUOUS
10
87.1190591038
20
111.9270761397
11
68.3675709179
21
104.1599554185
0
LINE
5
20F
100
AcDbEntity
8
0
100
AcDbLine
62
7
6
CONTINUOUS
10
93.6930842524
20
39.5226479338
11
81.6930842524
21
39.5226479338
0
LINE
5
210
100
AcDbEntity
8
0
100
AcDbLine
62
7
6
CONTINUOUS
10
76.7558190218
20
105.4243618471
11
76.3510191396
21
105.1046621984
0
LINE
5
211
100
AcDbEntity
8
0
100
AcDbLine
62
7
6
CONTINUOUS
10
77.0084095237
20
105.5701950413
11
76.7558190218
21
105.4243618471
0
LINE
5
212
100
AcDbEntity
8
0
100
AcDbLine
62
7
6
CONTINUOUS
10
75.1771267590
20
104.5129034442
11
74.7982406449
21
104.2941534442
0
LINE
5
213
100
AcDbEntity
8
0
100
AcDbLine
62
7
6
CONTINUOUS
10
73.9141731656
20
103.7837368471
11
73.3458439944
21
103.4556118471
0
LINE
5
214
100
AcDbEntity
8
0
100
AcDbLine
62
7
6
CONTINUOUS
10
71.4514134236
20
102.3618618471
11
70.8830842524
21
102.0337368471
0
LINE
5
215
100
AcDbEntity
8
0
100
AcDbLine
62
7
6
CONTINUOUS
10
76.8788414062
20
105.0654472153
11
77.1314322694
21
105.2112806181
0
LINE
5
216
100
AcDbEntity
8
0
100
AcDbLine
62
7
6
CONTINUOUS
10
76.1550303495
20
104.1316247406
11
76.4707690189
21
104.3139165463
0
LINE
5
217
100
AcDbEntity
8
0
100
AcDbLine
62
7
6
CONTINUOUS
10
77.4245296759
20
105.7244537955
11
77.0084095237
21
105.5701950413
0
LINE
5
218
100
AcDbEntity
8
0
100
AcDbLine
62
7
6
CONTINUOUS
10
77.1314322694
20
105.2112806181
11
77.4844049769
21
105.3290811781
0
LINE
5
219
100
AcDbEntity
8
0
100
AcDbLine
62
7
6
CONTINUOUS
10
67.5557767677
20
103.3481612683
11
60.0264250481
21
85.1706982309
0
LINE
5
21A
100
AcDbEntity
8
0
100
AcDbLine
62
7
6
CONTINUOUS
10
68.7489484124
20
98.3114279299
11
68.5870151663
21
98.1096329470
0
LINE
5
21B
100
AcDbEntity
8
0
100
AcDbLine
62
7
6
CONTINUOUS
10
67.9121530843
20
96.3400616766
11
67.7502202836
21
96.1382677430
0
LINE
5
21C
100
AcDbEntity
8
0
100
AcDbLine
62
7
6
CONTINUOUS
10
70.0610323322
20
97.8085866721
11
69.8990995315
21
97.6067927384
0
LINE
5
21D
100
AcDbEntity
8
0
100
AcDbLine
62
7
6
CONTINUOUS
10
70.2868866363
20
97.4421868784
11
70.4293593809
21
97.5981357929
0
LINE
5
21E
100
AcDbEntity
8
0
100
AcDbLine
62
7
6
CONTINUOUS
10
70.0276517735
20
97.0111636518
11
70.1701245182
21
97.1671125663
0
LINE
5
21F
100
AcDbEntity
8
0
100
AcDbLine
62
7
6
CONTINUOUS
10
68.9942627725
20
97.9908731554
11
69.1172750157
21
98.1009760014
0
LINE
5
220
100
AcDbEntity
8
0
100
AcDbLine
62
7
6
CONTINUOUS
10
68.0928362604
20
96.0469412121
11
68.2158485035
21
96.1570440581
0
LINE
5
221
100
AcDbEntity
8
0
100
AcDbLine
62
7
6
CONTINUOUS
10
69.7823374134
20
97.3317184263
11
69.6593251702
21
97.2216155803
0
LINE
5
222
100
AcDbEntity
8
0
100
AcDbLine
62
7
6
CONTINUOUS
10
76.6003371363
20
104.8186643724
11
76.8788414062
21
105.0654472153
0
LINE
5
223
100
AcDbEntity
8
0
100
AcDbLine
62
7
6
CONTINUOUS
10
84.7447509937
20
105.9526479398
11
85.0580842524
21
106.1526479159
0
LINE
5
224
100
AcDbEntity
8
0
100
AcDbLine
62
7
6
CONTINUOUS
10
70.2681362610
20
97.9371012766
11
70.0610323322
21
97.8085866721
0
LINE
5
225
100
AcDbEntity
8
0
100
AcDbLine
62
7
6
CONTINUOUS
10
69.8205482902
20
96.8826500966
11
70.0276517735
21
97.0111636518
0
LINE
5
226
100
AcDbEntity
8
0
100
AcDbLine
62
7
6
CONTINUOUS
10
79.5194545924
20
103.4084374022
11
77.7513196339
21
102.3876042079
0
LINE
5
227
100
AcDbEntity
8
0
100
AcDbLine
62
7
6
CONTINUOUS
10
72.6330842524
20
99.0026479338
11
73.0119703665
21
99.2213979338
0
LINE
5
228
100
AcDbEntity
8
0
100
AcDbLine
62
7
6
CONTINUOUS
10
73.8960379361
20
99.7318145831
11
74.4012193915
21
100.0234812324
0
LINE
5
229
100
AcDbEntity
8
0
100
AcDbLine
62
7
6
CONTINUOUS
10
75.2852870515
20
100.5338979338
11
75.6641731656
21
100.7526479338
0
LINE
5
22A
100
AcDbEntity
8
0
100
AcDbLine
62
7
6
CONTINUOUS
10
76.5482406449
20
101.2630645309
11
76.9271267590
21
101.4818145309
0
LINE
5
22B
100
AcDbEntity
8
0
100
AcDbLine
62
7
6
CONTINUOUS
10
77.4323084855
20
101.7734813367
11
79.7056248091
21
103.0859811281
0
LINE
5
22C
100
AcDbEntity
8
0
100
AcDbLine
62
7
6
CONTINUOUS
10
70.4293593809
20
97.5981357929
11
70.6170028082
21
97.6808043290
0
LINE
5
22D
100
AcDbEntity
8
0
100
AcDbLine
62
7
6
CONTINUOUS
10
84.6664175110
20
106.4526478802
11
84.4314175110
21
106.3526478921
0
LINE
5
22E
100
AcDbEntity
8
0
100
AcDbLine
62
7
6
CONTINUOUS
10
69.0206830799
20
98.4125071751
11
68.7489484124
21
98.3114279299
0
LINE
5
22F
100
AcDbEntity
8
0
100
AcDbLine
62
7
6
CONTINUOUS
10
87.9564177351
20
104.3526479204
11
87.6430842524
21
104.2526479323
0
LINE
5
230
100
AcDbEntity
8
0
100
AcDbLine
62
7
6
CONTINUOUS
10
81.6930842524
20
39.5226479338
11
82.1930842524
21
39.0226479338
0
LINE
5
231
100
AcDbEntity
8
0
100
AcDbLine
62
7
6
CONTINUOUS
10
68.5870151663
20
98.1096329470
11
68.4897135497
21
97.8804047033
0
LINE
5
232
100
AcDbEntity
8
0
100
AcDbLine
62
7
6
CONTINUOUS
10
67.7502202836
20
96.1382677430
11
67.2831718113
21
95.0379704945
0
LINE
5
233
100
AcDbEntity
8
0
100
AcDbLine
62
7
6
CONTINUOUS
10
67.1274886902
20
94.6712040454
11
67.0107265722
21
94.3961297333
0
LINE
5
234
100
AcDbEntity
8
0
100
AcDbLine
62
7
6
CONTINUOUS
10
66.4658367620
20
93.1124497850
11
66.3490746439
21
92.8373754729
0
LINE
5
235
100
AcDbEntity
8
0
100
AcDbLine
62
7
6
CONTINUOUS
10
65.4538984795
20
90.7284725881
11
65.2982155812
21
90.3617066638
0
LINE
5
236
100
AcDbEntity
8
0
100
AcDbLine
62
7
6
CONTINUOUS
10
64.5198015349
20
88.5278780912
11
64.4224998069
21
88.2986495852
0
LINE
5
237
100
AcDbEntity
8
0
100
AcDbLine
62
7
6
CONTINUOUS
10
63.7024667083
20
86.6023579063
11
63.2354182360
21
85.5020606578
0
LINE
5
238
100
AcDbEntity
8
0
100
AcDbLine
62
7
6
CONTINUOUS
10
63.6753362747
20
85.6399634199
11
64.0450829634
21
86.5110320313
0
LINE
5
239
100
AcDbEntity
8
0
100
AcDbLine
62
7
6
CONTINUOUS
10
67.7230898500
20
95.1758732566
11
68.0928362604
21
96.0469412121
0
LINE
5
23A
100
AcDbEntity
8
0
100
AcDbLine
62
7
6
CONTINUOUS
10
64.8102869117
20
88.1340437251
11
64.9270490298
21
88.4091180373
0
LINE
5
23B
100
AcDbEntity
8
0
100
AcDbLine
62
7
6
CONTINUOUS
10
68.8775006545
20
97.7157988433
11
68.9942627725
21
97.9908731554
0
LINE
5
23C
100
AcDbEntity
8
0
100
AcDbLine
62
7
6
CONTINUOUS
10
65.3669670686
20
88.5470207994
11
65.4837291866
21
88.8220951115
0
LINE
5
23D
100
AcDbEntity
8
0
100
AcDbLine
62
7
6
CONTINUOUS
10
69.4341808113
20
98.1287759175
11
69.5509429294
21
98.4038502296
0
LINE
5
23E
100
AcDbEntity
8
0
100
AcDbLine
62
7
6
CONTINUOUS
10
69.8990995315
20
97.6067927384
11
69.7823374134
21
97.3317184263
0
LINE
5
23F
100
AcDbEntity
8
0
100
AcDbLine
62
7
6
CONTINUOUS
10
69.0623042034
20
95.6354264851
11
68.6925577931
21
94.7643585296
0
LINE
5
240
100
AcDbEntity
8
0
100
AcDbLine
62
7
6
CONTINUOUS
10
65.8318857887
20
88.0250376203
11
65.7151236707
21
87.7499633082
0
LINE
5
241
100
AcDbEntity
8
0
100
AcDbLine
62
7
6
CONTINUOUS
10
65.0145509065
20
86.0995173043
11
64.6448042178
21
85.2284486930
0
LINE
5
242
100
AcDbEntity
8
0
100
AcDbLine
62
7
6
CONTINUOUS
10
67.8091717527
20
91.7847522461
11
67.5367267363
21
91.1429120096
0
LINE
5
243
100
AcDbEntity
8
0
100
AcDbLine
62
7
6
CONTINUOUS
10
65.0325913226
20
85.0638428329
11
65.3828776768
21
85.8890657693
0
LINE
5
244
100
AcDbEntity
8
0
100
AcDbLine
62
7
6
CONTINUOUS
10
66.1029107755
20
87.5853574482
11
66.2196728935
21
87.8604317603
0
LINE
5
245
100
AcDbEntity
8
0
100
AcDbLine
62
7
6
CONTINUOUS
10
69.0803448979
20
94.5997526696
11
69.4111707507
21
95.3791295375
0
LINE
5
246
100
AcDbEntity
8
0
100
AcDbLine
62
7
6
CONTINUOUS
10
70.1701245182
20
97.1671125663
11
70.2868866363
21
97.4421868784
0
LINE
5
247
100
AcDbEntity
8
0
100
AcDbLine
62
7
6
CONTINUOUS
10
67.8598827475
20
91.0057404212
11
68.1323277639
21
91.6475806577
0
LINE
5
248
100
AcDbEntity
8
0
100
AcDbLine
62
7
6
CONTINUOUS
10
67.5547672986
20
90.1072376310
11
67.2044809443
21
89.2820146946
0
LINE
5
249
100
AcDbEntity
8
0
100
AcDbLine
62
7
6
CONTINUOUS
10
76.3510191396
20
105.1046621984
11
76.1728967140
21
104.8298465126
0
LINE
5
24A
100
AcDbEntity
8
0
100
AcDbLine
62
7
6
CONTINUOUS
10
64.6817344470
20
88.7296722872
11
64.5198015349
21
88.5278780912
0
LINE
5
24B
100
AcDbEntity
8
0
100
AcDbLine
62
7
6
CONTINUOUS
10
71.3265257567
20
96.2975059111
11
71.4884590085
21
96.4993008917
0
LINE
5
24C
100
AcDbEntity
8
0
100
AcDbLine
62
7
6
CONTINUOUS
10
63.8643996761
20
86.8041522335
11
63.7024667083
21
86.6023579063
0
LINE
5
24D
100
AcDbEntity
8
0
100
AcDbLine
62
7
6
CONTINUOUS
10
65.9938187008
20
88.2268318163
11
65.8318857887
21
88.0250376203
0
LINE
5
24E
100
AcDbEntity
8
0
100
AcDbLine
62
7
6
CONTINUOUS
10
71.1006718584
20
96.6639067709
11
70.9581991138
21
96.5079578564
0
LINE
5
24F
100
AcDbEntity
8
0
100
AcDbLine
62
7
6
CONTINUOUS
10
66.2196728935
20
87.8604317603
11
66.3621454155
21
88.0163801501
0
LINE
5
250
100
AcDbEntity
8
0
100
AcDbLine
62
7
6
CONTINUOUS
10
64.9270490298
20
88.4091180373
11
65.0500612730
21
88.5192208833
0
LINE
5
251
100
AcDbEntity
8
0
100
AcDbLine
62
7
6
CONTINUOUS
10
71.0353305707
20
96.1505806047
11
71.3265257567
21
96.2975059111
0
LINE
5
252
100
AcDbEntity
8
0
100
AcDbLine
62
7
6
CONTINUOUS
10
69.6593251702
20
97.2216155803
11
69.4716817429
21
97.1389470442
0
LINE
5
253
100
AcDbEntity
8
0
100
AcDbLine
62
7
6
CONTINUOUS
10
68.1838881973
20
96.4411419711
11
67.9121530843
21
96.3400616766
0
LINE
5
254
100
AcDbEntity
8
0
100
AcDbLine
62
7
6
CONTINUOUS
10
91.7164172869
20
104.3526479204
11
91.4030842524
21
104.2526479323
0
LINE
5
255
100
AcDbEntity
8
0
100
AcDbLine
62
7
6
CONTINUOUS
10
64.8165370368
20
87.9690722591
11
64.8102869117
21
88.1340437251
0
LINE
5
256
100
AcDbEntity
8
0
100
AcDbLine
62
7
6
CONTINUOUS
10
65.0083007814
20
86.2644887704
11
65.0145509065
21
86.0995173043
0
LINE
5
257
100
AcDbEntity
8
0
100
AcDbLine
62
7
6
CONTINUOUS
10
64.4224998069
20
88.2986495852
11
64.4092895419
21
88.0878323130
0
LINE
5
258
100
AcDbEntity
8
0
100
AcDbLine
62
7
6
CONTINUOUS
10
67.2023509450
20
87.6597340624
11
67.1891407913
21
87.4489170525
0
LINE
5
259
100
AcDbEntity
8
0
100
AcDbLine
62
7
6
CONTINUOUS
10
65.3828776768
20
85.8890657693
11
65.4155482763
21
86.1457287165
0
LINE
5
25A
100
AcDbEntity
8
0
100
AcDbLine
62
7
6
CONTINUOUS
10
67.5769279414
20
87.2843111733
11
67.6095984796
21
87.5409739917
0
LINE
5
25B
100
AcDbEntity
8
0
100
AcDbLine
62
7
6
CONTINUOUS
10
70.4925704032
20
96.4891805112
11
70.3758082851
21
96.2141061990
0
LINE
5
25C
100
AcDbEntity
8
0
100
AcDbLine
62
7
6
CONTINUOUS
10
66.4253567718
20
86.9074256554
11
66.3085946537
21
86.6323513432
0
LINE
5
25D
100
AcDbEntity
8
0
100
AcDbLine
62
7
6
CONTINUOUS
10
67.4435451794
20
89.1264313861
11
67.8327523139
21
90.0433459348
0
LINE
5
25E
100
AcDbEntity
8
0
100
AcDbLine
62
7
6
CONTINUOUS
10
71.2563545341
20
97.0306721707
11
71.1006718584
21
96.6639067709
0
LINE
5
25F
100
AcDbEntity
8
0
100
AcDbLine
62
7
6
CONTINUOUS
10
67.1891407913
20
87.4489170525
11
67.0334578930
21
87.0821511282
0
LINE
5
260
100
AcDbEntity
8
0
100
AcDbLine
62
7
6
CONTINUOUS
10
66.2730842524
20
84.2126479338
11
66.3898463705
21
84.4877222459
0
LINE
5
261
100
AcDbEntity
8
0
100
AcDbLine
62
7
6
CONTINUOUS
10
67.4212450431
20
86.9175452489
11
67.5769279414
21
87.2843111733
0
LINE
5
262
100
AcDbEntity
8
0
100
AcDbLine
62
7
6
CONTINUOUS
10
68.0245160236
20
88.3387626156
11
68.1412781417
21
88.6138369278
0
LINE
5
263
100
AcDbEntity
8
0
100
AcDbLine
62
7
6
CONTINUOUS
10
68.6861679518
20
89.8975168761
11
68.8029300699
21
90.1725911882
0
LINE
5
264
100
AcDbEntity
8
0
100
AcDbLine
62
7
6
CONTINUOUS
10
69.6981064570
20
92.2814945976
11
69.8537891326
21
92.6482599973
0
LINE
5
265
100
AcDbEntity
8
0
100
AcDbLine
62
7
6
CONTINUOUS
10
70.3208378277
20
93.7485577705
11
70.4375999458
21
94.0236320826
0
LINE
5
266
100
AcDbEntity
8
0
100
AcDbLine
62
7
6
CONTINUOUS
10
70.9241084742
20
95.1697743502
11
71.0603310937
21
95.4906947308
0
LINE
5
267
100
AcDbEntity
8
0
100
AcDbLine
62
7
6
CONTINUOUS
10
71.4884590085
20
96.4993008917
11
71.6441416841
21
96.8660662914
0
LINE
5
268
100
AcDbEntity
8
0
100
AcDbLine
62
7
6
CONTINUOUS
10
76.4853621555
20
104.5803068808
11
76.6003371363
21
104.8186643724
0
LINE
5
269
100
AcDbEntity
8
0
100
AcDbLine
62
7
6
CONTINUOUS
10
84.8230842524
20
106.6526478563
11
84.6664175110
21
106.4526478802
0
LINE
5
26A
100
AcDbEntity
8
0
100
AcDbLine
62
7
6
CONTINUOUS
10
67.2593121253
20
86.7157510553
11
67.4212450431
21
86.9175452489
0
LINE
5
26B
100
AcDbEntity
8
0
100
AcDbLine
62
7
6
CONTINUOUS
10
65.9604381422
20
87.4294087960
11
66.1029107755
21
87.5853574482
0
LINE
5
26C
100
AcDbEntity
8
0
100
AcDbLine
62
7
6
CONTINUOUS
10
67.0334578930
20
87.0821511282
11
66.8909853710
21
86.9262027383
0
LINE
5
26D
100
AcDbEntity
8
0
100
AcDbLine
62
7
6
CONTINUOUS
10
64.0450829634
20
86.5110320313
11
64.1680952066
21
86.6211348773
0
LINE
5
26E
100
AcDbEntity
8
0
100
AcDbLine
62
7
6
CONTINUOUS
10
65.7151236707
20
87.7499633082
11
65.5921114275
21
87.6398604621
0
LINE
5
26F
100
AcDbEntity
8
0
100
AcDbLine
62
7
6
CONTINUOUS
10
88.1914177351
20
104.5526479666
11
87.9564177351
21
104.3526479204
0
LINE
5
270
100
AcDbEntity
8
0
100
AcDbLine
62
7
6
CONTINUOUS
10
88.0347507696
20
103.7526479307
11
88.3480842524
21
103.9526479331
0
LINE
5
271
100
AcDbEntity
8
0
100
AcDbLine
62
7
6
CONTINUOUS
10
91.7947512179
20
103.7526479307
11
92.1080842524
21
103.9526479331
0
LINE
5
272
100
AcDbEntity
8
0
100
AcDbLine
62
7
6
CONTINUOUS
10
66.2009225183
20
88.3553461585
11
65.9938187008
21
88.2268318163
0
LINE
5
273
100
AcDbEntity
8
0
100
AcDbLine
62
7
6
CONTINUOUS
10
65.7533343247
20
87.3008944538
11
65.9604381422
21
87.4294087960
0
LINE
5
274
100
AcDbEntity
8
0
100
AcDbLine
62
7
6
CONTINUOUS
10
93.6930842524
20
52.0226479338
11
81.6930842524
21
52.0226479338
0
LINE
5
275
100
AcDbEntity
8
0
100
AcDbLine
62
7
6
CONTINUOUS
10
67.2821439802
20
65.3577425861
11
60.0264250481
21
82.8745976367
0
LINE
5
276
100
AcDbEntity
8
0
100
AcDbLine
62
7
6
CONTINUOUS
10
68.4897135497
20
97.8804047033
11
68.4765031733
21
97.6695871688
0
LINE
5
277
100
AcDbEntity
8
0
100
AcDbLine
62
7
6
CONTINUOUS
10
71.6441416841
20
96.8660662914
11
71.6768121109
21
97.1227288475
0
LINE
5
278
100
AcDbEntity
8
0
100
AcDbLine
62
7
6
CONTINUOUS
10
76.1728967140
20
104.8298465126
11
76.0692420032
21
104.4260481266
0
LINE
5
279
100
AcDbEntity
8
0
100
AcDbLine
62
7
6
CONTINUOUS
10
78.0834225575
20
104.7290522938
11
77.2461382688
21
102.0959376108
0
LINE
5
27A
100
AcDbEntity
8
0
100
AcDbLine
62
7
6
CONTINUOUS
10
91.9514172869
20
104.5526479666
11
91.7164172869
21
104.3526479204
0
LINE
5
27B
100
AcDbEntity
8
0
100
AcDbLine
62
7
6
CONTINUOUS
10
66.9681168280
20
86.5688254866
11
67.2593121253
21
86.7157510553
0
LINE
5
27C
100
AcDbEntity
8
0
100
AcDbLine
62
7
6
CONTINUOUS
10
66.3621454155
20
88.0163801501
11
66.5497888428
21
88.0990486862
0
LINE
5
27D
100
AcDbEntity
8
0
100
AcDbLine
62
7
6
CONTINUOUS
10
65.5921114275
20
87.6398604621
11
65.4044680002
21
87.5571919261
0
LINE
5
27E
100
AcDbEntity
8
0
100
AcDbLine
62
7
6
CONTINUOUS
10
64.9534694485
20
88.8307523193
11
64.6817344470
21
88.7296722872
0
LINE
5
27F
100
AcDbEntity
8
0
100
AcDbLine
62
7
6
CONTINUOUS
10
64.1361346220
20
86.9052321345
11
63.8643996761
21
86.8041522335
0
LINE
5
280
100
AcDbEntity
8
0
100
AcDbLine
62
7
6
CONTINUOUS
10
102.6930842524
20
57.0226479338
11
72.6930842524
21
57.0226479338
0
LINE
5
281
100
AcDbEntity
8
0
100
AcDbLine
62
7
6
CONTINUOUS
10
64.4092895419
20
88.0878323130
11
64.4607104610
21
87.8495807308
0
LINE
5
282
100
AcDbEntity
8
0
100
AcDbLine
62
7
6
CONTINUOUS
10
68.8837507796
20
97.5508273772
11
68.8775006545
21
97.7157988433
0
LINE
5
283
100
AcDbEntity
8
0
100
AcDbLine
62
7
6
CONTINUOUS
10
69.0560540783
20
95.8003979512
11
69.0623042034
21
95.6354264851
0
LINE
5
284
100
AcDbEntity
8
0
100
AcDbLine
62
7
6
CONTINUOUS
10
71.2695649105
20
97.2414897052
11
71.2563545341
21
97.0306721707
0
LINE
5
285
100
AcDbEntity
8
0
100
AcDbLine
62
7
6
CONTINUOUS
10
74.7982406449
20
104.2941534442
11
74.6799927975
21
103.6239647237
0
LINE
5
286
100
AcDbEntity
8
0
100
AcDbLine
62
7
6
CONTINUOUS
10
74.9778652067
20
103.1080345767
11
75.0961129498
21
103.7782234779
0
LINE
5
287
100
AcDbEntity
8
0
100
AcDbLine
62
7
6
CONTINUOUS
10
77.7513196339
20
102.3876042079
11
78.5108626186
21
104.7178699449
0
LINE
5
288
100
AcDbEntity
8
0
100
AcDbLine
62
7
6
CONTINUOUS
10
85.0580842524
20
106.1526479159
11
85.2930842524
21
106.5526478683
0
LINE
5
289
100
AcDbEntity
8
0
100
AcDbLine
62
7
6
CONTINUOUS
10
88.3480842524
20
103.9526479331
11
88.6614177351
21
104.3526479204
0
LINE
5
28A
100
AcDbEntity
8
0
100
AcDbLine
62
7
6
CONTINUOUS
10
65.4155482763
20
86.1457287165
11
65.2994961174
21
86.4114144775
0
LINE
5
28B
100
AcDbEntity
8
0
100
AcDbLine
62
7
6
CONTINUOUS
10
64.8874183460
20
87.7766664830
11
64.8165370368
21
87.9690722591
0
LINE
5
28C
100
AcDbEntity
8
0
100
AcDbLine
62
7
6
CONTINUOUS
10
67.1314695905
20
87.8521398577
11
67.2023509450
21
87.6597340624
0
LINE
5
28D
100
AcDbEntity
8
0
100
AcDbLine
62
7
6
CONTINUOUS
10
67.6095984796
20
87.5409739917
11
67.5581775435
21
87.7792255811
0
LINE
5
28E
100
AcDbEntity
8
0
100
AcDbLine
62
7
6
CONTINUOUS
10
72.1463391395
20
61.4877330222
11
72.6930842524
21
57.0226479338
0
LINE
5
28F
100
AcDbEntity
8
0
100
AcDbLine
62
7
6
CONTINUOUS
10
76.4707690189
20
104.3139165463
11
76.4853621555
21
104.5803068808
0
LINE
5
290
100
AcDbEntity
8
0
100
AcDbLine
62
7
6
CONTINUOUS
10
88.3480842524
20
104.8526479308
11
88.1914177351
21
104.5526479666
0
LINE
5
291
100
AcDbEntity
8
0
100
AcDbLine
62
7
6
CONTINUOUS
10
92.1080842524
20
103.9526479331
11
92.4214172869
21
104.3526479204
0
LINE
5
292
100
AcDbEntity
8
0
100
AcDbLine
62
7
6
CONTINUOUS
10
64.9179591377
20
86.4110488715
11
65.0083007814
21
86.2644887704
0
LINE
5
293
100
AcDbEntity
8
0
100
AcDbLine
62
7
6
CONTINUOUS
10
64.4607104610
20
87.8495807308
11
64.6413938597
21
87.5564607909
0
LINE
5
294
100
AcDbEntity
8
0
100
AcDbLine
62
7
6
CONTINUOUS
10
68.4765031733
20
97.6695871688
11
68.5279244264
21
97.4313363736
0
LINE
5
295
100
AcDbEntity
8
0
100
AcDbLine
62
7
6
CONTINUOUS
10
69.3986705005
20
95.7090724696
11
69.3472496927
21
95.9473243142
0
LINE
5
296
100
AcDbEntity
8
0
100
AcDbLine
62
7
6
CONTINUOUS
10
78.5108626186
20
104.7178699449
11
78.5254561165
21
104.9842604880
0
LINE
5
297
100
AcDbEntity
8
0
100
AcDbLine
62
7
6
CONTINUOUS
10
84.9014175110
20
106.9526478206
11
84.8230842524
21
106.6526478563
0
LINE
5
298
100
AcDbEntity
8
0
100
AcDbLine
62
7
6
CONTINUOUS
10
85.2930842524
20
106.5526478683
11
85.3714175110
21
106.8526478325
0
LINE
5
299
100
AcDbEntity
8
0
100
AcDbLine
62
7
6
CONTINUOUS
10
88.6614177351
20
104.3526479204
11
88.8180842524
21
104.7526479428
0
LINE
5
29A
100
AcDbEntity
8
0
100
AcDbLine
62
7
6
CONTINUOUS
10
92.1080842524
20
104.8526479308
11
91.9514172869
21
104.5526479666
0
LINE
5
29B
100
AcDbEntity
8
0
100
AcDbLine
62
7
6
CONTINUOUS
10
69.7076454450
20
64.1231094508
11
69.1299030452
21
64.1231094508
0
LINE
5
29C
100
AcDbEntity
8
0
100
AcDbLine
62
7
6
CONTINUOUS
10
105.6785230090
20
64.1231094508
11
106.2562654595
21
64.1231094508
0
LINE
5
29D
100
AcDbEntity
8
0
100
AcDbLine
62
7
6
CONTINUOUS
10
65.2994961174
20
86.4114144775
11
65.0993524399
21
86.6586888736
0
LINE
5
29E
100
AcDbEntity
8
0
100
AcDbLine
62
7
6
CONTINUOUS
10
67.5581775435
20
87.7792255811
11
67.3774941221
21
88.0723455306
0
LINE
5
29F
100
AcDbEntity
8
0
100
AcDbLine
62
7
6
CONTINUOUS
10
68.9546320888
20
97.3584216011
11
68.8837507796
21
97.5508273772
0
LINE
5
2A0
100
AcDbEntity
8
0
100
AcDbLine
62
7
6
CONTINUOUS
10
71.6768121109
20
97.1227288475
11
71.6253912862
21
97.3609806992
0
LINE
5
2A1
100
AcDbEntity
8
0
100
AcDbLine
62
7
6
CONTINUOUS
10
73.3458439944
20
103.4556118471
11
73.9624584923
21
100.2001042079
0
LINE
5
2A2
100
AcDbEntity
8
0
100
AcDbLine
62
7
6
CONTINUOUS
10
74.4012193915
20
100.0234812324
11
73.9076274326
21
102.9200743892
0
LINE
5
2A3
100
AcDbEntity
8
0
100
AcDbLine
62
7
6
CONTINUOUS
10
78.0607812947
20
105.0599336654
11
78.0834225575
21
104.7290522938
0
LINE
5
2A4
100
AcDbEntity
8
0
100
AcDbLine
62
7
6
CONTINUOUS
10
81.6930842524
20
52.0226479338
11
81.6930842524
21
39.5226479338
0
LINE
5
2A5
100
AcDbEntity
8
0
100
AcDbLine
62
7
6
CONTINUOUS
10
92.4214172869
20
104.3526479204
11
92.5780842524
21
104.7526479428
0
LINE
5
2A6
100
AcDbEntity
8
0
100
AcDbLine
62
7
6
CONTINUOUS
10
66.9764968184
20
88.0261344000
11
67.1314695905
21
87.8521398577
0
LINE
5
2A7
100
AcDbEntity
8
0
100
AcDbLine
62
7
6
CONTINUOUS
10
71.1986835560
20
97.4338955005
11
71.2695649105
21
97.2414897052
0
LINE
5
2A8
100
AcDbEntity
8
0
100
AcDbLine
62
7
6
CONTINUOUS
10
82.4730842524
20
108.3526479338
11
82.4730842524
21
103.6526479338
0
LINE
5
2A9
100
AcDbEntity
8
0
100
AcDbLine
62
7
6
CONTINUOUS
10
82.9430842524
20
103.6526479338
11
82.9430842524
21
105.7526479636
0
LINE
5
2AA
100
AcDbEntity
8
0
100
AcDbLine
62
7
6
CONTINUOUS
10
82.9430842524
20
106.3526478921
11
82.9430842524
21
107.8526479934
0
LINE
5
2AB
100
AcDbEntity
8
0
100
AcDbLine
62
7
6
CONTINUOUS
10
84.9014175110
20
107.2526480649
11
84.9014175110
21
106.9526478206
0
LINE
5
2AC
100
AcDbEntity
8
0
100
AcDbLine
62
7
6
CONTINUOUS
10
88.8180842524
20
104.7526479428
11
88.8964177351
21
105.2526478832
0
LINE
5
2AD
100
AcDbEntity
8
0
100
AcDbLine
62
7
6
CONTINUOUS
10
88.4264177351
20
105.2526478832
11
88.3480842524
21
104.8526479308
0
LINE
5
2AE
100
AcDbEntity
8
0
100
AcDbLine
62
7
6
CONTINUOUS
10
64.7435259198
20
86.5391974765
11
64.9179591377
21
86.4110488715
0
LINE
5
2AF
100
AcDbEntity
8
0
100
AcDbLine
62
7
6
CONTINUOUS
10
65.0993524399
20
86.6586888736
11
64.9249192220
21
86.7868374786
0
LINE
5
2B0
100
AcDbEntity
8
0
100
AcDbLine
62
7
6
CONTINUOUS
10
65.0618516894
20
87.6485176700
11
64.8874183460
21
87.7766664830
0
LINE
5
2B1
100
AcDbEntity
8
0
100
AcDbLine
62
7
6
CONTINUOUS
10
67.3774941221
20
88.0723455306
11
67.1578901206
21
88.2737744021
0
LINE
5
2B2
100
AcDbEntity
8
0
100
AcDbLine
62
7
6
CONTINUOUS
10
68.9657127130
20
95.9469587081
11
69.0560540783
21
95.8003979512
0
LINE
5
2B3
100
AcDbEntity
8
0
100
AcDbLine
62
7
6
CONTINUOUS
10
68.5279244264
20
97.4313363736
11
68.7086076024
21
97.1382159090
0
LINE
5
2B4
100
AcDbEntity
8
0
100
AcDbLine
62
7
6
CONTINUOUS
10
76.0692420032
20
104.4260481266
11
76.1550303495
21
104.1316247406
0
LINE
5
2B5
100
AcDbEntity
8
0
100
AcDbLine
62
7
6
CONTINUOUS
10
85.3714175110
20
106.8526478325
11
85.3714175110
21
107.2526480649
0
LINE
5
2B6
100
AcDbEntity
8
0
100
AcDbLine
62
7
6
CONTINUOUS
10
86.0764175110
20
108.3526479338
11
86.0764175110
21
105.2526478832
0
LINE
5
2B7
100
AcDbEntity
8
0
100
AcDbLine
62
7
6
CONTINUOUS
10
86.5464177351
20
105.2526478832
11
86.5464177351
21
108.3526479338
0
LINE
5
2B8
100
AcDbEntity
8
DEFAULT_1
100
AcDbLine
62
2
6
CENTER
10
87.6930842524
20
84.0226479338
11
87.6930842524
21
66.0226479338
0
LINE
5
2B9
100
AcDbEntity
8
DEFAULT_1
100
AcDbLine
62
2
6
CENTER
10
87.6930842524
20
36.0226479338
11
87.6930842524
21
60.0226479338
0
LINE
5
2BA
100
AcDbEntity
8
DEFAULT_1
100
AcDbLine
62
2
6
CENTER
10
87.6930842524
20
84.0226479338
11
87.6930842524
21
102.0226479338
0
LINE
5
2BB
100
AcDbEntity
8
0
100
AcDbLine
62
7
6
CONTINUOUS
10
92.5780842524
20
104.7526479428
11
92.6564172869
21
105.2526478832
0
LINE
5
2BC
100
AcDbEntity
8
0
100
AcDbLine
62
7
6
CONTINUOUS
10
92.1864172869
20
105.2526478832
11
92.1080842524
21
104.8526479308
0
LINE
5
2BD
100
AcDbEntity
8
0
100
AcDbLine
62
7
6
CONTINUOUS
10
63.2354182360
20
85.5020606578
11
66.2730842524
21
84.2126479338
0
LINE
5
2BE
100
AcDbEntity
8
0
100
AcDbLine
62
7
6
CONTINUOUS
10
66.3898463705
20
84.4877222459
11
65.0325913226
21
85.0638428329
0
LINE
5
2BF
100
AcDbEntity
8
0
100
AcDbLine
62
7
6
CONTINUOUS
10
64.6448042178
20
85.2284486930
11
63.6753362747
21
85.6399634199
0
LINE
5
2C0
100
AcDbEntity
8
0
100
AcDbLine
62
7
6
CONTINUOUS
10
64.6413938597
20
87.5564607909
11
64.8804582061
21
87.4008777447
0
LINE
5
2C1
100
AcDbEntity
8
0
100
AcDbLine
62
7
6
CONTINUOUS
10
67.2044809443
20
89.2820146946
11
65.6345818782
21
90.4353526483
0
LINE
5
2C2
100
AcDbEntity
8
0
100
AcDbLine
62
7
6
CONTINUOUS
10
68.1412781417
20
88.6138369278
11
67.4435451794
21
89.1264313861
0
LINE
5
2C3
100
AcDbEntity
8
0
100
AcDbLine
62
7
6
CONTINUOUS
10
65.2982155812
20
90.3617066638
11
68.0245160236
21
88.3387626156
0
LINE
5
2C4
100
AcDbEntity
8
0
100
AcDbLine
62
7
6
CONTINUOUS
10
69.3472496927
20
95.9473243142
11
69.1471060152
21
96.1945987102
0
LINE
5
2C5
100
AcDbEntity
8
0
100
AcDbLine
62
7
6
CONTINUOUS
10
71.6253912862
20
97.3609806992
11
71.4447080876
21
97.6541011734
0
LINE
5
2C6
100
AcDbEntity
8
0
100
AcDbLine
62
7
6
CONTINUOUS
10
70.8830842524
20
102.0337368471
11
72.6330842524
21
99.0026479338
0
LINE
5
2C7
100
AcDbEntity
8
0
100
AcDbLine
62
7
6
CONTINUOUS
10
73.0119703665
20
99.2213979338
11
71.6343107477
21
101.6075743892
0
LINE
5
2C8
100
AcDbEntity
8
0
100
AcDbLine
62
7
6
CONTINUOUS
10
92.6426498263
20
55.5157107040
11
93.6930842524
21
52.0226479338
0
LINE
5
2C9
100
AcDbEntity
8
0
100
AcDbLine
62
7
6
CONTINUOUS
10
78.5254561165
20
104.9842604880
11
78.4396674089
21
105.2786836654
0
LINE
5
2CA
100
AcDbEntity
8
0
100
AcDbLine
62
7
6
CONTINUOUS
10
88.4264177351
20
108.3526479338
11
88.4264177351
21
105.2526478832
0
LINE
5
2CB
100
AcDbEntity
8
0
100
AcDbLine
62
7
6
CONTINUOUS
10
88.8964177351
20
105.2526478832
11
88.8964177351
21
108.3526479338
0
LINE
5
2CC
100
AcDbEntity
8
0
100
AcDbLine
62
7
6
CONTINUOUS
10
89.5230842524
20
108.3526479338
11
89.5230842524
21
103.6526479338
0
LINE
5
2CD
100
AcDbEntity
8
0
100
AcDbLine
62
7
6
CONTINUOUS
10
89.9930842524
20
104.2526479323
11
89.9930842524
21
107.7526480053
0
LINE
5
2CE
100
AcDbEntity
8
0
100
AcDbLine
62
7
6
CONTINUOUS
10
82.7435186785
20
55.5157107040
11
81.6930842524
21
52.0226479338
0
LINE
5
2CF
100
AcDbEntity
8
0
100
AcDbLine
62
7
6
CONTINUOUS
10
64.5496321863
20
86.6215004833
11
64.7435259198
21
86.5391974765
0
LINE
5
2D0
100
AcDbEntity
8
0
100
AcDbLine
62
7
6
CONTINUOUS
10
64.9249192220
20
86.7868374786
11
64.6663943044
21
86.8965747955
0
LINE
5
2D1
100
AcDbEntity
8
0
100
AcDbLine
62
7
6
CONTINUOUS
10
64.8804582061
20
87.4008777447
11
65.1389831237
21
87.2911404279
0
LINE
5
2D2
100
AcDbEntity
8
0
100
AcDbLine
62
7
6
CONTINUOUS
10
65.1911140576
20
87.5936490500
11
65.0618516894
21
87.6485176700
0
LINE
5
2D3
100
AcDbEntity
8
0
100
AcDbLine
62
7
6
CONTINUOUS
10
66.7826032660
20
88.1084373300
11
66.9764968184
21
88.0261344000
0
LINE
5
2D4
100
AcDbEntity
8
0
100
AcDbLine
62
7
6
CONTINUOUS
10
69.8537891326
20
92.6482599973
11
67.1274886902
21
94.6712040454
0
LINE
5
2D5
100
AcDbEntity
8
0
100
AcDbLine
62
7
6
CONTINUOUS
10
67.0107265722
20
94.3961297333
11
69.3881606448
21
92.6294831767
0
LINE
5
2D6
100
AcDbEntity
8
0
100
AcDbLine
62
7
6
CONTINUOUS
10
71.0437105611
20
97.6078895181
11
71.1986835560
21
97.4338955005
0
LINE
5
2D7
100
AcDbEntity
8
0
100
AcDbLine
62
7
6
CONTINUOUS
10
73.9076274326
20
102.9200743892
11
75.2852870515
21
100.5338979338
0
LINE
5
2D8
100
AcDbEntity
8
0
100
AcDbLine
62
7
6
CONTINUOUS
10
75.6641731656
20
100.7526479338
11
73.9141731656
21
103.7837368471
0
LINE
5
2D9
100
AcDbEntity
8
0
100
AcDbLine
62
7
6
CONTINUOUS
10
74.6799927975
20
103.6239647237
11
74.9778652067
21
103.1080345767
0
LINE
5
2DA
100
AcDbEntity
8
0
100
AcDbLine
62
7
6
CONTINUOUS
10
75.0961129498
20
103.7782234779
11
76.5482406449
21
101.2630645309
0
LINE
5
2DB
100
AcDbEntity
8
0
100
AcDbLine
62
7
6
CONTINUOUS
10
86.0764175110
20
105.2526478832
11
86.1547509937
21
104.7526479428
0
LINE
5
2DC
100
AcDbEntity
8
0
100
AcDbLine
62
7
6
CONTINUOUS
10
92.1864172869
20
106.7526478444
11
92.1864172869
21
105.2526478832
0
LINE
5
2DD
100
AcDbEntity
8
0
100
AcDbLine
62
7
6
CONTINUOUS
10
92.6564172869
20
105.2526478832
11
92.6564172869
21
106.7526478444
0
LINE
5
2DE
100
AcDbEntity
8
0
100
AcDbLine
62
7
6
CONTINUOUS
10
93.6930842524
20
52.0226479338
11
93.6930842524
21
39.5226479338
0
LINE
5
2DF
100
AcDbEntity
8
0
100
AcDbLine
62
7
6
CONTINUOUS
10
66.3085946537
20
86.6323513432
11
66.5865797247
21
86.5684597782
0
LINE
5
2E0
100
AcDbEntity
8
0
100
AcDbLine
62
7
6
CONTINUOUS
10
65.1389831237
20
87.2911404279
11
65.4169682504
21
87.2272489940
0
LINE
5
2E1
100
AcDbEntity
8
0
100
AcDbLine
62
7
6
CONTINUOUS
10
67.1578901206
20
88.2737744021
11
66.8347341999
21
88.4109459521
0
LINE
5
2E2
100
AcDbEntity
8
0
100
AcDbLine
62
7
6
CONTINUOUS
10
67.5367267363
20
91.1429120096
11
67.8598827475
21
91.0057404212
0
LINE
5
2E3
100
AcDbEntity
8
0
100
AcDbLine
62
7
6
CONTINUOUS
10
68.7912792167
20
96.0751066573
11
68.9657127130
21
95.9469587081
0
LINE
5
2E4
100
AcDbEntity
8
0
100
AcDbLine
62
7
6
CONTINUOUS
10
69.1471060152
20
96.1945987102
11
68.9726725189
21
96.3227466594
0
LINE
5
2E5
100
AcDbEntity
8
0
100
AcDbLine
62
7
6
CONTINUOUS
10
69.1290653208
20
97.2302725258
11
68.9546320888
21
97.3584216011
0
LINE
5
2E6
100
AcDbEntity
8
0
100
AcDbLine
62
7
6
CONTINUOUS
10
71.4447080876
20
97.6541011734
11
71.2251038633
21
97.8555295202
0
LINE
5
2E7
100
AcDbEntity
8
0
100
AcDbLine
62
7
6
CONTINUOUS
10
76.9271267590
20
101.4818145309
11
75.1771267590
21
104.5129034442
0
LINE
5
2E8
100
AcDbEntity
8
0
100
AcDbLine
62
7
6
CONTINUOUS
10
77.2461382688
20
102.0959376108
11
77.4323084855
21
101.7734813367
0
LINE
5
2E9
100
AcDbEntity
8
0
100
AcDbLine
62
7
6
CONTINUOUS
10
77.9863131142
20
105.1889163377
11
78.0607812947
21
105.0599336654
0
LINE
5
2EA
100
AcDbEntity
8
0
100
AcDbLine
62
7
6
CONTINUOUS
10
85.4497509937
20
103.6526479338
11
84.7447509937
21
105.9526479398
0
LINE
5
2EB
100
AcDbEntity
8
0
100
AcDbLine
62
7
6
CONTINUOUS
10
84.2747508817
20
105.7526479636
11
84.9014175110
21
103.6526479338
0
LINE
5
2EC
100
AcDbEntity
8
0
100
AcDbLine
62
7
6
CONTINUOUS
10
84.8230842524
20
107.5526480292
11
84.9014175110
21
107.2526480649
0
LINE
5
2ED
100
AcDbEntity
8
0
100
AcDbLine
62
7
6
CONTINUOUS
10
85.3714175110
20
107.2526480649
11
85.2930842524
21
107.5526480292
0
LINE
5
2EE
100
AcDbEntity
8
0
100
AcDbLine
62
7
6
CONTINUOUS
10
86.6247507696
20
104.8526479308
11
86.5464177351
21
105.2526478832
0
LINE
5
2EF
100
AcDbEntity
8
DEFAULT_1
100
AcDbLine
62
2
6
CENTER
10
87.6930842524
20
84.0226479338
11
69.6930842524
21
84.0226479338
0
LINE
5
2F0
100
AcDbEntity
8
DEFAULT_1
100
AcDbLine
62
2
6
CENTER
10
87.6930842524
20
84.0226479338
11
105.6930842524
21
84.0226479338
0
LINE
5
2F1
100
AcDbEntity
8
0
100
AcDbLine
62
7
6
CONTINUOUS
10
64.3362782995
20
86.6579577384
11
64.5496321863
21
86.6215004833
0
LINE
5
2F2
100
AcDbEntity
8
0
100
AcDbLine
62
7
6
CONTINUOUS
10
64.6663943044
20
86.8965747955
11
64.4530404175
21
86.9330320505
0
LINE
5
2F3
100
AcDbEntity
8
0
100
AcDbLine
62
7
6
CONTINUOUS
10
66.6387107143
20
86.8709685315
11
66.4253567718
21
86.9074256554
0
LINE
5
2F4
100
AcDbEntity
8
0
100
AcDbLine
62
7
6
CONTINUOUS
10
65.4044680002
20
87.5571919261
11
65.1911140576
21
87.5936490500
0
LINE
5
2F5
100
AcDbEntity
8
0
100
AcDbLine
62
7
6
CONTINUOUS
10
65.4837291866
20
88.8220951115
11
65.2703752441
21
88.8585522354
0
LINE
5
2F6
100
AcDbEntity
8
0
100
AcDbLine
62
7
6
CONTINUOUS
10
68.1323277639
20
91.6475806577
11
67.8091717527
21
91.7847522461
0
LINE
5
2F7
100
AcDbEntity
8
0
100
AcDbLine
62
7
6
CONTINUOUS
10
68.7086076024
20
97.1382159090
11
68.9476718375
21
96.9826326005
0
LINE
5
2F8
100
AcDbEntity
8
0
100
AcDbLine
62
7
6
CONTINUOUS
10
79.7056248091
20
103.0859811281
11
79.5194545924
21
103.4084374022
0
LINE
5
2F9
100
AcDbEntity
8
0
100
AcDbLine
62
7
6
CONTINUOUS
10
78.4396674089
20
105.2786836654
11
78.3651992283
21
105.4076663377
0
LINE
5
2FA
100
AcDbEntity
8
0
100
AcDbLine
62
7
6
CONTINUOUS
10
86.1547509937
20
104.7526479428
11
86.3114177351
21
104.3526479204
0
LINE
5
2FB
100
AcDbEntity
8
0
100
AcDbLine
62
7
6
CONTINUOUS
10
66.5865797247
20
86.5684597782
11
66.9681168280
21
86.5688254866
0
LINE
5
2FC
100
AcDbEntity
8
0
100
AcDbLine
62
7
6
CONTINUOUS
10
66.8347341999
20
88.4109459521
11
66.5372885926
21
88.4289916183
0
LINE
5
2FD
100
AcDbEntity
8
0
100
AcDbLine
62
7
6
CONTINUOUS
10
65.2182443102
20
88.5560436132
11
65.3669670686
21
88.5470207994
0
LINE
5
2FE
100
AcDbEntity
8
0
100
AcDbLine
62
7
6
CONTINUOUS
10
68.8029300699
20
90.1725911882
11
65.4538984795
21
90.7284725881
0
LINE
5
2FF
100
AcDbEntity
8
0
100
AcDbLine
62
7
6
CONTINUOUS
10
67.8327523139
20
90.0433459348
11
68.6861679518
21
89.8975168761
0
LINE
5
300
100
AcDbEntity
8
0
100
AcDbLine
62
7
6
CONTINUOUS
10
65.6345818782
20
90.4353526483
11
67.5547672986
21
90.1072376310
0
LINE
5
301
100
AcDbEntity
8
0
100
AcDbLine
62
7
6
CONTINUOUS
10
67.2831718113
20
95.0379704945
11
70.3208378277
21
93.7485577705
0
LINE
5
302
100
AcDbEntity
8
0
100
AcDbLine
62
7
6
CONTINUOUS
10
70.4375999458
20
94.0236320826
11
69.0803448979
21
94.5997526696
0
LINE
5
303
100
AcDbEntity
8
0
100
AcDbLine
62
7
6
CONTINUOUS
10
68.6925577931
20
94.7643585296
11
67.7230898500
21
95.1758732566
0
LINE
5
304
100
AcDbEntity
8
0
100
AcDbLine
62
7
6
CONTINUOUS
10
68.5973854832
20
96.1574096642
11
68.7912792167
21
96.0751066573
0
LINE
5
305
100
AcDbEntity
8
0
100
AcDbLine
62
7
6
CONTINUOUS
10
68.9726725189
20
96.3227466594
11
68.7141476013
21
96.4324839763
0
LINE
5
306
100
AcDbEntity
8
0
100
AcDbLine
62
7
6
CONTINUOUS
10
68.9476718375
20
96.9826326005
11
69.2061967551
21
96.8728952836
0
LINE
5
307
100
AcDbEntity
8
0
100
AcDbLine
62
7
6
CONTINUOUS
10
71.6343107477
20
101.6075743892
11
73.8960379361
21
99.7318145831
0
LINE
5
308
100
AcDbEntity
8
0
100
AcDbLine
62
7
6
CONTINUOUS
10
73.9624584923
20
100.2001042079
11
71.4514134236
21
102.3618618471
0
LINE
5
309
100
AcDbEntity
8
0
100
AcDbLine
62
7
6
CONTINUOUS
10
86.7814177351
20
104.5526479666
11
86.6247507696
21
104.8526479308
0
LINE
5
30A
100
AcDbEntity
8
0
100
AcDbLine
62
7
6
CONTINUOUS
10
92.1080842524
20
107.1526477967
11
92.1864172869
21
106.7526478444
0
LINE
5
30B
100
AcDbEntity
8
0
100
AcDbLine
62
7
6
CONTINUOUS
10
92.6564172869
20
106.7526478444
11
92.5780842524
21
107.2526480649
0
LINE
5
30C
100
AcDbEntity
8
0
100
AcDbLine
62
7
6
CONTINUOUS
10
66.8909853710
20
86.9262027383
11
66.6387107143
21
86.8709685315
0
LINE
5
30D
100
AcDbEntity
8
0
100
AcDbLine
62
7
6
CONTINUOUS
10
64.4530404175
20
86.9330320505
11
64.1361346220
21
86.9052321345
0
LINE
5
30E
100
AcDbEntity
8
0
100
AcDbLine
62
7
6
CONTINUOUS
10
65.2703752441
20
88.8585522354
11
64.9534694485
21
88.8307523193
0
LINE
5
30F
100
AcDbEntity
8
0
100
AcDbLine
62
7
6
CONTINUOUS
10
66.5497888428
20
88.0990486862
11
66.7826032660
21
88.1084373300
0
LINE
5
310
100
AcDbEntity
8
0
100
AcDbLine
62
7
6
CONTINUOUS
10
69.3881606448
20
92.6294831767
11
66.4658367620
21
93.1124497850
0
LINE
5
311
100
AcDbEntity
8
0
100
AcDbLine
62
7
6
CONTINUOUS
10
66.3490746439
20
92.8373754729
11
69.6981064570
21
92.2814945976
0
LINE
5
312
100
AcDbEntity
8
0
100
AcDbLine
62
7
6
CONTINUOUS
10
69.2583276890
20
97.1754039058
11
69.1290653208
21
97.2302725258
0
LINE
5
313
100
AcDbEntity
8
0
100
AcDbLine
62
7
6
CONTINUOUS
10
70.8498170087
20
97.6901924481
11
71.0437105611
21
97.6078895181
0
LINE
5
314
100
AcDbEntity
8
0
100
AcDbLine
62
7
6
CONTINUOUS
10
71.2251038633
20
97.8555295202
11
70.9019479427
21
97.9927010702
0
LINE
5
315
100
AcDbEntity
8
0
100
AcDbLine
62
7
6
CONTINUOUS
10
78.3651992283
20
105.4076663377
11
78.1531156311
21
105.6291731266
0
LINE
5
316
100
AcDbEntity
8
0
100
AcDbLine
62
7
6
CONTINUOUS
10
85.2930842524
20
107.5526480292
11
85.0580842524
21
107.9526479815
0
LINE
5
317
100
AcDbEntity
8
0
100
AcDbLine
62
7
6
CONTINUOUS
10
103.2398293652
20
61.4877330222
11
102.6930842524
21
57.0226479338
0
LINE
5
318
100
AcDbEntity
8
0
100
AcDbLine
62
7
6
CONTINUOUS
10
64.1680952066
20
86.6211348773
11
64.3362782995
21
86.6579577384
0
LINE
5
319
100
AcDbEntity
8
0
100
AcDbLine
62
7
6
CONTINUOUS
10
65.4169682504
20
87.2272489940
11
65.7533343247
21
87.3008944538
0
LINE
5
31A
100
AcDbEntity
8
0
100
AcDbLine
62
7
6
CONTINUOUS
10
66.5372885926
20
88.4289916183
11
66.2009225183
21
88.3553461585
0
LINE
5
31B
100
AcDbEntity
8
0
100
AcDbLine
62
7
6
CONTINUOUS
10
65.0500612730
20
88.5192208833
11
65.2182443102
21
88.5560436132
0
LINE
5
31C
100
AcDbEntity
8
0
100
AcDbLine
62
7
6
CONTINUOUS
10
71.0603310937
20
95.4906947308
11
69.3986705005
21
95.7090724696
0
LINE
5
31D
100
AcDbEntity
8
0
100
AcDbLine
62
7
6
CONTINUOUS
10
69.4111707507
20
95.3791295375
11
70.9241084742
21
95.1697743502
0
LINE
5
31E
100
AcDbEntity
8
0
100
AcDbLine
62
7
6
CONTINUOUS
10
68.3840318748
20
96.1938675750
11
68.5973854832
21
96.1574096642
0
LINE
5
31F
100
AcDbEntity
8
0
100
AcDbLine
62
7
6
CONTINUOUS
10
68.7141476013
20
96.4324839763
11
68.5007939928
21
96.4689418872
0
LINE
5
320
100
AcDbEntity
8
0
100
AcDbLine
62
7
6
CONTINUOUS
10
70.7059244571
20
96.4527236496
11
70.4925704032
21
96.4891805112
0
LINE
5
321
100
AcDbEntity
8
0
100
AcDbLine
62
7
6
CONTINUOUS
10
69.4716817429
20
97.1389470442
11
69.2583276890
21
97.1754039058
0
LINE
5
322
100
AcDbEntity
8
0
100
AcDbLine
62
7
6
CONTINUOUS
10
70.3758082851
20
96.2141061990
11
70.6537935231
21
96.1502150275
0
LINE
5
323
100
AcDbEntity
8
0
100
AcDbLine
62
7
6
CONTINUOUS
10
69.2061967551
20
96.8728952836
11
69.4841819931
21
96.8090041121
0
LINE
5
324
100
AcDbEntity
8
0
100
AcDbLine
62
7
6
CONTINUOUS
10
86.3114177351
20
104.3526479204
11
86.6247507696
21
103.9526479331
0
LINE
5
325
100
AcDbEntity
8
0
100
AcDbLine
62
7
6
CONTINUOUS
10
84.6664175110
20
107.7526480053
11
84.8230842524
21
107.5526480292
0
LINE
5
326
100
AcDbEntity
8
0
100
AcDbLine
62
7
6
CONTINUOUS
10
91.9514172869
20
107.4526480411
11
92.1080842524
21
107.1526477967
0
LINE
5
327
100
AcDbEntity
8
0
100
AcDbLine
62
7
6
CONTINUOUS
10
92.5780842524
20
107.2526480649
11
92.4214172869
21
107.6526480173
0
LINE
5
328
100
AcDbEntity
8
0
100
AcDbLine
62
7
6
CONTINUOUS
10
70.6537935231
20
96.1502150275
11
71.0353305707
21
96.1505806047
0
LINE
5
329
100
AcDbEntity
8
0
100
AcDbLine
62
7
6
CONTINUOUS
10
70.9019479427
20
97.9927010702
11
70.6045025581
21
98.0107472611
0
LINE
5
32A
100
AcDbEntity
8
0
100
AcDbLine
62
7
6
CONTINUOUS
10
69.2854579415
20
98.1377984690
11
69.4341808113
21
98.1287759175
0
LINE
5
32B
100
AcDbEntity
8
0
100
AcDbLine
62
7
6
CONTINUOUS
10
69.5509429294
20
98.4038502296
11
69.3375888755
21
98.4403070912
0
LINE
5
32C
100
AcDbEntity
8
0
100
AcDbLine
62
7
6
CONTINUOUS
10
87.0164177351
20
104.3526479204
11
86.7814177351
21
104.5526479666
0
LINE
5
32D
100
AcDbEntity
8
0
100
AcDbLine
62
7
6
CONTINUOUS
10
85.0580842524
20
107.9526479815
11
84.7447509937
21
108.2526479457
0
LINE
5
32E
100
AcDbEntity
8
0
100
AcDbLine
62
7
6
CONTINUOUS
10
108.1040245245
20
65.3577425861
11
115.3597434566
21
82.8745976367
0
LINE
5
32F
100
AcDbEntity
8
0
100
AcDbLine
62
7
6
CONTINUOUS
10
70.9581991138
20
96.5079578564
11
70.7059244571
21
96.4527236496
0
LINE
5
330
100
AcDbEntity
8
0
100
AcDbLine
62
7
6
CONTINUOUS
10
68.2158485035
20
96.1570440581
11
68.3840318748
21
96.1938675750
0
LINE
5
331
100
AcDbEntity
8
0
100
AcDbLine
62
7
6
CONTINUOUS
10
69.4841819931
20
96.8090041121
11
69.8205482902
21
96.8826500966
0
LINE
5
332
100
AcDbEntity
8
0
100
AcDbLine
62
7
6
CONTINUOUS
10
68.5007939928
20
96.4689418872
11
68.1838881973
21
96.4411419711
0
LINE
5
333
100
AcDbEntity
8
0
100
AcDbLine
62
7
6
CONTINUOUS
10
69.3375888755
20
98.4403070912
11
69.0206830799
21
98.4125071751
0
LINE
5
334
100
AcDbEntity
8
0
100
AcDbLine
62
7
6
CONTINUOUS
10
70.6170028082
20
97.6808043290
11
70.8498170087
21
97.6901924481
0
LINE
5
335
100
AcDbEntity
8
0
100
AcDbLine
62
7
6
CONTINUOUS
10
77.7483161102
20
105.3094736865
11
77.9863131142
21
105.1889163377
0
LINE
5
336
100
AcDbEntity
8
0
100
AcDbLine
62
7
6
CONTINUOUS
10
86.6247507696
20
103.9526479331
11
86.9380842524
21
103.7526479307
0
LINE
5
337
100
AcDbEntity
8
0
100
AcDbLine
62
7
6
CONTINUOUS
10
92.4214172869
20
107.6526480173
11
92.1080842524
21
108.0526479696
0
LINE
5
338
100
AcDbEntity
8
0
100
AcDbLine
62
7
6
CONTINUOUS
10
91.4030842524
20
103.6526479338
11
91.7947512179
21
103.7526479307
0
LINE
5
339
100
AcDbEntity
8
0
100
AcDbLine
62
7
6
CONTINUOUS
10
87.6430842524
20
103.6526479338
11
88.0347507696
21
103.7526479307
0
LINE
5
33A
100
AcDbEntity
8
0
100
AcDbLine
62
7
6
CONTINUOUS
10
70.6045025581
20
98.0107472611
11
70.2681362610
21
97.9371012766
0
LINE
5
33B
100
AcDbEntity
8
0
100
AcDbLine
62
7
6
CONTINUOUS
10
69.1172750157
20
98.1009760014
11
69.2854579415
21
98.1377984690
0
LINE
5
33C
100
AcDbEntity
8
0
100
AcDbLine
62
7
6
CONTINUOUS
10
86.9380842524
20
103.7526479307
11
87.3297507696
21
103.6526479338
0
LINE
5
33D
100
AcDbEntity
8
0
100
AcDbLine
62
7
6
CONTINUOUS
10
78.1531156311
20
105.6291731266
11
77.7515889767
21
105.7413049155
0
LINE
5
33E
100
AcDbEntity
8
0
100
AcDbLine
62
7
6
CONTINUOUS
10
87.3297507696
20
104.2526479323
11
87.0164177351
21
104.3526479204
0
LINE
5
33F
100
AcDbEntity
8
0
100
AcDbLine
62
7
6
CONTINUOUS
10
91.7164172869
20
107.6526480173
11
91.9514172869
21
107.4526480411
0
LINE
5
340
100
AcDbEntity
8
0
100
AcDbLine
62
7
6
CONTINUOUS
10
93.6930842524
20
39.5226479338
11
93.1930842524
21
39.0226479338
0
LINE
5
341
100
AcDbEntity
8
0
100
AcDbLine
62
7
6
CONTINUOUS
10
77.7515889767
20
105.7413049155
11
77.4245296759
21
105.7244537955
0
LINE
5
342
100
AcDbEntity
8
0
100
AcDbLine
62
7
6
CONTINUOUS
10
82.4730842524
20
103.6526479338
11
82.9430842524
21
103.6526479338
0
LINE
5
343
100
AcDbEntity
8
0
100
AcDbLine
62
7
6
CONTINUOUS
10
84.9014175110
20
103.6526479338
11
85.4497509937
21
103.6526479338
0
LINE
5
344
100
AcDbEntity
8
0
100
AcDbLine
62
7
6
CONTINUOUS
10
87.3297507696
20
103.6526479338
11
87.6430842524
21
103.6526479338
0
LINE
5
345
100
AcDbEntity
8
0
100
AcDbLine
62
7
6
CONTINUOUS
10
89.5230842524
20
103.6526479338
11
91.4030842524
21
103.6526479338
0
LINE
5
346
100
AcDbEntity
8
0
100
AcDbLine
62
7
6
CONTINUOUS
10
91.4030842524
20
104.2526479323
11
89.9930842524
21
104.2526479323
0
LINE
5
347
100
AcDbEntity
8
0
100
AcDbLine
62
7
6
CONTINUOUS
10
87.6430842524
20
104.2526479323
11
87.3297507696
21
104.2526479323
0
LINE
5
348
100
AcDbEntity
8
0
100
AcDbLine
62
7
6
CONTINUOUS
10
82.9430842524
20
105.7526479636
11
84.2747508817
21
105.7526479636
0
LINE
5
349
100
AcDbEntity
8
0
100
AcDbLine
62
7
6
CONTINUOUS
10
84.4314175110
20
106.3526478921
11
82.9430842524
21
106.3526478921
0
LINE
5
34A
100
AcDbEntity
8
0
100
AcDbLine
62
7
6
CONTINUOUS
10
77.4844049769
20
105.3290811781
11
77.7483161102
21
105.3094736865
0
LINE
5
34B
100
AcDbEntity
8
0
100
AcDbLine
62
7
6
CONTINUOUS
10
84.7447509937
20
108.2526479457
11
84.3530842524
21
108.3526479338
0
LINE
5
34C
100
AcDbEntity
8
0
100
AcDbLine
62
7
6
CONTINUOUS
10
84.4314175110
20
107.8526479934
11
84.6664175110
21
107.7526480053
0
LINE
5
34D
100
AcDbEntity
8
0
100
AcDbLine
62
7
6
CONTINUOUS
10
92.1080842524
20
108.0526479696
11
91.7947512179
21
108.2526479457
0
LINE
5
34E
100
AcDbEntity
8
0
100
AcDbLine
62
7
6
CONTINUOUS
10
115.3597434566
20
85.1706982309
11
107.8303917370
21
103.3481612683
0
LINE
5
34F
100
AcDbEntity
8
0
100
AcDbLine
62
7
6
CONTINUOUS
10
89.9930842524
20
107.7526480053
11
91.4030842524
21
107.7526480053
0
LINE
5
350
100
AcDbEntity
8
0
100
AcDbLine
62
7
6
CONTINUOUS
10
82.9430842524
20
107.8526479934
11
84.4314175110
21
107.8526479934
0
LINE
5
351
100
AcDbEntity
8
0
100
AcDbLine
62
7
6
CONTINUOUS
10
91.4030842524
20
108.3526479338
11
89.5230842524
21
108.3526479338
0
LINE
5
352
100
AcDbEntity
8
0
100
AcDbLine
62
7
6
CONTINUOUS
10
88.8964177351
20
108.3526479338
11
88.4264177351
21
108.3526479338
0
LINE
5
353
100
AcDbEntity
8
0
100
AcDbLine
62
7
6
CONTINUOUS
10
86.5464177351
20
108.3526479338
11
86.0764175110
21
108.3526479338
0
LINE
5
354
100
AcDbEntity
8
0
100
AcDbLine
62
7
6
CONTINUOUS
10
84.3530842524
20
108.3526479338
11
82.4730842524
21
108.3526479338
0
LINE
5
355
100
AcDbEntity
8
0
100
AcDbLine
62
7
6
CONTINUOUS
10
91.7947512179
20
108.2526479457
11
91.4030842524
21
108.3526479338
0
LINE
5
356
100
AcDbEntity
8
0
100
AcDbLine
62
7
6
CONTINUOUS
10
91.4030842524
20
107.7526480053
11
91.7164172869
21
107.6526480173
0
LINE
5
357
100
AcDbEntity
8
0
100
AcDbLine
62
7
6
CONTINUOUS
10
107.0185975868
20
104.1599554185
11
88.2671094009
21
111.9270761397
0
LINE
5
358
100
AcDbEntity
8
0
100
AcDbLine
62
7
6
CONTINUOUS
10
180.0223238293
20
39.0226479338
11
191.0223238293
21
39.0226479338
0
LINE
5
359
100
AcDbEntity
8
0
100
AcDbLine
62
7
6
CONTINUOUS
10
179.5223238293
20
39.5226479338
11
191.5223238293
21
39.5226479338
0
LINE
5
35A
100
AcDbEntity
8
0
100
AcDbLine
62
7
6
CONTINUOUS
10
179.5223238293
20
39.5226479338
11
180.0223238293
21
39.0226479338
0
LINE
5
35B
100
AcDbEntity
8
0
100
AcDbLine
62
7
6
CONTINUOUS
10
179.5223238293
20
52.0226479338
11
191.5223238293
21
52.0226479338
0
LINE
5
35C
100
AcDbEntity
8
0
100
AcDbLine
62
7
6
CONTINUOUS
10
170.5223238293
20
57.0226479338
11
200.5223238293
21
57.0226479338
0
LINE
5
35D
100
AcDbEntity
8
0
100
AcDbLine
62
7
6
CONTINUOUS
10
169.1685282792
20
68.0786449258
11
170.5223238293
21
57.0226479338
0
LINE
5
35E
100
AcDbEntity
8
0
100
AcDbLine
62
7
6
CONTINUOUS
10
181.0860295772
20
64.1231094508
11
189.9586901107
21
64.1231094508
0
LINE
5
35F
100
AcDbEntity
8
0
100
AcDbLine
62
7
6
CONTINUOUS
10
179.5223238293
20
52.0226479338
11
179.5223238293
21
39.5226479338
0
LINE
5
360
100
AcDbEntity
8
0
100
AcDbLine
62
7
6
CONTINUOUS
10
180.5223238293
20
81.5226479338
11
180.5223238293
21
110.5412568410
0
LINE
5
361
100
AcDbEntity
8
DEFAULT_2
100
AcDbLine
62
8
6
HIDDEN
10
201.6606277029
20
69.0226479338
11
198.5223238256
21
69.0226479338
0
LINE
5
362
100
AcDbEntity
8
DEFAULT_2
100
AcDbLine
62
8
6
HIDDEN
10
172.5223238329
20
69.0226479338
11
169.3839837233
21
69.0226479338
0
LINE
5
363
100
AcDbEntity
8
DEFAULT_1
100
AcDbLine
62
2
6
CENTER
10
185.5223238293
20
36.0226479338
11
185.5223238293
21
114.2418316479
0
LINE
5
364
100
AcDbEntity
8
0
100
AcDbLine
62
7
6
CONTINUOUS
10
190.4718894032
20
55.5157107040
11
191.5223238293
21
52.0226479338
0
LINE
5
365
100
AcDbEntity
8
0
100
AcDbLine
62
7
6
CONTINUOUS
10
180.5727582554
20
55.5157107040
11
179.5223238293
21
52.0226479338
0
LINE
5
366
100
AcDbEntity
8
0
100
AcDbLine
62
7
6
CONTINUOUS
10
190.5223238293
20
110.5412568410
11
190.5223238293
21
81.5226479338
0
LINE
5
367
100
AcDbEntity
8
0
100
AcDbLine
62
7
6
CONTINUOUS
10
190.8223238293
20
108.3526479338
11
190.8223238293
21
99.0026479338
0
LINE
5
368
100
AcDbEntity
8
0
100
AcDbLine
62
7
6
CONTINUOUS
10
190.8223238293
20
98.4403070912
11
190.8223238293
21
96.5079578564
0
LINE
5
369
100
AcDbEntity
8
0
100
AcDbLine
62
7
6
CONTINUOUS
10
190.8223238293
20
96.4891805112
11
190.8223238293
21
92.2814945976
0
LINE
5
36A
100
AcDbEntity
8
0
100
AcDbLine
62
7
6
CONTINUOUS
10
190.8223238293
20
91.7847522461
11
190.8223238293
21
91.0057404212
0
LINE
5
36B
100
AcDbEntity
8
0
100
AcDbLine
62
7
6
CONTINUOUS
10
190.8223238293
20
90.7284725881
11
190.8223238293
21
84.2126479338
0
LINE
5
36C
100
AcDbEntity
8
0
100
AcDbLine
62
7
6
CONTINUOUS
10
191.5223238293
20
52.0226479338
11
191.5223238293
21
39.5226479338
0
LINE
5
36D
100
AcDbEntity
8
DEFAULT_1
100
AcDbLine
62
2
6
CENTER
10
178.5201682028
20
84.0226479338
11
192.3538856383
21
84.0226479338
0
LINE
5
36E
100
AcDbEntity
8
0
100
AcDbLine
62
7
6
CONTINUOUS
10
190.5223238293
20
84.2126479338
11
190.8223238293
21
84.2126479338
0
LINE
5
36F
100
AcDbEntity
8
0
100
AcDbLine
62
7
6
CONTINUOUS
10
190.5223238293
20
85.5020606578
11
190.8223238293
21
85.5020606578
0
LINE
5
370
100
AcDbEntity
8
0
100
AcDbLine
62
7
6
CONTINUOUS
10
190.5223238293
20
86.6023579063
11
190.8223238293
21
86.6023579063
0
LINE
5
371
100
AcDbEntity
8
0
100
AcDbLine
62
7
6
CONTINUOUS
10
190.5223238293
20
86.8041522335
11
190.8223238293
21
86.8041522335
0
LINE
5
372
100
AcDbEntity
8
0
100
AcDbLine
62
7
6
CONTINUOUS
10
190.5223238293
20
86.9052321345
11
190.8223238293
21
86.9052321345
0
LINE
5
373
100
AcDbEntity
8
0
100
AcDbLine
62
7
6
CONTINUOUS
10
190.5223238293
20
86.9330320505
11
190.8223238293
21
86.9330320505
0
LINE
5
374
100
AcDbEntity
8
0
100
AcDbLine
62
7
6
CONTINUOUS
10
190.5223238293
20
87.0821511282
11
190.8223238293
21
87.0821511282
0
LINE
5
375
100
AcDbEntity
8
0
100
AcDbLine
62
7
6
CONTINUOUS
10
190.5223238293
20
87.2272489940
11
190.8223238293
21
87.2272489940
0
LINE
5
376
100
AcDbEntity
8
0
100
AcDbLine
62
7
6
CONTINUOUS
10
190.5223238293
20
87.2911404279
11
190.8223238293
21
87.2911404279
0
LINE
5
377
100
AcDbEntity
8
0
100
AcDbLine
62
7
6
CONTINUOUS
10
190.5223238293
20
87.4008777447
11
190.8223238293
21
87.4008777447
0
LINE
5
378
100
AcDbEntity
8
0
100
AcDbLine
62
7
6
CONTINUOUS
10
190.5223238293
20
87.5564607909
11
190.8223238293
21
87.5564607909
0
LINE
5
379
100
AcDbEntity
8
0
100
AcDbLine
62
7
6
CONTINUOUS
10
190.5223238293
20
87.8495807308
11
190.8223238293
21
87.8495807308
0
LINE
5
37A
100
AcDbEntity
8
0
100
AcDbLine
62
7
6
CONTINUOUS
10
190.5223238293
20
88.0878323130
11
190.8223238293
21
88.0878323130
0
LINE
5
37B
100
AcDbEntity
8
0
100
AcDbLine
62
7
6
CONTINUOUS
10
190.5223238293
20
88.2986495852
11
190.8223238293
21
88.2986495852
0
LINE
5
37C
100
AcDbEntity
8
0
100
AcDbLine
62
7
6
CONTINUOUS
10
190.5223238293
20
88.5278780912
11
190.8223238293
21
88.5278780912
0
LINE
5
37D
100
AcDbEntity
8
0
100
AcDbLine
62
7
6
CONTINUOUS
10
190.5223238293
20
88.7296722872
11
190.8223238293
21
88.7296722872
0
LINE
5
37E
100
AcDbEntity
8
0
100
AcDbLine
62
7
6
CONTINUOUS
10
190.5223238293
20
88.8307523193
11
190.8223238293
21
88.8307523193
0
LINE
5
37F
100
AcDbEntity
8
0
100
AcDbLine
62
7
6
CONTINUOUS
10
190.5223238293
20
88.8585522354
11
190.8223238293
21
88.8585522354
0
LINE
5
380
100
AcDbEntity
8
0
100
AcDbLine
62
7
6
CONTINUOUS
10
190.5223238293
20
90.3617066638
11
190.8223238293
21
90.3617066638
0
LINE
5
381
100
AcDbEntity
8
0
100
AcDbLine
62
7
6
CONTINUOUS
10
190.5223238293
20
90.7284725881
11
190.8223238293
21
90.7284725881
0
LINE
5
382
100
AcDbEntity
8
0
100
AcDbLine
62
7
6
CONTINUOUS
10
190.5223238293
20
91.0057404212
11
190.8223238293
21
91.0057404212
0
LINE
5
383
100
AcDbEntity
8
0
100
AcDbLine
62
7
6
CONTINUOUS
10
190.5223238293
20
91.1429120096
11
190.8223238293
21
91.1429120096
0
LINE
5
384
100
AcDbEntity
8
0
100
AcDbLine
62
7
6
CONTINUOUS
10
190.5223238293
20
91.7847522461
11
190.8223238293
21
91.7847522461
0
LINE
5
385
100
AcDbEntity
8
0
100
AcDbLine
62
7
6
CONTINUOUS
10
201.8761193793
20
68.0786449258
11
200.5223238293
21
57.0226479338
0
LINE
5
386
100
AcDbEntity
8
0
100
AcDbLine
62
7
6
CONTINUOUS
10
190.5223238293
20
92.2814945976
11
190.8223238293
21
92.2814945976
0
LINE
5
387
100
AcDbEntity
8
0
100
AcDbLine
62
7
6
CONTINUOUS
10
190.5223238293
20
92.8373754729
11
190.8223238293
21
92.8373754729
0
LINE
5
388
100
AcDbEntity
8
0
100
AcDbLine
62
7
6
CONTINUOUS
10
190.5223238293
20
93.1124497850
11
190.8223238293
21
93.1124497850
0
LINE
5
389
100
AcDbEntity
8
0
100
AcDbLine
62
7
6
CONTINUOUS
10
190.5223238293
20
94.3961297333
11
190.8223238293
21
94.3961297333
0
LINE
5
38A
100
AcDbEntity
8
0
100
AcDbLine
62
7
6
CONTINUOUS
10
190.5223238293
20
94.6712040454
11
190.8223238293
21
94.6712040454
0
LINE
5
38B
100
AcDbEntity
8
0
100
AcDbLine
62
7
6
CONTINUOUS
10
190.5223238293
20
95.0379704945
11
190.8223238293
21
95.0379704945
0
LINE
5
38C
100
AcDbEntity
8
0
100
AcDbLine
62
7
6
CONTINUOUS
10
190.5223238293
20
96.1382677430
11
190.8223238293
21
96.1382677430
0
LINE
5
38D
100
AcDbEntity
8
0
100
AcDbLine
62
7
6
CONTINUOUS
10
190.5223238293
20
96.3400616766
11
190.8223238293
21
96.3400616766
0
LINE
5
38E
100
AcDbEntity
8
0
100
AcDbLine
62
7
6
CONTINUOUS
10
190.5223238293
20
96.4411419711
11
190.8223238293
21
96.4411419711
0
LINE
5
38F
100
AcDbEntity
8
0
100
AcDbLine
62
7
6
CONTINUOUS
10
190.5223238293
20
96.4689418872
11
190.8223238293
21
96.4689418872
0
LINE
5
390
100
AcDbEntity
8
0
100
AcDbLine
62
7
6
CONTINUOUS
10
190.5223238293
20
96.4891805112
11
190.8223238293
21
96.4891805112
0
LINE
5
391
100
AcDbEntity
8
0
100
AcDbLine
62
7
6
CONTINUOUS
10
190.5223238293
20
96.5079578564
11
190.8223238293
21
96.5079578564
0
LINE
5
392
100
AcDbEntity
8
0
100
AcDbLine
62
7
6
CONTINUOUS
10
190.5223238293
20
96.6639067709
11
190.8223238293
21
96.6639067709
0
LINE
5
393
100
AcDbEntity
8
0
100
AcDbLine
62
7
6
CONTINUOUS
10
190.5223238293
20
96.8090041121
11
190.8223238293
21
96.8090041121
0
LINE
5
394
100
AcDbEntity
8
0
100
AcDbLine
62
7
6
CONTINUOUS
10
190.5223238293
20
96.8728952836
11
190.8223238293
21
96.8728952836
0
LINE
5
395
100
AcDbEntity
8
0
100
AcDbLine
62
7
6
CONTINUOUS
10
190.5223238293
20
96.9826326005
11
190.8223238293
21
96.9826326005
0
LINE
5
396
100
AcDbEntity
8
0
100
AcDbLine
62
7
6
CONTINUOUS
10
190.5223238293
20
97.1382159090
11
190.8223238293
21
97.1382159090
0
LINE
5
397
100
AcDbEntity
8
0
100
AcDbLine
62
7
6
CONTINUOUS
10
190.5223238293
20
97.4313363736
11
190.8223238293
21
97.4313363736
0
LINE
5
398
100
AcDbEntity
8
0
100
AcDbLine
62
7
6
CONTINUOUS
10
190.5223238293
20
97.6695871688
11
190.8223238293
21
97.6695871688
0
LINE
5
399
100
AcDbEntity
8
0
100
AcDbLine
62
7
6
CONTINUOUS
10
190.5223238293
20
97.8804047033
11
190.8223238293
21
97.8804047033
0
LINE
5
39A
100
AcDbEntity
8
0
100
AcDbLine
62
7
6
CONTINUOUS
10
190.5223238293
20
98.1096329470
11
190.8223238293
21
98.1096329470
0
LINE
5
39B
100
AcDbEntity
8
0
100
AcDbLine
62
7
6
CONTINUOUS
10
190.5223238293
20
98.3114279299
11
190.8223238293
21
98.3114279299
0
LINE
5
39C
100
AcDbEntity
8
0
100
AcDbLine
62
7
6
CONTINUOUS
10
190.5223238293
20
98.4125071751
11
190.8223238293
21
98.4125071751
0
LINE
5
39D
100
AcDbEntity
8
0
100
AcDbLine
62
7
6
CONTINUOUS
10
190.5223238293
20
98.4403070912
11
190.8223238293
21
98.4403070912
0
LINE
5
39E
100
AcDbEntity
8
0
100
AcDbLine
62
7
6
CONTINUOUS
10
190.5223238293
20
99.0026479338
11
190.8223238293
21
99.0026479338
0
LINE
5
39F
100
AcDbEntity
8
DEFAULT_2
100
AcDbLine
62
8
6
HIDDEN
10
186.5223238293
20
99.0226479338
11
184.5223238293
21
99.0226479338
0
LINE
5
3A0
100
AcDbEntity
8
0
100
AcDbLine
62
7
6
CONTINUOUS
10
190.5223238293
20
102.0337368471
11
190.8223238293
21
102.0337368471
0
LINE
5
3A1
100
AcDbEntity
8
0
100
AcDbLine
62
7
6
CONTINUOUS
10
190.5223238293
20
102.3618618471
11
190.8223238293
21
102.3618618471
0
LINE
5
3A2
100
AcDbEntity
8
0
100
AcDbLine
62
7
6
CONTINUOUS
10
190.5223238293
20
103.4556118471
11
190.8223238293
21
103.4556118471
0
LINE
5
3A3
100
AcDbEntity
8
0
100
AcDbLine
62
7
6
CONTINUOUS
10
190.5223238293
20
103.7837368471
11
190.8223238293
21
103.7837368471
0
LINE
5
3A4
100
AcDbEntity
8
0
100
AcDbLine
62
7
6
CONTINUOUS
10
190.5223238293
20
104.2941534442
11
190.8223238293
21
104.2941534442
0
LINE
5
3A5
100
AcDbEntity
8
0
100
AcDbLine
62
7
6
CONTINUOUS
10
190.5223238293
20
104.5129034442
11
190.8223238293
21
104.5129034442
0
LINE
5
3A6
100
AcDbEntity
8
0
100
AcDbLine
62
7
6
CONTINUOUS
10
190.5223238293
20
104.8298465126
11
190.8223238293
21
104.8298465126
0
LINE
5
3A7
100
AcDbEntity
8
0
100
AcDbLine
62
7
6
CONTINUOUS
10
190.5223238293
20
105.1046621984
11
190.8223238293
21
105.1046621984
0
LINE
5
3A8
100
AcDbEntity
8
0
100
AcDbLine
62
7
6
CONTINUOUS
10
191.5223238293
20
39.5226479338
11
191.0223238293
21
39.0226479338
0
LINE
5
3A9
100
AcDbEntity
8
0
100
AcDbLine
62
7
6
CONTINUOUS
10
190.5223238293
20
105.4243618471
11
190.8223238293
21
105.4243618471
0
LINE
5
3AA
100
AcDbEntity
8
0
100
AcDbLine
62
7
6
CONTINUOUS
10
190.5223238293
20
105.5701950413
11
190.8223238293
21
105.5701950413
0
LINE
5
3AB
100
AcDbEntity
8
0
100
AcDbLine
62
7
6
CONTINUOUS
10
190.5223238293
20
105.7244537955
11
190.8223238293
21
105.7244537955
0
LINE
5
3AC
100
AcDbEntity
8
0
100
AcDbLine
62
7
6
CONTINUOUS
10
190.5223238293
20
105.7413049155
11
190.8223238293
21
105.7413049155
0
LINE
5
3AD
100
AcDbEntity
8
0
100
AcDbLine
62
7
6
CONTINUOUS
10
190.5223238293
20
108.3526479338
11
190.8223238293
21
108.3526479338
0
LINE
5
3AE
100
AcDbEntity
8
0
100
AcDbLine
62
7
6
CONTINUOUS
10
189.0223238293
20
112.0412568410
11
182.0223238293
21
112.0412568410
0
ARC
5
3AF
100
AcDbEntity
8
0
100
AcDbCircle
62
7
6
CONTINUOUS
10
93.7630842524
20
55.8526479338
40
1.1700000000
100
AcDbArc
50
90.0000000000
51
196.7370923561
0
ARC
5
3B0
100
AcDbEntity
8
0
100
AcDbCircle
62
7
6
CONTINUOUS
10
81.6230842524
20
55.8526479338
40
1.1700000000
100
AcDbArc
50
343.2629076439
51
90.0000000000
0
ARC
5
3B1
100
AcDbEntity
8
0
100
AcDbCircle
62
7
6
CONTINUOUS
10
69.1685799734
20
61.1231094508
40
3.0000000000
100
AcDbArc
50
6.9810574068
51
90.0000000000
0
ARC
5
3B2
100
AcDbEntity
8
0
100
AcDbCircle
62
7
6
CONTINUOUS
10
106.2175885313
20
61.1231094508
40
3.0000000000
100
AcDbArc
50
90.0000000000
51
173.0189425932
0
ARC
5
3B3
100
AcDbEntity
8
0
100
AcDbCircle
62
7
6
CONTINUOUS
10
62.7980636456
20
84.0226479338
40
3.0000000000
100
AcDbArc
50
157.5000000000
51
202.5000000000
0
ARC
5
3B4
100
AcDbEntity
8
0
100
AcDbCircle
62
7
6
CONTINUOUS
10
112.5881048591
20
84.0226479338
40
3.0000000000
100
AcDbArc
50
337.5000000000
51
22.5000000000
0
ARC
5
3B5
100
AcDbEntity
8
0
100
AcDbCircle
62
7
6
CONTINUOUS
10
69.1299030452
20
66.1231094508
40
2.0000000000
100
AcDbArc
50
202.5000000000
51
270.0000000000
0
ARC
5
3B6
100
AcDbEntity
8
0
100
AcDbCircle
62
7
6
CONTINUOUS
10
106.2562654595
20
66.1231094508
40
2.0000000000
100
AcDbArc
50
270.0000351734
51
337.5000000000
0
ARC
5
3B7
100
AcDbEntity
8
0
100
AcDbCircle
62
7
6
CONTINUOUS
10
87.6930842524
20
84.0226479338
40
15.0000000000
100
AcDbArc
50
234.2464156737
51
305.7274999592
0
ARC
5
3B8
100
AcDbEntity
8
0
100
AcDbCircle
62
7
6
CONTINUOUS
10
68.9415960665
20
102.7741361197
40
1.5000000000
100
AcDbArc
50
112.5000000000
51
157.5000000000
0
ARC
5
3B9
100
AcDbEntity
8
0
100
AcDbCircle
62
7
6
CONTINUOUS
10
106.4445724383
20
102.7741361197
40
1.5000000000
100
AcDbArc
50
22.5000000000
51
67.5000000000
0
ARC
5
3BA
100
AcDbEntity
8
0
100
AcDbCircle
62
7
6
CONTINUOUS
10
87.6930842524
20
110.5412568410
40
1.5000000000
100
AcDbArc
50
67.5000000000
51
112.5000000000
0
ARC
5
3BB
100
AcDbEntity
8
0
100
AcDbCircle
62
7
6
CONTINUOUS
10
87.6930842524
20
84.0226479338
40
15.0000000000
100
AcDbArc
50
313.5908874946
51
226.4227740398
0
ARC
5
3BC
100
AcDbEntity
8
DEFAULT_2
100
AcDbCircle
62
8
6
HIDDEN
10
184.5223238293
20
103.0226479338
40
4.0000000000
100
AcDbArc
50
180.0000000000
51
270.0000000000
0
ARC
5
3BD
100
AcDbEntity
8
DEFAULT_2
100
AcDbCircle
62
8
6
HIDDEN
10
186.5223238293
20
103.0226479338
40
4.0000000000
100
AcDbArc
50
270.0000000000
51
360.0000000000
0
ARC
5
3BE
100
AcDbEntity
8
0
100
AcDbCircle
62
7
6
CONTINUOUS
10
179.4523238293
20
55.8526479338
40
1.1700000000
100
AcDbArc
50
343.2629076439
51
90.0000000000
0
ARC
5
3BF
100
AcDbEntity
8
0
100
AcDbCircle
62
7
6
CONTINUOUS
10
191.5923238293
20
55.8526479338
40
1.1700000000
100
AcDbArc
50
90.0000000000
51
196.7370923561
0
ARC
5
3C0
100
AcDbEntity
8
0
100
AcDbCircle
62
7
6
CONTINUOUS
10
189.0223238293
20
110.5412568410
40
1.5000000000
100
AcDbArc
50
0.0000000000
51
90.0000000000
0
ARC
5
3C1
100
AcDbEntity
8
0
100
AcDbCircle
62
7
6
CONTINUOUS
10
170.5879268151
20
68.2524488281
40
1.4300000000
100
AcDbArc
50
98.8475046808
51
186.9810574068
0
ARC
5
3C2
100
AcDbEntity
8
0
100
AcDbCircle
62
7
6
CONTINUOUS
10
182.0223238293
20
110.5412568410
40
1.5000000000
100
AcDbArc
50
90.0000000000
51
180.0000000000
0
ARC
5
3C3
100
AcDbEntity
8
0
100
AcDbCircle
62
7
6
CONTINUOUS
10
200.4567208435
20
68.2524488281
40
1.4300000000
100
AcDbArc
50
353.0189425932
51
81.1524953192
0
ARC
5
3C4
100
AcDbEntity
8
0
100
AcDbCircle
62
7
6
CONTINUOUS
10
202.5223238293
20
81.5226479338
40
12.0000000000
100
AcDbArc
50
180.0000000000
51
261.1524953192
0
ARC
5
3C5
100
AcDbEntity
8
0
100
AcDbCircle
62
7
6
CONTINUOUS
10
168.5223238293
20
81.5226479338
40
12.0000000000
100
AcDbArc
50
278.8475046808
51
360.0000000000
0
SPLINE
5
3C6
100
AcDbEntity
8
0
100
AcDbSpline
62
7
6
CONTINUOUS
70
0
71
3
72
9
73
5
74
3
42
0.0000001000
43
0.0000001000
44
0.0000000001
12
-1.4908001633
22
-1.4192177650
32
0.0000000000
13
-1.6709476780
23
-1.2019143268
33
0.0000000000
40
0.0000000000
40
0.0000000000
40
0.0000000000
40
0.0000000000
40
0.4929521666
40
1.0000000000
40
1.0000000000
40
1.0000000000
40
1.0000000000
10
98.0356495656
20
73.1584248776
30
0.0000000000
10
97.7906851754
20
72.9252227202
30
0.0000000000
10
97.2795064765
20
72.4666253568
30
0.0000000000
10
96.7344746742
20
72.0487472127
30
0.0000000000
10
96.4520578742
20
71.8456045276
30
0.0000000000
11
98.0356495656
21
73.1584248776
31
0.0000000000
11
97.2784855147
21
72.4829844376
31
0.0000000000
11
96.4520578742
21
71.8456045276
31
0.0000000000
0
SPLINE
5
3C7
100
AcDbEntity
8
0
100
AcDbSpline
62
7
6
CONTINUOUS
70
0
71
3
72
9
73
5
74
3
42
0.0000001000
43
0.0000001000
44
0.0000000001
12
-1.6619596251
22
1.1965976719
32
0.0000000000
13
-1.4836036442
23
1.4116926049
33
0.0000000000
40
0.0000000000
40
0.0000000000
40
0.0000000000
40
0.0000000000
40
0.5067502689
40
1.0000000000
40
1.0000000000
40
1.0000000000
40
1.0000000000
10
78.9285686081
20
71.8495928474
30
0.0000000000
10
78.6478357791
20
72.0517182447
30
0.0000000000
10
78.1056979857
20
72.4676532932
30
0.0000000000
10
77.5970386950
20
72.9238534724
30
0.0000000000
10
77.3531096622
20
73.1559591383
30
0.0000000000
11
78.9285686081
21
71.8495928474
31
0.0000000000
11
78.1069759739
21
72.4836085580
31
0.0000000000
11
77.3531096622
21
73.1559591383
31
0.0000000000
0
ENDSEC
0
SECTION
2
OBJECTS
0
DICTIONARY
5
3C8
100
AcDbDictionary
3
ACAD_GROUP
350
3C9
3
ACAD_MLINESTYLE
350
3CA
0
DICTIONARY
5
3C9
102
{ACAD_REACTORS
330
3C8
102
}
100
AcDbDictionary
0
DICTIONARY
5
3CA
102
{ACAD_REACTORS
330
3C8
102
}
100
AcDbDictionary
3
STANDARD
350
3CB
0
MLINESTYLE
5
3CB
102
{ACAD_REACTORS
330
3CA
102
}
100
AcDbMlineStyle
2
STANDARD
70
0
3

62
256
51
90.0
52
90.0
71
2
49
0.5
62
256
6
BYLAYER
49
-0.5
62
256
6
BYLAYER
0
ENDSEC
0
EOF
