999
DXF file: VT-22_59078_m31505-p-1.dxf
999
Pro/ENGINEER 2010140 by Parametric Technology Corporation
  0
SECTION
  2
HEADER
  9
$ACADVER
  1
AC1015
  9
$DWGCODEPAGE
  3
ANSI_1252
  9
$EXTMAX
 10
1189.0
 20
841.0
 30
0.0
  9
$EXTMIN
 10
0.0
 20
0.0
 30
0.0
  9
$LIMMIN
 10
0.0
 20
0.0
  9
$LIMMAX
 10
1189.0
 20
841.0
  9
$VIEWCTR
 10
594.5
 20
420.5
  9
$VIEWSIZE
 40
841.0
  9
$CLAYER
  8
0
  9
$LTSCALE
 40
65.395
  9
$CELTYPE
  6
BYLAYER
  9
$DIMSCALE
 40
1.0
  9
$DIMASZ
 40
3.5
  9
$DIMEXO
 40
7.43125
  9
$DIMDLI
 40
45.182
  9
$DIMEXE
 40
21.402
  9
$DIMCEN
 40
10.701
  9
$DIMLFAC
 40
1.0
  9
$DIMBLK
  1
_FILLED
  9
$DIMTXT
 40
3.5
  9
$DIMTOL
 70
1
  9
$DIMLIM
 70
0
  9
$DIMTFAC
 40
1.0
  9
$DIMTP
 40
0.005
  9
$DIMTM
 40
0.005
  9
$PDMODE
 70
3
  9
$PDSIZE
 40
0.3125
  9
$HANDSEED
  5
331
  9
$TILEMODE
 70
1
  9
$MEASUREMENT
 70
1
  9
$INSUNITS
 70
4
  0
ENDSEC
  0
SECTION
  2
CLASSES
  0
CLASS
  1
ACDBDICTIONARYWDFLT
  2
AcDbDictionaryWithDefault
  3
AutoCAD 2000
 90
0
280
0
281
0
  0
CLASS
  1
ACDBPLACEHOLDER
  2
AcDbPlaceHolder
  3
AutoCAD 2000
 90
0
280
0
281
0
  0
CLASS
  1
LAYOUT
  2
AcDbLayout
  3
AutoCAD 2000
 90
0
280
0
281
0
  0
ENDSEC
  0
SECTION
  2
TABLES
  0
TABLE
  2
VPORT
  5
8
100
AcDbSymbolTable
 70
2
  0
VPORT
  5
1F4
100
AcDbSymbolTableRecord
100
AcDbViewportTableRecord
  2
*ACTIVE
 70
0
 10
0.0
 20
0.0
 11
1.0
 21
1.0
 12
594.5
 22
420.5
 13
0.0
 23
0.0
 14
1.0
 24
1.0
 15
0.0
 25
0.0
 16
0.0
 26
0.0
 36
1.0
 17
0.0
 27
0.0
 37
0.0
 40
841.0
 41
1.4137931034
 42
50.0
 43
0.0
 44
0.0
 50
0.0
 51
0.0
 71
0
 72
100
 73
1
 74
1
 75
0
 76
0
 77
0
 78
0
  0
ENDTAB
  0
TABLE
  2
LTYPE
  5
5
100
AcDbSymbolTable
 70
6
  0
LTYPE
  5
14
100
AcDbSymbolTableRecord
100
AcDbLinetypeTableRecord
  2
BYBLOCK
 70
0
  3

 72
65
 73
0
 40
0.0
  0
LTYPE
  5
15
100
AcDbSymbolTableRecord
100
AcDbLinetypeTableRecord
  2
BYLAYER
 70
0
  3

 72
65
 73
0
 40
0.0
  0
LTYPE
  5
16
100
AcDbSymbolTableRecord
100
AcDbLinetypeTableRecord
  2
CONTINUOUS
 70
64
  3
Solid line
 72
65
 73
0
 40
0.0
  0
LTYPE
  5
1F5
100
AcDbSymbolTableRecord
100
AcDbLinetypeTableRecord
  2
CENTER
 70
64
  3
____ _ ____ _ ____ _ ____ _ ____ _ ____ _ ____
 72
65
 73
4
 40
0.6
 49
0.375
 74
0
 49
-0.075
 74
0
 49
0.075
 74
0
 49
-0.075
 74
0
  0
LTYPE
  5
1F6
100
AcDbSymbolTableRecord
100
AcDbLinetypeTableRecord
  2
HIDDEN
 70
64
  3
- - - - - - - - - - - - - - - - - - - -
 72
65
 73
2
 40
0.2
 49
0.1
 74
0
 49
-0.1
 74
0
  0
LTYPE
  5
1F7
100
AcDbSymbolTableRecord
100
AcDbLinetypeTableRecord
  2
PHANTOM
 70
64
  3
_____ _ _ _____ _ _ _____ _ _ _____
 72
65
 73
6
 40
0.8
 49
0.45
 74
0
 49
-0.05
 74
0
 49
0.1
 74
0
 49
-0.05
 74
0
 49
0.1
 74
0
 49
-0.05
 74
0
  0
LTYPE
  5
1F8
100
AcDbSymbolTableRecord
100
AcDbLinetypeTableRecord
  2
DOT
 70
64
  3
. . . . . . . . . . . . . . . . . . . .
 72
65
 73
2
 40
0.2
 49
0.1
 74
0
 49
-0.1
 74
0
  0
LTYPE
  5
1F9
100
AcDbSymbolTableRecord
100
AcDbLinetypeTableRecord
  2
DASHED
 70
64
  3
- - - - - - - - - - - - - - - - - - - -
 72
65
 73
2
 40
0.2
 49
0.1
 74
0
 49
-0.1
 74
0
  0
ENDTAB
  0
TABLE
  2
LAYER
  5
2
100
AcDbSymbolTable
 70
36
  0
LAYER
  5
10
100
AcDbSymbolTableRecord
100
AcDbLayerTableRecord
  2
0
 70
0
 62
7
  6
CONTINUOUS
370
-3
390
F
  0
LAYER
  5
1FA
100
AcDbSymbolTableRecord
100
AcDbLayerTableRecord
  2
DEFAULT_1
 70
0
 62
7
  6
CENTER
370
-3
390
F
  0
LAYER
  5
1FB
100
AcDbSymbolTableRecord
100
AcDbLayerTableRecord
  2
DEFAULT_2
 70
0
 62
8
  6
HIDDEN
370
-3
390
F
  0
LAYER
  5
1FC
100
AcDbSymbolTableRecord
100
AcDbLayerTableRecord
  2
DEFAULT_3
 70
0
 62
7
  6
PHANTOM
370
-3
390
F
  0
LAYER
  5
1FD
100
AcDbSymbolTableRecord
100
AcDbLayerTableRecord
  2
BEZUGSACHSEN
 70
0
 62
7
  6
CONTINUOUS
370
-3
390
F
  0
LAYER
  5
1FE
100
AcDbSymbolTableRecord
100
AcDbLayerTableRecord
  2
BEZUGSEBENEN
 70
0
 62
7
  6
CONTINUOUS
370
-3
390
F
  0
LAYER
  5
1FF
100
AcDbSymbolTableRecord
100
AcDbLayerTableRecord
  2
HILFEN
 70
0
 62
7
  6
CONTINUOUS
370
-3
390
F
  0
LAYER
  5
200
100
AcDbSymbolTableRecord
100
AcDbLayerTableRecord
  2
PLATZIERUNG
 70
0
 62
7
  6
CONTINUOUS
370
-3
390
F
  0
LAYER
  5
201
100
AcDbSymbolTableRecord
100
AcDbLayerTableRecord
  2
T_STARTBEZUEGE
 70
0
 62
7
  6
CONTINUOUS
370
-3
390
F
  0
ENDTAB
  0
TABLE
  2
STYLE
  5
3
100
AcDbSymbolTable
 70
1
  0
STYLE
  5
11
100
AcDbSymbolTableRecord
100
AcDbTextStyleTableRecord
  2
STANDARD
 70
0
 40
0.0
 41
0.7
 50
0.0
 71
0
 42
0.2
  3
txt
  4

  0
STYLE
  5
202
100
AcDbSymbolTableRecord
100
AcDbTextStyleTableRecord
  2
TEXTSTYLE_1
 70
0
 40
0.0
 41
0.8
 50
0.0
 71
0
 42
0.2
  3
gdt
  4

  0
ENDTAB
  0
TABLE
  2
VIEW
  5
6
100
AcDbSymbolTable
 70
0
  0
ENDTAB
  0
TABLE
  2
UCS
  5
7
100
AcDbSymbolTable
 70
0
  0
ENDTAB
  0
TABLE
  2
APPID
  5
9
100
AcDbSymbolTable
 70
1
  0
APPID
  5
203
100
AcDbSymbolTableRecord
100
AcDbRegAppTableRecord
  2
ACAD
 70
0
  0
ENDTAB
  0
TABLE
  2
BLOCK_RECORD
  5
1
100
AcDbSymbolTable
 70
0
  0
BLOCK_RECORD
  5
204
100
AcDbSymbolTableRecord
100
AcDbBlockTableRecord
  2
*Model_Space
  0
BLOCK_RECORD
  5
205
100
AcDbSymbolTableRecord
100
AcDbBlockTableRecord
  2
*Paper_Space
  0
ENDTAB
  0
TABLE
  2
DIMSTYLE
  5
A
100
AcDbSymbolTable
 70
1
100
AcDbDimStyleTable
 71
0
  0
DIMSTYLE
105
206
100
AcDbSymbolTableRecord
100
AcDbDimStyleTableRecord
  2
STANDARD
 70
0
  3

  4

 40
1.0
 41
3.5
 42
0.0625
 43
0.38
 44
0.18
 45
0.0
 46
0.0
 47
0.005
 48
0.005
140
3.5
141
0.09
142
0.0
143
25.4
144
1.0
145
0.0
146
1.0
147
0.09
 71
1.0
 72
0.0
 73
0
 74
0
 75
0
 76
0
 77
1
 78
8
170
0
171
2
172
0
173
0
174
0
175
0
176
0
177
0
178
5
270
2
271
3
272
3
273
2
274
2
275
0
280
0
281
0
282
0
283
1
284
8
285
0
286
0
287
3
288
0
340
11
  0
ENDTAB
  0
ENDSEC
  0
SECTION
  2
BLOCKS
  0
BLOCK
  5
20
100
AcDbEntity
  8
0
100
AcDbBlockBegin
  2
*Model_Space
 70
0
 10
0.0
 20
0.0
 30
0.0
  3
*Model_Space
  1

  0
ENDBLK
  5
21
100
AcDbEntity
  8
0
100
AcDbBlockEnd
  0
BLOCK
  5
1C
100
AcDbEntity
  8
0
100
AcDbBlockBegin
  2
*Paper_Space
 70
0
 10
0.0
 20
0.0
 30
0.0
  3
*Paper_Space
  1

  0
ENDBLK
  5
1D
100
AcDbEntity
  8
0
100
AcDbBlockEnd
  0
ENDSEC
  0
SECTION
  2
ENTITIES
  0
MTEXT
  5
207
100
AcDbEntity
  8
0
100
AcDbMText
 62
5
  6
CONTINUOUS
  7
STANDARD
 71
1
 72
1
 10
826.6618641026
 20
287.4713831188
 30
0.0
 11
1.0
 21
0.0
 31
0.0
 44
0.9
  1
RUD VT-22 32T
 40
10.0
 41
105.7142857143
  0
MTEXT
  5
208
100
AcDbEntity
  8
0
100
AcDbMText
 62
5
  6
CONTINUOUS
  7
STANDARD
 71
1
 72
1
 10
280.076425876
 20
286.1598623425
 30
0.0
 11
1.0
 21
0.0
 31
0.0
 44
0.9
  1
RUD VT-22 32T
 40
10.0
 41
105.7142857143
  0
MTEXT
  5
209
100
AcDbEntity
  8
0
100
AcDbMText
 62
5
  6
CONTINUOUS
  7
STANDARD
 71
1
 72
1
 10
283.166814221
 20
-116.2772166371
 30
0.0
 11
0.8660254038
 21
-0.5
 31
0.0
 44
0.9
  1
RUD VT-22 32T
 40
10.0
 41
105.7142857143
  0
LINE
  5
20A
100
AcDbEntity
  8
0
100
AcDbLine
 62
7
  6
CONTINUOUS
 10
0.0
 20
0.0
 11
0.0
 21
841.0
  0
LINE
  5
20B
100
AcDbEntity
  8
0
100
AcDbLine
 62
7
  6
CONTINUOUS
 10
0.0
 20
0.0
 11
1189.0
 21
0.0
  0
LINE
  5
20C
100
AcDbEntity
  8
0
100
AcDbLine
 62
7
  6
CONTINUOUS
 10
0.0
 20
841.0
 11
1189.0
 21
841.0
  0
LINE
  5
20D
100
AcDbEntity
  8
0
100
AcDbLine
 62
7
  6
CONTINUOUS
 10
1189.0
 20
0.0
 11
1189.0
 21
841.0
  0
LINE
  5
20E
100
AcDbEntity
  8
0
100
AcDbLine
 62
7
  6
CONTINUOUS
 10
972.5955096106
 20
195.9264728974
 11
892.5955096106
 21
195.9264728974
  0
LINE
  5
20F
100
AcDbEntity
  8
0
100
AcDbLine
 62
7
  6
CONTINUOUS
 10
867.0955096106
 20
195.9264728974
 11
787.0955096106
 21
195.9264728974
  0
LINE
  5
210
100
AcDbEntity
  8
0
100
AcDbLine
 62
7
  6
CONTINUOUS
 10
705.5570893521
 20
255.9264728974
 11
1054.4339298691
 21
255.9264728974
  0
LINE
  5
211
100
AcDbEntity
  8
0
100
AcDbLine
 62
7
  6
CONTINUOUS
 10
705.5570893521
 20
255.9264728974
 11
705.5570893521
 21
305.9264728974
  0
LINE
  5
212
100
AcDbEntity
  8
0
100
AcDbLine
 62
7
  6
CONTINUOUS
 10
722.9320893521
 20
295.1931075708
 11
722.9320893521
 21
305.9264728974
  0
LINE
  5
213
100
AcDbEntity
  8
0
100
AcDbLine
 62
7
  6
CONTINUOUS
 10
705.5570893521
 20
305.9264728974
 11
1054.4339298691
 21
305.9264728974
  0
LINE
  5
214
100
AcDbEntity
  8
0
100
AcDbLine
 62
7
  6
CONTINUOUS
 10
735.6820893521
 20
295.1931075708
 11
735.6820893521
 21
305.9264728974
  0
LINE
  5
215
100
AcDbEntity
  8
0
100
AcDbLine
 62
7
  6
CONTINUOUS
 10
753.0570893521
 20
255.9264728974
 11
753.0570893521
 21
305.9264728974
  0
LINE
  5
216
100
AcDbEntity
  8
0
100
AcDbLine
 62
7
  6
CONTINUOUS
 10
787.0955096106
 20
255.9264728974
 11
787.0955096106
 21
195.9264728974
  0
LINE
  5
217
100
AcDbEntity
  8
0
100
AcDbLine
 62
7
  6
CONTINUOUS
 10
796.9955096106
 20
331.9264728974
 11
796.9955096106
 21
305.9264728974
  0
LINE
  5
218
100
AcDbEntity
  8
0
100
AcDbLine
 62
7
  6
CONTINUOUS
 10
800.0583780462
 20
255.9264728974
 11
800.0583780462
 21
305.9264728974
  0
LINE
  5
219
100
AcDbEntity
  8
0
100
AcDbLine
 62
7
  6
CONTINUOUS
 10
848.9955096106
 20
331.9264728974
 11
848.9955096106
 21
305.9264728974
  0
LINE
  5
21A
100
AcDbEntity
  8
0
100
AcDbLine
 62
7
  6
CONTINUOUS
 10
854.4955096106
 20
337.479392098
 11
854.4955096106
 21
738.4264728974
  0
LINE
  5
21B
100
AcDbEntity
  8
0
100
AcDbLine
 62
7
  6
CONTINUOUS
 10
867.0955096106
 20
255.9264728974
 11
867.0955096106
 21
195.9264728974
  0
LINE
  5
21C
100
AcDbEntity
  8
0
100
AcDbLine
 62
7
  6
CONTINUOUS
 10
892.5955096106
 20
255.9264728974
 11
892.5955096106
 21
195.9264728974
  0
LINE
  5
21D
100
AcDbEntity
  8
0
100
AcDbLine
 62
7
  6
CONTINUOUS
 10
905.4955096106
 20
337.479392098
 11
905.4955096106
 21
738.4264728974
  0
LINE
  5
21E
100
AcDbEntity
  8
0
100
AcDbLine
 62
7
  6
CONTINUOUS
 10
910.9955096106
 20
305.9264728974
 11
910.9955096106
 21
331.9264728974
  0
LINE
  5
21F
100
AcDbEntity
  8
0
100
AcDbLine
 62
7
  6
CONTINUOUS
 10
959.9326411751
 20
255.9264728974
 11
959.9326411751
 21
305.9264728974
  0
LINE
  5
220
100
AcDbEntity
  8
0
100
AcDbLine
 62
7
  6
CONTINUOUS
 10
962.9955096106
 20
305.9264728974
 11
962.9955096106
 21
331.9264728974
  0
LINE
  5
221
100
AcDbEntity
  8
0
100
AcDbLine
 62
7
  6
CONTINUOUS
 10
972.5955096106
 20
255.9264728974
 11
972.5955096106
 21
195.9264728974
  0
LINE
  5
222
100
AcDbEntity
  8
0
100
AcDbLine
 62
7
  6
CONTINUOUS
 10
1006.9339298691
 20
255.9264728974
 11
1006.9339298691
 21
305.9264728974
  0
LINE
  5
223
100
AcDbEntity
  8
0
100
AcDbLine
 62
7
  6
CONTINUOUS
 10
1024.3089298691
 20
295.1931075708
 11
1024.3089298691
 21
305.9264728974
  0
LINE
  5
224
100
AcDbEntity
  8
0
100
AcDbLine
 62
7
  6
CONTINUOUS
 10
1037.0589298691
 20
295.1931075708
 11
1037.0589298691
 21
305.9264728974
  0
LINE
  5
225
100
AcDbEntity
  8
0
100
AcDbLine
 62
7
  6
CONTINUOUS
 10
1054.4339298691
 20
255.9264728974
 11
1054.4339298691
 21
305.9264728974
  0
LINE
  5
226
100
AcDbEntity
  8
0
100
AcDbLine
 62
7
  6
CONTINUOUS
 10
326.6182840071
 20
195.9264728974
 11
238.6182840071
 21
195.9264728974
  0
LINE
  5
227
100
AcDbEntity
  8
0
100
AcDbLine
 62
7
  6
CONTINUOUS
 10
154.4820773273
 20
255.9264728974
 11
456.6182840071
 21
255.9264728974
  0
LINE
  5
228
100
AcDbEntity
  8
0
100
AcDbLine
 62
7
  6
CONTINUOUS
 10
218.8783708267
 20
255.9176744278
 11
217.421272455
 21
256.9479985673
  0
LINE
  5
229
100
AcDbEntity
  8
BEZUGSACHSEN
100
AcDbLine
 62
7
  6
CONTINUOUS
 10
199.5764601088
 20
267.6764728974
 11
210.8088365422
 21
267.6764728974
  0
LINE
  5
22A
100
AcDbEntity
  8
BEZUGSACHSEN
100
AcDbLine
 62
7
  6
CONTINUOUS
 10
199.5764601088
 20
294.1764728974
 11
207.0016386307
 21
294.1764728974
  0
LINE
  5
22B
100
AcDbEntity
  8
0
100
AcDbLine
 62
7
  6
CONTINUOUS
 10
154.4820773273
 20
305.9264728974
 11
456.6182840071
 21
305.9264728974
  0
LINE
  5
22C
100
AcDbEntity
  8
0
100
AcDbLine
 62
7
  6
CONTINUOUS
 10
136.6182840071
 20
457.9264728974
 11
136.6182840071
 21
617.9264728974
  0
LINE
  5
22D
100
AcDbEntity
  8
0
100
AcDbLine
 62
7
  6
CONTINUOUS
 10
154.4820773273
 20
255.9264728974
 11
154.4820773273
 21
305.9264728974
  0
LINE
  5
22E
100
AcDbEntity
  8
0
100
AcDbLine
 62
7
  6
CONTINUOUS
 10
184.5764601088
 20
295.1931075708
 11
184.5764601088
 21
305.9264728974
  0
LINE
  5
22F
100
AcDbEntity
  8
0
100
AcDbLine
 62
7
  6
CONTINUOUS
 10
187.6182840071
 20
457.9264728974
 11
187.6182840071
 21
617.9264728974
  0
LINE
  5
230
100
AcDbEntity
  8
0
100
AcDbLine
 62
7
  6
CONTINUOUS
 10
206.6601079053
 20
295.1931075708
 11
206.6601079053
 21
305.9264728974
  0
LINE
  5
231
100
AcDbEntity
  8
0
100
AcDbLine
 62
7
  6
CONTINUOUS
 10
236.7544906868
 20
255.9264728974
 11
236.7544906868
 21
305.9264728974
  0
LINE
  5
232
100
AcDbEntity
  8
0
100
AcDbLine
 62
7
  6
CONTINUOUS
 10
238.6182840071
 20
255.9264728974
 11
238.6182840071
 21
195.9264728974
  0
LINE
  5
233
100
AcDbEntity
  8
0
100
AcDbLine
 62
7
  6
CONTINUOUS
 10
256.6182840071
 20
305.9264728974
 11
256.6182840071
 21
388.9264728974
  0
LINE
  5
234
100
AcDbEntity
  8
0
100
AcDbLine
 62
7
  6
CONTINUOUS
 10
263.8906973666
 20
255.9264728974
 11
263.8906973666
 21
305.9264728974
  0
LINE
  5
235
100
AcDbEntity
  8
0
100
AcDbLine
 62
7
  6
CONTINUOUS
 10
308.6182840071
 20
305.9264728974
 11
308.6182840071
 21
388.9264728974
  0
LINE
  5
236
100
AcDbEntity
  8
0
100
AcDbLine
 62
7
  6
CONTINUOUS
 10
318.6182840071
 20
255.9264728974
 11
318.6182840071
 21
195.9264728974
  0
LINE
  5
237
100
AcDbEntity
  8
0
100
AcDbLine
 62
7
  6
CONTINUOUS
 10
326.6182840071
 20
255.9264728974
 11
326.6182840071
 21
195.9264728974
  0
LINE
  5
238
100
AcDbEntity
  8
0
100
AcDbLine
 62
7
  6
CONTINUOUS
 10
377.6182840071
 20
617.9264728974
 11
377.6182840071
 21
457.9264728974
  0
LINE
  5
239
100
AcDbEntity
  8
0
100
AcDbLine
 62
7
  6
CONTINUOUS
 10
402.3458706475
 20
255.9264728974
 11
402.3458706475
 21
305.9264728974
  0
LINE
  5
23A
100
AcDbEntity
  8
0
100
AcDbLine
 62
7
  6
CONTINUOUS
 10
428.6182840071
 20
617.9264728974
 11
428.6182840071
 21
457.9264728974
  0
LINE
  5
23B
100
AcDbEntity
  8
0
100
AcDbLine
 62
7
  6
CONTINUOUS
 10
456.6182840071
 20
255.9264728974
 11
456.6182840071
 21
305.9264728974
  0
LINE
  5
23C
100
AcDbEntity
  8
0
100
AcDbLine
 62
7
  6
CONTINUOUS
 10
236.7544906868
 20
-49.5376562254
 11
206.6601079053
 21
-66.9126562254
  0
LINE
  5
23D
100
AcDbEntity
  8
0
100
AcDbLine
 62
7
  6
CONTINUOUS
 10
184.5764601088
 20
-79.6626562254
 11
154.4820773273
 21
-97.0376562254
  0
LINE
  5
23E
100
AcDbEntity
  8
0
100
AcDbLine
 62
7
  6
CONTINUOUS
 10
154.4820773273
 20
-350.9144967424
 11
184.5764601088
 21
-368.2894967424
  0
LINE
  5
23F
100
AcDbEntity
  8
0
100
AcDbLine
 62
7
  6
CONTINUOUS
 10
206.6601079053
 20
-381.0394967424
 11
236.7544906868
 21
-398.4144967424
  0
LINE
  5
240
100
AcDbEntity
  8
BEZUGSACHSEN
100
AcDbLine
 62
7
  6
CONTINUOUS
 10
215.0351079053
 20
-81.4185817388
 11
192.9514601088
 21
-94.1685817388
  0
LINE
  5
241
100
AcDbEntity
  8
BEZUGSACHSEN
100
AcDbLine
 62
7
  6
CONTINUOUS
 10
192.9514601088
 20
-353.783571229
 11
215.0351079053
 21
-366.533571229
  0
LINE
  5
242
100
AcDbEntity
  8
BEZUGSACHSEN
100
AcDbLine
 62
7
  6
CONTINUOUS
 10
228.2851079053
 20
-104.3682549391
 11
206.2014601088
 21
-117.1182549391
  0
LINE
  5
243
100
AcDbEntity
  8
BEZUGSACHSEN
100
AcDbLine
 62
7
  6
CONTINUOUS
 10
206.2014601088
 20
-330.8338980287
 11
228.2851079053
 21
-343.5838980287
  0
LINE
  5
244
100
AcDbEntity
  8
0
100
AcDbLine
 62
7
  6
CONTINUOUS
 10
181.6182840071
 20
-144.0389449194
 11
181.6182840071
 21
-198.4760764839
  0
LINE
  5
245
100
AcDbEntity
  8
0
100
AcDbLine
 62
7
  6
CONTINUOUS
 10
181.6182840071
 20
-249.4760764839
 11
181.6182840071
 21
-303.9132080483
  0
LINE
  5
246
100
AcDbEntity
  8
0
100
AcDbLine
 62
7
  6
CONTINUOUS
 10
186.6182840071
 20
-182.7260764839
 11
186.6182840071
 21
-187.4760783912
  0
LINE
  5
247
100
AcDbEntity
  8
0
100
AcDbLine
 62
7
  6
CONTINUOUS
 10
186.6182840071
 20
-190.3510745765
 11
186.6182840071
 21
-190.8510783912
  0
LINE
  5
248
100
AcDbEntity
  8
0
100
AcDbLine
 62
7
  6
CONTINUOUS
 10
186.6182840071
 20
-196.1010783912
 11
186.6182840071
 21
-196.3510745765
  0
LINE
  5
249
100
AcDbEntity
  8
0
100
AcDbLine
 62
7
  6
CONTINUOUS
 10
186.6182840071
 20
-250.9760764839
 11
186.6182840071
 21
-253.9760764839
  0
LINE
  5
24A
100
AcDbEntity
  8
0
100
AcDbLine
 62
7
  6
CONTINUOUS
 10
186.6182840071
 20
-254.9760762455
 11
186.6182840071
 21
-255.7260762455
  0
LINE
  5
24B
100
AcDbEntity
  8
0
100
AcDbLine
 62
7
  6
CONTINUOUS
 10
186.6182840071
 20
-258.7260762455
 11
186.6182840071
 21
-259.4760766031
  0
LINE
  5
24C
100
AcDbEntity
  8
0
100
AcDbLine
 62
7
  6
CONTINUOUS
 10
186.6182840071
 20
-262.2260764839
 11
186.6182840071
 21
-265.2260764839
  0
LINE
  5
24D
100
AcDbEntity
  8
0
100
AcDbLine
 62
7
  6
CONTINUOUS
 10
187.2565818033
 20
-264.4760764839
 11
187.2565818033
 21
-262.1010766031
  0
LINE
  5
24E
100
AcDbEntity
  8
0
100
AcDbLine
 62
7
  6
CONTINUOUS
 10
187.2565818033
 20
-196.4760783912
 11
187.2565818033
 21
-195.9760745765
  0
LINE
  5
24F
100
AcDbEntity
  8
0
100
AcDbLine
 62
7
  6
CONTINUOUS
 10
187.2565818033
 20
-190.9760764839
 11
187.2565818033
 21
-190.4760783912
  0
LINE
  5
250
100
AcDbEntity
  8
0
100
AcDbLine
 62
7
  6
CONTINUOUS
 10
187.2565818033
 20
-187.4760783912
 11
187.2565818033
 21
-185.4760745765
  0
LINE
  5
251
100
AcDbEntity
  8
0
100
AcDbLine
 62
7
  6
CONTINUOUS
 10
187.2565818033
 20
-184.7260745765
 11
187.2565818033
 21
-182.7260764839
  0
LINE
  5
252
100
AcDbEntity
  8
0
100
AcDbLine
 62
7
  6
CONTINUOUS
 10
187.3842413626
 20
-253.2260764839
 11
187.3842413626
 21
-250.9760764839
  0
LINE
  5
253
100
AcDbEntity
  8
0
100
AcDbLine
 62
7
  6
CONTINUOUS
 10
188.0225391588
 20
-198.3510783912
 11
188.0225391588
 21
-197.7260764839
  0
LINE
  5
254
100
AcDbEntity
  8
0
100
AcDbLine
 62
7
  6
CONTINUOUS
 10
188.0225391588
 20
-192.8510764839
 11
188.0225391588
 21
-192.2260745765
  0
LINE
  5
255
100
AcDbEntity
  8
0
100
AcDbLine
 62
7
  6
CONTINUOUS
 10
186.7459435663
 20
-195.2260745765
 11
186.6182840071
 21
-196.1010783912
  0
LINE
  5
256
100
AcDbEntity
  8
0
100
AcDbLine
 62
7
  6
CONTINUOUS
 10
186.7459435663
 20
-189.6010745765
 11
186.6182840071
 21
-190.3510745765
  0
LINE
  5
257
100
AcDbEntity
  8
0
100
AcDbLine
 62
7
  6
CONTINUOUS
 10
189.8097733459
 20
-195.9760745765
 11
189.9374329052
 21
-195.2260745765
  0
LINE
  5
258
100
AcDbEntity
  8
0
100
AcDbLine
 62
7
  6
CONTINUOUS
 10
187.2565818033
 20
-190.4760783912
 11
187.3842413626
 21
-189.8510764839
  0
LINE
  5
259
100
AcDbEntity
  8
0
100
AcDbLine
 62
7
  6
CONTINUOUS
 10
187.2565818033
 20
-195.9760745765
 11
187.3842413626
 21
-195.3510783912
  0
LINE
  5
25A
100
AcDbEntity
  8
0
100
AcDbLine
 62
7
  6
CONTINUOUS
 10
189.8097733459
 20
-194.3510764839
 11
189.5544542274
 21
-194.9760783912
  0
LINE
  5
25B
100
AcDbEntity
  8
0
100
AcDbLine
 62
7
  6
CONTINUOUS
 10
187.0012626848
 20
-189.1010764839
 11
186.7459435663
 21
-189.6010745765
  0
LINE
  5
25C
100
AcDbEntity
  8
0
100
AcDbLine
 62
7
  6
CONTINUOUS
 10
187.0012626848
 20
-194.7260764839
 11
186.7459435663
 21
-195.2260745765
  0
LINE
  5
25D
100
AcDbEntity
  8
0
100
AcDbLine
 62
7
  6
CONTINUOUS
 10
187.3842413626
 20
-189.8510764839
 11
187.6395604811
 21
-189.4760764839
  0
LINE
  5
25E
100
AcDbEntity
  8
0
100
AcDbLine
 62
7
  6
CONTINUOUS
 10
189.6821137867
 20
-261.6010763647
 11
189.4267946682
 21
-261.1010764839
  0
LINE
  5
25F
100
AcDbEntity
  8
0
100
AcDbLine
 62
7
  6
CONTINUOUS
 10
189.0438159904
 20
-261.7260766031
 11
189.1714755497
 21
-262.1010766031
  0
LINE
  5
260
100
AcDbEntity
  8
0
100
AcDbLine
 62
7
  6
CONTINUOUS
 10
191.7246670029
 20
-256.4760762455
 11
191.8523265622
 21
-256.9760764839
  0
LINE
  5
261
100
AcDbEntity
  8
0
100
AcDbLine
 62
7
  6
CONTINUOUS
 10
192.6182840071
 20
-256.9760764839
 11
192.4906244366
 21
-256.3510767223
  0
LINE
  5
262
100
AcDbEntity
  8
0
100
AcDbLine
 62
7
  6
CONTINUOUS
 10
189.1714755497
 20
-262.1010766031
 11
189.1714755497
 21
-264.4760764839
  0
LINE
  5
263
100
AcDbEntity
  8
0
100
AcDbLine
 62
7
  6
CONTINUOUS
 10
189.2991351089
 20
-195.9760745765
 11
189.2991351089
 21
-196.4760783912
  0
LINE
  5
264
100
AcDbEntity
  8
0
100
AcDbLine
 62
7
  6
CONTINUOUS
 10
189.8097733459
 20
-196.4760783912
 11
189.8097733459
 21
-195.9760745765
  0
LINE
  5
265
100
AcDbEntity
  8
0
100
AcDbLine
 62
7
  6
CONTINUOUS
 10
189.9374329052
 20
-264.4760764839
 11
189.9374329052
 21
-262.3510765435
  0
LINE
  5
266
100
AcDbEntity
  8
0
100
AcDbLine
 62
7
  6
CONTINUOUS
 10
191.2140286765
 20
-197.8510745765
 11
191.2140286765
 21
-198.4760764839
  0
LINE
  5
267
100
AcDbEntity
  8
0
100
AcDbLine
 62
7
  6
CONTINUOUS
 10
191.8523265622
 20
-250.9760764839
 11
191.8523265622
 21
-253.2260764839
  0
LINE
  5
268
100
AcDbEntity
  8
0
100
AcDbLine
 62
7
  6
CONTINUOUS
 10
191.8523265622
 20
-256.9760764839
 11
191.8523265622
 21
-257.4760767223
  0
LINE
  5
269
100
AcDbEntity
  8
0
100
AcDbLine
 62
7
  6
CONTINUOUS
 10
191.9799861214
 20
-188.4760745765
 11
191.9799861214
 21
-191.9760783912
  0
LINE
  5
26A
100
AcDbEntity
  8
0
100
AcDbLine
 62
7
  6
CONTINUOUS
 10
191.9799861214
 20
-195.8510764839
 11
191.9799861214
 21
-196.6010764839
  0
LINE
  5
26B
100
AcDbEntity
  8
0
100
AcDbLine
 62
7
  6
CONTINUOUS
 10
192.6182840071
 20
-265.2260764839
 11
192.6182840071
 21
-264.4760764839
  0
LINE
  5
26C
100
AcDbEntity
  8
0
100
AcDbLine
 62
7
  6
CONTINUOUS
 10
192.6182840071
 20
-261.3510766031
 11
192.6182840071
 21
-260.4760763647
  0
LINE
  5
26D
100
AcDbEntity
  8
0
100
AcDbLine
 62
7
  6
CONTINUOUS
 10
192.6182840071
 20
-257.4760767223
 11
192.6182840071
 21
-256.9760764839
  0
LINE
  5
26E
100
AcDbEntity
  8
0
100
AcDbLine
 62
7
  6
CONTINUOUS
 10
192.6182840071
 20
-253.9760764839
 11
192.6182840071
 21
-250.9760764839
  0
LINE
  5
26F
100
AcDbEntity
  8
0
100
AcDbLine
 62
7
  6
CONTINUOUS
 10
192.6182840071
 20
-196.7260745765
 11
192.6182840071
 21
-195.7260783912
  0
LINE
  5
270
100
AcDbEntity
  8
0
100
AcDbLine
 62
7
  6
CONTINUOUS
 10
192.6182840071
 20
-192.9760745765
 11
192.6182840071
 21
-188.4760745765
  0
LINE
  5
271
100
AcDbEntity
  8
0
100
AcDbLine
 62
7
  6
CONTINUOUS
 10
192.6182840071
 20
-185.4760745765
 11
192.6182840071
 21
-184.7260745765
  0
LINE
  5
272
100
AcDbEntity
  8
0
100
AcDbLine
 62
7
  6
CONTINUOUS
 10
191.9799861214
 20
-196.6010764839
 11
191.8523265622
 21
-197.2260783912
  0
LINE
  5
273
100
AcDbEntity
  8
0
100
AcDbLine
 62
7
  6
CONTINUOUS
 10
186.7459435663
 20
-250.3510760071
 11
186.6182840071
 21
-250.9760764839
  0
LINE
  5
274
100
AcDbEntity
  8
0
100
AcDbLine
 62
7
  6
CONTINUOUS
 10
186.7459435663
 20
-261.6010763647
 11
186.6182840071
 21
-262.2260764839
  0
LINE
  5
275
100
AcDbEntity
  8
0
100
AcDbLine
 62
7
  6
CONTINUOUS
 10
192.4906244366
 20
-258.1010764839
 11
192.6182840071
 21
-257.4760767223
  0
LINE
  5
276
100
AcDbEntity
  8
0
100
AcDbLine
 62
7
  6
CONTINUOUS
 10
192.4906244366
 20
-197.2260783912
 11
192.6182840071
 21
-196.7260745765
  0
LINE
  5
277
100
AcDbEntity
  8
0
100
AcDbLine
 62
7
  6
CONTINUOUS
 10
187.3842413626
 20
-250.9760764839
 11
187.5119009218
 21
-250.4760769607
  0
LINE
  5
278
100
AcDbEntity
  8
0
100
AcDbLine
 62
7
  6
CONTINUOUS
 10
191.8523265622
 20
-257.4760767223
 11
191.7246670029
 21
-257.9760762455
  0
LINE
  5
279
100
AcDbEntity
  8
0
100
AcDbLine
 62
7
  6
CONTINUOUS
 10
191.8523265622
 20
-197.2260783912
 11
191.7246670029
 21
-197.4760745765
  0
LINE
  5
27A
100
AcDbEntity
  8
0
100
AcDbLine
 62
7
  6
CONTINUOUS
 10
192.2353052846
 20
-197.7260764839
 11
192.4906244366
 21
-197.2260783912
  0
LINE
  5
27B
100
AcDbEntity
  8
0
100
AcDbLine
 62
7
  6
CONTINUOUS
 10
187.3842413626
 20
-195.3510783912
 11
187.6395604811
 21
-194.9760783912
  0
LINE
  5
27C
100
AcDbEntity
  8
0
100
AcDbLine
 62
7
  6
CONTINUOUS
 10
189.9374329052
 20
-195.2260745765
 11
190.1927520237
 21
-194.8510745765
  0
LINE
  5
27D
100
AcDbEntity
  8
0
100
AcDbLine
 62
7
  6
CONTINUOUS
 10
191.9799861214
 20
-198.1010764839
 11
192.2353052846
 21
-197.7260764839
  0
LINE
  5
27E
100
AcDbEntity
  8
0
100
AcDbLine
 62
7
  6
CONTINUOUS
 10
187.5119009218
 20
-188.6010783912
 11
187.0012626848
 21
-189.1010764839
  0
LINE
  5
27F
100
AcDbEntity
  8
0
100
AcDbLine
 62
7
  6
CONTINUOUS
 10
187.5119009218
 20
-194.2260783912
 11
187.0012626848
 21
-194.7260764839
  0
LINE
  5
280
100
AcDbEntity
  8
0
100
AcDbLine
 62
7
  6
CONTINUOUS
 10
189.4267946682
 20
-261.1010764839
 11
188.9161564312
 21
-260.7260764839
  0
LINE
  5
281
100
AcDbEntity
  8
0
100
AcDbLine
 62
7
  6
CONTINUOUS
 10
188.7884968719
 20
-261.4760764839
 11
189.0438159904
 21
-261.7260766031
  0
LINE
  5
282
100
AcDbEntity
  8
0
100
AcDbLine
 62
7
  6
CONTINUOUS
 10
192.2353052846
 20
-255.8510764839
 11
191.7246670029
 21
-255.3510762455
  0
LINE
  5
283
100
AcDbEntity
  8
0
100
AcDbLine
 62
7
  6
CONTINUOUS
 10
191.469347795
 20
-256.1010762455
 11
191.7246670029
 21
-256.4760762455
  0
LINE
  5
284
100
AcDbEntity
  8
0
100
AcDbLine
 62
7
  6
CONTINUOUS
 10
191.469347795
 20
-250.1010769607
 11
191.7246670029
 21
-250.4760769607
  0
LINE
  5
285
100
AcDbEntity
  8
0
100
AcDbLine
 62
7
  6
CONTINUOUS
 10
192.4906244366
 20
-256.3510767223
 11
192.2353052846
 21
-255.8510764839
  0
LINE
  5
286
100
AcDbEntity
  8
0
100
AcDbLine
 62
7
  6
CONTINUOUS
 10
192.4906244366
 20
-250.3510760071
 11
192.2353052846
 21
-249.8510764839
  0
LINE
  5
287
100
AcDbEntity
  8
0
100
AcDbLine
 62
7
  6
CONTINUOUS
 10
189.0438159904
 20
-195.2260745765
 11
189.2991351089
 21
-195.9760745765
  0
LINE
  5
288
100
AcDbEntity
  8
0
100
AcDbLine
 62
7
  6
CONTINUOUS
 10
191.7246670029
 20
-250.4760769607
 11
191.8523265622
 21
-250.9760764839
  0
LINE
  5
289
100
AcDbEntity
  8
0
100
AcDbLine
 62
7
  6
CONTINUOUS
 10
192.6182840071
 20
-195.7260783912
 11
192.4906244366
 21
-195.2260745765
  0
LINE
  5
28A
100
AcDbEntity
  8
0
100
AcDbLine
 62
7
  6
CONTINUOUS
 10
192.6182840071
 20
-250.9760764839
 11
192.4906244366
 21
-250.3510760071
  0
LINE
  5
28B
100
AcDbEntity
  8
0
100
AcDbLine
 62
7
  6
CONTINUOUS
 10
187.3842413626
 20
-197.1010745765
 11
187.2565818033
 21
-196.4760783912
  0
LINE
  5
28C
100
AcDbEntity
  8
0
100
AcDbLine
 62
7
  6
CONTINUOUS
 10
187.3842413626
 20
-191.6010783912
 11
187.2565818033
 21
-190.9760764839
  0
LINE
  5
28D
100
AcDbEntity
  8
0
100
AcDbLine
 62
7
  6
CONTINUOUS
 10
191.8523265622
 20
-195.2260745765
 11
191.9799861214
 21
-195.8510764839
  0
LINE
  5
28E
100
AcDbEntity
  8
0
100
AcDbLine
 62
7
  6
CONTINUOUS
 10
186.6182840071
 20
-196.3510745765
 11
186.7459435663
 21
-197.2260783912
  0
LINE
  5
28F
100
AcDbEntity
  8
0
100
AcDbLine
 62
7
  6
CONTINUOUS
 10
186.6182840071
 20
-190.8510783912
 11
186.7459435663
 21
-191.7260764839
  0
LINE
  5
290
100
AcDbEntity
  8
0
100
AcDbLine
 62
7
  6
CONTINUOUS
 10
187.2565818033
 20
-262.1010766031
 11
187.3842413626
 21
-261.7260766031
  0
LINE
  5
291
100
AcDbEntity
  8
0
100
AcDbLine
 62
7
  6
CONTINUOUS
 10
187.0012626848
 20
-249.8510764839
 11
186.7459435663
 21
-250.3510760071
  0
LINE
  5
292
100
AcDbEntity
  8
0
100
AcDbLine
 62
7
  6
CONTINUOUS
 10
192.2353052846
 20
-258.6010767223
 11
192.4906244366
 21
-258.1010764839
  0
LINE
  5
293
100
AcDbEntity
  8
0
100
AcDbLine
 62
7
  6
CONTINUOUS
 10
191.7246670029
 20
-197.4760745765
 11
191.469347795
 21
-197.7260764839
  0
LINE
  5
294
100
AcDbEntity
  8
0
100
AcDbLine
 62
7
  6
CONTINUOUS
 10
187.6395604811
 20
-189.4760764839
 11
188.0225391588
 21
-189.2260745765
  0
LINE
  5
295
100
AcDbEntity
  8
0
100
AcDbLine
 62
7
  6
CONTINUOUS
 10
187.6395604811
 20
-194.9760783912
 11
188.0225391588
 21
-194.7260764839
  0
LINE
  5
296
100
AcDbEntity
  8
0
100
AcDbLine
 62
7
  6
CONTINUOUS
 10
190.1927520237
 20
-194.1010745765
 11
189.8097733459
 21
-194.3510764839
  0
LINE
  5
297
100
AcDbEntity
  8
0
100
AcDbLine
 62
7
  6
CONTINUOUS
 10
191.5970074437
 20
-198.3510783912
 11
191.9799861214
 21
-198.1010764839
  0
LINE
  5
298
100
AcDbEntity
  8
0
100
AcDbLine
 62
7
  6
CONTINUOUS
 10
191.0863691173
 20
-255.8510764839
 11
191.469347795
 21
-256.1010762455
  0
LINE
  5
299
100
AcDbEntity
  8
0
100
AcDbLine
 62
7
  6
CONTINUOUS
 10
191.0863691173
 20
-249.8510764839
 11
191.469347795
 21
-250.1010769607
  0
LINE
  5
29A
100
AcDbEntity
  8
0
100
AcDbLine
 62
7
  6
CONTINUOUS
 10
192.2353052846
 20
-249.8510764839
 11
191.8523262081
 21
-249.4760764839
  0
LINE
  5
29B
100
AcDbEntity
  8
0
100
AcDbLine
 62
7
  6
CONTINUOUS
 10
186.7459435663
 20
-197.2260783912
 11
187.0012626848
 21
-197.7260764839
  0
LINE
  5
29C
100
AcDbEntity
  8
0
100
AcDbLine
 62
7
  6
CONTINUOUS
 10
186.7459435663
 20
-191.7260764839
 11
187.0012626848
 21
-192.2260745765
  0
LINE
  5
29D
100
AcDbEntity
  8
0
100
AcDbLine
 62
7
  6
CONTINUOUS
 10
191.7246670029
 20
-194.9760783912
 11
191.8523265622
 21
-195.2260745765
  0
LINE
  5
29E
100
AcDbEntity
  8
0
100
AcDbLine
 62
7
  6
CONTINUOUS
 10
192.4906244366
 20
-195.2260745765
 11
192.2353052846
 21
-194.7260764839
  0
LINE
  5
29F
100
AcDbEntity
  8
0
100
AcDbLine
 62
7
  6
CONTINUOUS
 10
187.5119009218
 20
-250.4760769607
 11
187.7672200403
 21
-250.1010769607
  0
LINE
  5
2A0
100
AcDbEntity
  8
0
100
AcDbLine
 62
7
  6
CONTINUOUS
 10
191.7246670029
 20
-257.9760762455
 11
191.469347795
 21
-258.3510762455
  0
LINE
  5
2A1
100
AcDbEntity
  8
0
100
AcDbLine
 62
7
  6
CONTINUOUS
 10
187.1289222441
 20
-261.1010764839
 11
186.7459435663
 21
-261.6010763647
  0
LINE
  5
2A2
100
AcDbEntity
  8
0
100
AcDbLine
 62
7
  6
CONTINUOUS
 10
190.1927520237
 20
-194.8510745765
 11
190.7033904395
 21
-194.6010783912
  0
LINE
  5
2A3
100
AcDbEntity
  8
0
100
AcDbLine
 62
7
  6
CONTINUOUS
 10
191.469347795
 20
-197.7260764839
 11
191.2140286765
 21
-197.8510745765
  0
LINE
  5
2A4
100
AcDbEntity
  8
0
100
AcDbLine
 62
7
  6
CONTINUOUS
 10
188.4055181942
 20
-261.3510766031
 11
188.7884968719
 21
-261.4760764839
  0
LINE
  5
2A5
100
AcDbEntity
  8
0
100
AcDbLine
 62
7
  6
CONTINUOUS
 10
188.9161564312
 20
-260.7260764839
 11
188.5331777534
 21
-260.6010766031
  0
LINE
  5
2A6
100
AcDbEntity
  8
0
100
AcDbLine
 62
7
  6
CONTINUOUS
 10
191.7246670029
 20
-255.3510762455
 11
191.2140286765
 21
-255.1010764839
  0
LINE
  5
2A7
100
AcDbEntity
  8
0
100
AcDbLine
 62
7
  6
CONTINUOUS
 10
189.5544542274
 20
-194.9760783912
 11
189.1714755497
 21
-194.4760745765
  0
LINE
  5
2A8
100
AcDbEntity
  8
0
100
AcDbLine
 62
7
  6
CONTINUOUS
 10
187.6395604811
 20
-197.4760745765
 11
187.3842413626
 21
-197.1010745765
  0
LINE
  5
2A9
100
AcDbEntity
  8
0
100
AcDbLine
 62
7
  6
CONTINUOUS
 10
187.6395604811
 20
-191.9760783912
 11
187.3842413626
 21
-191.6010783912
  0
LINE
  5
2AA
100
AcDbEntity
  8
0
100
AcDbLine
 62
7
  6
CONTINUOUS
 10
192.2353052846
 20
-194.7260764839
 11
191.9799861214
 21
-194.3510764839
  0
LINE
  5
2AB
100
AcDbEntity
  8
0
100
AcDbLine
 62
7
  6
CONTINUOUS
 10
181.6182840071
 20
-303.9132080483
 11
154.4820773273
 21
-350.9144967424
  0
LINE
  5
2AC
100
AcDbEntity
  8
0
100
AcDbLine
 62
7
  6
CONTINUOUS
 10
187.3842417278
 20
-249.4760764839
 11
187.0012626848
 21
-249.8510764839
  0
LINE
  5
2AD
100
AcDbEntity
  8
0
100
AcDbLine
 62
7
  6
CONTINUOUS
 10
187.3842413626
 20
-261.7260766031
 11
187.6395604811
 21
-261.4760764839
  0
LINE
  5
2AE
100
AcDbEntity
  8
0
100
AcDbLine
 62
7
  6
CONTINUOUS
 10
191.7246670029
 20
-259.1010762455
 11
192.2353052846
 21
-258.6010767223
  0
LINE
  5
2AF
100
AcDbEntity
  8
0
100
AcDbLine
 62
7
  6
CONTINUOUS
 10
191.2140286765
 20
-198.4760764839
 11
191.5970074437
 21
-198.3510783912
  0
LINE
  5
2B0
100
AcDbEntity
  8
0
100
AcDbLine
 62
7
  6
CONTINUOUS
 10
402.3458706475
 20
-271.4760764839
 11
456.6182840071
 21
-271.4760764839
  0
LINE
  5
2B1
100
AcDbEntity
  8
0
100
AcDbLine
 62
7
  6
CONTINUOUS
 10
191.2140286765
 20
-255.1010764839
 11
190.5757308803
 21
-254.9760762455
  0
LINE
  5
2B2
100
AcDbEntity
  8
0
100
AcDbLine
 62
7
  6
CONTINUOUS
 10
190.5757308803
 20
-255.7260762455
 11
191.0863691173
 21
-255.8510764839
  0
LINE
  5
2B3
100
AcDbEntity
  8
0
100
AcDbLine
 62
7
  6
CONTINUOUS
 10
190.5757308803
 20
-249.7260769607
 11
191.0863691173
 21
-249.8510764839
  0
LINE
  5
2B4
100
AcDbEntity
  8
0
100
AcDbLine
 62
7
  6
CONTINUOUS
 10
187.0012626848
 20
-197.7260764839
 11
187.5119009218
 21
-198.2260745765
  0
LINE
  5
2B5
100
AcDbEntity
  8
0
100
AcDbLine
 62
7
  6
CONTINUOUS
 10
188.7884968719
 20
-194.9760783912
 11
189.0438159904
 21
-195.2260745765
  0
LINE
  5
2B6
100
AcDbEntity
  8
0
100
AcDbLine
 62
7
  6
CONTINUOUS
 10
187.0012626848
 20
-192.2260745765
 11
187.5119009218
 21
-192.7260783912
  0
LINE
  5
2B7
100
AcDbEntity
  8
0
100
AcDbLine
 62
7
  6
CONTINUOUS
 10
191.469347795
 20
-194.7260764839
 11
191.7246670029
 21
-194.9760783912
  0
LINE
  5
2B8
100
AcDbEntity
  8
0
100
AcDbLine
 62
7
  6
CONTINUOUS
 10
188.7884968719
 20
-189.4760764839
 11
191.9799861214
 21
-192.9760745765
  0
LINE
  5
2B9
100
AcDbEntity
  8
0
100
AcDbLine
 62
7
  6
CONTINUOUS
 10
191.9799861214
 20
-191.9760783912
 11
189.1714755497
 21
-188.8510745765
  0
LINE
  5
2BA
100
AcDbEntity
  8
0
100
AcDbLine
 62
7
  6
CONTINUOUS
 10
154.4820773273
 20
-97.0376562254
 11
181.6182840071
 21
-144.0389449194
  0
LINE
  5
2BB
100
AcDbEntity
  8
0
100
AcDbLine
 62
7
  6
CONTINUOUS
 10
256.6182840071
 20
-280.9760764839
 11
256.6182840071
 21
-249.4760764839
  0
LINE
  5
2BC
100
AcDbEntity
  8
0
100
AcDbLine
 62
7
  6
CONTINUOUS
 10
256.6182840071
 20
-198.4760764839
 11
256.6182840071
 21
-166.9760764839
  0
LINE
  5
2BD
100
AcDbEntity
  8
0
100
AcDbLine
 62
7
  6
CONTINUOUS
 10
187.6395604811
 20
-260.7260764839
 11
187.1289222441
 21
-261.1010764839
  0
LINE
  5
2BE
100
AcDbEntity
  8
0
100
AcDbLine
 62
7
  6
CONTINUOUS
 10
187.7672200403
 20
-250.1010769607
 11
188.1501990757
 21
-249.8510764839
  0
LINE
  5
2BF
100
AcDbEntity
  8
0
100
AcDbLine
 62
7
  6
CONTINUOUS
 10
186.6182840071
 20
-265.2260764839
 11
192.6182840071
 21
-265.2260764839
  0
LINE
  5
2C0
100
AcDbEntity
  8
0
100
AcDbLine
 62
7
  6
CONTINUOUS
 10
192.6182840071
 20
-264.4760764839
 11
189.9374329052
 21
-264.4760764839
  0
LINE
  5
2C1
100
AcDbEntity
  8
0
100
AcDbLine
 62
7
  6
CONTINUOUS
 10
189.1714755497
 20
-264.4760764839
 11
187.2565818033
 21
-264.4760764839
  0
LINE
  5
2C2
100
AcDbEntity
  8
0
100
AcDbLine
 62
7
  6
CONTINUOUS
 10
188.0225391588
 20
-261.3510766031
 11
188.4055181942
 21
-261.3510766031
  0
LINE
  5
2C3
100
AcDbEntity
  8
0
100
AcDbLine
 62
7
  6
CONTINUOUS
 10
188.5331777534
 20
-260.6010766031
 11
188.0225391588
 21
-260.6010766031
  0
LINE
  5
2C4
100
AcDbEntity
  8
0
100
AcDbLine
 62
7
  6
CONTINUOUS
 10
186.6182840071
 20
-259.4760766031
 11
190.5757308803
 21
-259.4760766031
  0
LINE
  5
2C5
100
AcDbEntity
  8
0
100
AcDbLine
 62
7
  6
CONTINUOUS
 10
190.5757308803
 20
-258.7260762455
 11
186.6182840071
 21
-258.7260762455
  0
LINE
  5
2C6
100
AcDbEntity
  8
0
100
AcDbLine
 62
7
  6
CONTINUOUS
 10
186.6182840071
 20
-255.7260762455
 11
190.5757308803
 21
-255.7260762455
  0
LINE
  5
2C7
100
AcDbEntity
  8
0
100
AcDbLine
 62
7
  6
CONTINUOUS
 10
190.5757308803
 20
-254.9760762455
 11
186.6182840071
 21
-254.9760762455
  0
LINE
  5
2C8
100
AcDbEntity
  8
0
100
AcDbLine
 62
7
  6
CONTINUOUS
 10
186.6182840071
 20
-253.9760764839
 11
192.6182840071
 21
-253.9760764839
  0
LINE
  5
2C9
100
AcDbEntity
  8
0
100
AcDbLine
 62
7
  6
CONTINUOUS
 10
188.0225391588
 20
-197.7260764839
 11
187.6395604811
 21
-197.4760745765
  0
LINE
  5
2CA
100
AcDbEntity
  8
0
100
AcDbLine
 62
7
  6
CONTINUOUS
 10
189.1714755497
 20
-194.4760745765
 11
188.7884968719
 21
-194.2260783912
  0
LINE
  5
2CB
100
AcDbEntity
  8
0
100
AcDbLine
 62
7
  6
CONTINUOUS
 10
188.0225391588
 20
-192.2260745765
 11
187.6395604811
 21
-191.9760783912
  0
LINE
  5
2CC
100
AcDbEntity
  8
0
100
AcDbLine
 62
7
  6
CONTINUOUS
 10
191.9799861214
 20
-194.3510764839
 11
191.5970074437
 21
-194.1010745765
  0
LINE
  5
2CD
100
AcDbEntity
  8
0
100
AcDbLine
 62
7
  6
CONTINUOUS
 10
213.7014601088
 20
-317.8435169719
 11
184.5764601088
 21
-368.2894967424
  0
LINE
  5
2CE
100
AcDbEntity
  8
0
100
AcDbLine
 62
7
  6
CONTINUOUS
 10
191.469347795
 20
-258.3510762455
 11
191.0863691173
 21
-258.6010767223
  0
LINE
  5
2CF
100
AcDbEntity
  8
0
100
AcDbLine
 62
7
  6
CONTINUOUS
 10
191.2140286765
 20
-259.3510763647
 11
191.7246670029
 21
-259.1010762455
  0
LINE
  5
2D0
100
AcDbEntity
  8
0
100
AcDbLine
 62
7
  6
CONTINUOUS
 10
190.5757308803
 20
-259.4760766031
 11
191.2140286765
 21
-259.3510763647
  0
LINE
  5
2D1
100
AcDbEntity
  8
0
100
AcDbLine
 62
7
  6
CONTINUOUS
 10
191.8523265622
 20
-253.2260764839
 11
187.3842413626
 21
-253.2260764839
  0
LINE
  5
2D2
100
AcDbEntity
  8
0
100
AcDbLine
 62
7
  6
CONTINUOUS
 10
188.6608373127
 20
-249.7260769607
 11
190.5757308803
 21
-249.7260769607
  0
LINE
  5
2D3
100
AcDbEntity
  8
0
100
AcDbLine
 62
7
  6
CONTINUOUS
 10
162.1182840071
 20
-249.4760764839
 11
403.1182840071
 21
-249.4760764839
  0
LINE
  5
2D4
100
AcDbEntity
  8
0
100
AcDbLine
 62
7
  6
CONTINUOUS
 10
188.2778586349
 20
-194.7260764839
 11
188.7884968719
 21
-194.9760783912
  0
LINE
  5
2D5
100
AcDbEntity
  8
0
100
AcDbLine
 62
7
  6
CONTINUOUS
 10
191.2140286765
 20
-194.6010783912
 11
191.469347795
 21
-194.7260764839
  0
LINE
  5
2D6
100
AcDbEntity
  8
0
100
AcDbLine
 62
7
  6
CONTINUOUS
 10
188.2778586349
 20
-189.2260745765
 11
188.7884968719
 21
-189.4760764839
  0
LINE
  5
2D7
100
AcDbEntity
  8
0
100
AcDbLine
 62
7
  6
CONTINUOUS
 10
189.1714755497
 20
-188.8510745765
 11
188.7884968719
 21
-188.6010783912
  0
LINE
  5
2D8
100
AcDbEntity
  8
0
100
AcDbLine
 62
7
  6
CONTINUOUS
 10
184.5764601088
 20
-79.6626562254
 11
213.7014601088
 21
-130.1086359958
  0
LINE
  5
2D9
100
AcDbEntity
  8
0
100
AcDbLine
 62
7
  6
CONTINUOUS
 10
206.6601079053
 20
-381.0394967424
 11
235.7851079053
 21
-330.5935169719
  0
LINE
  5
2DA
100
AcDbEntity
  8
0
100
AcDbLine
 62
7
  6
CONTINUOUS
 10
192.6182840071
 20
-260.4760763647
 11
189.6821137867
 21
-261.6010763647
  0
LINE
  5
2DB
100
AcDbEntity
  8
0
100
AcDbLine
 62
7
  6
CONTINUOUS
 10
189.9374329052
 20
-262.3510765435
 11
192.6182840071
 21
-261.3510766031
  0
LINE
  5
2DC
100
AcDbEntity
  8
0
100
AcDbLine
 62
7
  6
CONTINUOUS
 10
188.0225391588
 20
-260.6010766031
 11
187.6395604811
 21
-260.7260764839
  0
LINE
  5
2DD
100
AcDbEntity
  8
0
100
AcDbLine
 62
7
  6
CONTINUOUS
 10
187.6395604811
 20
-261.4760764839
 11
188.0225391588
 21
-261.3510766031
  0
LINE
  5
2DE
100
AcDbEntity
  8
0
100
AcDbLine
 62
7
  6
CONTINUOUS
 10
191.0863691173
 20
-258.6010767223
 11
190.5757308803
 21
-258.7260762455
  0
LINE
  5
2DF
100
AcDbEntity
  8
0
100
AcDbLine
 62
7
  6
CONTINUOUS
 10
188.1501990757
 20
-249.8510764839
 11
188.6608373127
 21
-249.7260769607
  0
LINE
  5
2E0
100
AcDbEntity
  8
0
100
AcDbLine
 62
7
  6
CONTINUOUS
 10
456.6182840071
 20
-236.7260764839
 11
425.1934907658
 21
-236.7260764839
  0
LINE
  5
2E1
100
AcDbEntity
  8
0
100
AcDbLine
 62
7
  6
CONTINUOUS
 10
187.5119009218
 20
-198.2260745765
 11
188.0225391588
 21
-198.3510783912
  0
LINE
  5
2E2
100
AcDbEntity
  8
0
100
AcDbLine
 62
7
  6
CONTINUOUS
 10
191.5970074437
 20
-194.1010745765
 11
191.2140286765
 21
-193.9760764839
  0
LINE
  5
2E3
100
AcDbEntity
  8
0
100
AcDbLine
 62
7
  6
CONTINUOUS
 10
235.7851079053
 20
-117.3586359958
 11
206.6601079053
 21
-66.9126562254
  0
LINE
  5
2E4
100
AcDbEntity
  8
0
100
AcDbLine
 62
7
  6
CONTINUOUS
 10
308.6182840071
 20
-280.9760764839
 11
308.6182840071
 21
-249.4760764839
  0
LINE
  5
2E5
100
AcDbEntity
  8
0
100
AcDbLine
 62
7
  6
CONTINUOUS
 10
308.6182840071
 20
-198.4760764839
 11
308.6182840071
 21
-166.9760764839
  0
LINE
  5
2E6
100
AcDbEntity
  8
0
100
AcDbLine
 62
7
  6
CONTINUOUS
 10
456.6182840071
 20
-211.2260764839
 11
425.1953704857
 21
-211.2260764839
  0
LINE
  5
2E7
100
AcDbEntity
  8
0
100
AcDbLine
 62
7
  6
CONTINUOUS
 10
188.7884968719
 20
-194.2260783912
 11
188.2778586349
 21
-194.1010745765
  0
LINE
  5
2E8
100
AcDbEntity
  8
0
100
AcDbLine
 62
7
  6
CONTINUOUS
 10
187.5119009218
 20
-192.7260783912
 11
188.0225391588
 21
-192.8510764839
  0
LINE
  5
2E9
100
AcDbEntity
  8
0
100
AcDbLine
 62
7
  6
CONTINUOUS
 10
188.7884968719
 20
-188.6010783912
 11
188.2778586349
 21
-188.4760745765
  0
LINE
  5
2EA
100
AcDbEntity
  8
0
100
AcDbLine
 62
7
  6
CONTINUOUS
 10
326.6182840071
 20
-131.0760764839
 11
326.6182840071
 21
-132.7547339519
  0
LINE
  5
2EB
100
AcDbEntity
  8
0
100
AcDbLine
 62
7
  6
CONTINUOUS
 10
162.1182840071
 20
-198.4760764839
 11
403.1182840071
 21
-198.4760764839
  0
LINE
  5
2EC
100
AcDbEntity
  8
0
100
AcDbLine
 62
7
  6
CONTINUOUS
 10
189.2991351089
 20
-196.4760783912
 11
189.8097733459
 21
-196.4760783912
  0
LINE
  5
2ED
100
AcDbEntity
  8
0
100
AcDbLine
 62
7
  6
CONTINUOUS
 10
188.0225391588
 20
-194.7260764839
 11
188.2778586349
 21
-194.7260764839
  0
LINE
  5
2EE
100
AcDbEntity
  8
0
100
AcDbLine
 62
7
  6
CONTINUOUS
 10
190.7033904395
 20
-194.6010783912
 11
191.2140286765
 21
-194.6010783912
  0
LINE
  5
2EF
100
AcDbEntity
  8
0
100
AcDbLine
 62
7
  6
CONTINUOUS
 10
188.2778586349
 20
-194.1010745765
 11
188.0225391588
 21
-194.1010745765
  0
LINE
  5
2F0
100
AcDbEntity
  8
0
100
AcDbLine
 62
7
  6
CONTINUOUS
 10
191.2140286765
 20
-193.9760764839
 11
190.7033904395
 21
-193.9760764839
  0
LINE
  5
2F1
100
AcDbEntity
  8
0
100
AcDbLine
 62
7
  6
CONTINUOUS
 10
191.9799861214
 20
-192.9760745765
 11
192.6182840071
 21
-192.9760745765
  0
LINE
  5
2F2
100
AcDbEntity
  8
0
100
AcDbLine
 62
7
  6
CONTINUOUS
 10
236.7544906868
 20
-398.4144967424
 11
263.8906973666
 21
-351.4132080483
  0
LINE
  5
2F3
100
AcDbEntity
  8
0
100
AcDbLine
 62
7
  6
CONTINUOUS
 10
188.0225391588
 20
-189.2260745765
 11
188.2778586349
 21
-189.2260745765
  0
LINE
  5
2F4
100
AcDbEntity
  8
0
100
AcDbLine
 62
7
  6
CONTINUOUS
 10
192.6182840071
 20
-188.4760745765
 11
191.9799861214
 21
-188.4760745765
  0
LINE
  5
2F5
100
AcDbEntity
  8
0
100
AcDbLine
 62
7
  6
CONTINUOUS
 10
188.2778586349
 20
-188.4760745765
 11
188.0225391588
 21
-188.4760745765
  0
LINE
  5
2F6
100
AcDbEntity
  8
0
100
AcDbLine
 62
7
  6
CONTINUOUS
 10
186.6182840071
 20
-187.4760783912
 11
187.2565818033
 21
-187.4760783912
  0
LINE
  5
2F7
100
AcDbEntity
  8
0
100
AcDbLine
 62
7
  6
CONTINUOUS
 10
187.2565818033
 20
-185.4760745765
 11
192.6182840071
 21
-185.4760745765
  0
LINE
  5
2F8
100
AcDbEntity
  8
0
100
AcDbLine
 62
7
  6
CONTINUOUS
 10
192.6182840071
 20
-184.7260745765
 11
187.2565818033
 21
-184.7260745765
  0
LINE
  5
2F9
100
AcDbEntity
  8
0
100
AcDbLine
 62
7
  6
CONTINUOUS
 10
187.2565818033
 20
-182.7260764839
 11
186.6182840071
 21
-182.7260764839
  0
LINE
  5
2FA
100
AcDbEntity
  8
0
100
AcDbLine
 62
7
  6
CONTINUOUS
 10
456.6182840071
 20
-176.4760764839
 11
402.3458706475
 21
-176.4760764839
  0
LINE
  5
2FB
100
AcDbEntity
  8
0
100
AcDbLine
 62
7
  6
CONTINUOUS
 10
263.8906973666
 20
-96.5389449194
 11
236.7544906868
 21
-49.5376562254
  0
LINE
  5
2FC
100
AcDbEntity
  8
0
100
AcDbLine
 62
7
  6
CONTINUOUS
 10
190.7033904395
 20
-193.9760764839
 11
190.1927520237
 21
-194.1010745765
  0
LINE
  5
2FD
100
AcDbEntity
  8
0
100
AcDbLine
 62
7
  6
CONTINUOUS
 10
188.0225391588
 20
-194.1010745765
 11
187.5119009218
 21
-194.2260783912
  0
LINE
  5
2FE
100
AcDbEntity
  8
0
100
AcDbLine
 62
7
  6
CONTINUOUS
 10
188.0225391588
 20
-188.4760745765
 11
187.5119009218
 21
-188.6010783912
  0
LINE
  5
2FF
100
AcDbEntity
  8
0
100
AcDbLine
 62
7
  6
CONTINUOUS
 10
263.8906973666
 20
-351.4132080483
 11
402.3458706475
 21
-271.4760764839
  0
LINE
  5
300
100
AcDbEntity
  8
0
100
AcDbLine
 62
7
  6
CONTINUOUS
 10
323.7107639839
 20
-131.0760764839
 11
326.6182840071
 21
-131.0760764839
  0
LINE
  5
301
100
AcDbEntity
  8
0
100
AcDbLine
 62
7
  6
CONTINUOUS
 10
402.3458706475
 20
-176.4760764839
 11
263.8906973666
 21
-96.5389449194
  0
LINE
  5
302
100
AcDbEntity
  8
BEZUGSACHSEN
100
AcDbLine
 62
7
  6
CONTINUOUS
 10
439.8682840071
 20
-236.7260764839
 11
439.8682840071
 21
-211.2260764839
  0
LINE
  5
303
100
AcDbEntity
  8
0
100
AcDbLine
 62
7
  6
CONTINUOUS
 10
456.6182840071
 20
-271.4760764839
 11
456.6182840071
 21
-236.7260764839
  0
LINE
  5
304
100
AcDbEntity
  8
0
100
AcDbLine
 62
7
  6
CONTINUOUS
 10
456.6182840071
 20
-211.2260764839
 11
456.6182840071
 21
-176.4760764839
  0
ARC
  5
305
100
AcDbEntity
  8
0
100
AcDbCircle
 62
7
  6
CONTINUOUS
 10
879.9955096106
 20
331.9264728974
 40
83.0
100
AcDbArc
 50
0.0
 51
72.1058930674
  0
ARC
  5
306
100
AcDbEntity
  8
0
100
AcDbCircle
 62
7
  6
CONTINUOUS
 10
879.9955096106
 20
331.9264728974
 40
83.0
100
AcDbArc
 50
107.8941069326
 51
180.0
  0
ARC
  5
307
100
AcDbEntity
  8
0
100
AcDbCircle
 62
7
  6
CONTINUOUS
 10
879.9955096106
 20
331.9264728974
 40
31.0
100
AcDbArc
 50
0.0
 51
34.6424024769
  0
ARC
  5
308
100
AcDbEntity
  8
0
100
AcDbCircle
 62
7
  6
CONTINUOUS
 10
879.9955096106
 20
331.9264728974
 40
31.0
100
AcDbArc
 50
145.3575975231
 51
180.0
  0
ARC
  5
309
100
AcDbEntity
  8
0
100
AcDbCircle
 62
7
  6
CONTINUOUS
 10
879.9955096106
 20
738.4264728974
 40
25.5
100
AcDbArc
 50
0.0
 51
180.0
  0
ARC
  5
30A
100
AcDbEntity
  8
0
100
AcDbCircle
 62
7
  6
CONTINUOUS
 10
879.9955096106
 20
337.4264728974
 40
25.5
100
AcDbArc
 50
180.0
 51
360.0
  0
ARC
  5
30B
100
AcDbEntity
  8
0
100
AcDbCircle
 62
7
  6
CONTINUOUS
 10
282.6182840071
 20
617.9264728974
 40
146.0
100
AcDbArc
 50
0.0
 51
180.0
  0
ARC
  5
30C
100
AcDbEntity
  8
0
100
AcDbCircle
 62
7
  6
CONTINUOUS
 10
282.6182840071
 20
457.9264728974
 40
146.0
100
AcDbArc
 50
280.2594612785
 51
360.0
  0
ARC
  5
30D
100
AcDbEntity
  8
0
100
AcDbCircle
 62
7
  6
CONTINUOUS
 10
282.6182840071
 20
457.9264728974
 40
146.0
100
AcDbArc
 50
180.0
 51
259.7405387215
  0
ARC
  5
30E
100
AcDbEntity
  8
0
100
AcDbCircle
 62
7
  6
CONTINUOUS
 10
282.6182840071
 20
617.9264728974
 40
95.0
100
AcDbArc
 50
0.0
 51
180.0
  0
ARC
  5
30F
100
AcDbEntity
  8
0
100
AcDbCircle
 62
7
  6
CONTINUOUS
 10
282.6182840071
 20
457.9264728974
 40
95.0
100
AcDbArc
 50
285.8862283489
 51
360.0
  0
ARC
  5
310
100
AcDbEntity
  8
0
100
AcDbCircle
 62
7
  6
CONTINUOUS
 10
282.6182840071
 20
457.9264728974
 40
95.0
100
AcDbArc
 50
180.0
 51
254.1137716511
  0
ARC
  5
311
100
AcDbEntity
  8
0
100
AcDbCircle
 62
7
  6
CONTINUOUS
 10
282.6182840071
 20
388.9264728974
 40
26.0
100
AcDbArc
 50
0.0
 51
180.0
  0
ARC
  5
312
100
AcDbEntity
  8
0
100
AcDbCircle
 62
7
  6
CONTINUOUS
 10
282.6182840071
 20
-166.9760764839
 40
26.0
100
AcDbArc
 50
0.0
 51
180.0
  0
ARC
  5
313
100
AcDbEntity
  8
0
100
AcDbCircle
 62
7
  6
CONTINUOUS
 10
282.6182840071
 20
-280.9760764839
 40
26.0
100
AcDbArc
 50
180.0
 51
360.0
  0
ARC
  5
314
100
AcDbEntity
  8
0
100
AcDbCircle
 62
7
  6
CONTINUOUS
 10
403.1182840071
 20
-223.9760764839
 40
25.5
100
AcDbArc
 50
270.0
 51
90.0
  0
ARC
  5
315
100
AcDbEntity
  8
0
100
AcDbCircle
 62
7
  6
CONTINUOUS
 10
162.1182840071
 20
-223.9760764839
 40
25.5
100
AcDbArc
 50
90.0
 51
270.0
  0
ARC
  5
316
100
AcDbEntity
  8
0
100
AcDbCircle
 62
7
  6
CONTINUOUS
 10
224.7432840071
 20
-324.2185169719
 40
12.75
100
AcDbArc
 50
330.0
 51
150.0
  0
ARC
  5
317
100
AcDbEntity
  8
0
100
AcDbCircle
 62
7
  6
CONTINUOUS
 10
224.7432840071
 20
-123.7336359958
 40
12.75
100
AcDbArc
 50
210.0
 51
30.0
  0
SPLINE
  5
318
100
AcDbEntity
  8
0
100
AcDbSpline
 62
7
  6
CONTINUOUS
 70
0
 71
3
 72
11
 73
7
 74
0
 42
0.0000001
 43
0.0000001
 44
0.0000000001
 40
0.0
 40
0.0
 40
0.0
 40
0.0
 40
0.2757658546
 40
0.533989886
 40
0.7737290167
 40
1.0
 40
1.0
 40
1.0
 40
1.0
 10
1020.3538028502
 20
280.9264728973
 30
0.0
 10
1020.3538028502
 20
282.2991794351
 30
0.0
 10
1020.5966279401
 20
284.9624783229
 30
0.0
 10
1021.5450257299
 20
288.7063343212
 30
0.0
 10
1022.8180970952
 20
292.0846176177
 30
0.0
 10
1023.8028688075
 20
294.1868650822
 30
0.0
 10
1024.3089298691
 20
295.1931075708
 30
0.0
  0
SPLINE
  5
319
100
AcDbEntity
  8
0
100
AcDbSpline
 62
7
  6
CONTINUOUS
 70
0
 71
3
 72
12
 73
8
 74
0
 42
0.0000001
 43
0.0000001
 44
0.0000000001
 40
0.0
 40
0.0
 40
0.0
 40
0.0
 40
0.2242372613
 40
0.4616778043
 40
0.7194194514
 40
0.8575813065
 40
1.0
 40
1.0
 40
1.0
 40
1.0
 10
1012.5151918176
 20
255.9264728974
 30
0.0
 10
1013.4747614123
 20
257.6572484805
 30
0.0
 10
1015.3594686835
 20
261.2729934387
 30
0.0
 10
1017.86809248
 20
267.1135423844
 30
0.0
 10
1019.4674309436
 20
272.4932099199
 30
0.0
 10
1020.2177410253
 20
277.1912518023
 30
0.0
 10
1020.3538028502
 20
279.6695738267
 30
0.0
 10
1020.3538028502
 20
280.9264728973
 30
0.0
  0
SPLINE
  5
31A
100
AcDbEntity
  8
0
100
AcDbSpline
 62
7
  6
CONTINUOUS
 70
0
 71
3
 72
11
 73
7
 74
0
 42
0.0000001
 43
0.0000001
 44
0.0000000001
 40
0.0
 40
0.0
 40
0.0
 40
0.0
 40
0.2757658532
 40
0.5339898839
 40
0.7737290143
 40
1.0
 40
1.0
 40
1.0
 40
1.0
 10
739.6372163711
 20
280.9264728974
 30
0.0
 10
739.6372163711
 20
282.299179428
 30
0.0
 10
739.394391285
 20
284.9624783056
 30
0.0
 10
738.4459934966
 20
288.7063342915
 30
0.0
 10
737.1729221419
 20
292.0846175997
 30
0.0
 10
736.1881504192
 20
294.1868650714
 30
0.0
 10
735.6820893521
 20
295.1931075708
 30
0.0
  0
SPLINE
  5
31B
100
AcDbEntity
  8
0
100
AcDbSpline
 62
7
  6
CONTINUOUS
 70
0
 71
3
 72
12
 73
8
 74
0
 42
0.0000001
 43
0.0000001
 44
0.0000000001
 40
0.0
 40
0.0
 40
0.0
 40
0.0
 40
0.2242372627
 40
0.4616778058
 40
0.7194194526
 40
0.8575813072
 40
1.0
 40
1.0
 40
1.0
 40
1.0
 10
747.4758274037
 20
255.9264728974
 30
0.0
 10
746.5162578029
 20
257.6572484914
 30
0.0
 10
744.631550523
 20
261.2729934601
 30
0.0
 10
742.1229267291
 20
267.1135424182
 30
0.0
 10
740.5235882711
 20
272.4932099489
 30
0.0
 10
739.7732781947
 20
277.1912518187
 30
0.0
 10
739.6372163711
 20
279.6695738329
 30
0.0
 10
739.6372163711
 20
280.9264728974
 30
0.0
  0
SPLINE
  5
31C
100
AcDbEntity
  8
0
100
AcDbSpline
 62
7
  6
CONTINUOUS
 70
0
 71
3
 72
9
 73
5
 74
0
 42
0.0000001
 43
0.0000001
 44
0.0000000001
 40
0.0
 40
0.0
 40
0.0
 40
0.0
 40
0.5056934011
 40
1.0
 40
1.0
 40
1.0
 40
1.0
 10
726.8872163711
 20
280.9264728974
 30
0.0
 10
726.8872163711
 20
283.4458316193
 30
0.0
 10
726.2222438088
 20
288.4509325175
 30
0.0
 10
724.2263602182
 20
293.0980160513
 30
0.0
 10
722.9320893521
 20
295.1931075708
 30
0.0
  0
SPLINE
  5
31D
100
AcDbEntity
  8
0
100
AcDbSpline
 62
7
  6
CONTINUOUS
 70
0
 71
3
 72
15
 73
11
 74
0
 42
0.0000001
 43
0.0000001
 44
0.0000000001
 40
0.0
 40
0.0
 40
0.0
 40
0.0
 40
0.1161467758
 40
0.234413478
 40
0.3554438997
 40
0.4795225506
 40
0.6065644641
 40
0.7361496437
 40
0.8675876283
 40
1.0
 40
1.0
 40
1.0
 40
1.0
 10
744.8658029954
 20
255.9264728974
 30
0.0
 10
743.6092185756
 20
256.1976973269
 30
0.0
 10
741.1214518292
 20
257.0007477534
 30
0.0
 10
737.6592347752
 20
258.9152762659
 30
0.0
 10
734.5389647693
 20
261.4876769227
 30
0.0
 10
731.8540091196
 20
264.6377125923
 30
0.0
 10
729.6813872147
 20
268.2698520881
 30
0.0
 10
728.0835698159
 20
272.2758688191
 30
0.0
 10
727.1062241151
 20
276.5358141562
 30
0.0
 10
726.8872163711
 20
279.4609218281
 30
0.0
 10
726.8872163711
 20
280.9264728974
 30
0.0
  0
SPLINE
  5
31E
100
AcDbEntity
  8
0
100
AcDbSpline
 62
7
  6
CONTINUOUS
 70
0
 71
3
 72
9
 73
5
 74
0
 42
0.0000001
 43
0.0000001
 44
0.0000000001
 40
0.0
 40
0.0
 40
0.0
 40
0.0
 40
0.5056934011
 40
1.0
 40
1.0
 40
1.0
 40
1.0
 10
1033.1038028502
 20
280.9264728974
 30
0.0
 10
1033.1038028502
 20
283.4458316193
 30
0.0
 10
1033.7687754125
 20
288.4509325175
 30
0.0
 10
1035.7646590031
 20
293.0980160513
 30
0.0
 10
1037.0589298691
 20
295.1931075708
 30
0.0
  0
SPLINE
  5
31F
100
AcDbEntity
  8
0
100
AcDbSpline
 62
7
  6
CONTINUOUS
 70
0
 71
3
 72
15
 73
11
 74
0
 42
0.0000001
 43
0.0000001
 44
0.0000000001
 40
0.0
 40
0.0
 40
0.0
 40
0.0
 40
0.1161467758
 40
0.234413478
 40
0.3554438997
 40
0.4795225506
 40
0.6065644641
 40
0.7361496437
 40
0.8675876283
 40
1.0
 40
1.0
 40
1.0
 40
1.0
 10
1015.1252162259
 20
255.9264728974
 30
0.0
 10
1016.3818006457
 20
256.1976973269
 30
0.0
 10
1018.869567392
 20
257.0007477534
 30
0.0
 10
1022.3317844461
 20
258.9152762659
 30
0.0
 10
1025.452054452
 20
261.4876769227
 30
0.0
 10
1028.1370101017
 20
264.6377125923
 30
0.0
 10
1030.3096320066
 20
268.2698520881
 30
0.0
 10
1031.9074494054
 20
272.2758688191
 30
0.0
 10
1032.8847951062
 20
276.5358141562
 30
0.0
 10
1033.1038028502
 20
279.4609218281
 30
0.0
 10
1033.1038028502
 20
280.9264728974
 30
0.0
  0
SPLINE
  5
320
100
AcDbEntity
  8
BEZUGSACHSEN
100
AcDbSpline
 62
7
  6
CONTINUOUS
 70
0
 71
3
 72
13
 73
9
 74
0
 42
0.0000001
 43
0.0000001
 44
0.0000000001
 40
0.0
 40
0.0
 40
0.0
 40
0.0
 40
0.2507571785
 40
0.5048956959
 40
0.6315257075
 40
0.7566324794
 40
0.8795982683
 40
1.0
 40
1.0
 40
1.0
 40
1.0
 10
738.8024725426
 20
287.1930015575
 30
0.0
 10
738.2123342111
 20
285.9234641409
 30
0.0
 10
737.4031091726
 20
283.1764705472
 30
0.0
 10
737.3790020876
 20
279.6033717602
 30
0.0
 10
737.9483183799
 20
276.8287956025
 30
0.0
 10
738.6586296473
 20
274.8529158053
 30
0.0
 10
739.6341771311
 20
273.0335067344
 30
0.0
 10
740.4553519182
 20
271.9426869041
 30
0.0
 10
740.9017320752
 20
271.4400802624
 30
0.0
  0
SPLINE
  5
321
100
AcDbEntity
  8
0
100
AcDbSpline
 62
7
  6
CONTINUOUS
 70
0
 71
3
 72
11
 73
7
 74
0
 42
0.0000001
 43
0.0000001
 44
0.0000000001
 40
0.0
 40
0.0
 40
0.0
 40
0.0
 40
0.2757658546
 40
0.533989886
 40
0.7737290167
 40
1.0
 40
1.0
 40
1.0
 40
1.0
 10
1041.014056888
 20
280.9264728974
 30
0.0
 10
1041.014056888
 20
282.2991794351
 30
0.0
 10
1040.7712317982
 20
284.9624783229
 30
0.0
 10
1039.8228340084
 20
288.7063343212
 30
0.0
 10
1038.5497626431
 20
292.0846176177
 30
0.0
 10
1037.5649909308
 20
294.1868650822
 30
0.0
 10
1037.0589298691
 20
295.1931075708
 30
0.0
  0
SPLINE
  5
322
100
AcDbEntity
  8
0
100
AcDbSpline
 62
7
  6
CONTINUOUS
 70
0
 71
3
 72
12
 73
8
 74
0
 42
0.0000001
 43
0.0000001
 44
0.0000000001
 40
0.0
 40
0.0
 40
0.0
 40
0.0
 40
0.2242372613
 40
0.4616778043
 40
0.7194194514
 40
0.8575813065
 40
1.0
 40
1.0
 40
1.0
 40
1.0
 10
1048.8526679207
 20
255.9264728974
 30
0.0
 10
1047.8930983259
 20
257.6572484805
 30
0.0
 10
1046.0083910548
 20
261.2729934387
 30
0.0
 10
1043.4997672583
 20
267.1135423844
 30
0.0
 10
1041.9004287946
 20
272.49320992
 30
0.0
 10
1041.150118713
 20
277.1912518023
 30
0.0
 10
1041.014056888
 20
279.6695738267
 30
0.0
 10
1041.014056888
 20
280.9264728974
 30
0.0
  0
SPLINE
  5
323
100
AcDbEntity
  8
BEZUGSACHSEN
100
AcDbSpline
 62
7
  6
CONTINUOUS
 70
0
 71
3
 72
13
 73
9
 74
0
 42
0.0000001
 43
0.0000001
 44
0.0000000001
 40
0.0
 40
0.0
 40
0.0
 40
0.0
 40
0.2507571793
 40
0.5048956982
 40
0.6315257103
 40
0.756632482
 40
0.87959827
 40
1.0
 40
1.0
 40
1.0
 40
1.0
 10
1021.1885463277
 20
287.1930023124
 30
0.0
 10
1021.778684838
 20
285.9234647083
 30
0.0
 10
1022.5879101077
 20
283.1764706377
 30
0.0
 10
1022.6120171276
 20
279.6033712026
 30
0.0
 10
1022.0427005755
 20
276.8287945872
 30
0.0
 10
1021.3323890191
 20
274.852914511
 30
0.0
 10
1020.3568411654
 20
273.0335052498
 30
0.0
 10
1019.5356660831
 20
271.9426853624
 30
0.0
 10
1019.0892857721
 20
271.4400787154
 30
0.0
  0
SPLINE
  5
324
100
AcDbEntity
  8
0
100
AcDbSpline
 62
7
  6
CONTINUOUS
 70
0
 71
3
 72
11
 73
7
 74
0
 42
0.0000001
 43
0.0000001
 44
0.0000000001
 40
0.0
 40
0.0
 40
0.0
 40
0.0
 40
0.2757658532
 40
0.5339898839
 40
0.7737290143
 40
1.0
 40
1.0
 40
1.0
 40
1.0
 10
718.9769623332
 20
280.9264728973
 30
0.0
 10
718.9769623332
 20
282.299179428
 30
0.0
 10
719.2197874193
 20
284.9624783056
 30
0.0
 10
720.1681852076
 20
288.7063342915
 30
0.0
 10
721.4412565623
 20
292.0846175997
 30
0.0
 10
722.4260282851
 20
294.1868650714
 30
0.0
 10
722.9320893521
 20
295.1931075708
 30
0.0
  0
SPLINE
  5
325
100
AcDbEntity
  8
0
100
AcDbSpline
 62
7
  6
CONTINUOUS
 70
0
 71
3
 72
12
 73
8
 74
0
 42
0.0000001
 43
0.0000001
 44
0.0000000001
 40
0.0
 40
0.0
 40
0.0
 40
0.0
 40
0.2242372627
 40
0.4616778058
 40
0.7194194526
 40
0.8575813072
 40
1.0
 40
1.0
 40
1.0
 40
1.0
 10
711.1383513006
 20
255.9264728974
 30
0.0
 10
712.0979209014
 20
257.6572484914
 30
0.0
 10
713.9826281813
 20
261.2729934601
 30
0.0
 10
716.4912519752
 20
267.1135424182
 30
0.0
 10
718.0905904332
 20
272.4932099489
 30
0.0
 10
718.8409005096
 20
277.1912518187
 30
0.0
 10
718.9769623332
 20
279.6695738329
 30
0.0
 10
718.9769623332
 20
280.9264728973
 30
0.0
  0
SPLINE
  5
326
100
AcDbEntity
  8
0
100
AcDbSpline
 62
7
  6
CONTINUOUS
 70
0
 71
3
 72
14
 73
10
 74
0
 42
0.0000001
 43
0.0000001
 44
0.0000000001
 40
0.0
 40
0.0
 40
0.0
 40
0.0
 40
0.091035129
 40
0.1931109513
 40
0.3065904391
 40
0.4308113452
 40
0.5643751042
 40
0.7053595339
 40
1.0
 40
1.0
 40
1.0
 40
1.0
 10
217.4211473968
 20
256.9480866305
 30
0.0
 10
216.7713935332
 20
257.4075457845
 30
0.0
 10
215.5099192432
 20
258.5509431689
 30
0.0
 10
213.8765182632
 20
260.6887951002
 30
0.0
 10
212.4280222995
 20
263.2918729278
 30
0.0
 10
211.1959458384
 20
266.3011179201
 30
0.0
 10
210.2065904783
 20
269.6494105208
 30
0.0
 10
209.2283161401
 20
274.532425083
 30
0.0
 10
208.9436015544
 20
278.3508503022
 30
0.0
 10
208.9436015544
 20
280.9264728974
 30
0.0
  0
SPLINE
  5
327
100
AcDbEntity
  8
0
100
AcDbSpline
 62
7
  6
CONTINUOUS
 70
0
 71
3
 72
10
 73
6
 74
0
 42
0.0000001
 43
0.0000001
 44
0.0000000001
 40
0.0
 40
0.0
 40
0.0
 40
0.0
 40
0.5178887595
 40
0.7655488412
 40
1.0
 40
1.0
 40
1.0
 40
1.0
 10
208.9436015544
 20
280.9264728974
 30
0.0
 10
208.9436015544
 20
283.4307037056
 30
0.0
 10
208.6650346452
 20
287.1428984714
 30
0.0
 10
207.7077563895
 20
291.8866833832
 30
0.0
 10
207.0409538024
 20
294.1253129414
 30
0.0
 10
206.6601079053
 20
295.1931075708
 30
0.0
  0
SPLINE
  5
328
100
AcDbEntity
  8
BEZUGSACHSEN
100
AcDbSpline
 62
7
  6
CONTINUOUS
 70
0
 71
3
 72
22
 73
18
 74
0
 42
0.0000001
 43
0.0000001
 44
0.0000000001
 40
0.0
 40
0.0
 40
0.0
 40
0.0
 40
0.0411166545
 40
0.0864878902
 40
0.1388194836
 40
0.1990450384
 40
0.3030124498
 40
0.4190967344
 40
0.5403515814
 40
0.6589986981
 40
0.767670605
 40
0.8164774515
 40
0.860936837
 40
0.9009393793
 40
0.9367898927
 40
0.9693298953
 40
1.0
 40
1.0
 40
1.0
 40
1.0
 10
199.5764601088
 20
294.1764728974
 30
0.0
 10
199.1373524784
 20
294.1764728974
 30
0.0
 10
198.2065930318
 20
293.9825100984
 30
0.0
 10
196.9370371566
 20
293.172790123
 30
0.0
 10
195.7962189396
 20
291.9104285739
 30
0.0
 10
194.6109213793
 20
289.9119865416
 30
0.0
 10
193.6032431231
 20
287.0704551571
 30
0.0
 10
192.9801352075
 20
283.4655177594
 30
0.0
 10
192.8893949808
 20
279.6509135719
 30
0.0
 10
193.3387838089
 20
275.9429031189
 30
0.0
 10
194.1590091691
 20
273.0908576472
 30
0.0
 10
195.077774317
 20
271.1349868977
 30
0.0
 10
195.8397586898
 20
269.9276693482
 30
0.0
 10
196.6848022683
 20
268.9518929155
 30
0.0
 10
197.5999734427
 20
268.2289776706
 30
0.0
 10
198.5702660781
 20
267.7797876949
 30
0.0
 10
199.2489169963
 20
267.6764728974
 30
0.0
 10
199.5764601088
 20
267.6764728974
 30
0.0
  0
SPLINE
  5
329
100
AcDbEntity
  8
0
100
AcDbSpline
 62
7
  6
CONTINUOUS
 70
0
 71
3
 72
10
 73
6
 74
0
 42
0.0000001
 43
0.0000001
 44
0.0000000001
 40
0.0
 40
0.0
 40
0.0
 40
0.0
 40
0.5178887595
 40
0.7655488412
 40
1.0
 40
1.0
 40
1.0
 40
1.0
 10
186.8599537579
 20
280.9264728974
 30
0.0
 10
186.8599537579
 20
283.4307037056
 30
0.0
 10
186.5813868487
 20
287.1428984714
 30
0.0
 10
185.624108593
 20
291.8866833832
 30
0.0
 10
184.9573060059
 20
294.1253129414
 30
0.0
 10
184.5764601088
 20
295.1931075708
 30
0.0
  0
SPLINE
  5
32A
100
AcDbEntity
  8
0
100
AcDbSpline
 62
7
  6
CONTINUOUS
 70
0
 71
3
 72
15
 73
11
 74
0
 42
0.0000001
 43
0.0000001
 44
0.0000000001
 40
0.0
 40
0.0
 40
0.0
 40
0.0
 40
0.0854712341
 40
0.1821430436
 40
0.2919633905
 40
0.4149585559
 40
0.5498019681
 40
0.6942394448
 40
0.8453937761
 40
1.0
 40
1.0
 40
1.0
 40
1.0
 10
197.2398955851
 20
255.9264728974
 30
0.0
 10
196.4824163514
 20
256.2096567541
 30
0.0
 10
194.9653957527
 20
257.0850329155
 30
0.0
 10
192.9805201392
 20
259.0349400632
 30
0.0
 10
191.2046291612
 20
261.6155740103
 30
0.0
 10
189.6808548409
 20
264.7542112865
 30
0.0
 10
188.4475357087
 20
268.3634852517
 30
0.0
 10
187.5398498473
 20
272.3404122993
 30
0.0
 10
186.9842022971
 20
276.5691120466
 30
0.0
 10
186.8599537579
 20
279.4636720287
 30
0.0
 10
186.8599537579
 20
280.9264728974
 30
0.0
  0
SPLINE
  5
32B
100
AcDbEntity
  8
0
100
AcDbSpline
 62
7
  6
CONTINUOUS
 70
0
 71
3
 72
12
 73
8
 74
0
 42
0.0000001
 43
0.0000001
 44
0.0000000001
 40
0.0
 40
0.0
 40
0.0
 40
0.0
 40
0.1292178913
 40
0.2575355629
 40
0.5095580945
 40
0.7565612284
 40
1.0
 40
1.0
 40
1.0
 40
1.0
 10
213.5105888525
 20
280.9264728974
 30
0.0
 10
213.5105888525
 20
281.6223735589
 30
0.0
 10
213.400535955
 20
283.0116592286
 30
0.0
 10
212.7773629058
 20
285.6926073667
 30
0.0
 10
211.3921639048
 20
288.8051284562
 30
0.0
 10
209.19044959
 20
292.1530131236
 30
0.0
 10
207.5212368941
 20
294.2045378338
 30
0.0
 10
206.6601079053
 20
295.1931075708
 30
0.0
  0
SPLINE
  5
32C
100
AcDbEntity
  8
0
100
AcDbSpline
 62
7
  6
CONTINUOUS
 70
0
 71
3
 72
13
 73
9
 74
0
 42
0.0000001
 43
0.0000001
 44
0.0000000001
 40
0.0
 40
0.0
 40
0.0
 40
0.0
 40
0.2430552584
 40
0.4894638247
 40
0.6146540135
 40
0.7415223554
 40
0.8701463639
 40
1.0
 40
1.0
 40
1.0
 40
1.0
 10
227.0874614218
 20
255.9264728974
 30
0.0
 10
225.4532002169
 20
257.6283379702
 30
0.0
 10
222.2623485747
 20
261.1535337282
 30
0.0
 10
218.6753792066
 20
265.9441237713
 30
0.0
 10
216.2553588297
 20
270.1421682796
 30
0.0
 10
214.7630002298
 20
273.5335323148
 30
0.0
 10
213.7524375058
 20
277.1508890377
 30
0.0
 10
213.5105888525
 20
279.6659064969
 30
0.0
 10
213.5105888525
 20
280.9264728974
 30
0.0
  0
SPLINE
  5
32D
100
AcDbEntity
  8
0
100
AcDbSpline
 62
7
  6
CONTINUOUS
 70
0
 71
3
 72
12
 73
8
 74
0
 42
0.0000001
 43
0.0000001
 44
0.0000000001
 40
0.0
 40
0.0
 40
0.0
 40
0.0
 40
0.1292178913
 40
0.2575355629
 40
0.5095580945
 40
0.7565612284
 40
1.0
 40
1.0
 40
1.0
 40
1.0
 10
177.7259791617
 20
280.9264728973
 30
0.0
 10
177.7259791617
 20
281.6223735589
 30
0.0
 10
177.8360320591
 20
283.0116592286
 30
0.0
 10
178.4592051083
 20
285.6926073667
 30
0.0
 10
179.8444041094
 20
288.8051284562
 30
0.0
 10
182.0461184241
 20
292.1530131236
 30
0.0
 10
183.71533112
 20
294.2045378338
 30
0.0
 10
184.5764601088
 20
295.1931075708
 30
0.0
  0
SPLINE
  5
32E
100
AcDbEntity
  8
0
100
AcDbSpline
 62
7
  6
CONTINUOUS
 70
0
 71
3
 72
13
 73
9
 74
0
 42
0.0000001
 43
0.0000001
 44
0.0000000001
 40
0.0
 40
0.0
 40
0.0
 40
0.0
 40
0.2430552584
 40
0.4894638247
 40
0.6146540135
 40
0.7415223554
 40
0.8701463639
 40
1.0
 40
1.0
 40
1.0
 40
1.0
 10
164.1491065924
 20
255.9264728974
 30
0.0
 10
165.7833677973
 20
257.6283379702
 30
0.0
 10
168.9742194395
 20
261.1535337282
 30
0.0
 10
172.5611888075
 20
265.9441237713
 30
0.0
 10
174.9812091845
 20
270.1421682796
 30
0.0
 10
176.4735677843
 20
273.5335323148
 30
0.0
 10
177.4841305083
 20
277.1508890377
 30
0.0
 10
177.7259791617
 20
279.6659064969
 30
0.0
 10
177.7259791617
 20
280.9264728973
 30
0.0
  0
ENDSEC
  0
SECTION
  2
OBJECTS
  0
DICTIONARY
  5
C
100
AcDbDictionary
280
0
281
1
  3
ACAD_GROUP
350
D
  3
ACAD_MLINESTYLE
350
17
  3
ACAD_LAYOUT
350
1A
  3
ACAD_PLOTSETTINGS
350
19
  3
ACAD_PLOTSTYLENAME
350
E
  0
DICTIONARY
  5
D
102
{ACAD_REACTORS
330
C
102
}
100
AcDbDictionary
280
0
281
1
  0
ACDBDICTIONARYWDFLT
  5
E
102
{ACAD_REACTORS
330
C
102
}
100
AcDbDictionary
281
1
  3
Normal
350
F
100
AcDbDictionaryWithDefault
340
F
  0
DICTIONARY
  5
17
102
{ACAD_REACTORS
330
C
102
}
100
AcDbDictionary
280
0
281
1
  3
Standard
350
18
  0
DICTIONARY
  5
19
102
{ACAD_REACTORS
330
C
102
}
100
AcDbDictionary
281
1
  0
DICTIONARY
  5
1A
102
{ACAD_REACTORS
330
C
102
}
100
AcDbDictionary
281
1
  3
Model
350
32F
  3
Layout1
350
330
  0
ACDBPLACEHOLDER
  5
F
102
{ACAD_REACTORS
330
E
102
}
  0
MLINESTYLE
  5
18
102
{ACAD_REACTORS
330
17
102
}
100
AcDbMlineStyle
  2
STANDARD
 70
0
  3

 62
256
 51
90.0
 52
90.0
 71
2
 49
0.5
 62
256
  6
BYLAYER
 49
-0.5
 62
256
  6
BYLAYER
  0
LAYOUT
  5
32F
102
{ACAD_REACTORS
330
1A
102
}
100
AcDbPlotSettings
  1

  2
none_device
  4
ISO_A0_(1189.00_x_841.00_MM)
  6

 40
0.0
 41
0.0
 42
0.0
 43
0.0
 44
1189.0
 45
841.0
 46
0.0
 47
0.0
 48
0.0
 49
0.0
140
0.0
141
0.0
142
1.0
143
1.0
 70
1024
 72
1
 73
0
 74
0
  7

 75
0
147
1.0
148
0.0
149
0.0
100
AcDbLayout
  1
Model
 70
0
 71
0
 10
0.0
 20
0.0
 11
1189.0
 21
841.0
 12
0.0
 22
0.0
 32
0.0
 14
0.0
 24
0.0
 34
0.0
 15
0.0
 25
0.0
 35
0.0
146
0.0
 13
0.0
 23
0.0
 33
0.0
 16
1.0
 26
0.0
 36
0.0
 17
0.0
 27
1.0
 37
0.0
 76
0
330
204
345
0
346
0
  0
LAYOUT
  5
330
102
{ACAD_REACTORS
330
1A
102
}
100
AcDbPlotSettings
  1

  2
none_device
  4
ISO_A0_(1189.00_x_841.00_MM)
  6

 40
0.0
 41
0.0
 42
0.0
 43
0.0
 44
1189.0
 45
841.0
 46
0.0
 47
0.0
 48
0.0
 49
0.0
140
0.0
141
0.0
142
1.0
143
1.0
 70
0
 72
1
 73
0
 74
0
  7

 75
0
147
1.0
148
0.0
149
0.0
100
AcDbLayout
  1
Layout1
 70
0
 71
1
 10
0.0
 20
0.0
 11
1189.0
 21
841.0
 12
0.0
 22
0.0
 32
0.0
 14
0.0
 24
0.0
 34
0.0
 15
0.0
 25
0.0
 35
0.0
146
0.0
 13
0.0
 23
0.0
 33
0.0
 16
1.0
 26
0.0
 36
0.0
 17
0.0
 27
1.0
 37
0.0
 76
0
330
205
345
0
346
0
  0
ENDSEC
  0
EOF
