999
DXF file: RBG_3_51817_M31971-P-1.dxf
999
Pro/ENGINEER 2010140 by Parametric Technology Corporation
  0
SECTION
  2
HEADER
  9
$ACADVER
  1
AC1015
  9
$DWGCODEPAGE
  3
ANSI_1252
  9
$EXTMAX
 10
420.0
 20
297.0
 30
0.0
  9
$EXTMIN
 10
0.0
 20
0.0
 30
0.0
  9
$LIMMIN
 10
0.0
 20
0.0
  9
$LIMMAX
 10
420.0
 20
297.0
  9
$VIEWCTR
 10
210.0
 20
148.5
  9
$VIEWSIZE
 40
297.0
  9
$CLAYER
  8
0
  9
$LTSCALE
 40
23.1
  9
$CELTYPE
  6
BYLAYER
  9
$DIMSCALE
 40
1.0
  9
$DIMASZ
 40
3.5
  9
$DIMEXO
 40
2.625
  9
$DIMDLI
 40
15.96
  9
$DIMEXE
 40
7.56
  9
$DIMCEN
 40
3.78
  9
$DIMLFAC
 40
1.0
  9
$DIMBLK
  1
_FILLED
  9
$DIMTXT
 40
3.5
  9
$DIMTOL
 70
1
  9
$DIMLIM
 70
0
  9
$DIMTFAC
 40
1.0
  9
$DIMTP
 40
0.005
  9
$DIMTM
 40
0.005
  9
$PDMODE
 70
3
  9
$PDSIZE
 40
0.3125
  9
$HANDSEED
  5
83D
  9
$TILEMODE
 70
1
  9
$MEASUREMENT
 70
1
  9
$INSUNITS
 70
4
  0
ENDSEC
  0
SECTION
  2
CLASSES
  0
CLASS
  1
ACDBDICTIONARYWDFLT
  2
AcDbDictionaryWithDefault
  3
AutoCAD 2000
 90
0
280
0
281
0
  0
CLASS
  1
ACDBPLACEHOLDER
  2
AcDbPlaceHolder
  3
AutoCAD 2000
 90
0
280
0
281
0
  0
CLASS
  1
LAYOUT
  2
AcDbLayout
  3
AutoCAD 2000
 90
0
280
0
281
0
  0
ENDSEC
  0
SECTION
  2
TABLES
  0
TABLE
  2
VPORT
  5
8
100
AcDbSymbolTable
 70
2
  0
VPORT
  5
1F4
100
AcDbSymbolTableRecord
100
AcDbViewportTableRecord
  2
*ACTIVE
 70
0
 10
0.0
 20
0.0
 11
1.0
 21
1.0
 12
210.0
 22
148.5
 13
0.0
 23
0.0
 14
1.0
 24
1.0
 15
0.0
 25
0.0
 16
0.0
 26
0.0
 36
1.0
 17
0.0
 27
0.0
 37
0.0
 40
297.0
 41
1.4141414141
 42
50.0
 43
0.0
 44
0.0
 50
0.0
 51
0.0
 71
0
 72
100
 73
1
 74
1
 75
0
 76
0
 77
0
 78
0
  0
ENDTAB
  0
TABLE
  2
LTYPE
  5
5
100
AcDbSymbolTable
 70
6
  0
LTYPE
  5
14
100
AcDbSymbolTableRecord
100
AcDbLinetypeTableRecord
  2
BYBLOCK
 70
0
  3

 72
65
 73
0
 40
0.0
  0
LTYPE
  5
15
100
AcDbSymbolTableRecord
100
AcDbLinetypeTableRecord
  2
BYLAYER
 70
0
  3

 72
65
 73
0
 40
0.0
  0
LTYPE
  5
16
100
AcDbSymbolTableRecord
100
AcDbLinetypeTableRecord
  2
CONTINUOUS
 70
64
  3
Solid line
 72
65
 73
0
 40
0.0
  0
LTYPE
  5
1F5
100
AcDbSymbolTableRecord
100
AcDbLinetypeTableRecord
  2
CENTER
 70
64
  3
____ _ ____ _ ____ _ ____ _ ____ _ ____ _ ____
 72
65
 73
4
 40
0.6
 49
0.375
 74
0
 49
-0.075
 74
0
 49
0.075
 74
0
 49
-0.075
 74
0
  0
LTYPE
  5
1F6
100
AcDbSymbolTableRecord
100
AcDbLinetypeTableRecord
  2
HIDDEN
 70
64
  3
- - - - - - - - - - - - - - - - - - - -
 72
65
 73
2
 40
0.2
 49
0.1
 74
0
 49
-0.1
 74
0
  0
LTYPE
  5
1F7
100
AcDbSymbolTableRecord
100
AcDbLinetypeTableRecord
  2
PHANTOM
 70
64
  3
_____ _ _ _____ _ _ _____ _ _ _____
 72
65
 73
6
 40
0.8
 49
0.45
 74
0
 49
-0.05
 74
0
 49
0.1
 74
0
 49
-0.05
 74
0
 49
0.1
 74
0
 49
-0.05
 74
0
  0
LTYPE
  5
1F8
100
AcDbSymbolTableRecord
100
AcDbLinetypeTableRecord
  2
DOT
 70
64
  3
. . . . . . . . . . . . . . . . . . . .
 72
65
 73
2
 40
0.2
 49
0.1
 74
0
 49
-0.1
 74
0
  0
LTYPE
  5
1F9
100
AcDbSymbolTableRecord
100
AcDbLinetypeTableRecord
  2
DASHED
 70
64
  3
- - - - - - - - - - - - - - - - - - - -
 72
65
 73
2
 40
0.2
 49
0.1
 74
0
 49
-0.1
 74
0
  0
ENDTAB
  0
TABLE
  2
LAYER
  5
2
100
AcDbSymbolTable
 70
36
  0
LAYER
  5
10
100
AcDbSymbolTableRecord
100
AcDbLayerTableRecord
  2
0
 70
0
 62
7
  6
CONTINUOUS
370
-3
390
F
  0
LAYER
  5
1FA
100
AcDbSymbolTableRecord
100
AcDbLayerTableRecord
  2
DEFAULT_1
 70
0
 62
7
  6
CENTER
370
-3
390
F
  0
LAYER
  5
1FB
100
AcDbSymbolTableRecord
100
AcDbLayerTableRecord
  2
DEFAULT_2
 70
0
 62
8
  6
HIDDEN
370
-3
390
F
  0
LAYER
  5
1FC
100
AcDbSymbolTableRecord
100
AcDbLayerTableRecord
  2
DEFAULT_3
 70
0
 62
7
  6
PHANTOM
370
-3
390
F
  0
LAYER
  5
1FD
100
AcDbSymbolTableRecord
100
AcDbLayerTableRecord
  2
AUSFORMSCHRAEGEN
 70
0
 62
7
  6
CONTINUOUS
370
-3
390
F
  0
LAYER
  5
1FE
100
AcDbSymbolTableRecord
100
AcDbLayerTableRecord
  2
B-EBENEN
 70
0
 62
7
  6
CONTINUOUS
370
-3
390
F
  0
LAYER
  5
1FF
100
AcDbSymbolTableRecord
100
AcDbLayerTableRecord
  2
B-KOORSYS
 70
0
 62
7
  6
CONTINUOUS
370
-3
390
F
  0
LAYER
  5
200
100
AcDbSymbolTableRecord
100
AcDbLayerTableRecord
  2
BEMASSUNG
 70
0
 62
7
  6
CONTINUOUS
370
-3
390
F
  0
LAYER
  5
201
100
AcDbSymbolTableRecord
100
AcDbLayerTableRecord
  2
BEZUGSACHSEN
 70
0
 62
7
  6
CONTINUOUS
370
-3
390
F
  0
LAYER
  5
202
100
AcDbSymbolTableRecord
100
AcDbLayerTableRecord
  2
BEZUGSEBENEN
 70
0
 62
7
  6
CONTINUOUS
370
-3
390
F
  0
LAYER
  5
203
100
AcDbSymbolTableRecord
100
AcDbLayerTableRecord
  2
BOHRUNGEN
 70
0
 62
7
  6
CONTINUOUS
370
-3
390
F
  0
LAYER
  5
204
100
AcDbSymbolTableRecord
100
AcDbLayerTableRecord
  2
FASEN
 70
0
 62
7
  6
CONTINUOUS
370
-3
390
F
  0
LAYER
  5
205
100
AcDbSymbolTableRecord
100
AcDbLayerTableRecord
  2
HILFEN
 70
0
 62
7
  6
CONTINUOUS
370
-3
390
F
  0
LAYER
  5
206
100
AcDbSymbolTableRecord
100
AcDbLayerTableRecord
  2
KONSTRUKTIONSELEMENTE
 70
0
 62
7
  6
CONTINUOUS
370
-3
390
F
  0
LAYER
  5
207
100
AcDbSymbolTableRecord
100
AcDbLayerTableRecord
  2
LAY0001
 70
0
 62
7
  6
CONTINUOUS
370
-3
390
F
  0
LAYER
  5
208
100
AcDbSymbolTableRecord
100
AcDbLayerTableRecord
  2
NOTIZEN
 70
0
 62
7
  6
CONTINUOUS
370
-3
390
F
  0
LAYER
  5
209
100
AcDbSymbolTableRecord
100
AcDbLayerTableRecord
  2
PLATZIERUNG
 70
0
 62
7
  6
CONTINUOUS
370
-3
390
F
  0
LAYER
  5
20A
100
AcDbSymbolTableRecord
100
AcDbLayerTableRecord
  2
RUNDUNGEN
 70
0
 62
7
  6
CONTINUOUS
370
-3
390
F
  0
LAYER
  5
20B
100
AcDbSymbolTableRecord
100
AcDbLayerTableRecord
  2
TEIL_STARTBEZUEGE
 70
0
 62
7
  6
CONTINUOUS
370
-3
390
F
  0
LAYER
  5
20C
100
AcDbSymbolTableRecord
100
AcDbLayerTableRecord
  2
ZEICHNUNGSBEMASSUNGEN
 70
0
 62
7
  6
CONTINUOUS
370
-3
390
F
  0
ENDTAB
  0
TABLE
  2
STYLE
  5
3
100
AcDbSymbolTable
 70
1
  0
STYLE
  5
11
100
AcDbSymbolTableRecord
100
AcDbTextStyleTableRecord
  2
STANDARD
 70
0
 40
0.0
 41
0.7
 50
0.0
 71
0
 42
0.2
  3
txt
  4

  0
STYLE
  5
20D
100
AcDbSymbolTableRecord
100
AcDbTextStyleTableRecord
  2
TEXTSTYLE_1
 70
0
 40
0.0
 41
0.8
 50
0.0
 71
0
 42
0.2
  3
gdt
  4

  0
ENDTAB
  0
TABLE
  2
VIEW
  5
6
100
AcDbSymbolTable
 70
0
  0
ENDTAB
  0
TABLE
  2
UCS
  5
7
100
AcDbSymbolTable
 70
0
  0
ENDTAB
  0
TABLE
  2
APPID
  5
9
100
AcDbSymbolTable
 70
1
  0
APPID
  5
20E
100
AcDbSymbolTableRecord
100
AcDbRegAppTableRecord
  2
ACAD
 70
0
  0
ENDTAB
  0
TABLE
  2
BLOCK_RECORD
  5
1
100
AcDbSymbolTable
 70
0
  0
BLOCK_RECORD
  5
20F
100
AcDbSymbolTableRecord
100
AcDbBlockTableRecord
  2
*Model_Space
  0
BLOCK_RECORD
  5
210
100
AcDbSymbolTableRecord
100
AcDbBlockTableRecord
  2
*Paper_Space
  0
ENDTAB
  0
TABLE
  2
DIMSTYLE
  5
A
100
AcDbSymbolTable
 70
1
100
AcDbDimStyleTable
 71
0
  0
DIMSTYLE
105
211
100
AcDbSymbolTableRecord
100
AcDbDimStyleTableRecord
  2
STANDARD
 70
0
  3

  4

 40
1.0
 41
3.5
 42
0.0625
 43
0.38
 44
0.18
 45
0.0
 46
0.0
 47
0.005
 48
0.005
140
3.5
141
0.09
142
0.0
143
25.4
144
1.0
145
0.0
146
1.0
147
0.09
 71
1.0
 72
0.0
 73
0
 74
0
 75
0
 76
0
 77
1
 78
8
170
0
171
2
172
0
173
0
174
0
175
0
176
0
177
0
178
5
270
2
271
3
272
3
273
2
274
2
275
0
280
0
281
0
282
0
283
1
284
8
285
0
286
0
287
3
288
0
340
11
  0
ENDTAB
  0
ENDSEC
  0
SECTION
  2
BLOCKS
  0
BLOCK
  5
20
100
AcDbEntity
  8
0
100
AcDbBlockBegin
  2
*Model_Space
 70
0
 10
0.0
 20
0.0
 30
0.0
  3
*Model_Space
  1

  0
ENDBLK
  5
21
100
AcDbEntity
  8
0
100
AcDbBlockEnd
  0
BLOCK
  5
1C
100
AcDbEntity
  8
0
100
AcDbBlockBegin
  2
*Paper_Space
 70
0
 10
0.0
 20
0.0
 30
0.0
  3
*Paper_Space
  1

  0
ENDBLK
  5
1D
100
AcDbEntity
  8
0
100
AcDbBlockEnd
  0
ENDSEC
  0
SECTION
  2
ENTITIES
  0
MTEXT
  5
212
100
AcDbEntity
  8
0
100
AcDbMText
 62
5
  6
CONTINUOUS
  7
STANDARD
 71
1
 72
1
 10
316.9652531512
 20
213.802510763
 30
0.0
 11
0.0
 21
1.0
 31
0.0
 44
0.9
  1
RUD RBG 3t
 40
4.0
 41
31.5238095238
  0
MTEXT
  5
213
100
AcDbEntity
  8
0
100
AcDbMText
 62
5
  6
CONTINUOUS
  7
STANDARD
 71
1
 72
1
 10
149.1045118819
 20
82.8882440674
 30
0.0
 11
1.0
 21
0.0
 31
0.0
 44
0.9
  1
RBG 3t
 40
4.0
 41
18.4761904762
  0
LINE
  5
214
100
AcDbEntity
  8
0
100
AcDbLine
 62
7
  6
CONTINUOUS
 10
0.0
 20
0.0
 11
0.0
 21
297.0
  0
LINE
  5
215
100
AcDbEntity
  8
0
100
AcDbLine
 62
7
  6
CONTINUOUS
 10
0.0
 20
0.0
 11
420.0
 21
0.0
  0
LINE
  5
216
100
AcDbEntity
  8
0
100
AcDbLine
 62
7
  6
CONTINUOUS
 10
0.0
 20
297.0
 11
420.0
 21
297.0
  0
LINE
  5
217
100
AcDbEntity
  8
0
100
AcDbLine
 62
7
  6
CONTINUOUS
 10
420.0
 20
0.0
 11
420.0
 21
297.0
  0
LINE
  5
218
100
AcDbEntity
  8
KONSTRUKTIONSELEMENTE
100
AcDbLine
 62
7
  6
CONTINUOUS
 10
68.3817995486
 20
174.595323169
 11
67.5189928981
 21
182.8043800955
  0
LINE
  5
219
100
AcDbEntity
  8
KONSTRUKTIONSELEMENTE
100
AcDbLine
 62
7
  6
CONTINUOUS
 10
67.5189928981
 20
186.8043800955
 11
67.5189928981
 21
182.8043800955
  0
LINE
  5
21A
100
AcDbEntity
  8
KONSTRUKTIONSELEMENTE
100
AcDbLine
 62
7
  6
CONTINUOUS
 10
82.7189928981
 20
147.8043800955
 11
81.5189928981
 21
149.0043800955
  0
LINE
  5
21B
100
AcDbEntity
  8
KONSTRUKTIONSELEMENTE
100
AcDbLine
 62
7
  6
CONTINUOUS
 10
67.5189928981
 20
186.8043800955
 11
69.8012871457
 21
195.3220181857
  0
LINE
  5
21C
100
AcDbEntity
  8
KONSTRUKTIONSELEMENTE
100
AcDbLine
 62
7
  6
CONTINUOUS
 10
75.0189928981
 20
203.8043800955
 11
75.0189928981
 21
196.8043800955
  0
LINE
  5
21D
100
AcDbEntity
  8
KONSTRUKTIONSELEMENTE
100
AcDbLine
 62
7
  6
CONTINUOUS
 10
75.5286118413
 20
197.8043800955
 11
75.5286118413
 21
196.8043800955
  0
LINE
  5
21E
100
AcDbEntity
  8
KONSTRUKTIONSELEMENTE
100
AcDbLine
 62
7
  6
CONTINUOUS
 10
76.0189928981
 20
203.8043800955
 11
76.0189928981
 21
197.8043800955
  0
LINE
  5
21F
100
AcDbEntity
  8
KONSTRUKTIONSELEMENTE
100
AcDbLine
 62
7
  6
CONTINUOUS
 10
77.5189928981
 20
198.3043800955
 11
77.5189928981
 21
207.8043800955
  0
LINE
  5
220
100
AcDbEntity
  8
KONSTRUKTIONSELEMENTE
100
AcDbLine
 62
7
  6
CONTINUOUS
 10
78.5189928981
 20
197.8043800955
 11
78.5189928981
 21
198.3043800955
  0
LINE
  5
221
100
AcDbEntity
  8
KONSTRUKTIONSELEMENTE
100
AcDbLine
 62
7
  6
CONTINUOUS
 10
78.6289935084
 20
178.0443798666
 11
78.6289935084
 21
185.0443798666
  0
LINE
  5
222
100
AcDbEntity
  8
KONSTRUKTIONSELEMENTE
100
AcDbLine
 62
7
  6
CONTINUOUS
 10
79.2414927455
 20
184.299699462
 11
79.2414927455
 21
182.0656563406
  0
LINE
  5
223
100
AcDbEntity
  8
KONSTRUKTIONSELEMENTE
100
AcDbLine
 62
7
  6
CONTINUOUS
 10
79.2414927455
 20
181.1720396643
 11
79.2414927455
 21
178.0443798666
  0
LINE
  5
224
100
AcDbEntity
  8
KONSTRUKTIONSELEMENTE
100
AcDbLine
 62
7
  6
CONTINUOUS
 10
81.0125299747
 20
208.0043800955
 11
81.0125299747
 21
207.8043800955
  0
LINE
  5
225
100
AcDbEntity
  8
KONSTRUKTIONSELEMENTE
100
AcDbLine
 62
7
  6
CONTINUOUS
 10
81.5189928981
 20
149.0043800955
 11
81.5189928981
 21
172.8043800955
  0
LINE
  5
226
100
AcDbEntity
  8
KONSTRUKTIONSELEMENTE
100
AcDbLine
 62
7
  6
CONTINUOUS
 10
81.7935748072
 20
182.9592739706
 11
81.7935748072
 21
183.406081832
  0
LINE
  5
227
100
AcDbEntity
  8
KONSTRUKTIONSELEMENTE
100
AcDbLine
 62
7
  6
CONTINUOUS
 10
81.5894083949
 20
181.4699122076
 11
82.5081591578
 21
178.0443798666
  0
LINE
  5
228
100
AcDbEntity
  8
KONSTRUKTIONSELEMENTE
100
AcDbLine
 62
7
  6
CONTINUOUS
 10
81.7935748072
 20
178.0443798666
 11
80.9769091578
 21
181.1720396643
  0
LINE
  5
229
100
AcDbEntity
  8
KONSTRUKTIONSELEMENTE
100
AcDbLine
 62
7
  6
CONTINUOUS
 10
81.7935748072
 20
183.406081832
 11
81.6914935084
 21
183.8528916006
  0
LINE
  5
22A
100
AcDbEntity
  8
KONSTRUKTIONSELEMENTE
100
AcDbLine
 62
7
  6
CONTINUOUS
 10
82.3039927455
 20
183.8528916006
 11
82.406077859
 21
183.406081832
  0
LINE
  5
22B
100
AcDbEntity
  8
KONSTRUKTIONSELEMENTE
100
AcDbLine
 62
7
  6
CONTINUOUS
 10
82.406077859
 20
183.406081832
 11
82.406077859
 21
182.810337699
  0
LINE
  5
22C
100
AcDbEntity
  8
KONSTRUKTIONSELEMENTE
100
AcDbLine
 62
7
  6
CONTINUOUS
 10
83.3248248072
 20
178.0443798666
 11
83.3248248072
 21
185.0443798666
  0
LINE
  5
22D
100
AcDbEntity
  8
KONSTRUKTIONSELEMENTE
100
AcDbLine
 62
7
  6
CONTINUOUS
 10
83.417090905
 20
208.0043800955
 11
83.417090905
 21
207.8043800955
  0
LINE
  5
22E
100
AcDbEntity
  8
KONSTRUKTIONSELEMENTE
100
AcDbLine
 62
7
  6
CONTINUOUS
 10
83.5722255818
 20
208.0043800955
 11
83.5722255818
 21
207.8043800955
  0
LINE
  5
22F
100
AcDbEntity
  8
KONSTRUKTIONSELEMENTE
100
AcDbLine
 62
7
  6
CONTINUOUS
 10
83.937327859
 20
184.1507622366
 11
83.937327859
 21
182.0656563406
  0
LINE
  5
230
100
AcDbEntity
  8
KONSTRUKTIONSELEMENTE
100
AcDbLine
 62
7
  6
CONTINUOUS
 10
83.937327859
 20
181.1720396643
 11
83.937327859
 21
178.9379974966
  0
LINE
  5
231
100
AcDbEntity
  8
KONSTRUKTIONSELEMENTE
100
AcDbLine
 62
7
  6
CONTINUOUS
 10
84.2186200441
 20
208.0043800955
 11
84.2186200441
 21
207.8043800955
  0
LINE
  5
232
100
AcDbEntity
  8
KONSTRUKTIONSELEMENTE
100
AcDbLine
 62
7
  6
CONTINUOUS
 10
84.3996105498
 20
208.0043800955
 11
84.3996105498
 21
207.8043800955
  0
LINE
  5
233
100
AcDbEntity
  8
KONSTRUKTIONSELEMENTE
100
AcDbLine
 62
7
  6
CONTINUOUS
 10
84.4856338811
 20
208.0043800955
 11
84.4856338811
 21
207.8043800955
  0
LINE
  5
234
100
AcDbEntity
  8
KONSTRUKTIONSELEMENTE
100
AcDbLine
 62
7
  6
CONTINUOUS
 10
84.7780216858
 20
208.0043800955
 11
84.7780216858
 21
207.8043800955
  0
LINE
  5
235
100
AcDbEntity
  8
KONSTRUKTIONSELEMENTE
100
AcDbLine
 62
7
  6
CONTINUOUS
 10
84.9929623954
 20
208.0043800955
 11
84.9929623954
 21
207.8043800955
  0
LINE
  5
236
100
AcDbEntity
  8
KONSTRUKTIONSELEMENTE
100
AcDbLine
 62
7
  6
CONTINUOUS
 10
85.2035526593
 20
208.0043800955
 11
85.2035526593
 21
207.8043800955
  0
LINE
  5
237
100
AcDbEntity
  8
KONSTRUKTIONSELEMENTE
100
AcDbLine
 62
7
  6
CONTINUOUS
 10
85.3410460704
 20
208.0043800955
 11
85.3410460704
 21
207.8043800955
  0
LINE
  5
238
100
AcDbEntity
  8
KONSTRUKTIONSELEMENTE
100
AcDbLine
 62
7
  6
CONTINUOUS
 10
85.4741890392
 20
208.0043800955
 11
85.4741890392
 21
207.8043800955
  0
LINE
  5
239
100
AcDbEntity
  8
KONSTRUKTIONSELEMENTE
100
AcDbLine
 62
7
  6
CONTINUOUS
 10
85.5342351518
 20
208.0043800955
 11
85.5342351518
 21
207.8043800955
  0
LINE
  5
23A
100
AcDbEntity
  8
KONSTRUKTIONSELEMENTE
100
AcDbLine
 62
7
  6
CONTINUOUS
 10
86.1955899311
 20
208.0043800955
 11
86.1955899311
 21
207.8043800955
  0
LINE
  5
23B
100
AcDbEntity
  8
KONSTRUKTIONSELEMENTE
100
AcDbLine
 62
7
  6
CONTINUOUS
 10
86.4894099208
 20
179.831614173
 11
86.4894099208
 21
180.2784229879
  0
LINE
  5
23C
100
AcDbEntity
  8
KONSTRUKTIONSELEMENTE
100
AcDbLine
 62
7
  6
CONTINUOUS
 10
86.4894099208
 20
182.9592739706
 11
86.4894099208
 21
183.257146514
  0
LINE
  5
23D
100
AcDbEntity
  8
KONSTRUKTIONSELEMENTE
100
AcDbLine
 62
7
  6
CONTINUOUS
 10
87.1019091578
 20
183.406081832
 11
87.1019091578
 21
182.810337699
  0
LINE
  5
23E
100
AcDbEntity
  8
KONSTRUKTIONSELEMENTE
100
AcDbLine
 62
7
  6
CONTINUOUS
 10
87.1019091578
 20
180.4273592596
 11
87.1019091578
 21
179.6826779013
  0
LINE
  5
23F
100
AcDbEntity
  8
KONSTRUKTIONSELEMENTE
100
AcDbLine
 62
7
  6
CONTINUOUS
 10
87.1639621518
 20
208.0043800955
 11
87.1639621518
 21
207.8043800955
  0
LINE
  5
240
100
AcDbEntity
  8
KONSTRUKTIONSELEMENTE
100
AcDbLine
 62
7
  6
CONTINUOUS
 10
87.3427603836
 20
208.0043800955
 11
87.3427603836
 21
207.8043800955
  0
LINE
  5
241
100
AcDbEntity
  8
KONSTRUKTIONSELEMENTE
100
AcDbLine
 62
7
  6
CONTINUOUS
 10
87.4582633283
 20
208.0043800955
 11
87.4582633283
 21
207.8043800955
  0
LINE
  5
242
100
AcDbEntity
  8
KONSTRUKTIONSELEMENTE
100
AcDbLine
 62
7
  6
CONTINUOUS
 10
87.5278740054
 20
208.0043800955
 11
87.5278740054
 21
207.8043800955
  0
LINE
  5
243
100
AcDbEntity
  8
KONSTRUKTIONSELEMENTE
100
AcDbLine
 62
7
  6
CONTINUOUS
 10
87.9185748072
 20
180.4273592596
 11
87.9185748072
 21
182.6614014273
  0
LINE
  5
244
100
AcDbEntity
  8
KONSTRUKTIONSELEMENTE
100
AcDbLine
 62
7
  6
CONTINUOUS
 10
88.531077859
 20
182.6614014273
 11
88.531077859
 21
180.4273592596
  0
LINE
  5
245
100
AcDbEntity
  8
KONSTRUKTIONSELEMENTE
100
AcDbLine
 62
7
  6
CONTINUOUS
 10
81.6914935084
 20
182.5124651556
 11
81.7935748072
 21
182.9592739706
  0
LINE
  5
246
100
AcDbEntity
  8
KONSTRUKTIONSELEMENTE
100
AcDbLine
 62
7
  6
CONTINUOUS
 10
82.406077859
 20
182.810337699
 11
82.3039927455
 21
182.363528884
  0
LINE
  5
247
100
AcDbEntity
  8
KONSTRUKTIONSELEMENTE
100
AcDbLine
 62
7
  6
CONTINUOUS
 10
81.6914935084
 20
183.8528916006
 11
81.487327096
 21
184.1507622366
  0
LINE
  5
248
100
AcDbEntity
  8
KONSTRUKTIONSELEMENTE
100
AcDbLine
 62
7
  6
CONTINUOUS
 10
86.3873248072
 20
180.7252308493
 11
86.1831583949
 21
181.0231033926
  0
LINE
  5
249
100
AcDbEntity
  8
KONSTRUKTIONSELEMENTE
100
AcDbLine
 62
7
  6
CONTINUOUS
 10
88.6331591578
 20
178.4911886816
 11
88.2248263331
 21
179.0869328146
  0
LINE
  5
24A
100
AcDbEntity
  8
KONSTRUKTIONSELEMENTE
100
AcDbLine
 62
7
  6
CONTINUOUS
 10
81.9977412196
 20
184.44863478
 11
82.3039927455
 21
183.8528916006
  0
LINE
  5
24B
100
AcDbEntity
  8
KONSTRUKTIONSELEMENTE
100
AcDbLine
 62
7
  6
CONTINUOUS
 10
86.6935763331
 20
181.4699122076
 11
86.999827859
 21
180.874167121
  0
LINE
  5
24C
100
AcDbEntity
  8
KONSTRUKTIONSELEMENTE
100
AcDbLine
 62
7
  6
CONTINUOUS
 10
86.6935763331
 20
184.44863478
 11
86.999827859
 21
183.8528916006
  0
LINE
  5
24D
100
AcDbEntity
  8
KONSTRUKTIONSELEMENTE
100
AcDbLine
 62
7
  6
CONTINUOUS
 10
88.6331591578
 20
179.831614173
 11
88.8373255702
 21
179.384805358
  0
LINE
  5
24E
100
AcDbEntity
  8
KONSTRUKTIONSELEMENTE
100
AcDbLine
 62
7
  6
CONTINUOUS
 10
88.2248263331
 20
179.0869328146
 11
88.0206599208
 21
179.6826779013
  0
LINE
  5
24F
100
AcDbEntity
  8
KONSTRUKTIONSELEMENTE
100
AcDbLine
 62
7
  6
CONTINUOUS
 10
86.4894099208
 20
180.2784229879
 11
86.3873248072
 21
180.7252308493
  0
LINE
  5
250
100
AcDbEntity
  8
KONSTRUKTIONSELEMENTE
100
AcDbLine
 62
7
  6
CONTINUOUS
 10
86.999827859
 20
180.874167121
 11
87.1019091578
 21
180.4273592596
  0
LINE
  5
251
100
AcDbEntity
  8
KONSTRUKTIONSELEMENTE
100
AcDbLine
 62
7
  6
CONTINUOUS
 10
86.4894099208
 20
183.257146514
 11
86.3873248072
 21
183.7039543753
  0
LINE
  5
252
100
AcDbEntity
  8
KONSTRUKTIONSELEMENTE
100
AcDbLine
 62
7
  6
CONTINUOUS
 10
86.999827859
 20
183.8528916006
 11
87.1019091578
 21
183.406081832
  0
LINE
  5
253
100
AcDbEntity
  8
KONSTRUKTIONSELEMENTE
100
AcDbLine
 62
7
  6
CONTINUOUS
 10
88.531077859
 20
180.4273592596
 11
88.6331591578
 21
179.831614173
  0
LINE
  5
254
100
AcDbEntity
  8
KONSTRUKTIONSELEMENTE
100
AcDbLine
 62
7
  6
CONTINUOUS
 10
88.0206599208
 20
179.6826779013
 11
87.9185748072
 21
180.4273592596
  0
LINE
  5
255
100
AcDbEntity
  8
KONSTRUKTIONSELEMENTE
100
AcDbLine
 62
7
  6
CONTINUOUS
 10
89.5189928981
 20
206.7325833258
 11
89.5189928981
 21
198.3043800955
  0
LINE
  5
256
100
AcDbEntity
  8
KONSTRUKTIONSELEMENTE
100
AcDbLine
 62
7
  6
CONTINUOUS
 10
90.2452332489
 20
208.0043800955
 11
90.2452332489
 21
207.8043800955
  0
LINE
  5
257
100
AcDbEntity
  8
KONSTRUKTIONSELEMENTE
100
AcDbLine
 62
7
  6
CONTINUOUS
 10
90.3685755702
 20
181.0231033926
 11
90.3685755702
 21
181.916720069
  0
LINE
  5
258
100
AcDbEntity
  8
KONSTRUKTIONSELEMENTE
100
AcDbLine
 62
7
  6
CONTINUOUS
 10
90.4966055364
 20
208.0043800955
 11
90.4966055364
 21
207.8043800955
  0
LINE
  5
259
100
AcDbEntity
  8
KONSTRUKTIONSELEMENTE
100
AcDbLine
 62
7
  6
CONTINUOUS
 10
91.0831405542
 20
208.0043800955
 11
91.0831405542
 21
207.8043800955
  0
LINE
  5
25A
100
AcDbEntity
  8
KONSTRUKTIONSELEMENTE
100
AcDbLine
 62
7
  6
CONTINUOUS
 10
91.2873263331
 20
179.831614173
 11
91.2873263331
 21
181.0231033926
  0
LINE
  5
25B
100
AcDbEntity
  8
KONSTRUKTIONSELEMENTE
100
AcDbLine
 62
7
  6
CONTINUOUS
 10
91.4183042434
 20
208.0043800955
 11
91.4183042434
 21
207.8043800955
  0
LINE
  5
25C
100
AcDbEntity
  8
KONSTRUKTIONSELEMENTE
100
AcDbLine
 62
7
  6
CONTINUOUS
 10
91.8998255702
 20
181.916720069
 11
91.8998255702
 21
179.6826779013
  0
LINE
  5
25D
100
AcDbEntity
  8
KONSTRUKTIONSELEMENTE
100
AcDbLine
 62
7
  6
CONTINUOUS
 10
92.0048392612
 20
208.0043800955
 11
92.0048392612
 21
207.8043800955
  0
LINE
  5
25E
100
AcDbEntity
  8
KONSTRUKTIONSELEMENTE
100
AcDbLine
 62
7
  6
CONTINUOUS
 10
92.2562115487
 20
208.0043800955
 11
92.2562115487
 21
207.8043800955
  0
LINE
  5
25F
100
AcDbEntity
  8
KONSTRUKTIONSELEMENTE
100
AcDbLine
 62
7
  6
CONTINUOUS
 10
92.7806791537
 20
208.0043800955
 11
92.7806791537
 21
207.8043800955
  0
LINE
  5
260
100
AcDbEntity
  8
KONSTRUKTIONSELEMENTE
100
AcDbLine
 62
7
  6
CONTINUOUS
 10
93.0102308295
 20
208.0043800955
 11
93.0102308295
 21
207.8043800955
  0
LINE
  5
261
100
AcDbEntity
  8
KONSTRUKTIONSELEMENTE
100
AcDbLine
 62
7
  6
CONTINUOUS
 10
93.6918164142
 20
208.0043800955
 11
93.6918164142
 21
207.8043800955
  0
LINE
  5
262
100
AcDbEntity
  8
KONSTRUKTIONSELEMENTE
100
AcDbLine
 62
7
  6
CONTINUOUS
 10
93.7388399828
 20
208.0043800955
 11
93.7388399828
 21
207.8043800955
  0
LINE
  5
263
100
AcDbEntity
  8
KONSTRUKTIONSELEMENTE
100
AcDbLine
 62
7
  6
CONTINUOUS
 10
93.8663710133
 20
208.0043800955
 11
93.8663710133
 21
207.8043800955
  0
LINE
  5
264
100
AcDbEntity
  8
KONSTRUKTIONSELEMENTE
100
AcDbLine
 62
7
  6
CONTINUOUS
 10
94.0341565428
 20
208.0043800955
 11
94.0341565428
 21
207.8043800955
  0
LINE
  5
265
100
AcDbEntity
  8
KONSTRUKTIONSELEMENTE
100
AcDbLine
 62
7
  6
CONTINUOUS
 10
94.2421950352
 20
208.0043800955
 11
94.2421950352
 21
207.8043800955
  0
LINE
  5
266
100
AcDbEntity
  8
KONSTRUKTIONSELEMENTE
100
AcDbLine
 62
7
  6
CONTINUOUS
 10
94.5307409895
 20
208.0043800955
 11
94.5307409895
 21
207.8043800955
  0
LINE
  5
267
100
AcDbEntity
  8
KONSTRUKTIONSELEMENTE
100
AcDbLine
 62
7
  6
CONTINUOUS
 10
94.7924269238
 20
208.0043800955
 11
94.7924269238
 21
207.8043800955
  0
LINE
  5
268
100
AcDbEntity
  8
KONSTRUKTIONSELEMENTE
100
AcDbLine
 62
7
  6
CONTINUOUS
 10
95.0608101081
 20
208.0043800955
 11
95.0608101081
 21
207.8043800955
  0
LINE
  5
269
100
AcDbEntity
  8
KONSTRUKTIONSELEMENTE
100
AcDbLine
 62
7
  6
CONTINUOUS
 10
95.2620788016
 20
208.0043800955
 11
95.2620788016
 21
207.8043800955
  0
LINE
  5
26A
100
AcDbEntity
  8
KONSTRUKTIONSELEMENTE
100
AcDbLine
 62
7
  6
CONTINUOUS
 10
95.3962329198
 20
208.0043800955
 11
95.3962329198
 21
207.8043800955
  0
LINE
  5
26B
100
AcDbEntity
  8
KONSTRUKTIONSELEMENTE
100
AcDbLine
 62
7
  6
CONTINUOUS
 10
95.4163230916
 20
208.0043800955
 11
95.4163230916
 21
207.8043800955
  0
LINE
  5
26C
100
AcDbEntity
  8
KONSTRUKTIONSELEMENTE
100
AcDbLine
 62
7
  6
CONTINUOUS
 10
95.5234712994
 20
208.0043800955
 11
95.5234712994
 21
207.8043800955
  0
LINE
  5
26D
100
AcDbEntity
  8
KONSTRUKTIONSELEMENTE
100
AcDbLine
 62
7
  6
CONTINUOUS
 10
95.7248133203
 20
208.0043800955
 11
95.7248133203
 21
207.8043800955
  0
LINE
  5
26E
100
AcDbEntity
  8
KONSTRUKTIONSELEMENTE
100
AcDbLine
 62
7
  6
CONTINUOUS
 10
95.7517467277
 20
208.0043800955
 11
95.7517467277
 21
207.8043800955
  0
LINE
  5
26F
100
AcDbEntity
  8
KONSTRUKTIONSELEMENTE
100
AcDbLine
 62
7
  6
CONTINUOUS
 10
87.9185748072
 20
182.6614014273
 11
88.0206599208
 21
183.406081832
  0
LINE
  5
270
100
AcDbEntity
  8
KONSTRUKTIONSELEMENTE
100
AcDbLine
 62
7
  6
CONTINUOUS
 10
88.6331591578
 20
183.257146514
 11
88.531077859
 21
182.6614014273
  0
LINE
  5
271
100
AcDbEntity
  8
KONSTRUKTIONSELEMENTE
100
AcDbLine
 62
7
  6
CONTINUOUS
 10
86.3873248072
 20
182.5124651556
 11
86.4894099208
 21
182.9592739706
  0
LINE
  5
272
100
AcDbEntity
  8
KONSTRUKTIONSELEMENTE
100
AcDbLine
 62
7
  6
CONTINUOUS
 10
87.1019091578
 20
182.810337699
 11
86.999827859
 21
182.363528884
  0
LINE
  5
273
100
AcDbEntity
  8
KONSTRUKTIONSELEMENTE
100
AcDbLine
 62
7
  6
CONTINUOUS
 10
86.3873248072
 20
179.384805358
 11
86.4894099208
 21
179.831614173
  0
LINE
  5
274
100
AcDbEntity
  8
KONSTRUKTIONSELEMENTE
100
AcDbLine
 62
7
  6
CONTINUOUS
 10
87.1019091578
 20
179.6826779013
 11
86.999827859
 21
179.2358690863
  0
LINE
  5
275
100
AcDbEntity
  8
KONSTRUKTIONSELEMENTE
100
AcDbLine
 62
7
  6
CONTINUOUS
 10
88.8373255702
 20
179.384805358
 11
89.1435770961
 21
179.0869328146
  0
LINE
  5
276
100
AcDbEntity
  8
KONSTRUKTIONSELEMENTE
100
AcDbLine
 62
7
  6
CONTINUOUS
 10
81.5894083949
 20
184.8954445486
 11
81.9977412196
 21
184.44863478
  0
LINE
  5
277
100
AcDbEntity
  8
KONSTRUKTIONSELEMENTE
100
AcDbLine
 62
7
  6
CONTINUOUS
 10
86.2852435084
 20
184.8954445486
 11
86.6935763331
 21
184.44863478
  0
LINE
  5
278
100
AcDbEntity
  8
KONSTRUKTIONSELEMENTE
100
AcDbLine
 62
7
  6
CONTINUOUS
 10
86.3873248072
 20
183.7039543753
 11
86.1831583949
 21
184.0018269186
  0
LINE
  5
279
100
AcDbEntity
  8
KONSTRUKTIONSELEMENTE
100
AcDbLine
 62
7
  6
CONTINUOUS
 10
91.3894095393
 20
184.5975720053
 11
91.797742364
 21
184.0018269186
  0
LINE
  5
27A
100
AcDbEntity
  8
KONSTRUKTIONSELEMENTE
100
AcDbLine
 62
7
  6
CONTINUOUS
 10
97.922742364
 20
178.789061225
 11
97.7185759516
 21
179.2358690863
  0
LINE
  5
27B
100
AcDbEntity
  8
KONSTRUKTIONSELEMENTE
100
AcDbLine
 62
7
  6
CONTINUOUS
 10
98.1269087763
 20
179.6826779013
 11
98.2289919825
 21
179.384805358
  0
LINE
  5
27C
100
AcDbEntity
  8
KONSTRUKTIONSELEMENTE
100
AcDbLine
 62
7
  6
CONTINUOUS
 10
91.2873263331
 20
183.257146514
 11
91.1852431269
 21
183.7039543753
  0
LINE
  5
27D
100
AcDbEntity
  8
KONSTRUKTIONSELEMENTE
100
AcDbLine
 62
7
  6
CONTINUOUS
 10
97.7185759516
 20
179.2358690863
 11
97.6164927455
 21
179.6826779013
  0
LINE
  5
27E
100
AcDbEntity
  8
KONSTRUKTIONSELEMENTE
100
AcDbLine
 62
7
  6
CONTINUOUS
 10
91.797742364
 20
184.0018269186
 11
91.8998255702
 21
183.257146514
  0
LINE
  5
27F
100
AcDbEntity
  8
KONSTRUKTIONSELEMENTE
100
AcDbLine
 62
7
  6
CONTINUOUS
 10
95.9195314891
 20
208.0043800955
 11
95.9195314891
 21
207.8043800955
  0
LINE
  5
280
100
AcDbEntity
  8
KONSTRUKTIONSELEMENTE
100
AcDbLine
 62
7
  6
CONTINUOUS
 10
95.9819833177
 20
208.0043800955
 11
95.9819833177
 21
207.8043800955
  0
LINE
  5
281
100
AcDbEntity
  8
KONSTRUKTIONSELEMENTE
100
AcDbLine
 62
7
  6
CONTINUOUS
 10
96.0816373814
 20
208.0043800955
 11
96.0816373814
 21
207.8043800955
  0
LINE
  5
282
100
AcDbEntity
  8
KONSTRUKTIONSELEMENTE
100
AcDbLine
 62
7
  6
CONTINUOUS
 10
96.3841675928
 20
208.0043800955
 11
96.3841675928
 21
207.8043800955
  0
LINE
  5
283
100
AcDbEntity
  8
KONSTRUKTIONSELEMENTE
100
AcDbLine
 62
7
  6
CONTINUOUS
 10
96.4211309101
 20
208.0043800955
 11
96.4211309101
 21
207.8043800955
  0
LINE
  5
284
100
AcDbEntity
  8
KONSTRUKTIONSELEMENTE
100
AcDbLine
 62
7
  6
CONTINUOUS
 10
96.4507054959
 20
208.0043800955
 11
96.4507054959
 21
207.8043800955
  0
LINE
  5
285
100
AcDbEntity
  8
KONSTRUKTIONSELEMENTE
100
AcDbLine
 62
7
  6
CONTINUOUS
 10
96.6063991979
 20
208.0043800955
 11
96.6063991979
 21
207.8043800955
  0
LINE
  5
286
100
AcDbEntity
  8
KONSTRUKTIONSELEMENTE
100
AcDbLine
 62
7
  6
CONTINUOUS
 10
96.8385465082
 20
208.0043800955
 11
96.8385465082
 21
207.8043800955
  0
LINE
  5
287
100
AcDbEntity
  8
KONSTRUKTIONSELEMENTE
100
AcDbLine
 62
7
  6
CONTINUOUS
 10
97.1404505715
 20
208.0043800955
 11
97.1404505715
 21
207.8043800955
  0
LINE
  5
288
100
AcDbEntity
  8
KONSTRUKTIONSELEMENTE
100
AcDbLine
 62
7
  6
CONTINUOUS
 10
97.5189928981
 20
149.0043800955
 11
97.5189928981
 21
172.8043800955
  0
LINE
  5
289
100
AcDbEntity
  8
KONSTRUKTIONSELEMENTE
100
AcDbLine
 62
7
  6
CONTINUOUS
 10
97.5751703494
 20
208.0043800955
 11
97.5751703494
 21
207.8043800955
  0
LINE
  5
28A
100
AcDbEntity
  8
KONSTRUKTIONSELEMENTE
100
AcDbLine
 62
7
  6
CONTINUOUS
 10
98.0165872174
 20
208.0043800955
 11
98.0165872174
 21
207.8043800955
  0
LINE
  5
28B
100
AcDbEntity
  8
KONSTRUKTIONSELEMENTE
100
AcDbLine
 62
7
  6
CONTINUOUS
 10
98.4647012637
 20
208.0043800955
 11
98.4647012637
 21
207.8043800955
  0
LINE
  5
28C
100
AcDbEntity
  8
KONSTRUKTIONSELEMENTE
100
AcDbLine
 62
7
  6
CONTINUOUS
 10
98.7933929469
 20
208.0043800955
 11
98.7933929469
 21
207.8043800955
  0
LINE
  5
28D
100
AcDbEntity
  8
KONSTRUKTIONSELEMENTE
100
AcDbLine
 62
7
  6
CONTINUOUS
 10
99.0657220792
 20
208.0043800955
 11
99.0657220792
 21
207.8043800955
  0
LINE
  5
28E
100
AcDbEntity
  8
KONSTRUKTIONSELEMENTE
100
AcDbLine
 62
7
  6
CONTINUOUS
 10
99.2498259516
 20
181.320975936
 11
99.2498259516
 21
181.916720069
  0
LINE
  5
28F
100
AcDbEntity
  8
KONSTRUKTIONSELEMENTE
100
AcDbLine
 62
7
  6
CONTINUOUS
 10
99.2883857092
 20
208.0043800955
 11
99.2883857092
 21
207.8043800955
  0
LINE
  5
290
100
AcDbEntity
  8
KONSTRUKTIONSELEMENTE
100
AcDbLine
 62
7
  6
CONTINUOUS
 10
99.384930234
 20
208.0043800955
 11
99.384930234
 21
207.8043800955
  0
LINE
  5
291
100
AcDbEntity
  8
KONSTRUKTIONSELEMENTE
100
AcDbLine
 62
7
  6
CONTINUOUS
 10
99.4184148998
 20
208.0043800955
 11
99.4184148998
 21
207.8043800955
  0
LINE
  5
292
100
AcDbEntity
  8
KONSTRUKTIONSELEMENTE
100
AcDbLine
 62
7
  6
CONTINUOUS
 10
100.5189928981
 20
197.8043800955
 11
100.5189928981
 21
198.3043800955
  0
LINE
  5
293
100
AcDbEntity
  8
KONSTRUKTIONSELEMENTE
100
AcDbLine
 62
7
  6
CONTINUOUS
 10
100.6789927455
 20
183.1082102423
 11
100.6789927455
 21
183.406081832
  0
LINE
  5
294
100
AcDbEntity
  8
KONSTRUKTIONSELEMENTE
100
AcDbLine
 62
7
  6
CONTINUOUS
 10
100.7810759516
 20
179.6826779013
 11
100.7810759516
 21
180.278422988
  0
LINE
  5
295
100
AcDbEntity
  8
KONSTRUKTIONSELEMENTE
100
AcDbLine
 62
7
  6
CONTINUOUS
 10
101.1894087764
 20
183.406081832
 11
101.1894087764
 21
183.1082102423
  0
LINE
  5
296
100
AcDbEntity
  8
KONSTRUKTIONSELEMENTE
100
AcDbLine
 62
7
  6
CONTINUOUS
 10
101.2914919825
 20
180.278422988
 11
101.2914919825
 21
179.6826779013
  0
LINE
  5
297
100
AcDbEntity
  8
KONSTRUKTIONSELEMENTE
100
AcDbLine
 62
7
  6
CONTINUOUS
 10
101.518992898
 20
207.8043800955
 11
101.518992898
 21
198.3043800955
  0
LINE
  5
298
100
AcDbEntity
  8
KONSTRUKTIONSELEMENTE
100
AcDbLine
 62
7
  6
CONTINUOUS
 10
102.1081595393
 20
182.2145926123
 11
102.1081595393
 21
182.810337699
  0
LINE
  5
299
100
AcDbEntity
  8
KONSTRUKTIONSELEMENTE
100
AcDbLine
 62
7
  6
CONTINUOUS
 10
102.4679505454
 20
172.8043800955
 11
102.4679505454
 21
168.3043800955
  0
LINE
  5
29A
100
AcDbEntity
  8
KONSTRUKTIONSELEMENTE
100
AcDbLine
 62
7
  6
CONTINUOUS
 10
91.8998255702
 20
179.6826779013
 11
91.797742364
 21
179.0869328146
  0
LINE
  5
29B
100
AcDbEntity
  8
KONSTRUKTIONSELEMENTE
100
AcDbLine
 62
7
  6
CONTINUOUS
 10
97.7185759516
 20
183.406081832
 11
97.8206591578
 21
184.0018269186
  0
LINE
  5
29C
100
AcDbEntity
  8
KONSTRUKTIONSELEMENTE
100
AcDbLine
 62
7
  6
CONTINUOUS
 10
91.1852431269
 20
179.384805358
 11
91.2873263331
 21
179.831614173
  0
LINE
  5
29D
100
AcDbEntity
  8
KONSTRUKTIONSELEMENTE
100
AcDbLine
 62
7
  6
CONTINUOUS
 10
88.0206599208
 20
183.406081832
 11
88.2248263331
 21
184.0018269186
  0
LINE
  5
29E
100
AcDbEntity
  8
KONSTRUKTIONSELEMENTE
100
AcDbLine
 62
7
  6
CONTINUOUS
 10
88.8373255702
 20
183.7039543753
 11
88.6331591578
 21
183.257146514
  0
LINE
  5
29F
100
AcDbEntity
  8
KONSTRUKTIONSELEMENTE
100
AcDbLine
 62
7
  6
CONTINUOUS
 10
82.3039927455
 20
182.363528884
 11
81.9977412196
 21
181.767784751
  0
LINE
  5
2A0
100
AcDbEntity
  8
KONSTRUKTIONSELEMENTE
100
AcDbLine
 62
7
  6
CONTINUOUS
 10
89.0414919825
 20
178.1933161383
 11
88.6331591578
 21
178.4911886816
  0
LINE
  5
2A1
100
AcDbEntity
  8
KONSTRUKTIONSELEMENTE
100
AcDbLine
 62
7
  6
CONTINUOUS
 10
86.4894099208
 20
181.6188484793
 11
86.6935763331
 21
181.4699122076
  0
LINE
  5
2A2
100
AcDbEntity
  8
KONSTRUKTIONSELEMENTE
100
AcDbLine
 62
7
  6
CONTINUOUS
 10
91.1852431269
 20
183.7039543753
 11
90.8789935084
 21
184.0018269186
  0
LINE
  5
2A3
100
AcDbEntity
  8
KONSTRUKTIONSELEMENTE
100
AcDbLine
 62
7
  6
CONTINUOUS
 10
98.2289919825
 20
178.4911886816
 11
97.922742364
 21
178.789061225
  0
LINE
  5
2A4
100
AcDbEntity
  8
KONSTRUKTIONSELEMENTE
100
AcDbLine
 62
7
  6
CONTINUOUS
 10
98.2289919825
 20
179.384805358
 11
98.4331603022
 21
179.0869328146
  0
LINE
  5
2A5
100
AcDbEntity
  8
KONSTRUKTIONSELEMENTE
100
AcDbLine
 62
7
  6
CONTINUOUS
 10
100.6789927455
 20
184.5975720053
 11
101.0873255702
 21
184.0018269186
  0
LINE
  5
2A6
100
AcDbEntity
  8
KONSTRUKTIONSELEMENTE
100
AcDbLine
 62
7
  6
CONTINUOUS
 10
100.985242364
 20
181.320975936
 11
101.1894087763
 21
180.874167121
  0
LINE
  5
2A7
100
AcDbEntity
  8
KONSTRUKTIONSELEMENTE
100
AcDbLine
 62
7
  6
CONTINUOUS
 10
100.6789927455
 20
183.406081832
 11
100.4748263331
 21
183.8528916006
  0
LINE
  5
2A8
100
AcDbEntity
  8
KONSTRUKTIONSELEMENTE
100
AcDbLine
 62
7
  6
CONTINUOUS
 10
100.7810759516
 20
180.278422988
 11
100.5769095393
 21
180.874167121
  0
LINE
  5
2A9
100
AcDbEntity
  8
KONSTRUKTIONSELEMENTE
100
AcDbLine
 62
7
  6
CONTINUOUS
 10
103.1289935084
 20
178.6401249533
 11
102.9248270961
 21
179.2358690863
  0
LINE
  5
2AA
100
AcDbEntity
  8
KONSTRUKTIONSELEMENTE
100
AcDbLine
 62
7
  6
CONTINUOUS
 10
103.4352431269
 20
179.5337416296
 11
103.5373263331
 21
179.0869328146
  0
LINE
  5
2AB
100
AcDbEntity
  8
KONSTRUKTIONSELEMENTE
100
AcDbLine
 62
7
  6
CONTINUOUS
 10
101.1894087763
 20
180.874167121
 11
101.2914919825
 21
180.278422988
  0
LINE
  5
2AC
100
AcDbEntity
  8
KONSTRUKTIONSELEMENTE
100
AcDbLine
 62
7
  6
CONTINUOUS
 10
101.0873255702
 20
184.0018269186
 11
101.1894087764
 21
183.406081832
  0
LINE
  5
2AD
100
AcDbEntity
  8
KONSTRUKTIONSELEMENTE
100
AcDbLine
 62
7
  6
CONTINUOUS
 10
102.9248270961
 20
179.2358690863
 11
102.9248270961
 21
182.2145926123
  0
LINE
  5
2AE
100
AcDbEntity
  8
KONSTRUKTIONSELEMENTE
100
AcDbLine
 62
7
  6
CONTINUOUS
 10
102.9248270961
 20
182.810337699
 11
102.9248270961
 21
184.0018269186
  0
LINE
  5
2AF
100
AcDbEntity
  8
KONSTRUKTIONSELEMENTE
100
AcDbLine
 62
7
  6
CONTINUOUS
 10
103.365892839
 20
172.8043800955
 11
103.365892839
 21
168.3043800955
  0
LINE
  5
2B0
100
AcDbEntity
  8
KONSTRUKTIONSELEMENTE
100
AcDbLine
 62
7
  6
CONTINUOUS
 10
103.4352431269
 20
184.0018269186
 11
103.4352431269
 21
182.810337699
  0
LINE
  5
2B1
100
AcDbEntity
  8
KONSTRUKTIONSELEMENTE
100
AcDbLine
 62
7
  6
CONTINUOUS
 10
103.4352431269
 20
182.2145926123
 11
103.4352431269
 21
179.5337416296
  0
LINE
  5
2B2
100
AcDbEntity
  8
KONSTRUKTIONSELEMENTE
100
AcDbLine
 62
7
  6
CONTINUOUS
 10
103.5189928981
 20
196.8043800955
 11
103.5189928981
 21
197.8043800955
  0
LINE
  5
2B3
100
AcDbEntity
  8
KONSTRUKTIONSELEMENTE
100
AcDbLine
 62
7
  6
CONTINUOUS
 10
104.3539919825
 20
178.6401249533
 11
104.3539919825
 21
178.0443798666
  0
LINE
  5
2B4
100
AcDbEntity
  8
KONSTRUKTIONSELEMENTE
100
AcDbLine
 62
7
  6
CONTINUOUS
 10
104.5581603022
 20
182.810337699
 11
104.5581603022
 21
182.2145926123
  0
LINE
  5
2B5
100
AcDbEntity
  8
KONSTRUKTIONSELEMENTE
100
AcDbLine
 62
7
  6
CONTINUOUS
 10
107.5491929716
 20
172.8043800955
 11
107.5491929716
 21
168.3043800955
  0
LINE
  5
2B6
100
AcDbEntity
  8
KONSTRUKTIONSELEMENTE
100
AcDbLine
 62
7
  6
CONTINUOUS
 10
109.5189928981
 20
190.8970708844
 11
109.5189928981
 21
196.2303169585
  0
LINE
  5
2B7
100
AcDbEntity
  8
KONSTRUKTIONSELEMENTE
100
AcDbLine
 62
7
  6
CONTINUOUS
 10
101.1894087764
 20
183.1082102423
 11
101.0873255702
 21
182.5124651556
  0
LINE
  5
2B8
100
AcDbEntity
  8
KONSTRUKTIONSELEMENTE
100
AcDbLine
 62
7
  6
CONTINUOUS
 10
101.2914919825
 20
179.6826779013
 11
101.1894087764
 21
179.2358690863
  0
LINE
  5
2B9
100
AcDbEntity
  8
KONSTRUKTIONSELEMENTE
100
AcDbLine
 62
7
  6
CONTINUOUS
 10
100.4748263331
 20
182.5124651556
 11
100.6789927455
 21
183.1082102423
  0
LINE
  5
2BA
100
AcDbEntity
  8
KONSTRUKTIONSELEMENTE
100
AcDbLine
 62
7
  6
CONTINUOUS
 10
86.999827859
 20
182.363528884
 11
86.6935763331
 21
181.767784751
  0
LINE
  5
2BB
100
AcDbEntity
  8
KONSTRUKTIONSELEMENTE
100
AcDbLine
 62
7
  6
CONTINUOUS
 10
86.999827859
 20
179.2358690863
 11
86.6935763331
 21
178.6401249533
  0
LINE
  5
2BC
100
AcDbEntity
  8
KONSTRUKTIONSELEMENTE
100
AcDbLine
 62
7
  6
CONTINUOUS
 10
81.487327096
 20
182.2145926123
 11
81.6914935084
 21
182.5124651556
  0
LINE
  5
2BD
100
AcDbEntity
  8
KONSTRUKTIONSELEMENTE
100
AcDbLine
 62
7
  6
CONTINUOUS
 10
86.1831583949
 20
182.2145926123
 11
86.3873248072
 21
182.5124651556
  0
LINE
  5
2BE
100
AcDbEntity
  8
KONSTRUKTIONSELEMENTE
100
AcDbLine
 62
7
  6
CONTINUOUS
 10
82.7190500641
 20
147.8043800955
 11
96.3189354027
 21
147.8043800955
  0
LINE
  5
2BF
100
AcDbEntity
  8
KONSTRUKTIONSELEMENTE
100
AcDbLine
 62
7
  6
CONTINUOUS
 10
218.7190505399
 20
147.8043800955
 11
232.318935732
 21
147.8043800955
  0
LINE
  5
2C0
100
AcDbEntity
  8
KONSTRUKTIONSELEMENTE
100
AcDbLine
 62
7
  6
CONTINUOUS
 10
81.5189928981
 20
149.0043800955
 11
97.5189928981
 21
149.0043800955
  0
LINE
  5
2C1
100
AcDbEntity
  8
KONSTRUKTIONSELEMENTE
100
AcDbLine
 62
7
  6
CONTINUOUS
 10
217.5189928981
 20
149.0043800955
 11
233.5189928981
 21
149.0043800955
  0
LINE
  5
2C2
100
AcDbEntity
  8
KONSTRUKTIONSELEMENTE
100
AcDbLine
 62
7
  6
CONTINUOUS
 10
86.1831583949
 20
181.0231033926
 11
85.8769106837
 21
181.1720396643
  0
LINE
  5
2C3
100
AcDbEntity
  8
KONSTRUKTIONSELEMENTE
100
AcDbLine
 62
7
  6
CONTINUOUS
 10
81.487327096
 20
184.1507622366
 11
81.1810755702
 21
184.299699462
  0
LINE
  5
2C4
100
AcDbEntity
  8
KONSTRUKTIONSELEMENTE
100
AcDbLine
 62
7
  6
CONTINUOUS
 10
98.6373267146
 20
178.1933161383
 11
98.2289919825
 21
178.4911886816
  0
LINE
  5
2C5
100
AcDbEntity
  8
KONSTRUKTIONSELEMENTE
100
AcDbLine
 62
7
  6
CONTINUOUS
 10
98.4331603022
 20
179.0869328146
 11
98.6373267146
 21
178.9379974966
  0
LINE
  5
2C6
100
AcDbEntity
  8
KONSTRUKTIONSELEMENTE
100
AcDbLine
 62
7
  6
CONTINUOUS
 10
90.9810767146
 20
184.8954445486
 11
91.3894095393
 21
184.5975720053
  0
LINE
  5
2C7
100
AcDbEntity
  8
KONSTRUKTIONSELEMENTE
100
AcDbLine
 62
7
  6
CONTINUOUS
 10
100.5769095393
 20
180.874167121
 11
100.2706599208
 21
181.1720396643
  0
LINE
  5
2C8
100
AcDbEntity
  8
KONSTRUKTIONSELEMENTE
100
AcDbLine
 62
7
  6
CONTINUOUS
 10
103.4352431269
 20
178.34225241
 11
103.1289935084
 21
178.6401249533
  0
LINE
  5
2C9
100
AcDbEntity
  8
KONSTRUKTIONSELEMENTE
100
AcDbLine
 62
7
  6
CONTINUOUS
 10
103.5373263331
 20
179.0869328146
 11
103.8435759516
 21
178.789061225
  0
LINE
  5
2CA
100
AcDbEntity
  8
KONSTRUKTIONSELEMENTE
100
AcDbLine
 62
7
  6
CONTINUOUS
 10
100.4748263331
 20
183.8528916006
 11
100.1685767146
 21
184.1507622366
  0
LINE
  5
2CB
100
AcDbEntity
  8
KONSTRUKTIONSELEMENTE
100
AcDbLine
 62
7
  6
CONTINUOUS
 10
115.3867081191
 20
172.8043800955
 11
115.3867081191
 21
168.3043800955
  0
LINE
  5
2CC
100
AcDbEntity
  8
KONSTRUKTIONSELEMENTE
100
AcDbLine
 62
7
  6
CONTINUOUS
 10
111.1960128362
 20
203.0631037099
 11
109.4520055999
 21
196.5543800955
  0
LINE
  5
2CD
100
AcDbEntity
  8
KONSTRUKTIONSELEMENTE
100
AcDbLine
 62
7
  6
CONTINUOUS
 10
100.6789927455
 20
179.384805358
 11
100.7810759516
 21
179.6826779013
  0
LINE
  5
2CE
100
AcDbEntity
  8
KONSTRUKTIONSELEMENTE
100
AcDbLine
 62
7
  6
CONTINUOUS
 10
98.4331603022
 20
183.8528916006
 11
98.2289919825
 21
183.406081832
  0
LINE
  5
2CF
100
AcDbEntity
  8
KONSTRUKTIONSELEMENTE
100
AcDbLine
 62
7
  6
CONTINUOUS
 10
101.0873255702
 20
182.5124651556
 11
100.8831591578
 21
182.0656563406
  0
LINE
  5
2D0
100
AcDbEntity
  8
KONSTRUKTIONSELEMENTE
100
AcDbLine
 62
7
  6
CONTINUOUS
 10
101.1894087764
 20
179.2358690863
 11
100.985242364
 21
178.789061225
  0
LINE
  5
2D1
100
AcDbEntity
  8
KONSTRUKTIONSELEMENTE
100
AcDbLine
 62
7
  6
CONTINUOUS
 10
88.2248263331
 20
184.0018269186
 11
88.6331591578
 21
184.5975720053
  0
LINE
  5
2D2
100
AcDbEntity
  8
KONSTRUKTIONSELEMENTE
100
AcDbLine
 62
7
  6
CONTINUOUS
 10
86.1831583949
 20
179.0869328146
 11
86.3873248072
 21
179.384805358
  0
LINE
  5
2D3
100
AcDbEntity
  8
KONSTRUKTIONSELEMENTE
100
AcDbLine
 62
7
  6
CONTINUOUS
 10
91.797742364
 20
179.0869328146
 11
91.3894095393
 21
178.4911886816
  0
LINE
  5
2D4
100
AcDbEntity
  8
KONSTRUKTIONSELEMENTE
100
AcDbLine
 62
7
  6
CONTINUOUS
 10
89.5519099208
 20
178.0443798666
 11
89.0414919825
 21
178.1933161383
  0
LINE
  5
2D5
100
AcDbEntity
  8
KONSTRUKTIONSELEMENTE
100
AcDbLine
 62
7
  6
CONTINUOUS
 10
89.1435770961
 20
179.0869328146
 11
89.5519099208
 21
178.9379974966
  0
LINE
  5
2D6
100
AcDbEntity
  8
KONSTRUKTIONSELEMENTE
100
AcDbLine
 62
7
  6
CONTINUOUS
 10
99.0456595393
 20
178.0443798666
 11
98.6373267146
 21
178.1933161383
  0
LINE
  5
2D7
100
AcDbEntity
  8
KONSTRUKTIONSELEMENTE
100
AcDbLine
 62
7
  6
CONTINUOUS
 10
86.1831583949
 20
184.0018269186
 11
85.8769106837
 21
184.1507622366
  0
LINE
  5
2D8
100
AcDbEntity
  8
KONSTRUKTIONSELEMENTE
100
AcDbLine
 62
7
  6
CONTINUOUS
 10
103.7414927454
 20
178.1933161383
 11
103.4352431269
 21
178.34225241
  0
LINE
  5
2D9
100
AcDbEntity
  8
KONSTRUKTIONSELEMENTE
100
AcDbLine
 62
7
  6
CONTINUOUS
 10
100.4748263331
 20
181.6188484793
 11
100.985242364
 21
181.320975936
  0
LINE
  5
2DA
100
AcDbEntity
  8
KONSTRUKTIONSELEMENTE
100
AcDbLine
 62
7
  6
CONTINUOUS
 10
100.2706599207
 20
184.8954445486
 11
100.6789927455
 21
184.5975720053
  0
LINE
  5
2DB
100
AcDbEntity
  8
KONSTRUKTIONSELEMENTE
100
AcDbLine
 62
7
  6
CONTINUOUS
 10
121.5080366888
 20
193.9086214636
 11
120.6561883906
 21
202.0134166321
  0
LINE
  5
2DC
100
AcDbEntity
  8
RUNDUNGEN
100
AcDbLine
 62
7
  6
CONTINUOUS
 10
119.7271608741
 20
211.8322984913
 11
121.2512972807
 21
197.3311092408
  0
LINE
  5
2DD
100
AcDbEntity
  8
RUNDUNGEN
100
AcDbLine
 62
7
  6
CONTINUOUS
 10
122.9088230367
 20
191.1275773391
 11
122.9078155941
 21
191.1371625158
  0
LINE
  5
2DE
100
AcDbEntity
  8
RUNDUNGEN
100
AcDbLine
 62
7
  6
CONTINUOUS
 10
122.8601345691
 20
191.5908171644
 11
122.5223754948
 21
194.8043800955
  0
LINE
  5
2DF
100
AcDbEntity
  8
KONSTRUKTIONSELEMENTE
100
AcDbLine
 62
7
  6
CONTINUOUS
 10
119.5700082518
 20
172.8043800955
 11
119.5700082518
 21
168.3043800955
  0
LINE
  5
2E0
100
AcDbEntity
  8
KONSTRUKTIONSELEMENTE
100
AcDbLine
 62
7
  6
CONTINUOUS
 10
120.4679505454
 20
172.8043800955
 11
120.4679505454
 21
168.3043800955
  0
LINE
  5
2E1
100
AcDbEntity
  8
KONSTRUKTIONSELEMENTE
100
AcDbLine
 62
7
  6
CONTINUOUS
 10
121.5189928981
 20
193.6995645369
 11
121.5189928981
 21
178.3284578883
  0
LINE
  5
2E2
100
AcDbEntity
  8
RUNDUNGEN
100
AcDbLine
 62
7
  6
CONTINUOUS
 10
122.5189928981
 20
185.8043800955
 11
122.5189928981
 21
190.2554333667
  0
LINE
  5
2E3
100
AcDbEntity
  8
KONSTRUKTIONSELEMENTE
100
AcDbLine
 62
7
  6
CONTINUOUS
 10
97.8206591578
 20
184.0018269186
 11
98.2289919825
 21
184.5975720053
  0
LINE
  5
2E4
100
AcDbEntity
  8
KONSTRUKTIONSELEMENTE
100
AcDbLine
 62
7
  6
CONTINUOUS
 10
100.2706599207
 20
182.2145926123
 11
100.4748263331
 21
182.5124651556
  0
LINE
  5
2E5
100
AcDbEntity
  8
KONSTRUKTIONSELEMENTE
100
AcDbLine
 62
7
  6
CONTINUOUS
 10
100.4748263331
 20
179.0869328146
 11
100.6789927455
 21
179.384805358
  0
LINE
  5
2E6
100
AcDbEntity
  8
KONSTRUKTIONSELEMENTE
100
AcDbLine
 62
7
  6
CONTINUOUS
 10
86.6935763331
 20
178.6401249533
 11
86.2852435084
 21
178.1933161383
  0
LINE
  5
2E7
100
AcDbEntity
  8
KONSTRUKTIONSELEMENTE
100
AcDbLine
 62
7
  6
CONTINUOUS
 10
89.143577096
 20
184.0018269186
 11
88.8373255702
 21
183.7039543753
  0
LINE
  5
2E8
100
AcDbEntity
  8
KONSTRUKTIONSELEMENTE
100
AcDbLine
 62
7
  6
CONTINUOUS
 10
104.3539919825
 20
178.0443798666
 11
103.7414927454
 21
178.1933161383
  0
LINE
  5
2E9
100
AcDbEntity
  8
KONSTRUKTIONSELEMENTE
100
AcDbLine
 62
7
  6
CONTINUOUS
 10
98.6373267146
 20
178.9379974966
 11
99.1477427455
 21
178.789061225
  0
LINE
  5
2EA
100
AcDbEntity
  8
KONSTRUKTIONSELEMENTE
100
AcDbLine
 62
7
  6
CONTINUOUS
 10
81.0789942714
 20
185.0443798666
 11
81.5894083949
 21
184.8954445486
  0
LINE
  5
2EB
100
AcDbEntity
  8
KONSTRUKTIONSELEMENTE
100
AcDbLine
 62
7
  6
CONTINUOUS
 10
103.8435759516
 20
178.789061225
 11
104.3539919825
 21
178.6401249533
  0
LINE
  5
2EC
100
AcDbEntity
  8
KONSTRUKTIONSELEMENTE
100
AcDbLine
 62
7
  6
CONTINUOUS
 10
85.7748255702
 20
185.0443798666
 11
86.2852435084
 21
184.8954445486
  0
LINE
  5
2ED
100
AcDbEntity
  8
KONSTRUKTIONSELEMENTE
100
AcDbLine
 62
7
  6
CONTINUOUS
 10
90.4706587764
 20
185.0443798666
 11
90.9810767146
 21
184.8954445486
  0
LINE
  5
2EE
100
AcDbEntity
  8
KONSTRUKTIONSELEMENTE
100
AcDbLine
 62
7
  6
CONTINUOUS
 10
90.8789935084
 20
184.0018269186
 11
90.4706587764
 21
184.1507622366
  0
LWPOLYLINE
  5
2EF
100
AcDbEntity
  8
KONSTRUKTIONSELEMENTE
100
AcDbPolyline
 62
7
  6
CONTINUOUS
 90
13
 70
0
 10
120.6561883906
 20
202.0134166321
 10
120.6122326139
 20
202.2697975787
 10
120.5344396846
 20
202.5207452564
 10
120.4250725731
 20
202.7581350837
 10
120.2858007464
 20
202.9790721216
 10
120.1187961903
 20
203.1801152014
 10
119.9270231732
 20
203.3576465242
 10
119.7137407071
 20
203.5086569169
 10
119.482556095
 20
203.6305839609
 10
119.2377028406
 20
203.7212459772
 10
118.9828847541
 20
203.7792766344
 10
118.7212135565
 20
203.8036257354
 10
118.6671452287
 20
203.804356714
  0
LINE
  5
2F0
100
AcDbEntity
  8
KONSTRUKTIONSELEMENTE
100
AcDbLine
 62
7
  6
CONTINUOUS
 10
121.4642118517
 20
177.2831732557
 11
121.0405306472
 21
173.2521158639
  0
LINE
  5
2F1
100
AcDbEntity
  8
KONSTRUKTIONSELEMENTE
100
AcDbLine
 62
7
  6
CONTINUOUS
 10
100.8831591578
 20
182.0656563406
 11
100.4748263331
 21
181.6188484793
  0
LINE
  5
2F2
100
AcDbEntity
  8
KONSTRUKTIONSELEMENTE
100
AcDbLine
 62
7
  6
CONTINUOUS
 10
90.8789935084
 20
179.0869328146
 11
91.1852431269
 21
179.384805358
  0
LINE
  5
2F3
100
AcDbEntity
  8
KONSTRUKTIONSELEMENTE
100
AcDbLine
 62
7
  6
CONTINUOUS
 10
98.7394099207
 20
184.1507622366
 11
98.4331603022
 21
183.8528916006
  0
LINE
  5
2F4
100
AcDbEntity
  8
KONSTRUKTIONSELEMENTE
100
AcDbLine
 62
7
  6
CONTINUOUS
 10
81.9977412196
 20
181.767784751
 11
81.5894083949
 21
181.4699122076
  0
LINE
  5
2F5
100
AcDbEntity
  8
KONSTRUKTIONSELEMENTE
100
AcDbLine
 62
7
  6
CONTINUOUS
 10
88.6331591578
 20
184.5975720053
 11
89.0414919825
 21
184.8954445486
  0
LINE
  5
2F6
100
AcDbEntity
  8
KONSTRUKTIONSELEMENTE
100
AcDbLine
 62
7
  6
CONTINUOUS
 10
102.9679505454
 20
167.8043800955
 11
119.9679505454
 21
167.8043800955
  0
LINE
  5
2F7
100
AcDbEntity
  8
KONSTRUKTIONSELEMENTE
100
AcDbLine
 62
7
  6
CONTINUOUS
 10
195.0700352507
 20
167.8043800955
 11
212.0700276862
 21
167.8043800955
  0
LINE
  5
2F8
100
AcDbEntity
  8
KONSTRUKTIONSELEMENTE
100
AcDbLine
 62
7
  6
CONTINUOUS
 10
70.3708433393
 20
172.8043800955
 11
120.5432696996
 21
172.8043800955
  0
LINE
  5
2F9
100
AcDbEntity
  8
KONSTRUKTIONSELEMENTE
100
AcDbLine
 62
7
  6
CONTINUOUS
 10
194.4947160965
 20
172.8043800955
 11
244.6671424568
 21
172.8043800955
  0
LINE
  5
2FA
100
AcDbEntity
  8
KONSTRUKTIONSELEMENTE
100
AcDbLine
 62
7
  6
CONTINUOUS
 10
99.5560755702
 20
185.0443798666
 11
100.2706599207
 21
184.8954445486
  0
LINE
  5
2FB
100
AcDbEntity
  8
KONSTRUKTIONSELEMENTE
100
AcDbLine
 62
7
  6
CONTINUOUS
 10
100.2706599208
 20
181.1720396643
 11
99.6581587764
 21
181.320975936
  0
LINE
  5
2FC
100
AcDbEntity
  8
KONSTRUKTIONSELEMENTE
100
AcDbLine
 62
7
  6
CONTINUOUS
 10
100.1685767146
 20
184.1507622366
 11
99.6581587764
 21
184.299699462
  0
LINE
  5
2FD
100
AcDbEntity
  8
KONSTRUKTIONSELEMENTE
100
AcDbLine
 62
7
  6
CONTINUOUS
 10
100.985242364
 20
178.789061225
 11
100.6789927455
 21
178.4911886816
  0
LINE
  5
2FE
100
AcDbEntity
  8
KONSTRUKTIONSELEMENTE
100
AcDbLine
 62
7
  6
CONTINUOUS
 10
86.6935763331
 20
181.767784751
 11
86.4894099208
 21
181.6188484793
  0
LINE
  5
2FF
100
AcDbEntity
  8
KONSTRUKTIONSELEMENTE
100
AcDbLine
 62
7
  6
CONTINUOUS
 10
98.2289919825
 20
184.5975720053
 11
98.6373267146
 21
184.8954445486
  0
LINE
  5
300
100
AcDbEntity
  8
KONSTRUKTIONSELEMENTE
100
AcDbLine
 62
7
  6
CONTINUOUS
 10
91.3894095393
 20
178.4911886816
 11
90.9810767146
 21
178.1933161383
  0
LINE
  5
301
100
AcDbEntity
  8
KONSTRUKTIONSELEMENTE
100
AcDbLine
 62
7
  6
CONTINUOUS
 10
193.6240971333
 20
176.8043800955
 11
179.5548912829
 21
176.8043800955
  0
LINE
  5
302
100
AcDbEntity
  8
0
100
AcDbLine
 62
7
  6
CONTINUOUS
 10
135.4830945132
 20
176.8043800955
 11
121.4138886628
 21
176.8043800955
  0
LINE
  5
303
100
AcDbEntity
  8
0
100
AcDbLine
 62
7
  6
CONTINUOUS
 10
179.5548912829
 20
176.8043800955
 11
193.6240971333
 21
176.8043800955
  0
LINE
  5
304
100
AcDbEntity
  8
KONSTRUKTIONSELEMENTE
100
AcDbLine
 62
7
  6
CONTINUOUS
 10
138.8228404753
 20
177.8043800955
 11
176.2151453208
 21
177.8043800955
  0
LINE
  5
305
100
AcDbEntity
  8
KONSTRUKTIONSELEMENTE
100
AcDbLine
 62
7
  6
CONTINUOUS
 10
99.8623270961
 20
178.0443798666
 11
99.0456595393
 21
178.0443798666
  0
LINE
  5
306
100
AcDbEntity
  8
KONSTRUKTIONSELEMENTE
100
AcDbLine
 62
7
  6
CONTINUOUS
 10
90.4706587764
 20
178.0443798666
 11
89.5519099208
 21
178.0443798666
  0
LINE
  5
307
100
AcDbEntity
  8
KONSTRUKTIONSELEMENTE
100
AcDbLine
 62
7
  6
CONTINUOUS
 10
85.7748255702
 20
178.0443798666
 11
83.3248248072
 21
178.0443798666
  0
LINE
  5
308
100
AcDbEntity
  8
KONSTRUKTIONSELEMENTE
100
AcDbLine
 62
7
  6
CONTINUOUS
 10
82.5081591578
 20
178.0443798666
 11
81.7935748072
 21
178.0443798666
  0
LINE
  5
309
100
AcDbEntity
  8
KONSTRUKTIONSELEMENTE
100
AcDbLine
 62
7
  6
CONTINUOUS
 10
79.2414927455
 20
178.0443798666
 11
78.6289935084
 21
178.0443798666
  0
LINE
  5
30A
100
AcDbEntity
  8
KONSTRUKTIONSELEMENTE
100
AcDbLine
 62
7
  6
CONTINUOUS
 10
99.1477427455
 20
178.789061225
 11
99.7602419826
 21
178.789061225
  0
LINE
  5
30B
100
AcDbEntity
  8
KONSTRUKTIONSELEMENTE
100
AcDbLine
 62
7
  6
CONTINUOUS
 10
83.937327859
 20
178.9379974966
 11
85.8769106837
 21
178.9379974966
  0
LINE
  5
30C
100
AcDbEntity
  8
KONSTRUKTIONSELEMENTE
100
AcDbLine
 62
7
  6
CONTINUOUS
 10
89.5519099208
 20
178.9379974966
 11
90.4706587763
 21
178.9379974966
  0
LINE
  5
30D
100
AcDbEntity
  8
KONSTRUKTIONSELEMENTE
100
AcDbLine
 62
7
  6
CONTINUOUS
 10
97.6164927455
 20
179.6826779013
 11
98.1269087763
 21
179.6826779013
  0
LINE
  5
30E
100
AcDbEntity
  8
KONSTRUKTIONSELEMENTE
100
AcDbLine
 62
7
  6
CONTINUOUS
 10
100.2706599207
 20
178.9379974966
 11
100.4748263331
 21
179.0869328146
  0
LINE
  5
30F
100
AcDbEntity
  8
KONSTRUKTIONSELEMENTE
100
AcDbLine
 62
7
  6
CONTINUOUS
 10
100.6789927455
 20
178.4911886816
 11
100.2706599208
 21
178.1933161383
  0
LINE
  5
310
100
AcDbEntity
  8
KONSTRUKTIONSELEMENTE
100
AcDbLine
 62
7
  6
CONTINUOUS
 10
81.1810755702
 20
182.0656563406
 11
81.487327096
 21
182.2145926123
  0
LINE
  5
311
100
AcDbEntity
  8
KONSTRUKTIONSELEMENTE
100
AcDbLine
 62
7
  6
CONTINUOUS
 10
85.8769106837
 20
182.0656563406
 11
86.1831583949
 21
182.2145926123
  0
LINE
  5
312
100
AcDbEntity
  8
0
100
AcDbLine
 62
7
  6
CONTINUOUS
 10
183.3523263307
 20
186.8043800955
 11
184.1856597634
 21
187.0171460462
  0
LINE
  5
313
100
AcDbEntity
  8
KONSTRUKTIONSELEMENTE
100
AcDbLine
 62
7
  6
CONTINUOUS
 10
162.0523259135
 20
183.4001247649
 11
161.7189928981
 21
183.3150183921
  0
LINE
  5
314
100
AcDbEntity
  8
KONSTRUKTIONSELEMENTE
100
AcDbLine
 62
7
  6
CONTINUOUS
 10
158.0523263903
 20
183.4001247649
 11
157.7189928981
 21
183.3150183921
  0
LINE
  5
315
100
AcDbEntity
  8
KONSTRUKTIONSELEMENTE
100
AcDbLine
 62
7
  6
CONTINUOUS
 10
161.7189928981
 20
182.8043800955
 11
162.1356598826
 21
182.8894864758
  0
LINE
  5
316
100
AcDbEntity
  8
0
100
AcDbLine
 62
7
  6
CONTINUOUS
 10
184.1856597634
 20
188.080975837
 11
183.1439928981
 21
187.8682099049
  0
LINE
  5
317
100
AcDbEntity
  8
KONSTRUKTIONSELEMENTE
100
AcDbLine
 62
7
  6
CONTINUOUS
 10
157.7189928981
 20
182.8043800955
 11
158.1356594058
 21
182.8894864758
  0
LINE
  5
318
100
AcDbEntity
  8
KONSTRUKTIONSELEMENTE
100
AcDbLine
 62
7
  6
CONTINUOUS
 10
91.2873263331
 20
181.0231033926
 11
90.3685755702
 21
181.0231033926
  0
LINE
  5
319
100
AcDbEntity
  8
KONSTRUKTIONSELEMENTE
100
AcDbLine
 62
7
  6
CONTINUOUS
 10
85.8769106837
 20
181.1720396643
 11
83.937327859
 21
181.1720396643
  0
LINE
  5
31A
100
AcDbEntity
  8
KONSTRUKTIONSELEMENTE
100
AcDbLine
 62
7
  6
CONTINUOUS
 10
80.9769091578
 20
181.1720396643
 11
79.2414927455
 21
181.1720396643
  0
LINE
  5
31B
100
AcDbEntity
  8
KONSTRUKTIONSELEMENTE
100
AcDbLine
 62
7
  6
CONTINUOUS
 10
99.6581587764
 20
181.320975936
 11
99.2498259516
 21
181.320975936
  0
LINE
  5
31C
100
AcDbEntity
  8
KONSTRUKTIONSELEMENTE
100
AcDbLine
 62
7
  6
CONTINUOUS
 10
148.0189928981
 20
181.8043800955
 11
167.0189928981
 21
181.8043800955
  0
LINE
  5
31D
100
AcDbEntity
  8
KONSTRUKTIONSELEMENTE
100
AcDbLine
 62
7
  6
CONTINUOUS
 10
90.3685755702
 20
181.916720069
 11
91.8998255702
 21
181.916720069
  0
LINE
  5
31E
100
AcDbEntity
  8
KONSTRUKTIONSELEMENTE
100
AcDbLine
 62
7
  6
CONTINUOUS
 10
99.2498259516
 20
181.916720069
 11
99.6581587764
 21
181.916720069
  0
LINE
  5
31F
100
AcDbEntity
  8
KONSTRUKTIONSELEMENTE
100
AcDbLine
 62
7
  6
CONTINUOUS
 10
79.2414927455
 20
182.0656563406
 11
81.1810755702
 21
182.0656563406
  0
LINE
  5
320
100
AcDbEntity
  8
KONSTRUKTIONSELEMENTE
100
AcDbLine
 62
7
  6
CONTINUOUS
 10
83.937327859
 20
182.0656563406
 11
85.8769106837
 21
182.0656563406
  0
LINE
  5
321
100
AcDbEntity
  8
KONSTRUKTIONSELEMENTE
100
AcDbLine
 62
7
  6
CONTINUOUS
 10
104.5581603022
 20
182.2145926123
 11
103.4352431269
 21
182.2145926123
  0
LINE
  5
322
100
AcDbEntity
  8
KONSTRUKTIONSELEMENTE
100
AcDbLine
 62
7
  6
CONTINUOUS
 10
102.9248270961
 20
182.2145926123
 11
102.1081595393
 21
182.2145926123
  0
LINE
  5
323
100
AcDbEntity
  8
KONSTRUKTIONSELEMENTE
100
AcDbLine
 62
7
  6
CONTINUOUS
 10
152.2189928981
 20
182.8043800955
 11
152.7189928981
 21
182.8043800955
  0
LINE
  5
324
100
AcDbEntity
  8
KONSTRUKTIONSELEMENTE
100
AcDbLine
 62
7
  6
CONTINUOUS
 10
154.8023261519
 20
182.8043800955
 11
155.3856596442
 21
182.8043800955
  0
LINE
  5
325
100
AcDbEntity
  8
KONSTRUKTIONSELEMENTE
100
AcDbLine
 62
7
  6
CONTINUOUS
 10
157.3856594058
 20
182.8043800955
 11
157.7189928981
 21
182.8043800955
  0
LINE
  5
326
100
AcDbEntity
  8
KONSTRUKTIONSELEMENTE
100
AcDbLine
 62
7
  6
CONTINUOUS
 10
159.7189928981
 20
182.8043800955
 11
161.7189928981
 21
182.8043800955
  0
LINE
  5
327
100
AcDbEntity
  8
KONSTRUKTIONSELEMENTE
100
AcDbLine
 62
7
  6
CONTINUOUS
 10
102.1081595393
 20
182.810337699
 11
102.9248270961
 21
182.810337699
  0
LINE
  5
328
100
AcDbEntity
  8
KONSTRUKTIONSELEMENTE
100
AcDbLine
 62
7
  6
CONTINUOUS
 10
103.4352431269
 20
182.810337699
 11
104.5581603022
 21
182.810337699
  0
LINE
  5
329
100
AcDbEntity
  8
KONSTRUKTIONSELEMENTE
100
AcDbLine
 62
7
  6
CONTINUOUS
 10
91.8998255702
 20
183.257146514
 11
91.2873263331
 21
183.257146514
  0
LINE
  5
32A
100
AcDbEntity
  8
KONSTRUKTIONSELEMENTE
100
AcDbLine
 62
7
  6
CONTINUOUS
 10
161.7189928981
 20
183.3150183921
 11
160.2189928981
 21
183.3150183921
  0
LINE
  5
32B
100
AcDbEntity
  8
KONSTRUKTIONSELEMENTE
100
AcDbLine
 62
7
  6
CONTINUOUS
 10
157.7189928981
 20
183.3150183921
 11
157.3856594058
 21
183.3150183921
  0
LINE
  5
32C
100
AcDbEntity
  8
KONSTRUKTIONSELEMENTE
100
AcDbLine
 62
7
  6
CONTINUOUS
 10
98.2289919825
 20
183.406081832
 11
97.7185759516
 21
183.406081832
  0
LINE
  5
32D
100
AcDbEntity
  8
KONSTRUKTIONSELEMENTE
100
AcDbLine
 62
7
  6
CONTINUOUS
 10
102.9248270961
 20
184.0018269186
 11
103.4352431269
 21
184.0018269186
  0
LINE
  5
32E
100
AcDbEntity
  8
KONSTRUKTIONSELEMENTE
100
AcDbLine
 62
7
  6
CONTINUOUS
 10
90.4706587764
 20
184.1507622366
 11
89.5519099207
 21
184.1507622366
  0
LINE
  5
32F
100
AcDbEntity
  8
KONSTRUKTIONSELEMENTE
100
AcDbLine
 62
7
  6
CONTINUOUS
 10
85.8769106837
 20
184.1507622366
 11
83.937327859
 21
184.1507622366
  0
LINE
  5
330
100
AcDbEntity
  8
KONSTRUKTIONSELEMENTE
100
AcDbLine
 62
7
  6
CONTINUOUS
 10
99.6581587764
 20
184.299699462
 11
99.2498259517
 21
184.299699462
  0
LINE
  5
331
100
AcDbEntity
  8
KONSTRUKTIONSELEMENTE
100
AcDbLine
 62
7
  6
CONTINUOUS
 10
81.1810755702
 20
184.299699462
 11
79.2414927455
 21
184.299699462
  0
LINE
  5
332
100
AcDbEntity
  8
KONSTRUKTIONSELEMENTE
100
AcDbLine
 62
7
  6
CONTINUOUS
 10
152.7189928981
 20
184.5916141634
 11
154.135659525
 21
184.5916141634
  0
LINE
  5
333
100
AcDbEntity
  8
RUNDUNGEN
100
AcDbLine
 62
7
  6
CONTINUOUS
 10
191.5189928972
 20
184.8043800955
 11
188.7015882612
 21
184.8043800955
  0
LINE
  5
334
100
AcDbEntity
  8
RUNDUNGEN
100
AcDbLine
 62
7
  6
CONTINUOUS
 10
126.3363975349
 20
184.8043800955
 11
123.5189928989
 21
184.8043800955
  0
LINE
  5
335
100
AcDbEntity
  8
KONSTRUKTIONSELEMENTE
100
AcDbLine
 62
7
  6
CONTINUOUS
 10
78.6289935084
 20
185.0443798666
 11
81.0789942714
 21
185.0443798666
  0
LINE
  5
336
100
AcDbEntity
  8
KONSTRUKTIONSELEMENTE
100
AcDbLine
 62
7
  6
CONTINUOUS
 10
83.3248248072
 20
185.0443798666
 11
85.7748255702
 21
185.0443798666
  0
LINE
  5
337
100
AcDbEntity
  8
KONSTRUKTIONSELEMENTE
100
AcDbLine
 62
7
  6
CONTINUOUS
 10
89.5519099208
 20
185.0443798666
 11
90.4706587764
 21
185.0443798666
  0
LINE
  5
338
100
AcDbEntity
  8
KONSTRUKTIONSELEMENTE
100
AcDbLine
 62
7
  6
CONTINUOUS
 10
99.3519091578
 20
185.0443798666
 11
99.5560755702
 21
185.0443798666
  0
LINE
  5
339
100
AcDbEntity
  8
KONSTRUKTIONSELEMENTE
100
AcDbLine
 62
7
  6
CONTINUOUS
 10
154.3023261519
 20
185.1022524004
 11
152.7189928981
 21
185.1022524004
  0
LINE
  5
33A
100
AcDbEntity
  8
KONSTRUKTIONSELEMENTE
100
AcDbLine
 62
7
  6
CONTINUOUS
 10
160.2189928981
 20
186.2937418585
 11
161.7189928981
 21
186.2937418585
  0
LINE
  5
33B
100
AcDbEntity
  8
KONSTRUKTIONSELEMENTE
100
AcDbLine
 62
7
  6
CONTINUOUS
 10
152.7189928981
 20
186.3788482313
 11
154.3023261519
 21
186.3788482313
  0
LINE
  5
33C
100
AcDbEntity
  8
KONSTRUKTIONSELEMENTE
100
AcDbLine
 62
7
  6
CONTINUOUS
 10
161.7189928981
 20
186.8043800955
 11
159.7189928981
 21
186.8043800955
  0
LINE
  5
33D
100
AcDbEntity
  8
KONSTRUKTIONSELEMENTE
100
AcDbLine
 62
7
  6
CONTINUOUS
 10
159.0523263903
 20
186.8043800955
 11
158.5523263903
 21
186.8043800955
  0
LINE
  5
33E
100
AcDbEntity
  8
KONSTRUKTIONSELEMENTE
100
AcDbLine
 62
7
  6
CONTINUOUS
 10
156.5523263903
 20
186.8043800955
 11
156.0523261519
 21
186.8043800955
  0
LINE
  5
33F
100
AcDbEntity
  8
KONSTRUKTIONSELEMENTE
100
AcDbLine
 62
7
  6
CONTINUOUS
 10
154.2189928981
 20
186.8043800955
 11
152.2189928981
 21
186.8043800955
  0
LINE
  5
340
100
AcDbEntity
  8
0
100
AcDbLine
 62
7
  6
CONTINUOUS
 10
181.6856594654
 20
186.8043800955
 11
183.3523263307
 21
186.8043800955
  0
LINE
  5
341
100
AcDbEntity
  8
KONSTRUKTIONSELEMENTE
100
AcDbLine
 62
7
  6
CONTINUOUS
 10
156.9689928981
 20
182.8894864758
 11
157.3856594058
 21
182.8043800955
  0
LINE
  5
342
100
AcDbEntity
  8
KONSTRUKTIONSELEMENTE
100
AcDbLine
 62
7
  6
CONTINUOUS
 10
154.6356596442
 20
186.7192737227
 11
154.2189928981
 21
186.8043800955
  0
LINE
  5
343
100
AcDbEntity
  8
KONSTRUKTIONSELEMENTE
100
AcDbLine
 62
7
  6
CONTINUOUS
 10
157.3856594058
 20
183.3150183921
 11
157.0523263903
 21
183.4001247649
  0
LINE
  5
344
100
AcDbEntity
  8
KONSTRUKTIONSELEMENTE
100
AcDbLine
 62
7
  6
CONTINUOUS
 10
161.7189928981
 20
186.2937418585
 11
162.0523259135
 21
186.2086354857
  0
LINE
  5
345
100
AcDbEntity
  8
KONSTRUKTIONSELEMENTE
100
AcDbLine
 62
7
  6
CONTINUOUS
 10
154.3023261519
 20
186.3788482313
 11
154.5523261519
 21
186.2937418585
  0
LINE
  5
346
100
AcDbEntity
  8
KONSTRUKTIONSELEMENTE
100
AcDbLine
 62
7
  6
CONTINUOUS
 10
156.6356594058
 20
183.0596992438
 11
156.9689928981
 21
182.8894864758
  0
LINE
  5
347
100
AcDbEntity
  8
KONSTRUKTIONSELEMENTE
100
AcDbLine
 62
7
  6
CONTINUOUS
 10
157.0523263903
 20
183.4001247649
 11
156.8023263903
 21
183.5703375702
  0
LINE
  5
348
100
AcDbEntity
  8
KONSTRUKTIONSELEMENTE
100
AcDbLine
 62
7
  6
CONTINUOUS
 10
156.3023263903
 20
183.4001247649
 11
156.6356594058
 21
183.0596992438
  0
LINE
  5
349
100
AcDbEntity
  8
KONSTRUKTIONSELEMENTE
100
AcDbLine
 62
7
  6
CONTINUOUS
 10
147.5189928981
 20
187.3043800955
 11
147.5189928981
 21
186.6729537659
  0
LINE
  5
34A
100
AcDbEntity
  8
KONSTRUKTIONSELEMENTE
100
AcDbLine
 62
7
  6
CONTINUOUS
 10
147.5189928981
 20
184.8043800955
 11
147.5189928981
 21
182.3043800955
  0
LINE
  5
34B
100
AcDbEntity
  8
KONSTRUKTIONSELEMENTE
100
AcDbLine
 62
7
  6
CONTINUOUS
 10
85.8769106837
 20
178.9379974966
 11
86.1831583949
 21
179.0869328146
  0
LINE
  5
34C
100
AcDbEntity
  8
KONSTRUKTIONSELEMENTE
100
AcDbLine
 62
7
  6
CONTINUOUS
 10
99.6581587764
 20
181.916720069
 11
100.2706599207
 21
182.2145926123
  0
LINE
  5
34D
100
AcDbEntity
  8
KONSTRUKTIONSELEMENTE
100
AcDbLine
 62
7
  6
CONTINUOUS
 10
89.5519099207
 20
184.1507622366
 11
89.143577096
 21
184.0018269186
  0
LINE
  5
34E
100
AcDbEntity
  8
0
100
AcDbLine
 62
7
  6
CONTINUOUS
 10
181.0606596144
 20
195.527784503
 11
182.1023263307
 21
195.7405504351
  0
LINE
  5
34F
100
AcDbEntity
  8
0
100
AcDbLine
 62
7
  6
CONTINUOUS
 10
182.3106594654
 20
196.8043800955
 11
180.8523261817
 21
196.5916141634
  0
LINE
  5
350
100
AcDbEntity
  8
KONSTRUKTIONSELEMENTE
100
AcDbLine
 62
7
  6
CONTINUOUS
 10
167.0189928981
 20
187.8043800955
 11
148.0189928981
 21
187.8043800955
  0
LINE
  5
351
100
AcDbEntity
  8
0
100
AcDbLine
 62
7
  6
CONTINUOUS
 10
183.1439928981
 20
187.8682099049
 11
181.8939928981
 21
187.8682099049
  0
LINE
  5
352
100
AcDbEntity
  8
0
100
AcDbLine
 62
7
  6
CONTINUOUS
 10
179.8106595399
 20
189.1448056464
 11
178.7689928981
 21
189.1448056464
  0
LINE
  5
353
100
AcDbEntity
  8
0
100
AcDbLine
 62
7
  6
CONTINUOUS
 10
182.1023263307
 20
191.4852311974
 11
182.9356594654
 21
191.4852311974
  0
LINE
  5
354
100
AcDbEntity
  8
0
100
AcDbLine
 62
7
  6
CONTINUOUS
 10
182.9356594654
 20
192.3362949257
 11
182.1023263307
 21
192.3362949257
  0
LINE
  5
355
100
AcDbEntity
  8
KONSTRUKTIONSELEMENTE
100
AcDbLine
 62
7
  6
CONTINUOUS
 10
193.5189928981
 20
192.8043800955
 11
192.414531541
 21
192.8043800955
  0
LINE
  5
356
100
AcDbEntity
  8
0
100
AcDbLine
 62
7
  6
CONTINUOUS
 10
122.6234542551
 20
192.8043800955
 11
121.5189928981
 21
192.8043800955
  0
LINE
  5
357
100
AcDbEntity
  8
0
100
AcDbLine
 62
7
  6
CONTINUOUS
 10
178.9773262376
 20
194.4639548426
 11
180.0189928981
 21
194.4639548426
  0
LINE
  5
358
100
AcDbEntity
  8
KONSTRUKTIONSELEMENTE
100
AcDbLine
 62
7
  6
CONTINUOUS
 10
162.1356598826
 20
186.7192737227
 11
161.7189928981
 21
186.8043800955
  0
LINE
  5
359
100
AcDbEntity
  8
0
100
AcDbLine
 62
7
  6
CONTINUOUS
 10
181.8939928981
 20
187.8682099049
 11
180.8523261817
 21
188.080975837
  0
LINE
  5
35A
100
AcDbEntity
  8
0
100
AcDbLine
 62
7
  6
CONTINUOUS
 10
180.8523261817
 20
187.0171460462
 11
181.6856594654
 21
186.8043800955
  0
LINE
  5
35B
100
AcDbEntity
  8
KONSTRUKTIONSELEMENTE
100
AcDbLine
 62
7
  6
CONTINUOUS
 10
162.4689928981
 20
186.549060977
 11
162.1356598826
 21
186.7192737227
  0
LINE
  5
35C
100
AcDbEntity
  8
KONSTRUKTIONSELEMENTE
100
AcDbLine
 62
7
  6
CONTINUOUS
 10
178.0548912829
 20
177.2063038842
 11
177.7151453208
 21
177.4024563069
  0
LINE
  5
35D
100
AcDbEntity
  8
KONSTRUKTIONSELEMENTE
100
AcDbLine
 62
7
  6
CONTINUOUS
 10
162.0523259135
 20
186.2086354857
 11
162.3023259135
 21
186.03842274
  0
LINE
  5
35E
100
AcDbEntity
  8
KONSTRUKTIONSELEMENTE
100
AcDbLine
 62
7
  6
CONTINUOUS
 10
154.9689928981
 20
186.4639546042
 11
154.6356596442
 21
186.7192737227
  0
LINE
  5
35F
100
AcDbEntity
  8
KONSTRUKTIONSELEMENTE
100
AcDbLine
 62
7
  6
CONTINUOUS
 10
154.5523261519
 20
186.2937418585
 11
154.7189928981
 21
186.1235291128
  0
LINE
  5
360
100
AcDbEntity
  8
KONSTRUKTIONSELEMENTE
100
AcDbLine
 62
7
  6
CONTINUOUS
 10
162.8023259135
 20
186.2086354857
 11
162.4689928981
 21
186.549060977
  0
LINE
  5
361
100
AcDbEntity
  8
KONSTRUKTIONSELEMENTE
100
AcDbLine
 62
7
  6
CONTINUOUS
 10
155.2189928981
 20
186.1235291128
 11
154.9689928981
 21
186.4639546042
  0
LINE
  5
362
100
AcDbEntity
  8
KONSTRUKTIONSELEMENTE
100
AcDbLine
 62
7
  6
CONTINUOUS
 10
156.8023263903
 20
183.5703375702
 11
156.6356594058
 21
183.8256566887
  0
LINE
  5
363
100
AcDbEntity
  8
KONSTRUKTIONSELEMENTE
100
AcDbLine
 62
7
  6
CONTINUOUS
 10
156.1356596442
 20
183.7405503159
 11
156.3023263903
 21
183.4001247649
  0
LINE
  5
364
100
AcDbEntity
  8
KONSTRUKTIONSELEMENTE
100
AcDbLine
 62
7
  6
CONTINUOUS
 10
155.3856596442
 20
182.8043800955
 11
154.6356596442
 21
184.7618269091
  0
LINE
  5
365
100
AcDbEntity
  8
KONSTRUKTIONSELEMENTE
100
AcDbLine
 62
7
  6
CONTINUOUS
 10
154.135659525
 20
184.5916141634
 11
154.8023261519
 21
182.8043800955
  0
LINE
  5
366
100
AcDbEntity
  8
KONSTRUKTIONSELEMENTE
100
AcDbLine
 62
7
  6
CONTINUOUS
 10
154.7189928981
 20
186.1235291128
 11
154.8023261519
 21
185.8682099943
  0
LINE
  5
367
100
AcDbEntity
  8
KONSTRUKTIONSELEMENTE
100
AcDbLine
 62
7
  6
CONTINUOUS
 10
155.3023261519
 20
185.8682099943
 11
155.2189928981
 21
186.1235291128
  0
LINE
  5
368
100
AcDbEntity
  8
KONSTRUKTIONSELEMENTE
100
AcDbLine
 62
7
  6
CONTINUOUS
 10
152.2189928981
 20
186.8043800955
 11
152.2189928981
 21
182.8043800955
  0
LINE
  5
369
100
AcDbEntity
  8
KONSTRUKTIONSELEMENTE
100
AcDbLine
 62
7
  6
CONTINUOUS
 10
152.7189928981
 20
182.8043800955
 11
152.7189928981
 21
184.5916141634
  0
LINE
  5
36A
100
AcDbEntity
  8
KONSTRUKTIONSELEMENTE
100
AcDbLine
 62
7
  6
CONTINUOUS
 10
152.7189928981
 20
185.1022524004
 11
152.7189928981
 21
186.3788482313
  0
LINE
  5
36B
100
AcDbEntity
  8
KONSTRUKTIONSELEMENTE
100
AcDbLine
 62
7
  6
CONTINUOUS
 10
154.8023261519
 20
185.8682099943
 11
154.8023261519
 21
185.6128906374
  0
LINE
  5
36C
100
AcDbEntity
  8
KONSTRUKTIONSELEMENTE
100
AcDbLine
 62
7
  6
CONTINUOUS
 10
155.3023261519
 20
185.5277842646
 11
155.3023261519
 21
185.8682099943
  0
LINE
  5
36D
100
AcDbEntity
  8
KONSTRUKTIONSELEMENTE
100
AcDbLine
 62
7
  6
CONTINUOUS
 10
156.0523261519
 20
186.8043800955
 11
156.0523261519
 21
184.1660821801
  0
LINE
  5
36E
100
AcDbEntity
  8
KONSTRUKTIONSELEMENTE
100
AcDbLine
 62
7
  6
CONTINUOUS
 10
156.5523263903
 20
184.1660821801
 11
156.5523263903
 21
186.8043800955
  0
LINE
  5
36F
100
AcDbEntity
  8
KONSTRUKTIONSELEMENTE
100
AcDbLine
 62
7
  6
CONTINUOUS
 10
96.3189928981
 20
147.8043800955
 11
97.5189928981
 21
149.0043800955
  0
LINE
  5
370
100
AcDbEntity
  8
KONSTRUKTIONSELEMENTE
100
AcDbLine
 62
7
  6
CONTINUOUS
 10
90.4706587763
 20
178.9379974966
 11
90.8789935084
 21
179.0869328146
  0
LINE
  5
371
100
AcDbEntity
  8
KONSTRUKTIONSELEMENTE
100
AcDbLine
 62
7
  6
CONTINUOUS
 10
89.0414919825
 20
184.8954445486
 11
89.5519099208
 21
185.0443798666
  0
LINE
  5
372
100
AcDbEntity
  8
KONSTRUKTIONSELEMENTE
100
AcDbLine
 62
7
  6
CONTINUOUS
 10
99.2498259517
 20
184.299699462
 11
98.7394099207
 21
184.1507622366
  0
LINE
  5
373
100
AcDbEntity
  8
KONSTRUKTIONSELEMENTE
100
AcDbLine
 62
7
  6
CONTINUOUS
 10
98.6373267146
 20
184.8954445486
 11
99.3519091578
 21
185.0443798666
  0
LINE
  5
374
100
AcDbEntity
  8
0
100
AcDbLine
 62
7
  6
CONTINUOUS
 10
182.1023263307
 20
195.7405504351
 11
182.9356594654
 21
195.7405504351
  0
LINE
  5
375
100
AcDbEntity
  8
KONSTRUKTIONSELEMENTE
100
AcDbLine
 62
7
  6
CONTINUOUS
 10
204.6620934573
 20
196.7220843313
 11
206.5189928981
 21
196.7220843313
  0
LINE
  5
376
100
AcDbEntity
  8
0
100
AcDbLine
 62
7
  6
CONTINUOUS
 10
182.7273263307
 20
196.8043800955
 11
182.3106594654
 21
196.8043800955
  0
LINE
  5
377
100
AcDbEntity
  8
KONSTRUKTIONSELEMENTE
100
AcDbLine
 62
7
  6
CONTINUOUS
 10
71.7331387983
 20
196.8043800955
 11
109.5189928981
 21
196.8043800955
  0
LINE
  5
378
100
AcDbEntity
  8
KONSTRUKTIONSELEMENTE
100
AcDbLine
 62
7
  6
CONTINUOUS
 10
205.4823455688
 20
196.8043800955
 11
243.3048469978
 21
196.8043800955
  0
LINE
  5
379
100
AcDbEntity
  8
KONSTRUKTIONSELEMENTE
100
AcDbLine
 62
7
  6
CONTINUOUS
 10
239.5093739548
 20
197.8043800955
 11
211.5189928981
 21
197.8043800955
  0
LINE
  5
37A
100
AcDbEntity
  8
KONSTRUKTIONSELEMENTE
100
AcDbLine
 62
7
  6
CONTINUOUS
 10
103.5189928981
 20
197.8043800955
 11
75.5286118413
 21
197.8043800955
  0
LINE
  5
37B
100
AcDbEntity
  8
KONSTRUKTIONSELEMENTE
100
AcDbLine
 62
7
  6
CONTINUOUS
 10
237.5189928981
 20
198.3043800955
 11
213.5189928981
 21
198.3043800955
  0
LINE
  5
37C
100
AcDbEntity
  8
KONSTRUKTIONSELEMENTE
100
AcDbLine
 62
7
  6
CONTINUOUS
 10
101.518992898
 20
198.3043800955
 11
77.518992898
 21
198.3043800955
  0
LINE
  5
37D
100
AcDbEntity
  8
0
100
AcDbLine
 62
7
  6
CONTINUOUS
 10
184.1856597634
 20
196.5916141634
 11
182.7273263307
 21
196.8043800955
  0
LINE
  5
37E
100
AcDbEntity
  8
0
100
AcDbLine
 62
7
  6
CONTINUOUS
 10
182.9356594654
 20
191.4852311974
 11
184.1856597634
 21
191.2724652653
  0
LINE
  5
37F
100
AcDbEntity
  8
0
100
AcDbLine
 62
7
  6
CONTINUOUS
 10
182.9356594654
 20
195.7405504351
 11
183.9773260327
 21
195.527784503
  0
LINE
  5
380
100
AcDbEntity
  8
0
100
AcDbLine
 62
7
  6
CONTINUOUS
 10
180.0189928981
 20
187.4426779663
 11
180.8523261817
 21
187.0171460462
  0
LINE
  5
381
100
AcDbEntity
  8
0
100
AcDbLine
 62
7
  6
CONTINUOUS
 10
180.8523261817
 20
188.080975837
 11
180.4356596144
 21
188.2937417691
  0
LINE
  5
382
100
AcDbEntity
  8
KONSTRUKTIONSELEMENTE
100
AcDbLine
 62
7
  6
CONTINUOUS
 10
162.3023259135
 20
186.03842274
 11
162.4689928981
 21
185.7831033831
  0
LINE
  5
383
100
AcDbEntity
  8
KONSTRUKTIONSELEMENTE
100
AcDbLine
 62
7
  6
CONTINUOUS
 10
162.9689928981
 20
185.8682099943
 11
162.8023259135
 21
186.2086354857
  0
LINE
  5
384
100
AcDbEntity
  8
KONSTRUKTIONSELEMENTE
100
AcDbLine
 62
7
  6
CONTINUOUS
 10
156.6356594058
 20
183.8256566887
 11
156.5523263903
 21
184.1660821801
  0
LINE
  5
385
100
AcDbEntity
  8
KONSTRUKTIONSELEMENTE
100
AcDbLine
 62
7
  6
CONTINUOUS
 10
156.0523261519
 20
184.1660821801
 11
156.1356596442
 21
183.7405503159
  0
LINE
  5
386
100
AcDbEntity
  8
KONSTRUKTIONSELEMENTE
100
AcDbLine
 62
7
  6
CONTINUOUS
 10
158.5523263903
 20
186.8043800955
 11
158.5523263903
 21
184.1660821801
  0
LINE
  5
387
100
AcDbEntity
  8
KONSTRUKTIONSELEMENTE
100
AcDbLine
 62
7
  6
CONTINUOUS
 10
159.0523263903
 20
184.1660821801
 11
159.0523263903
 21
186.8043800955
  0
LINE
  5
388
100
AcDbEntity
  8
KONSTRUKTIONSELEMENTE
100
AcDbLine
 62
7
  6
CONTINUOUS
 10
159.7189928981
 20
186.8043800955
 11
159.7189928981
 21
182.8043800955
  0
LINE
  5
389
100
AcDbEntity
  8
KONSTRUKTIONSELEMENTE
100
AcDbLine
 62
7
  6
CONTINUOUS
 10
160.2189928981
 20
183.3150183921
 11
160.2189928981
 21
186.2937418585
  0
LINE
  5
38A
100
AcDbEntity
  8
KONSTRUKTIONSELEMENTE
100
AcDbLine
 62
7
  6
CONTINUOUS
 10
162.5523259135
 20
185.4426778918
 11
162.5523259135
 21
184.1660821801
  0
LINE
  5
38B
100
AcDbEntity
  8
KONSTRUKTIONSELEMENTE
100
AcDbLine
 62
7
  6
CONTINUOUS
 10
163.0523259135
 20
184.1660821801
 11
163.0523259135
 21
185.4426778918
  0
LINE
  5
38C
100
AcDbEntity
  8
KONSTRUKTIONSELEMENTE
100
AcDbLine
 62
7
  6
CONTINUOUS
 10
158.9689928981
 20
183.7405503159
 11
159.0523263903
 21
184.1660821801
  0
LINE
  5
38D
100
AcDbEntity
  8
KONSTRUKTIONSELEMENTE
100
AcDbLine
 62
7
  6
CONTINUOUS
 10
158.5523263903
 20
184.1660821801
 11
158.4689928981
 21
183.8256566887
  0
LINE
  5
38E
100
AcDbEntity
  8
KONSTRUKTIONSELEMENTE
100
AcDbLine
 62
7
  6
CONTINUOUS
 10
154.8023261519
 20
185.6128906374
 11
154.7189928981
 21
185.3575715189
  0
LINE
  5
38F
100
AcDbEntity
  8
KONSTRUKTIONSELEMENTE
100
AcDbLine
 62
7
  6
CONTINUOUS
 10
155.2189928981
 20
185.2724651461
 11
155.3023261519
 21
185.5277842646
  0
LINE
  5
390
100
AcDbEntity
  8
KONSTRUKTIONSELEMENTE
100
AcDbLine
 62
7
  6
CONTINUOUS
 10
154.9689928981
 20
184.9320396548
 11
155.2189928981
 21
185.2724651461
  0
LINE
  5
391
100
AcDbEntity
  8
KONSTRUKTIONSELEMENTE
100
AcDbLine
 62
7
  6
CONTINUOUS
 10
100.2706599208
 20
178.1933161383
 11
99.8623270961
 21
178.0443798666
  0
LINE
  5
392
100
AcDbEntity
  8
KONSTRUKTIONSELEMENTE
100
AcDbLine
 62
7
  6
CONTINUOUS
 10
86.2852435084
 20
178.1933161383
 11
85.7748255702
 21
178.0443798666
  0
LINE
  5
393
100
AcDbEntity
  8
KONSTRUKTIONSELEMENTE
100
AcDbLine
 62
7
  6
CONTINUOUS
 10
90.9810767146
 20
178.1933161383
 11
90.4706587764
 21
178.0443798666
  0
LINE
  5
394
100
AcDbEntity
  8
KONSTRUKTIONSELEMENTE
100
AcDbLine
 62
7
  6
CONTINUOUS
 10
99.7602419826
 20
178.789061225
 11
100.2706599207
 21
178.9379974966
  0
LWPOLYLINE
  5
395
100
AcDbEntity
  8
KONSTRUKTIONSELEMENTE
100
AcDbPolyline
 62
7
  6
CONTINUOUS
 90
11
 70
0
 10
112.1619561483
 20
203.8043523487
 10
112.0264897154
 20
203.7951343027
 10
111.8989774093
 20
203.7691540379
 10
111.7757826362
 20
203.7267786254
 10
111.6591605064
 20
203.6687578357
 10
111.551067594
 20
203.5960691627
 10
111.453331414
 20
203.5099381171
 10
111.3676655824
 20
203.411890515
 10
111.2954199356
 20
203.3034663788
 10
111.237636651
 20
203.1859710435
 10
111.1960316221
 20
203.0631738199
  0
LWPOLYLINE
  5
396
100
AcDbEntity
  8
KONSTRUKTIONSELEMENTE
100
AcDbPolyline
 62
7
  6
CONTINUOUS
 90
13
 70
0
 10
196.3708405674
 20
203.804356714
 10
196.3167722396
 20
203.8036257354
 10
196.055101042
 20
203.7792766344
 10
195.8002829555
 20
203.7212459772
 10
195.5554297011
 20
203.6305839609
 10
195.324245089
 20
203.5086569169
 10
195.1109626229
 20
203.3576465242
 10
194.9191896058
 20
203.1801152014
 10
194.7521850497
 20
202.9790721216
 10
194.612913223
 20
202.7581350837
 10
194.5035461115
 20
202.5207452564
 10
194.4257531822
 20
202.2697975787
 10
194.3817974055
 20
202.0134166321
  0
LINE
  5
397
100
AcDbEntity
  8
KONSTRUKTIONSELEMENTE
100
AcDbLine
 62
7
  6
CONTINUOUS
 10
240.0189928981
 20
203.8043800955
 11
239.0189928981
 21
203.8043800955
  0
LINE
  5
398
100
AcDbEntity
  8
KONSTRUKTIONSELEMENTE
100
AcDbLine
 62
7
  6
CONTINUOUS
 10
202.8847090881
 20
203.8043800955
 11
196.3666775992
 21
203.8043800955
  0
LINE
  5
399
100
AcDbEntity
  8
KONSTRUKTIONSELEMENTE
100
AcDbLine
 62
7
  6
CONTINUOUS
 10
76.0189928981
 20
203.8043800955
 11
75.0189928981
 21
203.8043800955
  0
LINE
  5
39A
100
AcDbEntity
  8
KONSTRUKTIONSELEMENTE
100
AcDbLine
 62
7
  6
CONTINUOUS
 10
112.153276708
 20
203.8043800955
 11
118.6713081969
 21
203.8043800955
  0
LINE
  5
39B
100
AcDbEntity
  8
KONSTRUKTIONSELEMENTE
100
AcDbLine
 62
7
  6
CONTINUOUS
 10
237.5189928981
 20
207.8043800955
 11
213.5189928981
 21
207.8043800955
  0
LINE
  5
39C
100
AcDbEntity
  8
KONSTRUKTIONSELEMENTE
100
AcDbLine
 62
7
  6
CONTINUOUS
 10
101.518992898
 20
207.8043800955
 11
77.518992898
 21
207.8043800955
  0
LINE
  5
39D
100
AcDbEntity
  8
KONSTRUKTIONSELEMENTE
100
AcDbLine
 62
7
  6
CONTINUOUS
 10
232.0433565287
 20
208.0043800955
 11
229.6722880463
 21
208.0043800955
  0
LINE
  5
39E
100
AcDbEntity
  8
KONSTRUKTIONSELEMENTE
100
AcDbLine
 62
7
  6
CONTINUOUS
 10
229.1607867335
 20
208.0043800955
 11
227.3377552044
 21
208.0043800955
  0
LINE
  5
39F
100
AcDbEntity
  8
KONSTRUKTIONSELEMENTE
100
AcDbLine
 62
7
  6
CONTINUOUS
 10
227.066131522
 20
208.0043800955
 11
226.421901385
 21
208.0043800955
  0
LINE
  5
3A0
100
AcDbEntity
  8
KONSTRUKTIONSELEMENTE
100
AcDbLine
 62
7
  6
CONTINUOUS
 10
223.4856555626
 20
208.0043800955
 11
215.5015842286
 21
208.0043800955
  0
LINE
  5
3A1
100
AcDbEntity
  8
KONSTRUKTIONSELEMENTE
100
AcDbLine
 62
7
  6
CONTINUOUS
 10
99.4184148998
 20
208.0043800955
 11
91.0831405542
 21
208.0043800955
  0
LINE
  5
3A2
100
AcDbEntity
  8
KONSTRUKTIONSELEMENTE
100
AcDbLine
 62
7
  6
CONTINUOUS
 10
91.0808668761
 20
208.0043800955
 11
90.2452332489
 21
208.0043800955
  0
LINE
  5
3A3
100
AcDbEntity
  8
KONSTRUKTIONSELEMENTE
100
AcDbLine
 62
7
  6
CONTINUOUS
 10
87.5278740054
 20
208.0043800955
 11
81.0125299747
 21
208.0043800955
  0
LINE
  5
3A4
100
AcDbEntity
  8
0
100
AcDbLine
 62
7
  6
CONTINUOUS
 10
185.6439928981
 20
191.4852311974
 11
184.6023260327
 21
191.9107630616
  0
LINE
  5
3A5
100
AcDbEntity
  8
0
100
AcDbLine
 62
7
  6
CONTINUOUS
 10
179.3939928981
 20
187.8682099049
 11
180.0189928981
 21
187.4426779663
  0
LINE
  5
3A6
100
AcDbEntity
  8
0
100
AcDbLine
 62
7
  6
CONTINUOUS
 10
184.1856597634
 20
191.2724652653
 11
184.8106597634
 21
190.8469334011
  0
LINE
  5
3A7
100
AcDbEntity
  8
KONSTRUKTIONSELEMENTE
100
AcDbLine
 62
7
  6
CONTINUOUS
 10
218.7189928981
 20
147.8043800955
 11
217.5189928981
 21
149.0043800955
  0
LINE
  5
3A8
100
AcDbEntity
  8
0
100
AcDbLine
 62
7
  6
CONTINUOUS
 10
180.4356596144
 20
188.2937417691
 11
180.0189928981
 21
188.7192737823
  0
LINE
  5
3A9
100
AcDbEntity
  8
KONSTRUKTIONSELEMENTE
100
AcDbLine
 62
7
  6
CONTINUOUS
 10
162.4689928981
 20
185.7831033831
 11
162.5523259135
 21
185.4426778918
  0
LINE
  5
3AA
100
AcDbEntity
  8
KONSTRUKTIONSELEMENTE
100
AcDbLine
 62
7
  6
CONTINUOUS
 10
163.0523259135
 20
185.4426778918
 11
162.9689928981
 21
185.8682099943
  0
LINE
  5
3AB
100
AcDbEntity
  8
KONSTRUKTIONSELEMENTE
100
AcDbLine
 62
7
  6
CONTINUOUS
 10
167.5189928981
 20
182.3043800955
 11
167.5189928981
 21
184.8043800955
  0
LINE
  5
3AC
100
AcDbEntity
  8
KONSTRUKTIONSELEMENTE
100
AcDbLine
 62
7
  6
CONTINUOUS
 10
167.5189928981
 20
186.6729537659
 11
167.5189928981
 21
187.3043800955
  0
LINE
  5
3AD
100
AcDbEntity
  8
KONSTRUKTIONSELEMENTE
100
AcDbLine
 62
7
  6
CONTINUOUS
 10
162.9689928981
 20
183.7405503159
 11
163.0523259135
 21
184.1660821801
  0
LINE
  5
3AE
100
AcDbEntity
  8
KONSTRUKTIONSELEMENTE
100
AcDbLine
 62
7
  6
CONTINUOUS
 10
162.5523259135
 20
184.1660821801
 11
162.4689928981
 21
183.8256566887
  0
LINE
  5
3AF
100
AcDbEntity
  8
KONSTRUKTIONSELEMENTE
100
AcDbLine
 62
7
  6
CONTINUOUS
 10
158.8023263903
 20
183.4001247649
 11
158.9689928981
 21
183.7405503159
  0
LINE
  5
3B0
100
AcDbEntity
  8
KONSTRUKTIONSELEMENTE
100
AcDbLine
 62
7
  6
CONTINUOUS
 10
162.8023259135
 20
183.4001247649
 11
162.9689928981
 21
183.7405503159
  0
LINE
  5
3B1
100
AcDbEntity
  8
KONSTRUKTIONSELEMENTE
100
AcDbLine
 62
7
  6
CONTINUOUS
 10
158.4689928981
 20
183.8256566887
 11
158.3023263903
 21
183.5703375702
  0
LINE
  5
3B2
100
AcDbEntity
  8
KONSTRUKTIONSELEMENTE
100
AcDbLine
 62
7
  6
CONTINUOUS
 10
162.4689928981
 20
183.8256566887
 11
162.3023259135
 21
183.5703375702
  0
LINE
  5
3B3
100
AcDbEntity
  8
KONSTRUKTIONSELEMENTE
100
AcDbLine
 62
7
  6
CONTINUOUS
 10
154.7189928981
 20
185.3575715189
 11
154.5523261519
 21
185.1873587733
  0
LINE
  5
3B4
100
AcDbEntity
  8
KONSTRUKTIONSELEMENTE
100
AcDbLine
 62
7
  6
CONTINUOUS
 10
158.4689928981
 20
183.0596992438
 11
158.8023263903
 21
183.4001247649
  0
LINE
  5
3B5
100
AcDbEntity
  8
KONSTRUKTIONSELEMENTE
100
AcDbLine
 62
7
  6
CONTINUOUS
 10
158.3023263903
 20
183.5703375702
 11
158.0523263903
 21
183.4001247649
  0
LINE
  5
3B6
100
AcDbEntity
  8
0
100
AcDbLine
 62
7
  6
CONTINUOUS
 10
136.9830945132
 20
177.2063038842
 11
137.3228404753
 21
177.4024563069
  0
LINE
  5
3B7
100
AcDbEntity
  8
KONSTRUKTIONSELEMENTE
100
AcDbLine
 62
7
  6
CONTINUOUS
 10
154.6356596442
 20
184.7618269091
 11
154.9689928981
 21
184.9320396548
  0
LINE
  5
3B8
100
AcDbEntity
  8
0
100
AcDbLine
 62
7
  6
CONTINUOUS
 10
180.8523261817
 20
196.5916141634
 11
180.0189928981
 21
196.1660822993
  0
LINE
  5
3B9
100
AcDbEntity
  8
KONSTRUKTIONSELEMENTE
100
AcDbLine
 62
7
  6
CONTINUOUS
 10
154.5523261519
 20
185.1873587733
 11
154.3023261519
 21
185.1022524004
  0
LINE
  5
3BA
100
AcDbEntity
  8
0
100
AcDbLine
 62
7
  6
CONTINUOUS
 10
185.0189928981
 20
196.1660822993
 11
184.1856597634
 21
196.5916141634
  0
LINE
  5
3BB
100
AcDbEntity
  8
0
100
AcDbLine
 62
7
  6
CONTINUOUS
 10
183.9773260327
 20
195.527784503
 11
184.6023260327
 21
195.1022526388
  0
LINE
  5
3BC
100
AcDbEntity
  8
0
100
AcDbLine
 62
7
  6
CONTINUOUS
 10
178.9773262376
 20
188.5065077012
 11
179.3939928981
 21
187.8682099049
  0
LINE
  5
3BD
100
AcDbEntity
  8
KONSTRUKTIONSELEMENTE
100
AcDbLine
 62
7
  6
CONTINUOUS
 10
162.4689928981
 20
183.0596992438
 11
162.8023259135
 21
183.4001247649
  0
LINE
  5
3BE
100
AcDbEntity
  8
0
100
AcDbLine
 62
7
  6
CONTINUOUS
 10
180.0189928981
 20
196.1660822993
 11
179.1856595771
 21
195.3150185709
  0
LINE
  5
3BF
100
AcDbEntity
  8
KONSTRUKTIONSELEMENTE
100
AcDbLine
 62
7
  6
CONTINUOUS
 10
162.3023259135
 20
183.5703375702
 11
162.0523259135
 21
183.4001247649
  0
LINE
  5
3C0
100
AcDbEntity
  8
0
100
AcDbLine
 62
7
  6
CONTINUOUS
 10
180.4356596144
 20
195.1022526388
 11
181.0606596144
 21
195.527784503
  0
LINE
  5
3C1
100
AcDbEntity
  8
KONSTRUKTIONSELEMENTE
100
AcDbLine
 62
7
  6
CONTINUOUS
 10
158.1356594058
 20
182.8894864758
 11
158.4689928981
 21
183.0596992438
  0
LINE
  5
3C2
100
AcDbEntity
  8
KONSTRUKTIONSELEMENTE
100
AcDbLine
 62
7
  6
CONTINUOUS
 10
162.1356598826
 20
182.8894864758
 11
162.4689928981
 21
183.0596992438
  0
LINE
  5
3C3
100
AcDbEntity
  8
0
100
AcDbLine
 62
7
  6
CONTINUOUS
 10
184.1856597634
 20
192.7618267899
 11
182.9356594654
 21
192.3362949257
  0
LINE
  5
3C4
100
AcDbEntity
  8
0
100
AcDbLine
 62
7
  6
CONTINUOUS
 10
185.8523260327
 20
195.3150185709
 11
185.0189928981
 21
196.1660822993
  0
LINE
  5
3C5
100
AcDbEntity
  8
0
100
AcDbLine
 62
7
  6
CONTINUOUS
 10
186.0606597634
 20
190.8469334011
 11
185.6439928981
 21
191.4852311974
  0
LINE
  5
3C6
100
AcDbEntity
  8
0
100
AcDbLine
 62
7
  6
CONTINUOUS
 10
184.6023260327
 20
195.1022526388
 11
185.0189928981
 21
194.4639548426
  0
LINE
  5
3C7
100
AcDbEntity
  8
0
100
AcDbLine
 62
7
  6
CONTINUOUS
 10
180.0189928981
 20
188.7192737823
 11
179.8106595399
 21
189.1448056464
  0
LINE
  5
3C8
100
AcDbEntity
  8
0
100
AcDbLine
 62
7
  6
CONTINUOUS
 10
184.8106597634
 20
190.8469334011
 11
185.2273260327
 21
189.9958693748
  0
LINE
  5
3C9
100
AcDbEntity
  8
0
100
AcDbLine
 62
7
  6
CONTINUOUS
 10
178.7689928981
 20
189.1448056464
 11
178.9773262376
 21
188.5065077012
  0
LINE
  5
3CA
100
AcDbEntity
  8
0
100
AcDbLine
 62
7
  6
CONTINUOUS
 10
182.1023263307
 20
192.3362949257
 11
182.1023263307
 21
191.4852311974
  0
LINE
  5
3CB
100
AcDbEntity
  8
0
100
AcDbLine
 62
7
  6
CONTINUOUS
 10
185.0189928981
 20
194.4639548426
 11
185.0189928981
 21
194.0384223824
  0
LINE
  5
3CC
100
AcDbEntity
  8
0
100
AcDbLine
 62
7
  6
CONTINUOUS
 10
185.2273260327
 20
189.9958693748
 11
185.2273260327
 21
189.1448056464
  0
LINE
  5
3CD
100
AcDbEntity
  8
0
100
AcDbLine
 62
7
  6
CONTINUOUS
 10
186.0606597634
 20
194.0384223824
 11
186.0606597634
 21
194.4639548426
  0
LINE
  5
3CE
100
AcDbEntity
  8
0
100
AcDbLine
 62
7
  6
CONTINUOUS
 10
186.2689928981
 20
189.1448056464
 11
186.2689928981
 21
189.9958693748
  0
LINE
  5
3CF
100
AcDbEntity
  8
0
100
AcDbLine
 62
7
  6
CONTINUOUS
 10
179.1856595771
 20
195.3150185709
 11
178.9773262376
 21
194.4639548426
  0
LINE
  5
3D0
100
AcDbEntity
  8
0
100
AcDbLine
 62
7
  6
CONTINUOUS
 10
185.0189928981
 20
194.0384223824
 11
184.6023260327
 21
193.1873586541
  0
LINE
  5
3D1
100
AcDbEntity
  8
0
100
AcDbLine
 62
7
  6
CONTINUOUS
 10
180.0189928981
 20
194.4639548426
 11
180.4356596144
 21
195.1022526388
  0
LINE
  5
3D2
100
AcDbEntity
  8
0
100
AcDbLine
 62
7
  6
CONTINUOUS
 10
185.4356597634
 20
192.5490608578
 11
185.8523260327
 21
193.1873586541
  0
LINE
  5
3D3
100
AcDbEntity
  8
0
100
AcDbLine
 62
7
  6
CONTINUOUS
 10
184.6023260327
 20
193.1873586541
 11
184.1856597634
 21
192.7618267899
  0
LINE
  5
3D4
100
AcDbEntity
  8
0
100
AcDbLine
 62
7
  6
CONTINUOUS
 10
185.0189928981
 20
188.7192737823
 11
184.6023260327
 21
188.2937417691
  0
LINE
  5
3D5
100
AcDbEntity
  8
0
100
AcDbLine
 62
7
  6
CONTINUOUS
 10
184.6023260327
 20
191.9107630616
 11
185.4356597634
 21
192.5490608578
  0
LINE
  5
3D6
100
AcDbEntity
  8
0
100
AcDbLine
 62
7
  6
CONTINUOUS
 10
185.0189928981
 20
187.4426779663
 11
185.6439928981
 21
187.8682099049
  0
LINE
  5
3D7
100
AcDbEntity
  8
0
100
AcDbLine
 62
7
  6
CONTINUOUS
 10
184.6023260327
 20
188.2937417691
 11
184.1856597634
 21
188.080975837
  0
LINE
  5
3D8
100
AcDbEntity
  8
0
100
AcDbLine
 62
7
  6
CONTINUOUS
 10
184.1856597634
 20
187.0171460462
 11
185.0189928981
 21
187.4426779663
  0
LINE
  5
3D9
100
AcDbEntity
  8
0
100
AcDbLine
 62
7
  6
CONTINUOUS
 10
186.2689928981
 20
189.9958693748
 11
186.0606597634
 21
190.8469334011
  0
LINE
  5
3DA
100
AcDbEntity
  8
0
100
AcDbLine
 62
7
  6
CONTINUOUS
 10
186.0606597634
 20
194.4639548426
 11
185.8523260327
 21
195.3150185709
  0
LINE
  5
3DB
100
AcDbEntity
  8
KONSTRUKTIONSELEMENTE
100
AcDbLine
 62
7
  6
CONTINUOUS
 10
193.5737739444
 20
177.2831732555
 11
193.9974551488
 21
173.2521158639
  0
LINE
  5
3DC
100
AcDbEntity
  8
KONSTRUKTIONSELEMENTE
100
AcDbLine
 62
7
  6
CONTINUOUS
 10
193.5189928981
 20
178.3284578883
 11
193.5737739444
 21
177.2831732557
  0
LINE
  5
3DD
100
AcDbEntity
  8
RUNDUNGEN
100
AcDbLine
 62
7
  6
CONTINUOUS
 10
192.5189928981
 20
190.2554333649
 11
192.5189928981
 21
185.8043800955
  0
LINE
  5
3DE
100
AcDbEntity
  8
RUNDUNGEN
100
AcDbLine
 62
7
  6
CONTINUOUS
 10
192.130170202
 20
191.1371625155
 11
192.1291627594
 21
191.1275773389
  0
LINE
  5
3DF
100
AcDbEntity
  8
RUNDUNGEN
100
AcDbLine
 62
7
  6
CONTINUOUS
 10
192.177851227
 20
191.5908171644
 11
192.5156186819
 21
194.8044598316
  0
LINE
  5
3E0
100
AcDbEntity
  8
0
100
AcDbLine
 62
7
  6
CONTINUOUS
 10
185.8523260327
 20
193.1873586541
 11
186.0606597634
 21
194.0384223824
  0
LINE
  5
3E1
100
AcDbEntity
  8
0
100
AcDbLine
 62
7
  6
CONTINUOUS
 10
186.0606597634
 20
188.5065077012
 11
186.2689928981
 21
189.1448056464
  0
LINE
  5
3E2
100
AcDbEntity
  8
0
100
AcDbLine
 62
7
  6
CONTINUOUS
 10
185.2273260327
 20
189.1448056464
 11
185.0189928981
 21
188.7192737823
  0
LINE
  5
3E3
100
AcDbEntity
  8
0
100
AcDbLine
 62
7
  6
CONTINUOUS
 10
185.6439928981
 20
187.8682099049
 11
186.0606597634
 21
188.5065077012
  0
LINE
  5
3E4
100
AcDbEntity
  8
KONSTRUKTIONSELEMENTE
100
AcDbLine
 62
7
  6
CONTINUOUS
 10
193.5189928981
 20
193.6995645369
 11
193.5189928981
 21
178.3284578883
  0
LINE
  5
3E5
100
AcDbEntity
  8
KONSTRUKTIONSELEMENTE
100
AcDbLine
 62
7
  6
CONTINUOUS
 10
194.5700352507
 20
172.8043800955
 11
194.5700352507
 21
168.3043800955
  0
LINE
  5
3E6
100
AcDbEntity
  8
KONSTRUKTIONSELEMENTE
100
AcDbLine
 62
7
  6
CONTINUOUS
 10
195.4679775443
 20
172.8043800955
 11
195.4679775443
 21
168.3043800955
  0
LINE
  5
3E7
100
AcDbEntity
  8
KONSTRUKTIONSELEMENTE
100
AcDbLine
 62
7
  6
CONTINUOUS
 10
199.651277677
 20
172.8043800955
 11
199.651277677
 21
168.3043800955
  0
LINE
  5
3E8
100
AcDbEntity
  8
RUNDUNGEN
100
AcDbLine
 62
7
  6
CONTINUOUS
 10
193.7866885154
 20
197.3311092408
 11
195.310824922
 21
211.8322984913
  0
LINE
  5
3E9
100
AcDbEntity
  8
KONSTRUKTIONSELEMENTE
100
AcDbLine
 62
7
  6
CONTINUOUS
 10
194.3817974055
 20
202.0134166321
 11
193.5299491073
 21
193.9086214636
  0
LINE
  5
3EA
100
AcDbEntity
  8
KONSTRUKTIONSELEMENTE
100
AcDbLine
 62
7
  6
CONTINUOUS
 10
205.5189928981
 20
195.2302199646
 11
205.5189928981
 21
192.5489442379
  0
LWPOLYLINE
  5
3EB
100
AcDbEntity
  8
KONSTRUKTIONSELEMENTE
100
AcDbPolyline
 62
7
  6
CONTINUOUS
 90
11
 70
0
 10
203.841954174
 20
203.0631738199
 10
203.8003491451
 20
203.1859710434
 10
203.7425658606
 20
203.3034663787
 10
203.6703202139
 20
203.4118905148
 10
203.5846543823
 20
203.5099381169
 10
203.4869182023
 20
203.5960691626
 10
203.3788252899
 20
203.6687578356
 10
203.26220316
 20
203.7267786254
 10
203.1390083869
 20
203.7691540379
 10
203.0114960808
 20
203.7951343027
 10
202.8760296478
 20
203.8043523487
  0
LINE
  5
3EC
100
AcDbEntity
  8
KONSTRUKTIONSELEMENTE
100
AcDbLine
 62
7
  6
CONTINUOUS
 10
203.8419729599
 20
203.0631037099
 11
205.5165379925
 21
196.8135419278
  0
LINE
  5
3ED
100
AcDbEntity
  8
KONSTRUKTIONSELEMENTE
100
AcDbLine
 62
7
  6
CONTINUOUS
 10
207.4887928245
 20
172.8043800955
 11
207.4887928245
 21
168.3043800955
  0
LINE
  5
3EE
100
AcDbEntity
  8
KONSTRUKTIONSELEMENTE
100
AcDbLine
 62
7
  6
CONTINUOUS
 10
211.5189928981
 20
196.8043800955
 11
211.5189928981
 21
197.8043800955
  0
LINE
  5
3EF
100
AcDbEntity
  8
KONSTRUKTIONSELEMENTE
100
AcDbLine
 62
7
  6
CONTINUOUS
 10
211.6720929571
 20
172.8043800955
 11
211.6720929571
 21
168.3043800955
  0
LINE
  5
3F0
100
AcDbEntity
  8
KONSTRUKTIONSELEMENTE
100
AcDbLine
 62
7
  6
CONTINUOUS
 10
212.5700352507
 20
172.8043800955
 11
212.5700352507
 21
168.3043800955
  0
LINE
  5
3F1
100
AcDbEntity
  8
KONSTRUKTIONSELEMENTE
100
AcDbLine
 62
7
  6
CONTINUOUS
 10
213.5189928981
 20
198.3043800955
 11
213.5189928981
 21
207.8043801068
  0
LINE
  5
3F2
100
AcDbEntity
  8
KONSTRUKTIONSELEMENTE
100
AcDbLine
 62
7
  6
CONTINUOUS
 10
214.5189928981
 20
197.8043800955
 11
214.5189928981
 21
198.3043800955
  0
LINE
  5
3F3
100
AcDbEntity
  8
KONSTRUKTIONSELEMENTE
100
AcDbLine
 62
7
  6
CONTINUOUS
 10
215.5015842286
 20
208.0043800955
 11
215.5015842286
 21
207.8043800955
  0
LINE
  5
3F4
100
AcDbEntity
  8
KONSTRUKTIONSELEMENTE
100
AcDbLine
 62
7
  6
CONTINUOUS
 10
215.5347701572
 20
208.0043800955
 11
215.5347701572
 21
207.8043800955
  0
LINE
  5
3F5
100
AcDbEntity
  8
KONSTRUKTIONSELEMENTE
100
AcDbLine
 62
7
  6
CONTINUOUS
 10
215.667513872
 20
208.0043800955
 11
215.667513872
 21
207.8043800955
  0
LINE
  5
3F6
100
AcDbEntity
  8
KONSTRUKTIONSELEMENTE
100
AcDbLine
 62
7
  6
CONTINUOUS
 10
215.7006998165
 20
208.0043800955
 11
215.7006998165
 21
207.8043800955
  0
LINE
  5
3F7
100
AcDbEntity
  8
KONSTRUKTIONSELEMENTE
100
AcDbLine
 62
7
  6
CONTINUOUS
 10
216.220613444
 20
208.0043800955
 11
216.220613444
 21
207.8043800955
  0
LINE
  5
3F8
100
AcDbEntity
  8
KONSTRUKTIONSELEMENTE
100
AcDbLine
 62
7
  6
CONTINUOUS
 10
216.247409453
 20
208.0043800955
 11
216.247409453
 21
207.8043800955
  0
LINE
  5
3F9
100
AcDbEntity
  8
KONSTRUKTIONSELEMENTE
100
AcDbLine
 62
7
  6
CONTINUOUS
 10
216.6574782596
 20
208.0043800955
 11
216.6574782596
 21
207.8043800955
  0
LINE
  5
3FA
100
AcDbEntity
  8
KONSTRUKTIONSELEMENTE
100
AcDbLine
 62
7
  6
CONTINUOUS
 10
217.5189928981
 20
149.0043800955
 11
217.5189928981
 21
172.8043800955
  0
LINE
  5
3FB
100
AcDbEntity
  8
KONSTRUKTIONSELEMENTE
100
AcDbLine
 62
7
  6
CONTINUOUS
 10
219.4133239951
 20
208.0043800955
 11
219.4133239951
 21
207.8043800955
  0
LINE
  5
3FC
100
AcDbEntity
  8
KONSTRUKTIONSELEMENTE
100
AcDbLine
 62
7
  6
CONTINUOUS
 10
219.7860389683
 20
208.0043800955
 11
219.7860389683
 21
207.8043800955
  0
LINE
  5
3FD
100
AcDbEntity
  8
KONSTRUKTIONSELEMENTE
100
AcDbLine
 62
7
  6
CONTINUOUS
 10
219.9673083593
 20
208.0043800955
 11
219.9673083593
 21
207.8043800955
  0
LINE
  5
3FE
100
AcDbEntity
  8
KONSTRUKTIONSELEMENTE
100
AcDbLine
 62
7
  6
CONTINUOUS
 10
220.3902700409
 20
208.0043800955
 11
220.3902700409
 21
207.8043800955
  0
LINE
  5
3FF
100
AcDbEntity
  8
KONSTRUKTIONSELEMENTE
100
AcDbLine
 62
7
  6
CONTINUOUS
 10
220.6319630232
 20
208.0043800955
 11
220.6319630232
 21
207.8043800955
  0
LINE
  5
400
100
AcDbEntity
  8
KONSTRUKTIONSELEMENTE
100
AcDbLine
 62
7
  6
CONTINUOUS
 10
221.0549247048
 20
208.0043800955
 11
221.0549247048
 21
207.8043800955
  0
LINE
  5
401
100
AcDbEntity
  8
KONSTRUKTIONSELEMENTE
100
AcDbLine
 62
7
  6
CONTINUOUS
 10
221.2361940957
 20
208.0043800955
 11
221.2361940957
 21
207.8043800955
  0
LINE
  5
402
100
AcDbEntity
  8
KONSTRUKTIONSELEMENTE
100
AcDbLine
 62
7
  6
CONTINUOUS
 10
221.7859706214
 20
208.0043800955
 11
221.7859706214
 21
207.8043800955
  0
LINE
  5
403
100
AcDbEntity
  8
KONSTRUKTIONSELEMENTE
100
AcDbLine
 62
7
  6
CONTINUOUS
 10
222.0054366625
 20
208.0043800955
 11
222.0054366625
 21
207.8043800955
  0
LINE
  5
404
100
AcDbEntity
  8
KONSTRUKTIONSELEMENTE
100
AcDbLine
 62
7
  6
CONTINUOUS
 10
222.0387945969
 20
208.0043800955
 11
222.0387945969
 21
207.8043800955
  0
LINE
  5
405
100
AcDbEntity
  8
KONSTRUKTIONSELEMENTE
100
AcDbLine
 62
7
  6
CONTINUOUS
 10
222.2334484286
 20
208.0043800955
 11
222.2334484286
 21
207.8043800955
  0
LINE
  5
406
100
AcDbEntity
  8
KONSTRUKTIONSELEMENTE
100
AcDbLine
 62
7
  6
CONTINUOUS
 10
222.4457223138
 20
208.0043800955
 11
222.4457223138
 21
207.8043800955
  0
LINE
  5
407
100
AcDbEntity
  8
KONSTRUKTIONSELEMENTE
100
AcDbLine
 62
7
  6
CONTINUOUS
 10
222.7160103651
 20
208.0043800955
 11
222.7160103651
 21
207.8043800955
  0
LINE
  5
408
100
AcDbEntity
  8
KONSTRUKTIONSELEMENTE
100
AcDbLine
 62
7
  6
CONTINUOUS
 10
222.9407521714
 20
208.0043800955
 11
222.9407521714
 21
207.8043800955
  0
LINE
  5
409
100
AcDbEntity
  8
KONSTRUKTIONSELEMENTE
100
AcDbLine
 62
7
  6
CONTINUOUS
 10
223.1427217798
 20
208.0043800955
 11
223.1427217798
 21
207.8043800955
  0
LINE
  5
40A
100
AcDbEntity
  8
KONSTRUKTIONSELEMENTE
100
AcDbLine
 62
7
  6
CONTINUOUS
 10
223.3219173411
 20
208.0043800955
 11
223.3219173411
 21
207.8043800955
  0
LINE
  5
40B
100
AcDbEntity
  8
KONSTRUKTIONSELEMENTE
100
AcDbLine
 62
7
  6
CONTINUOUS
 10
223.4555666574
 20
208.0043800955
 11
223.4555666574
 21
207.8043800955
  0
LINE
  5
40C
100
AcDbEntity
  8
KONSTRUKTIONSELEMENTE
100
AcDbLine
 62
7
  6
CONTINUOUS
 10
223.4856555626
 20
208.0043800955
 11
223.4856555626
 21
207.8043800955
  0
LINE
  5
40D
100
AcDbEntity
  8
KONSTRUKTIONSELEMENTE
100
AcDbLine
 62
7
  6
CONTINUOUS
 10
225.5189928981
 20
206.7325833258
 11
225.5189928981
 21
198.3043800955
  0
LINE
  5
40E
100
AcDbEntity
  8
KONSTRUKTIONSELEMENTE
100
AcDbLine
 62
7
  6
CONTINUOUS
 10
226.421901385
 20
208.0043800955
 11
226.421901385
 21
207.8043800955
  0
LINE
  5
40F
100
AcDbEntity
  8
KONSTRUKTIONSELEMENTE
100
AcDbLine
 62
7
  6
CONTINUOUS
 10
226.6791707419
 20
208.0043800955
 11
226.6791707419
 21
207.8043800955
  0
LINE
  5
410
100
AcDbEntity
  8
KONSTRUKTIONSELEMENTE
100
AcDbLine
 62
7
  6
CONTINUOUS
 10
227.066131522
 20
208.0043800955
 11
227.066131522
 21
207.8043800955
  0
LINE
  5
411
100
AcDbEntity
  8
KONSTRUKTIONSELEMENTE
100
AcDbLine
 62
7
  6
CONTINUOUS
 10
227.3377552044
 20
208.0043800955
 11
227.3377552044
 21
207.8043800955
  0
LINE
  5
412
100
AcDbEntity
  8
KONSTRUKTIONSELEMENTE
100
AcDbLine
 62
7
  6
CONTINUOUS
 10
227.3990897528
 20
208.0043800955
 11
227.3990897528
 21
207.8043800955
  0
LINE
  5
413
100
AcDbEntity
  8
KONSTRUKTIONSELEMENTE
100
AcDbLine
 62
7
  6
CONTINUOUS
 10
227.5423209323
 20
208.0043800955
 11
227.5423209323
 21
207.8043800955
  0
LINE
  5
414
100
AcDbEntity
  8
KONSTRUKTIONSELEMENTE
100
AcDbLine
 62
7
  6
CONTINUOUS
 10
227.7675057936
 20
208.0043800955
 11
227.7675057936
 21
207.8043800955
  0
LINE
  5
415
100
AcDbEntity
  8
KONSTRUKTIONSELEMENTE
100
AcDbLine
 62
7
  6
CONTINUOUS
 10
228.0336969593
 20
208.0043800955
 11
228.0336969593
 21
207.8043800955
  0
LINE
  5
416
100
AcDbEntity
  8
KONSTRUKTIONSELEMENTE
100
AcDbLine
 62
7
  6
CONTINUOUS
 10
228.2999451774
 20
208.0043800955
 11
228.2999451774
 21
207.8043800955
  0
LINE
  5
417
100
AcDbEntity
  8
KONSTRUKTIONSELEMENTE
100
AcDbLine
 62
7
  6
CONTINUOUS
 10
228.4842986425
 20
208.0043800955
 11
228.4842986425
 21
207.8043800955
  0
LINE
  5
418
100
AcDbEntity
  8
KONSTRUKTIONSELEMENTE
100
AcDbLine
 62
7
  6
CONTINUOUS
 10
228.6482078877
 20
208.0043800955
 11
228.6482078877
 21
207.8043800955
  0
LINE
  5
419
100
AcDbEntity
  8
KONSTRUKTIONSELEMENTE
100
AcDbLine
 62
7
  6
CONTINUOUS
 10
228.7506647163
 20
208.0043800955
 11
228.7506647163
 21
207.8043800955
  0
LINE
  5
41A
100
AcDbEntity
  8
KONSTRUKTIONSELEMENTE
100
AcDbLine
 62
7
  6
CONTINUOUS
 10
228.7990440956
 20
208.0043800955
 11
228.7990440956
 21
207.8043800955
  0
LINE
  5
41B
100
AcDbEntity
  8
KONSTRUKTIONSELEMENTE
100
AcDbLine
 62
7
  6
CONTINUOUS
 10
228.988457539
 20
208.0043800955
 11
228.988457539
 21
207.8043800955
  0
LINE
  5
41C
100
AcDbEntity
  8
KONSTRUKTIONSELEMENTE
100
AcDbLine
 62
7
  6
CONTINUOUS
 10
229.142321885
 20
208.0043800955
 11
229.142321885
 21
207.8043800955
  0
LINE
  5
41D
100
AcDbEntity
  8
KONSTRUKTIONSELEMENTE
100
AcDbLine
 62
7
  6
CONTINUOUS
 10
229.1607867335
 20
208.0043800955
 11
229.1607867335
 21
207.8043800955
  0
LINE
  5
41E
100
AcDbEntity
  8
KONSTRUKTIONSELEMENTE
100
AcDbLine
 62
7
  6
CONTINUOUS
 10
229.6722880463
 20
208.0043800955
 11
229.6722880463
 21
207.8043800955
  0
LINE
  5
41F
100
AcDbEntity
  8
KONSTRUKTIONSELEMENTE
100
AcDbLine
 62
7
  6
CONTINUOUS
 10
229.7202435221
 20
208.0043800955
 11
229.7202435221
 21
207.8043800955
  0
LINE
  5
420
100
AcDbEntity
  8
KONSTRUKTIONSELEMENTE
100
AcDbLine
 62
7
  6
CONTINUOUS
 10
229.8483832046
 20
208.0043800955
 11
229.8483832046
 21
207.8043800955
  0
LINE
  5
421
100
AcDbEntity
  8
KONSTRUKTIONSELEMENTE
100
AcDbLine
 62
7
  6
CONTINUOUS
 10
229.982967093
 20
208.0043800955
 11
229.982967093
 21
207.8043800955
  0
LINE
  5
422
100
AcDbEntity
  8
KONSTRUKTIONSELEMENTE
100
AcDbLine
 62
7
  6
CONTINUOUS
 10
230.191289442
 20
208.0043800955
 11
230.191289442
 21
207.8043800955
  0
LINE
  5
423
100
AcDbEntity
  8
KONSTRUKTIONSELEMENTE
100
AcDbLine
 62
7
  6
CONTINUOUS
 10
230.4797944576
 20
208.0043800955
 11
230.4797944576
 21
207.8043800955
  0
LINE
  5
424
100
AcDbEntity
  8
KONSTRUKTIONSELEMENTE
100
AcDbLine
 62
7
  6
CONTINUOUS
 10
230.7410980921
 20
208.0043800955
 11
230.7410980921
 21
207.8043800955
  0
LINE
  5
425
100
AcDbEntity
  8
KONSTRUKTIONSELEMENTE
100
AcDbLine
 62
7
  6
CONTINUOUS
 10
231.0088459431
 20
208.0043800955
 11
231.0088459431
 21
207.8043800955
  0
LINE
  5
426
100
AcDbEntity
  8
KONSTRUKTIONSELEMENTE
100
AcDbLine
 62
7
  6
CONTINUOUS
 10
231.3231324348
 20
208.0043800955
 11
231.3231324348
 21
207.8043800955
  0
LINE
  5
427
100
AcDbEntity
  8
KONSTRUKTIONSELEMENTE
100
AcDbLine
 62
7
  6
CONTINUOUS
 10
231.6037717431
 20
208.0043800955
 11
231.6037717431
 21
207.8043800955
  0
LINE
  5
428
100
AcDbEntity
  8
KONSTRUKTIONSELEMENTE
100
AcDbLine
 62
7
  6
CONTINUOUS
 10
231.8507639241
 20
208.0043800955
 11
231.8507639241
 21
207.8043800955
  0
LINE
  5
429
100
AcDbEntity
  8
KONSTRUKTIONSELEMENTE
100
AcDbLine
 62
7
  6
CONTINUOUS
 10
231.9839295111
 20
208.0043800955
 11
231.9839295111
 21
207.8043800955
  0
LINE
  5
42A
100
AcDbEntity
  8
KONSTRUKTIONSELEMENTE
100
AcDbLine
 62
7
  6
CONTINUOUS
 10
232.0433565287
 20
208.0043800955
 11
232.0433565287
 21
207.8043800955
  0
LINE
  5
42B
100
AcDbEntity
  8
KONSTRUKTIONSELEMENTE
100
AcDbLine
 62
7
  6
CONTINUOUS
 10
233.5189928981
 20
149.0043800955
 11
233.5189928981
 21
172.8043800955
  0
LINE
  5
42C
100
AcDbEntity
  8
KONSTRUKTIONSELEMENTE
100
AcDbLine
 62
7
  6
CONTINUOUS
 10
236.5189928981
 20
197.8043800955
 11
236.5189928981
 21
198.3043800955
  0
LINE
  5
42D
100
AcDbEntity
  8
KONSTRUKTIONSELEMENTE
100
AcDbLine
 62
7
  6
CONTINUOUS
 10
237.5189928981
 20
207.8043800955
 11
237.5189928981
 21
198.3043800955
  0
LINE
  5
42E
100
AcDbEntity
  8
KONSTRUKTIONSELEMENTE
100
AcDbLine
 62
7
  6
CONTINUOUS
 10
239.0189928981
 20
203.8043800955
 11
239.0189928981
 21
197.8043800955
  0
LINE
  5
42F
100
AcDbEntity
  8
KONSTRUKTIONSELEMENTE
100
AcDbLine
 62
7
  6
CONTINUOUS
 10
239.5093739548
 20
197.8043800955
 11
239.5093739548
 21
196.8043800955
  0
LINE
  5
430
100
AcDbEntity
  8
KONSTRUKTIONSELEMENTE
100
AcDbLine
 62
7
  6
CONTINUOUS
 10
240.0189928981
 20
203.8043800955
 11
240.0189928981
 21
196.8043800955
  0
LINE
  5
431
100
AcDbEntity
  8
KONSTRUKTIONSELEMENTE
100
AcDbLine
 62
7
  6
CONTINUOUS
 10
245.2366986504
 20
195.3220181857
 11
247.5189928981
 21
186.8043800955
  0
LINE
  5
432
100
AcDbEntity
  8
KONSTRUKTIONSELEMENTE
100
AcDbLine
 62
7
  6
CONTINUOUS
 10
247.5189928981
 20
186.8043800955
 11
247.5189928981
 21
182.804372988
  0
LINE
  5
433
100
AcDbEntity
  8
KONSTRUKTIONSELEMENTE
100
AcDbLine
 62
7
  6
CONTINUOUS
 10
247.518992898
 20
182.8043800955
 11
246.6561862475
 21
174.595323169
  0
LINE
  5
434
100
AcDbEntity
  8
KONSTRUKTIONSELEMENTE
100
AcDbLine
 62
7
  6
CONTINUOUS
 10
232.3189928981
 20
147.8043800955
 11
233.5189928981
 21
149.0043800955
  0
LINE
  5
435
100
AcDbEntity
  8
KONSTRUKTIONSELEMENTE
100
AcDbLine
 62
7
  6
CONTINUOUS
 10
312.2269115114
 20
147.8043800955
 11
325.8266186073
 21
147.8043800955
  0
LINE
  5
436
100
AcDbEntity
  8
KONSTRUKTIONSELEMENTE
100
AcDbLine
 62
7
  6
CONTINUOUS
 10
311.0267650294
 20
149.0043800955
 11
327.0267650294
 21
149.0043800955
  0
LINE
  5
437
100
AcDbEntity
  8
KONSTRUKTIONSELEMENTE
100
AcDbLine
 62
7
  6
CONTINUOUS
 10
312.2267650294
 20
147.8043800955
 11
311.0267650294
 21
149.0043800955
  0
LINE
  5
438
100
AcDbEntity
  8
KONSTRUKTIONSELEMENTE
100
AcDbLine
 62
7
  6
CONTINUOUS
 10
327.5267650294
 20
167.8043800955
 11
327.0267650294
 21
167.8043800955
  0
LINE
  5
439
100
AcDbEntity
  8
KONSTRUKTIONSELEMENTE
100
AcDbLine
 62
7
  6
CONTINUOUS
 10
311.0267650294
 20
167.8043800955
 11
310.5267725939
 21
167.8043800955
  0
LINE
  5
43A
100
AcDbEntity
  8
KONSTRUKTIONSELEMENTE
100
AcDbLine
 62
7
  6
CONTINUOUS
 10
335.5185478725
 20
172.8043800955
 11
302.5349821864
 21
172.8043800955
  0
LINE
  5
43B
100
AcDbEntity
  8
KONSTRUKTIONSELEMENTE
100
AcDbLine
 62
7
  6
CONTINUOUS
 10
336.5267650294
 20
178.0443798666
 11
336.0267650294
 21
178.0443798666
  0
LINE
  5
43C
100
AcDbEntity
  8
KONSTRUKTIONSELEMENTE
100
AcDbLine
 62
7
  6
CONTINUOUS
 10
301.5267650294
 20
178.0443798666
 11
302.0267650294
 21
178.0443798666
  0
LINE
  5
43D
100
AcDbEntity
  8
KONSTRUKTIONSELEMENTE
100
AcDbLine
 62
7
  6
CONTINUOUS
 10
301.5267650294
 20
178.6401249533
 11
302.0267650294
 21
178.6401249533
  0
LINE
  5
43E
100
AcDbEntity
  8
KONSTRUKTIONSELEMENTE
100
AcDbLine
 62
7
  6
CONTINUOUS
 10
301.5267650294
 20
178.789061225
 11
302.0267650294
 21
178.789061225
  0
LINE
  5
43F
100
AcDbEntity
  8
KONSTRUKTIONSELEMENTE
100
AcDbLine
 62
7
  6
CONTINUOUS
 10
301.5267650294
 20
179.0869328146
 11
302.0267650294
 21
179.0869328146
  0
LINE
  5
440
100
AcDbEntity
  8
KONSTRUKTIONSELEMENTE
100
AcDbLine
 62
7
  6
CONTINUOUS
 10
301.5267650294
 20
179.5337416296
 11
302.0267650294
 21
179.5337416296
  0
LINE
  5
441
100
AcDbEntity
  8
KONSTRUKTIONSELEMENTE
100
AcDbLine
 62
7
  6
CONTINUOUS
 10
301.5267650294
 20
182.2145926123
 11
302.0267650294
 21
182.2145926123
  0
LINE
  5
442
100
AcDbEntity
  8
KONSTRUKTIONSELEMENTE
100
AcDbLine
 62
7
  6
CONTINUOUS
 10
301.5267650294
 20
185.0443798666
 11
301.5267650294
 21
178.0443798666
  0
LINE
  5
443
100
AcDbEntity
  8
KONSTRUKTIONSELEMENTE
100
AcDbLine
 62
7
  6
CONTINUOUS
 10
302.0267650294
 20
173.3043800955
 11
302.0267650294
 21
192.8043800954
  0
LINE
  5
444
100
AcDbEntity
  8
KONSTRUKTIONSELEMENTE
100
AcDbLine
 62
7
  6
CONTINUOUS
 10
304.0267650294
 20
196.8043800955
 11
304.0267650294
 21
197.8043800955
  0
LINE
  5
445
100
AcDbEntity
  8
KONSTRUKTIONSELEMENTE
100
AcDbLine
 62
7
  6
CONTINUOUS
 10
334.0267650294
 20
182.8043800955
 11
304.0267650294
 21
182.8043800955
  0
LINE
  5
446
100
AcDbEntity
  8
KONSTRUKTIONSELEMENTE
100
AcDbLine
 62
7
  6
CONTINUOUS
 10
301.5267650294
 20
182.810337699
 11
302.0267650294
 21
182.810337699
  0
LINE
  5
447
100
AcDbEntity
  8
KONSTRUKTIONSELEMENTE
100
AcDbLine
 62
7
  6
CONTINUOUS
 10
301.5267650294
 20
184.0018269186
 11
302.0267650294
 21
184.0018269186
  0
LINE
  5
448
100
AcDbEntity
  8
KONSTRUKTIONSELEMENTE
100
AcDbLine
 62
7
  6
CONTINUOUS
 10
301.5267650294
 20
184.5975720053
 11
302.0267650294
 21
184.5975720053
  0
LINE
  5
449
100
AcDbEntity
  8
KONSTRUKTIONSELEMENTE
100
AcDbLine
 62
7
  6
CONTINUOUS
 10
301.5267650294
 20
184.8954445486
 11
302.0267650294
 21
184.8954445486
  0
LINE
  5
44A
100
AcDbEntity
  8
KONSTRUKTIONSELEMENTE
100
AcDbLine
 62
7
  6
CONTINUOUS
 10
336.5267650294
 20
185.0443798666
 11
336.0267650294
 21
185.0443798666
  0
LINE
  5
44B
100
AcDbEntity
  8
KONSTRUKTIONSELEMENTE
100
AcDbLine
 62
7
  6
CONTINUOUS
 10
301.5267650294
 20
185.0443798666
 11
302.0267650294
 21
185.0443798666
  0
LINE
  5
44C
100
AcDbEntity
  8
KONSTRUKTIONSELEMENTE
100
AcDbLine
 62
7
  6
CONTINUOUS
 10
305.1703585689
 20
206.7325833258
 11
305.1703585689
 21
198.3043800955
  0
LINE
  5
44D
100
AcDbEntity
  8
KONSTRUKTIONSELEMENTE
100
AcDbLine
 62
7
  6
CONTINUOUS
 10
308.0267650294
 20
197.8043800955
 11
308.0267650294
 21
198.3043800955
  0
LINE
  5
44E
100
AcDbEntity
  8
KONSTRUKTIONSELEMENTE
100
AcDbLine
 62
7
  6
CONTINUOUS
 10
307.0267650294
 20
207.8043800955
 11
305.1703585689
 21
206.7325833258
  0
LINE
  5
44F
100
AcDbEntity
  8
KONSTRUKTIONSELEMENTE
100
AcDbLine
 62
7
  6
CONTINUOUS
 10
334.0267650294
 20
186.8043800955
 11
304.0267650294
 21
186.8043800955
  0
LINE
  5
450
100
AcDbEntity
  8
KONSTRUKTIONSELEMENTE
100
AcDbLine
 62
7
  6
CONTINUOUS
 10
309.0808769656
 20
208.0043800955
 11
309.0808769656
 21
207.8043800955
  0
LINE
  5
451
100
AcDbEntity
  8
KONSTRUKTIONSELEMENTE
100
AcDbLine
 62
7
  6
CONTINUOUS
 10
309.6149390821
 20
208.0043800955
 11
309.6149390821
 21
207.8043800955
  0
LINE
  5
452
100
AcDbEntity
  8
KONSTRUKTIONSELEMENTE
100
AcDbLine
 62
7
  6
CONTINUOUS
 10
309.633097043
 20
208.0043800955
 11
309.633097043
 21
207.8043800955
  0
LINE
  5
453
100
AcDbEntity
  8
KONSTRUKTIONSELEMENTE
100
AcDbLine
 62
7
  6
CONTINUOUS
 10
310.0061559523
 20
208.0043800955
 11
310.0061559523
 21
207.8043800955
  0
LINE
  5
454
100
AcDbEntity
  8
KONSTRUKTIONSELEMENTE
100
AcDbLine
 62
7
  6
CONTINUOUS
 10
310.0267650294
 20
172.8043800955
 11
310.0267650294
 21
168.3043800955
  0
LINE
  5
455
100
AcDbEntity
  8
KONSTRUKTIONSELEMENTE
100
AcDbLine
 62
7
  6
CONTINUOUS
 10
310.6050533786
 20
208.0043800955
 11
310.6050533786
 21
207.8043800955
  0
LINE
  5
456
100
AcDbEntity
  8
KONSTRUKTIONSELEMENTE
100
AcDbLine
 62
7
  6
CONTINUOUS
 10
310.7624459184
 20
208.0043800955
 11
310.7624459184
 21
207.8043800955
  0
LINE
  5
457
100
AcDbEntity
  8
KONSTRUKTIONSELEMENTE
100
AcDbLine
 62
7
  6
CONTINUOUS
 10
310.924707323
 20
172.8043800955
 11
310.924707323
 21
168.3043800955
  0
LINE
  5
458
100
AcDbEntity
  8
KONSTRUKTIONSELEMENTE
100
AcDbLine
 62
7
  6
CONTINUOUS
 10
311.0267650294
 20
149.0043800955
 11
311.0267650294
 21
172.8043800955
  0
LINE
  5
459
100
AcDbEntity
  8
KONSTRUKTIONSELEMENTE
100
AcDbLine
 62
7
  6
CONTINUOUS
 10
311.3920160776
 20
208.0043800955
 11
311.3920160776
 21
207.8043800955
  0
LINE
  5
45A
100
AcDbEntity
  8
KONSTRUKTIONSELEMENTE
100
AcDbLine
 62
7
  6
CONTINUOUS
 10
311.5267650294
 20
203.8043800955
 11
311.5267650294
 21
196.8043800955
  0
LINE
  5
45B
100
AcDbEntity
  8
KONSTRUKTIONSELEMENTE
100
AcDbLine
 62
7
  6
CONTINUOUS
 10
311.5494086924
 20
208.0043800955
 11
311.5494086924
 21
207.8043800955
  0
LINE
  5
45C
100
AcDbEntity
  8
0
100
AcDbLine
 62
7
  6
CONTINUOUS
 10
312.0267650294
 20
248.8042745402
 11
312.0267650294
 21
208.0043800955
  0
LINE
  5
45D
100
AcDbEntity
  8
KONSTRUKTIONSELEMENTE
100
AcDbLine
 62
7
  6
CONTINUOUS
 10
312.0985617991
 20
206.7325833258
 11
312.0985617991
 21
203.8043800955
  0
LINE
  5
45E
100
AcDbEntity
  8
KONSTRUKTIONSELEMENTE
100
AcDbLine
 62
7
  6
CONTINUOUS
 10
312.7145600777
 20
208.0043800955
 11
312.7145600777
 21
207.8043800955
  0
LINE
  5
45F
100
AcDbEntity
  8
KONSTRUKTIONSELEMENTE
100
AcDbLine
 62
7
  6
CONTINUOUS
 10
312.7386847772
 20
208.0043800955
 11
312.7386847772
 21
207.8043800955
  0
LINE
  5
460
100
AcDbEntity
  8
KONSTRUKTIONSELEMENTE
100
AcDbLine
 62
7
  6
CONTINUOUS
 10
312.8738031027
 20
208.0043800955
 11
312.8738031027
 21
207.8043800955
  0
LINE
  5
461
100
AcDbEntity
  8
KONSTRUKTIONSELEMENTE
100
AcDbLine
 62
7
  6
CONTINUOUS
 10
313.7055779642
 20
208.0043800955
 11
313.7055779642
 21
207.8043800955
  0
LINE
  5
462
100
AcDbEntity
  8
KONSTRUKTIONSELEMENTE
100
AcDbLine
 62
7
  6
CONTINUOUS
 10
315.4994806183
 20
208.0043800955
 11
315.4994806183
 21
207.8043800955
  0
LINE
  5
463
100
AcDbEntity
  8
KONSTRUKTIONSELEMENTE
100
AcDbLine
 62
7
  6
CONTINUOUS
 10
334.0267361937
 20
196.8043800955
 11
304.0267938652
 21
196.8043800955
  0
LINE
  5
464
100
AcDbEntity
  8
KONSTRUKTIONSELEMENTE
100
AcDbLine
 62
7
  6
CONTINUOUS
 10
316.3379446868
 20
208.0043800955
 11
316.3379446868
 21
207.8043800955
  0
LINE
  5
465
100
AcDbEntity
  8
KONSTRUKTIONSELEMENTE
100
AcDbLine
 62
7
  6
CONTINUOUS
 10
316.5774784513
 20
208.0043800955
 11
316.5774784513
 21
207.8043800955
  0
LINE
  5
466
100
AcDbEntity
  8
KONSTRUKTIONSELEMENTE
100
AcDbLine
 62
7
  6
CONTINUOUS
 10
316.6593141438
 20
208.0043800955
 11
316.6593141438
 21
207.8043800955
  0
LINE
  5
467
100
AcDbEntity
  8
KONSTRUKTIONSELEMENTE
100
AcDbLine
 62
7
  6
CONTINUOUS
 10
316.7640578006
 20
208.0043800955
 11
316.7640578006
 21
207.8043800955
  0
LINE
  5
468
100
AcDbEntity
  8
KONSTRUKTIONSELEMENTE
100
AcDbLine
 62
7
  6
CONTINUOUS
 10
316.8438667579
 20
208.0043800955
 11
316.8438667579
 21
207.8043800955
  0
LINE
  5
469
100
AcDbEntity
  8
KONSTRUKTIONSELEMENTE
100
AcDbLine
 62
7
  6
CONTINUOUS
 10
316.9785490287
 20
208.0043800955
 11
316.9785490287
 21
207.8043800955
  0
LINE
  5
46A
100
AcDbEntity
  8
KONSTRUKTIONSELEMENTE
100
AcDbLine
 62
7
  6
CONTINUOUS
 10
317.1431708884
 20
208.0043800955
 11
317.1431708884
 21
207.8043800955
  0
LINE
  5
46B
100
AcDbEntity
  8
KONSTRUKTIONSELEMENTE
100
AcDbLine
 62
7
  6
CONTINUOUS
 10
317.3926066156
 20
208.0043800955
 11
317.3926066156
 21
207.8043800955
  0
LINE
  5
46C
100
AcDbEntity
  8
KONSTRUKTIONSELEMENTE
100
AcDbLine
 62
7
  6
CONTINUOUS
 10
317.6595136224
 20
208.0043800955
 11
317.6595136224
 21
207.8043800955
  0
LINE
  5
46D
100
AcDbEntity
  8
KONSTRUKTIONSELEMENTE
100
AcDbLine
 62
7
  6
CONTINUOUS
 10
317.901485945
 20
208.0043800955
 11
317.901485945
 21
207.8043800955
  0
LINE
  5
46E
100
AcDbEntity
  8
KONSTRUKTIONSELEMENTE
100
AcDbLine
 62
7
  6
CONTINUOUS
 10
318.0761156785
 20
208.0043800955
 11
318.0761156785
 21
207.8043800955
  0
LINE
  5
46F
100
AcDbEntity
  8
KONSTRUKTIONSELEMENTE
100
AcDbLine
 62
7
  6
CONTINUOUS
 10
318.1659334835
 20
208.0043800955
 11
318.1659334835
 21
207.8043800955
  0
LINE
  5
470
100
AcDbEntity
  8
KONSTRUKTIONSELEMENTE
100
AcDbLine
 62
7
  6
CONTINUOUS
 10
318.2008779794
 20
208.0043800955
 11
318.2008779794
 21
207.8043800955
  0
LINE
  5
471
100
AcDbEntity
  8
KONSTRUKTIONSELEMENTE
100
AcDbLine
 62
7
  6
CONTINUOUS
 10
318.2058819202
 20
208.0043800955
 11
318.2058819202
 21
207.8043800955
  0
LINE
  5
472
100
AcDbEntity
  8
KONSTRUKTIONSELEMENTE
100
AcDbLine
 62
7
  6
CONTINUOUS
 10
318.7749242481
 20
208.0043800955
 11
318.7749242481
 21
207.8043800955
  0
LINE
  5
473
100
AcDbEntity
  8
KONSTRUKTIONSELEMENTE
100
AcDbLine
 62
7
  6
CONTINUOUS
 10
318.9910764852
 20
208.0043800955
 11
318.9910764852
 21
207.8043800955
  0
LINE
  5
474
100
AcDbEntity
  8
KONSTRUKTIONSELEMENTE
100
AcDbLine
 62
7
  6
CONTINUOUS
 10
334.0267361812
 20
197.8043800955
 11
326.5267650294
 21
197.8043800955
  0
LINE
  5
475
100
AcDbEntity
  8
KONSTRUKTIONSELEMENTE
100
AcDbLine
 62
7
  6
CONTINUOUS
 10
311.5267650294
 20
197.8043800955
 11
304.026793865
 21
197.8043800955
  0
LINE
  5
476
100
AcDbEntity
  8
KONSTRUKTIONSELEMENTE
100
AcDbLine
 62
7
  6
CONTINUOUS
 10
332.88317149
 20
198.3043800955
 11
326.5267650294
 21
198.3043800955
  0
LINE
  5
477
100
AcDbEntity
  8
KONSTRUKTIONSELEMENTE
100
AcDbLine
 62
7
  6
CONTINUOUS
 10
311.5267650294
 20
198.3043800955
 11
305.1703585689
 21
198.3043800955
  0
LINE
  5
478
100
AcDbEntity
  8
KONSTRUKTIONSELEMENTE
100
AcDbLine
 62
7
  6
CONTINUOUS
 10
319.5361954833
 20
208.0043800955
 11
319.5361954833
 21
207.8043800955
  0
LINE
  5
479
100
AcDbEntity
  8
KONSTRUKTIONSELEMENTE
100
AcDbLine
 62
7
  6
CONTINUOUS
 10
319.5492563588
 20
208.0043800955
 11
319.5492563588
 21
207.8043800955
  0
LINE
  5
47A
100
AcDbEntity
  8
KONSTRUKTIONSELEMENTE
100
AcDbLine
 62
7
  6
CONTINUOUS
 10
319.637865244
 20
208.0043800955
 11
319.637865244
 21
207.8043800955
  0
LINE
  5
47B
100
AcDbEntity
  8
KONSTRUKTIONSELEMENTE
100
AcDbLine
 62
7
  6
CONTINUOUS
 10
319.8217941969
 20
208.0043800955
 11
319.8217941969
 21
207.8043800955
  0
LINE
  5
47C
100
AcDbEntity
  8
KONSTRUKTIONSELEMENTE
100
AcDbLine
 62
7
  6
CONTINUOUS
 10
320.0254971679
 20
208.0043800955
 11
320.0254971679
 21
207.8043800955
  0
LINE
  5
47D
100
AcDbEntity
  8
KONSTRUKTIONSELEMENTE
100
AcDbLine
 62
7
  6
CONTINUOUS
 10
320.1963671964
 20
208.0043800955
 11
320.1963671964
 21
207.8043800955
  0
LINE
  5
47E
100
AcDbEntity
  8
KONSTRUKTIONSELEMENTE
100
AcDbLine
 62
7
  6
CONTINUOUS
 10
320.4198422299
 20
208.0043800955
 11
320.4198422299
 21
207.8043800955
  0
LINE
  5
47F
100
AcDbEntity
  8
KONSTRUKTIONSELEMENTE
100
AcDbLine
 62
7
  6
CONTINUOUS
 10
320.6630893259
 20
208.0043800955
 11
320.6630893259
 21
207.8043800955
  0
LINE
  5
480
100
AcDbEntity
  8
KONSTRUKTIONSELEMENTE
100
AcDbLine
 62
7
  6
CONTINUOUS
 10
320.8307864613
 20
208.0043800955
 11
320.8307864613
 21
207.8043800955
  0
LINE
  5
481
100
AcDbEntity
  8
KONSTRUKTIONSELEMENTE
100
AcDbLine
 62
7
  6
CONTINUOUS
 10
320.9656506567
 20
208.0043800955
 11
320.9656506567
 21
207.8043800955
  0
LINE
  5
482
100
AcDbEntity
  8
KONSTRUKTIONSELEMENTE
100
AcDbLine
 62
7
  6
CONTINUOUS
 10
321.0775718571
 20
208.0043800955
 11
321.0775718571
 21
207.8043800955
  0
LINE
  5
483
100
AcDbEntity
  8
KONSTRUKTIONSELEMENTE
100
AcDbLine
 62
7
  6
CONTINUOUS
 10
321.14677407
 20
208.0043800955
 11
321.14677407
 21
207.8043800955
  0
LINE
  5
484
100
AcDbEntity
  8
KONSTRUKTIONSELEMENTE
100
AcDbLine
 62
7
  6
CONTINUOUS
 10
321.1732573091
 20
208.0043800955
 11
321.1732573091
 21
207.8043800955
  0
LINE
  5
485
100
AcDbEntity
  8
KONSTRUKTIONSELEMENTE
100
AcDbLine
 62
7
  6
CONTINUOUS
 10
326.5267650294
 20
203.8043800955
 11
311.5267650294
 21
203.8043800955
  0
LINE
  5
486
100
AcDbEntity
  8
KONSTRUKTIONSELEMENTE
100
AcDbLine
 62
7
  6
CONTINUOUS
 10
325.9549682597
 20
206.7325833258
 11
325.9549682597
 21
203.8043800955
  0
LINE
  5
487
100
AcDbEntity
  8
RUNDUNGEN
100
AcDbLine
 62
7
  6
CONTINUOUS
 10
326.0267650294
 20
248.8042745402
 11
326.0267650294
 21
207.8043800955
  0
LINE
  5
488
100
AcDbEntity
  8
KONSTRUKTIONSELEMENTE
100
AcDbLine
 62
7
  6
CONTINUOUS
 10
326.5267650294
 20
203.8043800955
 11
326.5267650294
 21
196.8043800955
  0
LINE
  5
489
100
AcDbEntity
  8
KONSTRUKTIONSELEMENTE
100
AcDbLine
 62
7
  6
CONTINUOUS
 10
331.0266244203
 20
207.8043800955
 11
307.0269056386
 21
207.8043800955
  0
LINE
  5
48A
100
AcDbEntity
  8
KONSTRUKTIONSELEMENTE
100
AcDbLine
 62
7
  6
CONTINUOUS
 10
321.1732573091
 20
208.0043800955
 11
319.5361954833
 21
208.0043800955
  0
LINE
  5
48B
100
AcDbEntity
  8
KONSTRUKTIONSELEMENTE
100
AcDbLine
 62
7
  6
CONTINUOUS
 10
318.9910764852
 20
208.0043800955
 11
318.7749242481
 21
208.0043800955
  0
LINE
  5
48C
100
AcDbEntity
  8
KONSTRUKTIONSELEMENTE
100
AcDbLine
 62
7
  6
CONTINUOUS
 10
318.2058819202
 20
208.0043800955
 11
309.0808769656
 21
208.0043800955
  0
LINE
  5
48D
100
AcDbEntity
  8
KONSTRUKTIONSELEMENTE
100
AcDbLine
 62
7
  6
CONTINUOUS
 10
327.0267650294
 20
149.0043800955
 11
327.0267650294
 21
172.8043800955
  0
LINE
  5
48E
100
AcDbEntity
  8
KONSTRUKTIONSELEMENTE
100
AcDbLine
 62
7
  6
CONTINUOUS
 10
327.1288227358
 20
172.8043800955
 11
327.1288227358
 21
168.3043800955
  0
LINE
  5
48F
100
AcDbEntity
  8
KONSTRUKTIONSELEMENTE
100
AcDbLine
 62
7
  6
CONTINUOUS
 10
328.0267650294
 20
172.8043800955
 11
328.0267650294
 21
168.3043800955
  0
LINE
  5
490
100
AcDbEntity
  8
KONSTRUKTIONSELEMENTE
100
AcDbLine
 62
7
  6
CONTINUOUS
 10
330.0267650294
 20
197.8043800955
 11
330.0267650294
 21
198.3043800955
  0
LINE
  5
491
100
AcDbEntity
  8
KONSTRUKTIONSELEMENTE
100
AcDbLine
 62
7
  6
CONTINUOUS
 10
332.88317149
 20
206.7325833258
 11
332.88317149
 21
198.3043800955
  0
LINE
  5
492
100
AcDbEntity
  8
KONSTRUKTIONSELEMENTE
100
AcDbLine
 62
7
  6
CONTINUOUS
 10
334.0267650294
 20
196.8043800955
 11
334.0267650294
 21
197.8043800955
  0
LINE
  5
493
100
AcDbEntity
  8
KONSTRUKTIONSELEMENTE
100
AcDbLine
 62
7
  6
CONTINUOUS
 10
331.0267650294
 20
207.8043800955
 11
332.88317149
 21
206.7325833258
  0
LINE
  5
494
100
AcDbEntity
  8
KONSTRUKTIONSELEMENTE
100
AcDbLine
 62
7
  6
CONTINUOUS
 10
336.0267650294
 20
192.8043800953
 11
336.0267650294
 21
173.3043800955
  0
LINE
  5
495
100
AcDbEntity
  8
KONSTRUKTIONSELEMENTE
100
AcDbLine
 62
7
  6
CONTINUOUS
 10
336.5267650294
 20
178.0443798666
 11
336.5267650294
 21
185.0443798666
  0
LINE
  5
496
100
AcDbEntity
  8
KONSTRUKTIONSELEMENTE
100
AcDbLine
 62
7
  6
CONTINUOUS
 10
325.8267650294
 20
147.8043800955
 11
327.0267650294
 21
149.0043800955
  0
LINE
  5
497
100
AcDbEntity
  8
KONSTRUKTIONSELEMENTE
100
AcDbLine
 62
7
  6
CONTINUOUS
 10
317.0267650294
 20
253.8043800955
 11
321.0267650294
 21
253.8043800955
  0
LINE
  5
498
100
AcDbEntity
  8
KONSTRUKTIONSELEMENTE
100
AcDbLine
 62
7
  6
CONTINUOUS
 10
67.5189928981
 20
65.7187852825
 11
67.5189928981
 21
95.7187852825
  0
LINE
  5
499
100
AcDbEntity
  8
KONSTRUKTIONSELEMENTE
100
AcDbLine
 62
7
  6
CONTINUOUS
 10
75.0189928981
 20
73.2187852825
 11
75.0189928981
 21
88.2187852825
  0
LINE
  5
49A
100
AcDbEntity
  8
KONSTRUKTIONSELEMENTE
100
AcDbLine
 62
7
  6
CONTINUOUS
 10
76.0189928981
 20
88.2187852825
 11
76.0189928981
 21
73.2187852825
  0
LINE
  5
49B
100
AcDbEntity
  8
KONSTRUKTIONSELEMENTE
100
AcDbLine
 62
7
  6
CONTINUOUS
 10
77.5189928981
 20
73.7905820522
 11
77.5189928981
 21
87.6469885128
  0
LINE
  5
49C
100
AcDbEntity
  8
KONSTRUKTIONSELEMENTE
100
AcDbLine
 62
7
  6
CONTINUOUS
 10
78.6289935084
 20
63.2187852825
 11
78.6289935084
 21
63.7187852825
  0
LINE
  5
49D
100
AcDbEntity
  8
KONSTRUKTIONSELEMENTE
100
AcDbLine
 62
7
  6
CONTINUOUS
 10
81.0789942713
 20
63.2187852825
 11
81.0789942713
 21
63.7187852825
  0
LINE
  5
49E
100
AcDbEntity
  8
KONSTRUKTIONSELEMENTE
100
AcDbLine
 62
7
  6
CONTINUOUS
 10
81.5894083949
 20
63.2187852825
 11
81.5894083949
 21
63.7187852825
  0
LINE
  5
49F
100
AcDbEntity
  8
KONSTRUKTIONSELEMENTE
100
AcDbLine
 62
7
  6
CONTINUOUS
 10
81.9977412196
 20
63.2187852825
 11
81.9977412196
 21
63.7187852825
  0
LINE
  5
4A0
100
AcDbEntity
  8
KONSTRUKTIONSELEMENTE
100
AcDbLine
 62
7
  6
CONTINUOUS
 10
82.3039927455
 20
63.2187852825
 11
82.3039927455
 21
63.7187852825
  0
LINE
  5
4A1
100
AcDbEntity
  8
KONSTRUKTIONSELEMENTE
100
AcDbLine
 62
7
  6
CONTINUOUS
 10
82.406077859
 20
63.2187852825
 11
82.406077859
 21
63.7187852825
  0
LINE
  5
4A2
100
AcDbEntity
  8
KONSTRUKTIONSELEMENTE
100
AcDbLine
 62
7
  6
CONTINUOUS
 10
82.5081591578
 20
63.2187852825
 11
82.5081591578
 21
63.7187852825
  0
LINE
  5
4A3
100
AcDbEntity
  8
KONSTRUKTIONSELEMENTE
100
AcDbLine
 62
7
  6
CONTINUOUS
 10
83.3248248072
 20
63.2187852825
 11
83.3248248072
 21
63.7187852825
  0
LINE
  5
4A4
100
AcDbEntity
  8
KONSTRUKTIONSELEMENTE
100
AcDbLine
 62
7
  6
CONTINUOUS
 10
84.5189928981
 20
77.8320339366
 11
84.5189928981
 21
83.6055366285
  0
LINE
  5
4A5
100
AcDbEntity
  8
KONSTRUKTIONSELEMENTE
100
AcDbLine
 62
7
  6
CONTINUOUS
 10
82.9913098654
 20
86.3439636608
 11
82.9902085017
 21
86.1289982762
  0
LINE
  5
4A6
100
AcDbEntity
  8
KONSTRUKTIONSELEMENTE
100
AcDbLine
 62
7
  6
CONTINUOUS
 10
82.6821418754
 20
86.1430416146
 11
82.7085483491
 21
86.2851816093
  0
LINE
  5
4A7
100
AcDbEntity
  8
KONSTRUKTIONSELEMENTE
100
AcDbLine
 62
7
  6
CONTINUOUS
 10
85.5168339726
 20
87.0321324029
 11
85.5342351518
 21
86.724237174
  0
LINE
  5
4A8
100
AcDbEntity
  8
KONSTRUKTIONSELEMENTE
100
AcDbLine
 62
7
  6
CONTINUOUS
 10
87.5167872972
 20
88.2013574777
 11
87.5278740054
 21
87.9320183166
  0
LINE
  5
4A9
100
AcDbEntity
  8
KONSTRUKTIONSELEMENTE
100
AcDbLine
 62
7
  6
CONTINUOUS
 10
91.0831405542
 20
87.5439853971
 11
91.0808668761
 21
89.9820343906
  0
LINE
  5
4AA
100
AcDbEntity
  8
KONSTRUKTIONSELEMENTE
100
AcDbLine
 62
7
  6
CONTINUOUS
 10
85.7748255702
 20
63.2187852825
 11
85.7748255702
 21
63.7187852825
  0
LINE
  5
4AB
100
AcDbEntity
  8
KONSTRUKTIONSELEMENTE
100
AcDbLine
 62
7
  6
CONTINUOUS
 10
86.2852435084
 20
63.2187852825
 11
86.2852435084
 21
63.7187852825
  0
LINE
  5
4AC
100
AcDbEntity
  8
KONSTRUKTIONSELEMENTE
100
AcDbLine
 62
7
  6
CONTINUOUS
 10
86.6935763331
 20
63.2187852825
 11
86.6935763331
 21
63.7187852825
  0
LINE
  5
4AD
100
AcDbEntity
  8
KONSTRUKTIONSELEMENTE
100
AcDbLine
 62
7
  6
CONTINUOUS
 10
86.999827859
 20
63.2187852825
 11
86.999827859
 21
63.7187852825
  0
LINE
  5
4AE
100
AcDbEntity
  8
KONSTRUKTIONSELEMENTE
100
AcDbLine
 62
7
  6
CONTINUOUS
 10
87.1019091578
 20
63.2187852825
 11
87.1019091578
 21
63.7187852825
  0
LINE
  5
4AF
100
AcDbEntity
  8
KONSTRUKTIONSELEMENTE
100
AcDbLine
 62
7
  6
CONTINUOUS
 10
87.9185748072
 20
63.2187852825
 11
87.9185748072
 21
63.7187852825
  0
LINE
  5
4B0
100
AcDbEntity
  8
KONSTRUKTIONSELEMENTE
100
AcDbLine
 62
7
  6
CONTINUOUS
 10
88.0206599208
 20
63.2187852825
 11
88.0206599208
 21
63.7187852825
  0
LINE
  5
4B1
100
AcDbEntity
  8
KONSTRUKTIONSELEMENTE
100
AcDbLine
 62
7
  6
CONTINUOUS
 10
88.2248263331
 20
63.2187852825
 11
88.2248263331
 21
63.7187852825
  0
LINE
  5
4B2
100
AcDbEntity
  8
KONSTRUKTIONSELEMENTE
100
AcDbLine
 62
7
  6
CONTINUOUS
 10
88.6331591578
 20
63.2187852825
 11
88.6331591578
 21
63.7187852825
  0
LINE
  5
4B3
100
AcDbEntity
  8
KONSTRUKTIONSELEMENTE
100
AcDbLine
 62
7
  6
CONTINUOUS
 10
89.0414919825
 20
63.2187852825
 11
89.0414919825
 21
63.7187852825
  0
LINE
  5
4B4
100
AcDbEntity
  8
KONSTRUKTIONSELEMENTE
100
AcDbLine
 62
7
  6
CONTINUOUS
 10
89.5519099208
 20
63.2187852825
 11
89.5519099208
 21
63.7187852825
  0
LINE
  5
4B5
100
AcDbEntity
  8
KONSTRUKTIONSELEMENTE
100
AcDbLine
 62
7
  6
CONTINUOUS
 10
90.4706587764
 20
63.2187852825
 11
90.4706587764
 21
63.7187852825
  0
LINE
  5
4B6
100
AcDbEntity
  8
KONSTRUKTIONSELEMENTE
100
AcDbLine
 62
7
  6
CONTINUOUS
 10
90.9810767146
 20
63.2187852825
 11
90.9810767146
 21
63.7187852825
  0
LINE
  5
4B7
100
AcDbEntity
  8
KONSTRUKTIONSELEMENTE
100
AcDbLine
 62
7
  6
CONTINUOUS
 10
87.2398886686
 20
87.9578790398
 11
87.2517481093
 21
88.1676554548
  0
LINE
  5
4B8
100
AcDbEntity
  8
KONSTRUKTIONSELEMENTE
100
AcDbLine
 62
7
  6
CONTINUOUS
 10
85.2074739452
 20
86.7960435932
 11
85.2331466388
 21
86.9762232992
  0
LINE
  5
4B9
100
AcDbEntity
  8
KONSTRUKTIONSELEMENTE
100
AcDbLine
 62
7
  6
CONTINUOUS
 10
87.5278740054
 20
87.9320183166
 11
87.4582633283
 21
87.6315910524
  0
LINE
  5
4BA
100
AcDbEntity
  8
KONSTRUKTIONSELEMENTE
100
AcDbLine
 62
7
  6
CONTINUOUS
 10
90.2452332489
 20
87.7579253337
 11
90.9874030349
 21
90.6646733463
  0
LINE
  5
4BB
100
AcDbEntity
  8
KONSTRUKTIONSELEMENTE
100
AcDbLine
 62
7
  6
CONTINUOUS
 10
91.0808668761
 20
89.9820343906
 11
90.4966055364
 21
87.6937433283
  0
LINE
  5
4BC
100
AcDbEntity
  8
KONSTRUKTIONSELEMENTE
100
AcDbLine
 62
7
  6
CONTINUOUS
 10
85.5342351518
 20
86.724237174
 11
85.4741890392
 21
86.5178253502
  0
LINE
  5
4BD
100
AcDbEntity
  8
KONSTRUKTIONSELEMENTE
100
AcDbLine
 62
7
  6
CONTINUOUS
 10
87.1647344226
 20
87.7921212256
 11
87.2398886686
 21
87.9578790398
  0
LINE
  5
4BE
100
AcDbEntity
  8
KONSTRUKTIONSELEMENTE
100
AcDbLine
 62
7
  6
CONTINUOUS
 10
82.7085483491
 20
86.2851816093
 11
82.6579382032
 21
86.4308324882
  0
LINE
  5
4BF
100
AcDbEntity
  8
KONSTRUKTIONSELEMENTE
100
AcDbLine
 62
7
  6
CONTINUOUS
 10
85.2331466388
 20
86.9762232992
 11
85.1857223135
 21
87.18091253
  0
LINE
  5
4C0
100
AcDbEntity
  8
KONSTRUKTIONSELEMENTE
100
AcDbLine
 62
7
  6
CONTINUOUS
 10
87.2517481093
 20
88.1676554548
 11
87.2003122668
 21
88.4214503344
  0
LINE
  5
4C1
100
AcDbEntity
  8
KONSTRUKTIONSELEMENTE
100
AcDbLine
 62
7
  6
CONTINUOUS
 10
96.5197365517
 20
80.7544738267
 11
96.5152963218
 21
80.9706260638
  0
LINE
  5
4C2
100
AcDbEntity
  8
KONSTRUKTIONSELEMENTE
100
AcDbLine
 62
7
  6
CONTINUOUS
 10
96.8343779488
 20
80.9771806838
 11
96.8388181787
 21
80.7610284467
  0
LINE
  5
4C3
100
AcDbEntity
  8
KONSTRUKTIONSELEMENTE
100
AcDbLine
 62
7
  6
CONTINUOUS
 10
91.3894095393
 20
63.2187852825
 11
91.3894095393
 21
63.7187852825
  0
LINE
  5
4C4
100
AcDbEntity
  8
KONSTRUKTIONSELEMENTE
100
AcDbLine
 62
7
  6
CONTINUOUS
 10
91.797742364
 20
63.2187852825
 11
91.797742364
 21
63.7187852825
  0
LINE
  5
4C5
100
AcDbEntity
  8
KONSTRUKTIONSELEMENTE
100
AcDbLine
 62
7
  6
CONTINUOUS
 10
91.8998255702
 20
63.2187852825
 11
91.8998255702
 21
63.7187852825
  0
LINE
  5
4C6
100
AcDbEntity
  8
KONSTRUKTIONSELEMENTE
100
AcDbLine
 62
7
  6
CONTINUOUS
 10
94.518992898
 20
83.6055366285
 11
94.518992898
 21
77.8320339366
  0
LINE
  5
4C7
100
AcDbEntity
  8
KONSTRUKTIONSELEMENTE
100
AcDbLine
 62
7
  6
CONTINUOUS
 10
91.3644614661
 20
90.5684003381
 11
91.329676633
 21
87.8104258303
  0
LINE
  5
4C8
100
AcDbEntity
  8
KONSTRUKTIONSELEMENTE
100
AcDbLine
 62
7
  6
CONTINUOUS
 10
96.3841675928
 20
82.0860366895
 11
96.3960943669
 21
82.3529436963
  0
LINE
  5
4C9
100
AcDbEntity
  8
KONSTRUKTIONSELEMENTE
100
AcDbLine
 62
7
  6
CONTINUOUS
 10
95.1412442356
 20
86.8148132423
 11
95.1546371714
 21
86.9684241197
  0
LINE
  5
4CA
100
AcDbEntity
  8
KONSTRUKTIONSELEMENTE
100
AcDbLine
 62
7
  6
CONTINUOUS
 10
95.4163230916
 20
87.0847648719
 11
95.3962329198
 21
86.85434918
  0
LINE
  5
4CB
100
AcDbEntity
  8
KONSTRUKTIONSELEMENTE
100
AcDbLine
 62
7
  6
CONTINUOUS
 10
96.7175417205
 20
82.3728744452
 11
96.6971694808
 21
82.1483734032
  0
LINE
  5
4CC
100
AcDbEntity
  8
KONSTRUKTIONSELEMENTE
100
AcDbLine
 62
7
  6
CONTINUOUS
 10
93.6918164142
 20
86.6766732611
 11
93.7521603276
 21
86.9566256053
  0
LINE
  5
4CD
100
AcDbEntity
  8
KONSTRUKTIONSELEMENTE
100
AcDbLine
 62
7
  6
CONTINUOUS
 10
96.0670800792
 20
87.9541559833
 11
96.0067361799
 21
87.6742036565
  0
LINE
  5
4CE
100
AcDbEntity
  8
KONSTRUKTIONSELEMENTE
100
AcDbLine
 62
7
  6
CONTINUOUS
 10
92.0048392612
 20
87.3086512955
 11
92.5891006009
 21
89.5969423579
  0
LINE
  5
4CF
100
AcDbEntity
  8
KONSTRUKTIONSELEMENTE
100
AcDbLine
 62
7
  6
CONTINUOUS
 10
92.9983813347
 20
90.1512173027
 11
92.2562115487
 21
87.2444692901
  0
LINE
  5
4D0
100
AcDbEntity
  8
KONSTRUKTIONSELEMENTE
100
AcDbLine
 62
7
  6
CONTINUOUS
 10
94.00714904
 20
86.9961615776
 11
93.9535023485
 21
86.7930140307
  0
LINE
  5
4D1
100
AcDbEntity
  8
KONSTRUKTIONSELEMENTE
100
AcDbLine
 62
7
  6
CONTINUOUS
 10
95.7517467277
 20
87.6346683429
 11
95.805394159
 21
87.8378152311
  0
LINE
  5
4D2
100
AcDbEntity
  8
KONSTRUKTIONSELEMENTE
100
AcDbLine
 62
7
  6
CONTINUOUS
 10
93.7521603276
 20
86.9566256053
 11
93.8863144739
 21
87.2588464219
  0
LINE
  5
4D3
100
AcDbEntity
  8
KONSTRUKTIONSELEMENTE
100
AcDbLine
 62
7
  6
CONTINUOUS
 10
93.5028656865
 20
88.8405973964
 11
93.7408003011
 21
89.2924145175
  0
LINE
  5
4D4
100
AcDbEntity
  8
KONSTRUKTIONSELEMENTE
100
AcDbLine
 62
7
  6
CONTINUOUS
 10
91.329676633
 20
87.8104258303
 11
92.6213229035
 21
90.2474903109
  0
LINE
  5
4D5
100
AcDbEntity
  8
KONSTRUKTIONSELEMENTE
100
AcDbLine
 62
7
  6
CONTINUOUS
 10
92.5891006009
 20
89.5969423579
 11
91.4183042434
 21
87.4584092267
  0
LINE
  5
4D6
100
AcDbEntity
  8
KONSTRUKTIONSELEMENTE
100
AcDbLine
 62
7
  6
CONTINUOUS
 10
85.1087041782
 20
86.640373483
 11
85.2074739452
 21
86.7960435932
  0
LINE
  5
4D7
100
AcDbEntity
  8
KONSTRUKTIONSELEMENTE
100
AcDbLine
 62
7
  6
CONTINUOUS
 10
87.4582633283
 20
87.6315910524
 11
87.3427603836
 21
87.4502892024
  0
LINE
  5
4D8
100
AcDbEntity
  8
KONSTRUKTIONSELEMENTE
100
AcDbLine
 62
7
  6
CONTINUOUS
 10
85.4741890392
 20
86.5178253502
 11
85.3410460704
 21
86.3359232457
  0
LINE
  5
4D9
100
AcDbEntity
  8
KONSTRUKTIONSELEMENTE
100
AcDbLine
 62
7
  6
CONTINUOUS
 10
81.0125299747
 20
86.0399723477
 11
81.6330686821
 21
86.8717472092
  0
LINE
  5
4DA
100
AcDbEntity
  8
KONSTRUKTIONSELEMENTE
100
AcDbLine
 62
7
  6
CONTINUOUS
 10
81.9147287607
 20
86.715563777
 11
81.4234689753
 21
86.057075378
  0
LINE
  5
4DB
100
AcDbEntity
  8
KONSTRUKTIONSELEMENTE
100
AcDbLine
 62
7
  6
CONTINUOUS
 10
82.19088209
 20
85.4845532156
 11
82.6821418754
 21
86.1430416146
  0
LINE
  5
4DC
100
AcDbEntity
  8
KONSTRUKTIONSELEMENTE
100
AcDbLine
 62
7
  6
CONTINUOUS
 10
82.9373955174
 20
85.8447182372
 11
82.4978472786
 21
85.2555443935
  0
LINE
  5
4DD
100
AcDbEntity
  8
KONSTRUKTIONSELEMENTE
100
AcDbLine
 62
7
  6
CONTINUOUS
 10
84.3996105498
 20
85.5630465907
 11
84.2186200441
 21
85.3204455233
  0
LINE
  5
4DE
100
AcDbEntity
  8
KONSTRUKTIONSELEMENTE
100
AcDbLine
 62
7
  6
CONTINUOUS
 10
83.5722255818
 20
84.454013409
 11
83.417090905
 21
84.2460696936
  0
LINE
  5
4DF
100
AcDbEntity
  8
KONSTRUKTIONSELEMENTE
100
AcDbLine
 62
7
  6
CONTINUOUS
 10
85.1857223135
 20
87.18091253
 11
85.0652011388
 21
87.4101114712
  0
LINE
  5
4E0
100
AcDbEntity
  8
KONSTRUKTIONSELEMENTE
100
AcDbLine
 62
7
  6
CONTINUOUS
 10
82.8642337448
 20
86.6006080666
 11
82.9913098654
 21
86.3439636608
  0
LINE
  5
4E1
100
AcDbEntity
  8
KONSTRUKTIONSELEMENTE
100
AcDbLine
 62
7
  6
CONTINUOUS
 10
86.1955899311
 20
86.9399469181
 11
85.1171215625
 21
89.7393943596
  0
LINE
  5
4E2
100
AcDbEntity
  8
KONSTRUKTIONSELEMENTE
100
AcDbLine
 62
7
  6
CONTINUOUS
 10
85.4968914143
 20
89.4752828604
 11
86.3000061736
 21
87.3905879136
  0
LINE
  5
4E3
100
AcDbEntity
  8
KONSTRUKTIONSELEMENTE
100
AcDbLine
 62
7
  6
CONTINUOUS
 10
87.2003122668
 20
88.4214503344
 11
86.8561202432
 21
89.3148909842
  0
LINE
  5
4E4
100
AcDbEntity
  8
KONSTRUKTIONSELEMENTE
100
AcDbLine
 62
7
  6
CONTINUOUS
 10
87.0982132984
 20
89.4081557115
 11
87.442405322
 21
88.5147150617
  0
LINE
  5
4E5
100
AcDbEntity
  8
KONSTRUKTIONSELEMENTE
100
AcDbLine
 62
7
  6
CONTINUOUS
 10
85.430685976
 20
87.2875633695
 11
85.5168339726
 21
87.0321324029
  0
LINE
  5
4E6
100
AcDbEntity
  8
KONSTRUKTIONSELEMENTE
100
AcDbLine
 62
7
  6
CONTINUOUS
 10
87.442405322
 20
88.5147150617
 11
87.5167872972
 21
88.2013574777
  0
LINE
  5
4E7
100
AcDbEntity
  8
KONSTRUKTIONSELEMENTE
100
AcDbLine
 62
7
  6
CONTINUOUS
 10
93.7388399828
 20
86.3917205727
 11
93.6918164142
 21
86.6766732611
  0
LINE
  5
4E8
100
AcDbEntity
  8
KONSTRUKTIONSELEMENTE
100
AcDbLine
 62
7
  6
CONTINUOUS
 10
96.4507054959
 20
79.325708082
 11
96.4211309101
 21
79.5491831155
  0
LINE
  5
4E9
100
AcDbEntity
  8
KONSTRUKTIONSELEMENTE
100
AcDbLine
 62
7
  6
CONTINUOUS
 10
93.9535023485
 20
86.7930140307
 11
93.9736659041
 21
86.6121349736
  0
LINE
  5
4EA
100
AcDbEntity
  8
KONSTRUKTIONSELEMENTE
100
AcDbLine
 62
7
  6
CONTINUOUS
 10
95.1546371714
 20
86.9684241197
 11
95.1344736158
 21
87.1493031767
  0
LINE
  5
4EB
100
AcDbEntity
  8
KONSTRUKTIONSELEMENTE
100
AcDbLine
 62
7
  6
CONTINUOUS
 10
95.805394159
 20
87.8378152311
 11
95.7852306034
 21
88.0186942881
  0
LINE
  5
4EC
100
AcDbEntity
  8
KONSTRUKTIONSELEMENTE
100
AcDbLine
 62
7
  6
CONTINUOUS
 10
97.6164927455
 20
63.2187852825
 11
97.6164927455
 21
63.7187852825
  0
LINE
  5
4ED
100
AcDbEntity
  8
KONSTRUKTIONSELEMENTE
100
AcDbLine
 62
7
  6
CONTINUOUS
 10
97.7185759516
 20
63.2187852825
 11
97.7185759516
 21
63.7187852825
  0
LINE
  5
4EE
100
AcDbEntity
  8
KONSTRUKTIONSELEMENTE
100
AcDbLine
 62
7
  6
CONTINUOUS
 10
97.8206591578
 20
63.2187852825
 11
97.8206591578
 21
63.7187852825
  0
LINE
  5
4EF
100
AcDbEntity
  8
KONSTRUKTIONSELEMENTE
100
AcDbLine
 62
7
  6
CONTINUOUS
 10
98.2289919825
 20
63.2187852825
 11
98.2289919825
 21
63.7187852825
  0
LINE
  5
4F0
100
AcDbEntity
  8
KONSTRUKTIONSELEMENTE
100
AcDbLine
 62
7
  6
CONTINUOUS
 10
98.6373267146
 20
63.2187852825
 11
98.6373267146
 21
63.7187852825
  0
LINE
  5
4F1
100
AcDbEntity
  8
KONSTRUKTIONSELEMENTE
100
AcDbLine
 62
7
  6
CONTINUOUS
 10
99.3519091578
 20
63.2187852825
 11
99.3519091578
 21
63.7187852825
  0
LINE
  5
4F2
100
AcDbEntity
  8
KONSTRUKTIONSELEMENTE
100
AcDbLine
 62
7
  6
CONTINUOUS
 10
99.5560755702
 20
63.2187852825
 11
99.5560755702
 21
63.7187852825
  0
LINE
  5
4F3
100
AcDbEntity
  8
KONSTRUKTIONSELEMENTE
100
AcDbLine
 62
7
  6
CONTINUOUS
 10
100.2706599208
 20
63.2187852825
 11
100.2706599208
 21
63.7187852825
  0
LINE
  5
4F4
100
AcDbEntity
  8
KONSTRUKTIONSELEMENTE
100
AcDbLine
 62
7
  6
CONTINUOUS
 10
100.6789927455
 20
63.2187852825
 11
100.6789927455
 21
63.7187852825
  0
LINE
  5
4F5
100
AcDbEntity
  8
KONSTRUKTIONSELEMENTE
100
AcDbLine
 62
7
  6
CONTINUOUS
 10
101.0873255702
 20
63.2187852825
 11
101.0873255702
 21
63.7187852825
  0
LINE
  5
4F6
100
AcDbEntity
  8
KONSTRUKTIONSELEMENTE
100
AcDbLine
 62
7
  6
CONTINUOUS
 10
101.1894087764
 20
63.2187852825
 11
101.1894087764
 21
63.7187852825
  0
LINE
  5
4F7
100
AcDbEntity
  8
KONSTRUKTIONSELEMENTE
100
AcDbLine
 62
7
  6
CONTINUOUS
 10
101.2914919825
 20
63.2187852825
 11
101.2914919825
 21
63.7187852825
  0
LINE
  5
4F8
100
AcDbEntity
  8
KONSTRUKTIONSELEMENTE
100
AcDbLine
 62
7
  6
CONTINUOUS
 10
101.518992898
 20
87.6469885128
 11
101.518992898
 21
73.7905820522
  0
LINE
  5
4F9
100
AcDbEntity
  8
KONSTRUKTIONSELEMENTE
100
AcDbLine
 62
7
  6
CONTINUOUS
 10
102.1081595393
 20
63.2187852825
 11
102.1081595393
 21
63.7187852825
  0
LINE
  5
4FA
100
AcDbEntity
  8
KONSTRUKTIONSELEMENTE
100
AcDbLine
 62
7
  6
CONTINUOUS
 10
102.9248270961
 20
63.2187852825
 11
102.9248270961
 21
63.7187852825
  0
LINE
  5
4FB
100
AcDbEntity
  8
KONSTRUKTIONSELEMENTE
100
AcDbLine
 62
7
  6
CONTINUOUS
 10
99.3263852778
 20
82.6720017862
 11
99.3144585092
 21
82.4050947805
  0
LINE
  5
4FC
100
AcDbEntity
  8
KONSTRUKTIONSELEMENTE
100
AcDbLine
 62
7
  6
CONTINUOUS
 10
98.9930108073
 20
82.3851659805
 11
99.0133834337
 21
82.6096650812
  0
LINE
  5
4FD
100
AcDbEntity
  8
KONSTRUKTIONSELEMENTE
100
AcDbLine
 62
7
  6
CONTINUOUS
 10
96.4211309101
 20
79.5491831155
 11
96.447918704
 21
79.720053144
  0
LINE
  5
4FE
100
AcDbEntity
  8
KONSTRUKTIONSELEMENTE
100
AcDbLine
 62
7
  6
CONTINUOUS
 10
96.7699133829
 20
79.7133400033
 11
96.7297315387
 21
79.4570339828
  0
LINE
  5
4FF
100
AcDbEntity
  8
KONSTRUKTIONSELEMENTE
100
AcDbLine
 62
7
  6
CONTINUOUS
 10
97.2353316091
 20
80.2093548287
 11
97.2018466368
 21
79.9957658264
  0
LINE
  5
500
100
AcDbEntity
  8
KONSTRUKTIONSELEMENTE
100
AcDbLine
 62
7
  6
CONTINUOUS
 10
97.4931433921
 20
79.3811205848
 11
97.5266280578
 21
79.5947076315
  0
LINE
  5
501
100
AcDbEntity
  8
KONSTRUKTIONSELEMENTE
100
AcDbLine
 62
7
  6
CONTINUOUS
 10
97.8486230874
 20
79.5879964394
 11
97.8017440648
 21
79.2889714452
  0
LINE
  5
502
100
AcDbEntity
  8
KONSTRUKTIONSELEMENTE
100
AcDbLine
 62
7
  6
CONTINUOUS
 10
99.0629352928
 20
79.0912508093
 11
99.1098143153
 21
79.3902758035
  0
LINE
  5
503
100
AcDbEntity
  8
KONSTRUKTIONSELEMENTE
100
AcDbLine
 62
7
  6
CONTINUOUS
 10
99.4184148998
 20
79.2981266778
 11
99.384930234
 21
79.084539631
  0
LINE
  5
504
100
AcDbEntity
  8
KONSTRUKTIONSELEMENTE
100
AcDbLine
 62
7
  6
CONTINUOUS
 10
95.3962329198
 20
86.85434918
 11
95.2620788016
 21
86.552128398
  0
LINE
  5
505
100
AcDbEntity
  8
KONSTRUKTIONSELEMENTE
100
AcDbLine
 62
7
  6
CONTINUOUS
 10
96.447918704
 20
79.720053144
 11
96.5444632344
 21
79.923756115
  0
LINE
  5
506
100
AcDbEntity
  8
KONSTRUKTIONSELEMENTE
100
AcDbLine
 62
7
  6
CONTINUOUS
 10
94.0943537308
 20
87.1720396619
 11
94.00714904
 21
86.9961615776
  0
LINE
  5
507
100
AcDbEntity
  8
KONSTRUKTIONSELEMENTE
100
AcDbLine
 62
7
  6
CONTINUOUS
 10
95.0540394883
 20
86.6389350886
 11
95.1412442356
 21
86.8148132423
  0
LINE
  5
508
100
AcDbEntity
  8
KONSTRUKTIONSELEMENTE
100
AcDbLine
 62
7
  6
CONTINUOUS
 10
96.0067361799
 20
87.6742036565
 11
95.9195314891
 21
87.4983255722
  0
LINE
  5
509
100
AcDbEntity
  8
KONSTRUKTIONSELEMENTE
100
AcDbLine
 62
7
  6
CONTINUOUS
 10
92.7806791537
 20
86.9124435529
 11
93.9406101605
 21
89.115051563
  0
LINE
  5
50A
100
AcDbEntity
  8
KONSTRUKTIONSELEMENTE
100
AcDbLine
 62
7
  6
CONTINUOUS
 10
94.4080963676
 20
89.4459826918
 11
93.0102308295
 21
86.7915577188
  0
LINE
  5
50B
100
AcDbEntity
  8
KONSTRUKTIONSELEMENTE
100
AcDbLine
 62
7
  6
CONTINUOUS
 10
93.8863144739
 20
87.2588464219
 11
94.1345341308
 21
87.6328711152
  0
LINE
  5
50C
100
AcDbEntity
  8
KONSTRUKTIONSELEMENTE
100
AcDbLine
 62
7
  6
CONTINUOUS
 10
84.0340009489
 20
86.6231486971
 11
82.8335678168
 21
88.1961416195
  0
LINE
  5
50D
100
AcDbEntity
  8
KONSTRUKTIONSELEMENTE
100
AcDbLine
 62
7
  6
CONTINUOUS
 10
83.0398079334
 20
88.3535342343
 11
84.2402410656
 21
86.780541312
  0
LINE
  5
50E
100
AcDbEntity
  8
KONSTRUKTIONSELEMENTE
100
AcDbLine
 62
7
  6
CONTINUOUS
 10
86.8561202432
 20
89.3148909842
 11
86.7239870235
 21
89.5375977399
  0
LINE
  5
50F
100
AcDbEntity
  8
KONSTRUKTIONSELEMENTE
100
AcDbLine
 62
7
  6
CONTINUOUS
 10
85.2714411571
 20
87.567504011
 11
85.430685976
 21
87.2875633695
  0
LINE
  5
510
100
AcDbEntity
  8
KONSTRUKTIONSELEMENTE
100
AcDbLine
 62
7
  6
CONTINUOUS
 10
86.9431338817
 20
89.6904253385
 11
87.0982132984
 21
89.4081557115
  0
LINE
  5
511
100
AcDbEntity
  8
KONSTRUKTIONSELEMENTE
100
AcDbLine
 62
7
  6
CONTINUOUS
 10
96.4974415674
 20
81.8440643669
 11
96.3841675928
 21
82.0860366895
  0
LINE
  5
512
100
AcDbEntity
  8
KONSTRUKTIONSELEMENTE
100
AcDbLine
 62
7
  6
CONTINUOUS
 10
93.9736659041
 20
86.6121349736
 11
94.0340831872
 21
86.4807925515
  0
LINE
  5
513
100
AcDbEntity
  8
KONSTRUKTIONSELEMENTE
100
AcDbLine
 62
7
  6
CONTINUOUS
 10
96.0816373814
 20
83.1680718607
 11
95.9819833177
 21
83.4076056252
  0
LINE
  5
514
100
AcDbEntity
  8
KONSTRUKTIONSELEMENTE
100
AcDbLine
 62
7
  6
CONTINUOUS
 10
96.7297315387
 20
79.4570339828
 11
96.7727001692
 21
79.3189949422
  0
LINE
  5
515
100
AcDbEntity
  8
KONSTRUKTIONSELEMENTE
100
AcDbLine
 62
7
  6
CONTINUOUS
 10
97.8017440648
 20
79.2889714452
 11
97.8447126953
 21
79.1509324045
  0
LINE
  5
516
100
AcDbEntity
  8
KONSTRUKTIONSELEMENTE
100
AcDbLine
 62
7
  6
CONTINUOUS
 10
99.1098143153
 20
79.3902758035
 11
99.0668456848
 21
79.5283148442
  0
LINE
  5
517
100
AcDbEntity
  8
KONSTRUKTIONSELEMENTE
100
AcDbLine
 62
7
  6
CONTINUOUS
 10
95.3692995124
 20
87.3697175473
 11
95.4163230916
 21
87.0847648719
  0
LINE
  5
518
100
AcDbEntity
  8
KONSTRUKTIONSELEMENTE
100
AcDbLine
 62
7
  6
CONTINUOUS
 10
96.020055732
 20
88.2391092828
 11
96.0670800792
 21
87.9541559833
  0
LINE
  5
519
100
AcDbEntity
  8
KONSTRUKTIONSELEMENTE
100
AcDbLine
 62
7
  6
CONTINUOUS
 10
97.5227180607
 20
79.1576455383
 11
97.4931433921
 21
79.3811205848
  0
LINE
  5
51A
100
AcDbEntity
  8
KONSTRUKTIONSELEMENTE
100
AcDbLine
 62
7
  6
CONTINUOUS
 10
99.3888403195
 20
79.5216017104
 11
99.4184148998
 21
79.2981266778
  0
LINE
  5
51B
100
AcDbEntity
  8
KONSTRUKTIONSELEMENTE
100
AcDbLine
 62
7
  6
CONTINUOUS
 10
103.4352431269
 20
63.2187852825
 11
103.4352431269
 21
63.7187852825
  0
LINE
  5
51C
100
AcDbEntity
  8
KONSTRUKTIONSELEMENTE
100
AcDbLine
 62
7
  6
CONTINUOUS
 10
104.5581603022
 20
63.2187852825
 11
104.5581603022
 21
63.7187852825
  0
LINE
  5
51D
100
AcDbEntity
  8
KONSTRUKTIONSELEMENTE
100
AcDbLine
 62
7
  6
CONTINUOUS
 10
97.5266280578
 20
79.5947076315
 11
97.623172671
 21
79.7984105895
  0
LINE
  5
51E
100
AcDbEntity
  8
KONSTRUKTIONSELEMENTE
100
AcDbLine
 62
7
  6
CONTINUOUS
 10
99.384930234
 20
79.084539631
 11
99.2883857092
 21
78.8808366592
  0
LINE
  5
51F
100
AcDbEntity
  8
KONSTRUKTIONSELEMENTE
100
AcDbLine
 62
7
  6
CONTINUOUS
 10
96.3960943669
 20
82.3529436963
 11
96.5416673607
 21
82.6023794236
  0
LINE
  5
520
100
AcDbEntity
  8
KONSTRUKTIONSELEMENTE
100
AcDbLine
 62
7
  6
CONTINUOUS
 10
99.3144585092
 20
82.4050947805
 11
99.1688851452
 21
82.1556609978
  0
LINE
  5
521
100
AcDbEntity
  8
KONSTRUKTIONSELEMENTE
100
AcDbLine
 62
7
  6
CONTINUOUS
 10
96.817405658
 20
82.5250289596
 11
96.7175417205
 21
82.3728744452
  0
LINE
  5
522
100
AcDbEntity
  8
KONSTRUKTIONSELEMENTE
100
AcDbLine
 62
7
  6
CONTINUOUS
 10
98.8931468698
 20
82.2330114661
 11
98.9930108073
 21
82.3851659805
  0
LINE
  5
523
100
AcDbEntity
  8
KONSTRUKTIONSELEMENTE
100
AcDbLine
 62
7
  6
CONTINUOUS
 10
96.8530638575
 20
79.8316069832
 11
96.7699133829
 21
79.7133400033
  0
LINE
  5
524
100
AcDbEntity
  8
KONSTRUKTIONSELEMENTE
100
AcDbLine
 62
7
  6
CONTINUOUS
 10
97.931773562
 20
79.7062634192
 11
97.8486230874
 21
79.5879964394
  0
LINE
  5
525
100
AcDbEntity
  8
KONSTRUKTIONSELEMENTE
100
AcDbLine
 62
7
  6
CONTINUOUS
 10
94.1345341308
 20
87.6328711152
 11
94.4163102228
 21
87.9796275593
  0
LINE
  5
526
100
AcDbEntity
  8
KONSTRUKTIONSELEMENTE
100
AcDbLine
 62
7
  6
CONTINUOUS
 10
94.5840949842
 20
87.8432847885
 11
94.5035875294
 21
87.7442115188
  0
LINE
  5
527
100
AcDbEntity
  8
KONSTRUKTIONSELEMENTE
100
AcDbLine
 62
7
  6
CONTINUOUS
 10
94.2151149131
 20
87.3206495666
 11
94.0943537308
 21
87.1720396619
  0
LINE
  5
528
100
AcDbEntity
  8
KONSTRUKTIONSELEMENTE
100
AcDbLine
 62
7
  6
CONTINUOUS
 10
94.933278306
 20
86.490325184
 11
95.0540394883
 21
86.6389350886
  0
LINE
  5
529
100
AcDbEntity
  8
KONSTRUKTIONSELEMENTE
100
AcDbLine
 62
7
  6
CONTINUOUS
 10
95.2620788016
 20
86.552128398
 11
95.0608101081
 21
86.3044451542
  0
LINE
  5
52A
100
AcDbEntity
  8
KONSTRUKTIONSELEMENTE
100
AcDbLine
 62
7
  6
CONTINUOUS
 10
94.4163102228
 20
87.9796275593
 11
94.7316428063
 21
88.2991158238
  0
LINE
  5
52B
100
AcDbEntity
  8
KONSTRUKTIONSELEMENTE
100
AcDbLine
 62
7
  6
CONTINUOUS
 10
94.8591746083
 20
88.113235794
 11
94.5840949842
 21
87.8432847885
  0
LINE
  5
52C
100
AcDbEntity
  8
KONSTRUKTIONSELEMENTE
100
AcDbLine
 62
7
  6
CONTINUOUS
 10
87.0262853392
 20
87.6703820956
 11
87.1647344226
 21
87.7921212256
  0
LINE
  5
52D
100
AcDbEntity
  8
KONSTRUKTIONSELEMENTE
100
AcDbLine
 62
7
  6
CONTINUOUS
 10
82.8335678168
 20
88.1961416195
 11
83.0398079334
 21
88.3535342343
  0
LINE
  5
52E
100
AcDbEntity
  8
KONSTRUKTIONSELEMENTE
100
AcDbLine
 62
7
  6
CONTINUOUS
 10
83.8647680066
 20
88.9831043935
 11
84.071008025
 21
89.1404969333
  0
LINE
  5
52F
100
AcDbEntity
  8
KONSTRUKTIONSELEMENTE
100
AcDbLine
 62
7
  6
CONTINUOUS
 10
84.9712107671
 20
86.5354450731
 11
85.1087041782
 21
86.640373483
  0
LINE
  5
530
100
AcDbEntity
  8
KONSTRUKTIONSELEMENTE
100
AcDbLine
 62
7
  6
CONTINUOUS
 10
85.3410460704
 20
86.3359232457
 11
85.2035526593
 21
86.2309948358
  0
LINE
  5
531
100
AcDbEntity
  8
KONSTRUKTIONSELEMENTE
100
AcDbLine
 62
7
  6
CONTINUOUS
 10
81.6330686821
 20
86.8717472092
 11
81.8135084689
 21
87.0068655348
  0
LINE
  5
532
100
AcDbEntity
  8
KONSTRUKTIONSELEMENTE
100
AcDbLine
 62
7
  6
CONTINUOUS
 10
82.6579382032
 20
86.4308324882
 11
82.5303113638
 21
86.5799941522
  0
LINE
  5
533
100
AcDbEntity
  8
KONSTRUKTIONSELEMENTE
100
AcDbLine
 62
7
  6
CONTINUOUS
 10
82.7366069054
 20
86.7497697305
 11
82.8642337448
 21
86.6006080666
  0
LINE
  5
534
100
AcDbEntity
  8
KONSTRUKTIONSELEMENTE
100
AcDbLine
 62
7
  6
CONTINUOUS
 10
86.7706515116
 20
89.8975878545
 11
86.9431338817
 21
89.6904253385
  0
LINE
  5
535
100
AcDbEntity
  8
KONSTRUKTIONSELEMENTE
100
AcDbLine
 62
7
  6
CONTINUOUS
 10
85.0652011388
 20
87.4101114712
 11
83.8647680066
 21
88.9831043935
  0
LINE
  5
536
100
AcDbEntity
  8
KONSTRUKTIONSELEMENTE
100
AcDbLine
 62
7
  6
CONTINUOUS
 10
84.071008025
 20
89.1404969333
 11
85.2714411571
 21
87.567504011
  0
LINE
  5
537
100
AcDbEntity
  8
KONSTRUKTIONSELEMENTE
100
AcDbLine
 62
7
  6
CONTINUOUS
 10
96.7727001692
 20
79.3189949422
 11
96.8787283523
 21
79.1710698711
  0
LINE
  5
538
100
AcDbEntity
  8
KONSTRUKTIONSELEMENTE
100
AcDbLine
 62
7
  6
CONTINUOUS
 10
97.7347744268
 20
78.8617953962
 11
97.5227180607
 21
79.1576455383
  0
LINE
  5
539
100
AcDbEntity
  8
KONSTRUKTIONSELEMENTE
100
AcDbLine
 62
7
  6
CONTINUOUS
 10
97.8447126953
 20
79.1509324045
 11
97.9507408784
 21
79.0030073335
  0
LINE
  5
53A
100
AcDbEntity
  8
KONSTRUKTIONSELEMENTE
100
AcDbLine
 62
7
  6
CONTINUOUS
 10
99.0668456848
 20
79.5283148442
 11
98.9608175018
 21
79.6762399152
  0
LINE
  5
53B
100
AcDbEntity
  8
KONSTRUKTIONSELEMENTE
100
AcDbLine
 62
7
  6
CONTINUOUS
 10
93.8663710133
 20
86.2058411627
 11
93.7388399828
 21
86.3917205727
  0
LINE
  5
53C
100
AcDbEntity
  8
KONSTRUKTIONSELEMENTE
100
AcDbLine
 62
7
  6
CONTINUOUS
 10
96.6063991979
 20
79.082460986
 11
96.4507054959
 21
79.325708082
  0
LINE
  5
53D
100
AcDbEntity
  8
KONSTRUKTIONSELEMENTE
100
AcDbLine
 62
7
  6
CONTINUOUS
 10
99.2331466341
 20
79.7648488039
 11
99.3888403195
 21
79.5216017104
  0
LINE
  5
53E
100
AcDbEntity
  8
KONSTRUKTIONSELEMENTE
100
AcDbLine
 62
7
  6
CONTINUOUS
 10
96.6971694808
 20
82.1483734032
 11
96.801997592
 21
81.9488089845
  0
LINE
  5
53F
100
AcDbEntity
  8
KONSTRUKTIONSELEMENTE
100
AcDbLine
 62
7
  6
CONTINUOUS
 10
99.0133834337
 20
82.6096650812
 11
98.9085549358
 21
82.8092314412
  0
LINE
  5
540
100
AcDbEntity
  8
KONSTRUKTIONSELEMENTE
100
AcDbLine
 62
7
  6
CONTINUOUS
 10
99.2131113087
 20
82.9139741099
 11
99.3263852778
 21
82.6720017862
  0
LINE
  5
541
100
AcDbEntity
  8
KONSTRUKTIONSELEMENTE
100
AcDbLine
 62
7
  6
CONTINUOUS
 10
95.1344736158
 20
87.1493031767
 11
95.0740563327
 21
87.2806455989
  0
LINE
  5
542
100
AcDbEntity
  8
KONSTRUKTIONSELEMENTE
100
AcDbLine
 62
7
  6
CONTINUOUS
 10
95.7852306034
 20
88.0186942881
 11
95.7248133203
 21
88.1500367103
  0
LINE
  5
543
100
AcDbEntity
  8
KONSTRUKTIONSELEMENTE
100
AcDbLine
 62
7
  6
CONTINUOUS
 10
98.7518363548
 20
84.5599572006
 11
98.8514904184
 21
84.3204234361
  0
LINE
  5
544
100
AcDbEntity
  8
KONSTRUKTIONSELEMENTE
100
AcDbLine
 62
7
  6
CONTINUOUS
 10
109.4520055999
 20
67.8379002661
 11
109.4520055999
 21
92.3268441918
  0
LINE
  5
545
100
AcDbEntity
  8
KONSTRUKTIONSELEMENTE
100
AcDbLine
 62
7
  6
CONTINUOUS
 10
109.5189928981
 20
96.7187852825
 11
109.5189928981
 21
95.4837239211
  0
LINE
  5
546
100
AcDbEntity
  8
KONSTRUKTIONSELEMENTE
100
AcDbLine
 62
7
  6
CONTINUOUS
 10
109.5189928981
 20
64.2187852825
 11
109.5189928981
 21
67.0025753893
  0
LINE
  5
547
100
AcDbEntity
  8
KONSTRUKTIONSELEMENTE
100
AcDbLine
 62
7
  6
CONTINUOUS
 10
98.9797848182
 20
78.9729838295
 11
99.0629352928
 21
79.0912508093
  0
LINE
  5
548
100
AcDbEntity
  8
KONSTRUKTIONSELEMENTE
100
AcDbLine
 62
7
  6
CONTINUOUS
 10
96.5416673607
 20
82.6023794236
 11
96.704131689
 21
82.7670012833
  0
LINE
  5
549
100
AcDbEntity
  8
KONSTRUKTIONSELEMENTE
100
AcDbLine
 62
7
  6
CONTINUOUS
 10
99.1688851452
 20
82.1556609978
 11
99.0064208389
 21
81.9910391424
  0
LINE
  5
54A
100
AcDbEntity
  8
KONSTRUKTIONSELEMENTE
100
AcDbLine
 62
7
  6
CONTINUOUS
 10
95.0134923948
 20
88.2345776577
 11
94.8591746083
 21
88.113235794
  0
LINE
  5
54B
100
AcDbEntity
  8
KONSTRUKTIONSELEMENTE
100
AcDbLine
 62
7
  6
CONTINUOUS
 10
94.3694326432
 20
87.4419913609
 11
94.2151149131
 21
87.3206495666
  0
LINE
  5
54C
100
AcDbEntity
  8
KONSTRUKTIONSELEMENTE
100
AcDbLine
 62
7
  6
CONTINUOUS
 10
94.7789606323
 20
86.368983459
 11
94.933278306
 21
86.490325184
  0
LINE
  5
54D
100
AcDbEntity
  8
KONSTRUKTIONSELEMENTE
100
AcDbLine
 62
7
  6
CONTINUOUS
 10
87.3427603836
 20
87.4502892024
 11
87.1639621518
 21
87.3130058273
  0
LINE
  5
54E
100
AcDbEntity
  8
KONSTRUKTIONSELEMENTE
100
AcDbLine
 62
7
  6
CONTINUOUS
 10
94.7316428063
 20
88.2991158238
 11
95.0000260752
 21
88.4922615293
  0
LINE
  5
54F
100
AcDbEntity
  8
KONSTRUKTIONSELEMENTE
100
AcDbLine
 62
7
  6
CONTINUOUS
 10
77.5189928981
 20
87.6469885128
 11
89.5189928981
 21
94.5751917431
  0
LINE
  5
550
100
AcDbEntity
  8
KONSTRUKTIONSELEMENTE
100
AcDbLine
 62
7
  6
CONTINUOUS
 10
89.5189928981
 20
66.862378822
 11
77.518992898
 21
73.7905820522
  0
LINE
  5
551
100
AcDbEntity
  8
KONSTRUKTIONSELEMENTE
100
AcDbLine
 62
7
  6
CONTINUOUS
 10
84.2402410656
 20
86.780541312
 11
84.4295088475
 21
86.6038065007
  0
LINE
  5
552
100
AcDbEntity
  8
KONSTRUKTIONSELEMENTE
100
AcDbLine
 62
7
  6
CONTINUOUS
 10
86.7239870235
 20
89.5375977399
 11
86.574450722
 21
89.6851977183
  0
LINE
  5
553
100
AcDbEntity
  8
KONSTRUKTIONSELEMENTE
100
AcDbLine
 62
7
  6
CONTINUOUS
 10
84.2619925717
 20
86.3956723356
 11
84.0340009489
 21
86.6231486971
  0
LINE
  5
554
100
AcDbEntity
  8
KONSTRUKTIONSELEMENTE
100
AcDbLine
 62
7
  6
CONTINUOUS
 10
95.2417684784
 20
87.555596953
 11
95.3692995124
 21
87.3697175473
  0
LINE
  5
555
100
AcDbEntity
  8
KONSTRUKTIONSELEMENTE
100
AcDbLine
 62
7
  6
CONTINUOUS
 10
95.892524698
 20
88.4249886885
 11
96.020055732
 21
88.2391092828
  0
LINE
  5
556
100
AcDbEntity
  8
KONSTRUKTIONSELEMENTE
100
AcDbLine
 62
7
  6
CONTINUOUS
 10
119.5189928981
 20
82.7187852825
 11
119.5189928981
 21
78.7187852825
  0
LINE
  5
557
100
AcDbEntity
  8
KONSTRUKTIONSELEMENTE
100
AcDbLine
 62
7
  6
CONTINUOUS
 10
121.5189928981
 20
74.7218469639
 11
121.5189928981
 21
65.7187852825
  0
LINE
  5
558
100
AcDbEntity
  8
KONSTRUKTIONSELEMENTE
100
AcDbLine
 62
7
  6
CONTINUOUS
 10
121.5189928981
 20
86.7157236011
 11
121.5189928981
 21
95.7187852825
  0
LINE
  5
559
100
AcDbEntity
  8
KONSTRUKTIONSELEMENTE
100
AcDbLine
 62
7
  6
CONTINUOUS
 10
96.5444632344
 20
79.923756115
 11
96.7671265744
 21
80.1076850679
  0
LINE
  5
55A
100
AcDbEntity
  8
KONSTRUKTIONSELEMENTE
100
AcDbLine
 62
7
  6
CONTINUOUS
 10
97.623172671
 20
79.7984105895
 11
97.845836301
 21
79.9823415005
  0
LINE
  5
55B
100
AcDbEntity
  8
KONSTRUKTIONSELEMENTE
100
AcDbLine
 62
7
  6
CONTINUOUS
 10
95.0608101081
 20
86.3044451542
 11
94.7924269238
 21
86.1112995527
  0
LINE
  5
55C
100
AcDbEntity
  8
KONSTRUKTIONSELEMENTE
100
AcDbLine
 62
7
  6
CONTINUOUS
 10
97.1592254502
 20
82.7694597809
 11
96.817405658
 21
82.5250289596
  0
LINE
  5
55D
100
AcDbEntity
  8
KONSTRUKTIONSELEMENTE
100
AcDbLine
 62
7
  6
CONTINUOUS
 10
93.7408003011
 20
89.2924145175
 11
94.1785446918
 21
89.5668685259
  0
LINE
  5
55E
100
AcDbEntity
  8
KONSTRUKTIONSELEMENTE
100
AcDbLine
 62
7
  6
CONTINUOUS
 10
93.9406101605
 20
89.115051563
 11
93.5028656865
 21
88.8405973964
  0
LINE
  5
55F
100
AcDbEntity
  8
KONSTRUKTIONSELEMENTE
100
AcDbLine
 62
7
  6
CONTINUOUS
 10
84.5189928981
 20
83.6055366285
 11
89.5189928981
 21
86.4922879744
  0
LINE
  5
560
100
AcDbEntity
  8
KONSTRUKTIONSELEMENTE
100
AcDbLine
 62
7
  6
CONTINUOUS
 10
82.0434569639
 20
86.7813674976
 11
81.9147287607
 21
86.715563777
  0
LINE
  5
561
100
AcDbEntity
  8
KONSTRUKTIONSELEMENTE
100
AcDbLine
 62
7
  6
CONTINUOUS
 10
89.518992898
 20
74.9452825906
 11
84.5189928981
 21
77.8320339366
  0
LINE
  5
562
100
AcDbEntity
  8
KONSTRUKTIONSELEMENTE
100
AcDbLine
 62
7
  6
CONTINUOUS
 10
84.4856338811
 20
86.2451697039
 11
84.2619925717
 21
86.3956723356
  0
LINE
  5
563
100
AcDbEntity
  8
KONSTRUKTIONSELEMENTE
100
AcDbLine
 62
7
  6
CONTINUOUS
 10
96.8385465082
 20
78.9147638507
 11
96.6063991979
 21
79.082460986
  0
LINE
  5
564
100
AcDbEntity
  8
KONSTRUKTIONSELEMENTE
100
AcDbLine
 62
7
  6
CONTINUOUS
 10
83.417090905
 20
84.2460696936
 11
81.0125299747
 21
86.0399723477
  0
LINE
  5
565
100
AcDbEntity
  8
KONSTRUKTIONSELEMENTE
100
AcDbLine
 62
7
  6
CONTINUOUS
 10
81.4234689753
 20
86.057075378
 11
82.19088209
 21
85.4845532156
  0
LINE
  5
566
100
AcDbEntity
  8
KONSTRUKTIONSELEMENTE
100
AcDbLine
 62
7
  6
CONTINUOUS
 10
82.4978472786
 20
85.2555443935
 11
83.5722255818
 21
84.454013409
  0
LINE
  5
567
100
AcDbEntity
  8
KONSTRUKTIONSELEMENTE
100
AcDbLine
 62
7
  6
CONTINUOUS
 10
82.5303113638
 20
86.5799941522
 11
82.3768286262
 21
86.6944986702
  0
LINE
  5
568
100
AcDbEntity
  8
KONSTRUKTIONSELEMENTE
100
AcDbLine
 62
7
  6
CONTINUOUS
 10
82.531963303
 20
86.9024423855
 11
82.7366069054
 21
86.7497697305
  0
LINE
  5
569
100
AcDbEntity
  8
KONSTRUKTIONSELEMENTE
100
AcDbLine
 62
7
  6
CONTINUOUS
 10
96.7274704327
 20
81.6694346334
 11
96.4974415674
 21
81.8440643669
  0
LINE
  5
56A
100
AcDbEntity
  8
KONSTRUKTIONSELEMENTE
100
AcDbLine
 62
7
  6
CONTINUOUS
 10
94.0341565428
 20
86.0694977678
 11
93.8663710133
 21
86.2058411627
  0
LINE
  5
56B
100
AcDbEntity
  8
BEZUGSACHSEN
100
AcDbLine
 62
7
  6
CONTINUOUS
 10
123.4248751323
 20
72.6142560079
 11
123.2925076706
 21
73.8736482801
  0
LINE
  5
56C
100
AcDbEntity
  8
RUNDUNGEN
100
AcDbLine
 62
7
  6
CONTINUOUS
 10
123.4248758328
 20
72.6142560058
 11
123.3731477757
 21
73.1064506736
  0
LINE
  5
56D
100
AcDbEntity
  8
0
100
AcDbLine
 62
7
  6
CONTINUOUS
 10
122.5189928981
 20
88.7187852825
 11
122.5189928981
 21
87.29826771
  0
LINE
  5
56E
100
AcDbEntity
  8
RUNDUNGEN
100
AcDbLine
 62
7
  6
CONTINUOUS
 10
122.5189928981
 20
72.7187852825
 11
122.5189928981
 21
74.1393028551
  0
LINE
  5
56F
100
AcDbEntity
  8
0
100
AcDbLine
 62
7
  6
CONTINUOUS
 10
123.2925076706
 20
87.5639222849
 11
123.4248751323
 21
88.8233145571
  0
LINE
  5
570
100
AcDbEntity
  8
KONSTRUKTIONSELEMENTE
100
AcDbLine
 62
7
  6
CONTINUOUS
 10
99.2883857092
 20
78.8808366592
 11
99.0657220792
 21
78.6969057482
  0
LINE
  5
571
100
AcDbEntity
  8
KONSTRUKTIONSELEMENTE
100
AcDbLine
 62
7
  6
CONTINUOUS
 10
96.9992738847
 20
79.9399879326
 11
96.8530638575
 21
79.8316069832
  0
LINE
  5
572
100
AcDbEntity
  8
KONSTRUKTIONSELEMENTE
100
AcDbLine
 62
7
  6
CONTINUOUS
 10
98.0779835892
 20
79.8146443686
 11
97.931773562
 21
79.7062634192
  0
LINE
  5
573
100
AcDbEntity
  8
KONSTRUKTIONSELEMENTE
100
AcDbLine
 62
7
  6
CONTINUOUS
 10
98.833574791
 20
78.8646028801
 11
98.9797848182
 21
78.9729838295
  0
LINE
  5
574
100
AcDbEntity
  8
KONSTRUKTIONSELEMENTE
100
AcDbLine
 62
7
  6
CONTINUOUS
 10
98.5513271395
 20
81.9885796479
 11
98.8931468698
 21
82.2330114661
  0
LINE
  5
575
100
AcDbEntity
  8
KONSTRUKTIONSELEMENTE
100
AcDbLine
 62
7
  6
CONTINUOUS
 10
96.704131689
 20
82.7670012833
 11
96.9376420724
 21
82.901683554
  0
LINE
  5
576
100
AcDbEntity
  8
KONSTRUKTIONSELEMENTE
100
AcDbLine
 62
7
  6
CONTINUOUS
 10
99.0064208389
 20
81.9910391424
 11
98.7729106926
 21
81.8563559098
  0
LINE
  5
577
100
AcDbEntity
  8
KONSTRUKTIONSELEMENTE
100
AcDbLine
 62
7
  6
CONTINUOUS
 10
95.2013680961
 20
88.3286499548
 11
95.0134923948
 21
88.2345776577
  0
LINE
  5
578
100
AcDbEntity
  8
KONSTRUKTIONSELEMENTE
100
AcDbLine
 62
7
  6
CONTINUOUS
 10
94.5910849028
 20
86.2749111273
 11
94.7789606323
 21
86.368983459
  0
LINE
  5
579
100
AcDbEntity
  8
KONSTRUKTIONSELEMENTE
100
AcDbLine
 62
7
  6
CONTINUOUS
 10
95.0000260752
 20
88.4922615293
 11
95.2617119954
 21
88.6086022816
  0
LINE
  5
57A
100
AcDbEntity
  8
KONSTRUKTIONSELEMENTE
100
AcDbLine
 62
7
  6
CONTINUOUS
 10
94.7924269238
 20
86.1112995527
 11
94.5307409895
 21
85.9949587832
  0
LINE
  5
57B
100
AcDbEntity
  8
KONSTRUKTIONSELEMENTE
100
AcDbLine
 62
7
  6
CONTINUOUS
 10
85.1171215625
 20
89.7393943596
 11
86.0854937833
 21
90.1124532689
  0
LINE
  5
57C
100
AcDbEntity
  8
KONSTRUKTIONSELEMENTE
100
AcDbLine
 62
7
  6
CONTINUOUS
 10
86.2231705799
 20
89.7550770424
 11
85.4968914143
 21
89.4752828604
  0
LINE
  5
57D
100
AcDbEntity
  8
KONSTRUKTIONSELEMENTE
100
AcDbLine
 62
7
  6
CONTINUOUS
 10
86.3000061736
 20
87.3905879136
 11
87.0262853392
 21
87.6703820956
  0
LINE
  5
57E
100
AcDbEntity
  8
KONSTRUKTIONSELEMENTE
100
AcDbLine
 62
7
  6
CONTINUOUS
 10
87.1639621518
 20
87.3130058273
 11
86.1955899311
 21
86.9399469181
  0
LINE
  5
57F
100
AcDbEntity
  8
KONSTRUKTIONSELEMENTE
100
AcDbLine
 62
7
  6
CONTINUOUS
 10
85.2035526593
 20
86.2309948358
 11
84.9929623954
 21
86.1505761407
  0
LINE
  5
580
100
AcDbEntity
  8
KONSTRUKTIONSELEMENTE
100
AcDbLine
 62
7
  6
CONTINUOUS
 10
96.8787283523
 20
79.1710698711
 11
97.0545133105
 21
79.0559777365
  0
LINE
  5
581
100
AcDbEntity
  8
KONSTRUKTIONSELEMENTE
100
AcDbLine
 62
7
  6
CONTINUOUS
 10
97.9507408784
 20
79.0030073335
 11
98.1265257924
 21
78.8879152057
  0
LINE
  5
582
100
AcDbEntity
  8
KONSTRUKTIONSELEMENTE
100
AcDbLine
 62
7
  6
CONTINUOUS
 10
98.9608175018
 20
79.6762399152
 11
98.7850325877
 21
79.791332043
  0
LINE
  5
583
100
AcDbEntity
  8
KONSTRUKTIONSELEMENTE
100
AcDbLine
 62
7
  6
CONTINUOUS
 10
96.801997592
 20
81.9488089845
 11
96.9525351297
 21
81.8465238341
  0
LINE
  5
584
100
AcDbEntity
  8
KONSTRUKTIONSELEMENTE
100
AcDbLine
 62
7
  6
CONTINUOUS
 10
98.9085549358
 20
82.8092314412
 11
98.7580173981
 21
82.9115165916
  0
LINE
  5
585
100
AcDbEntity
  8
KONSTRUKTIONSELEMENTE
100
AcDbLine
 62
7
  6
CONTINUOUS
 10
86.5174717643
 20
90.0736622466
 11
86.7706515116
 21
89.8975878545
  0
LINE
  5
586
100
AcDbEntity
  8
KONSTRUKTIONSELEMENTE
100
AcDbLine
 62
7
  6
CONTINUOUS
 10
99.0009993459
 20
79.9325459357
 11
99.2331466341
 21
79.7648488039
  0
LINE
  5
587
100
AcDbEntity
  8
KONSTRUKTIONSELEMENTE
100
AcDbLine
 62
7
  6
CONTINUOUS
 10
98.9830820732
 20
83.0886057879
 11
99.2131113087
 21
82.9139741099
  0
LINE
  5
588
100
AcDbEntity
  8
KONSTRUKTIONSELEMENTE
100
AcDbLine
 62
7
  6
CONTINUOUS
 10
94.0340831872
 20
86.4807925515
 11
94.2689816996
 21
86.2899127972
  0
LINE
  5
589
100
AcDbEntity
  8
KONSTRUKTIONSELEMENTE
100
AcDbLine
 62
7
  6
CONTINUOUS
 10
95.0740563327
 20
87.2806455989
 11
94.8391578203
 21
87.4715253531
  0
LINE
  5
58A
100
AcDbEntity
  8
KONSTRUKTIONSELEMENTE
100
AcDbLine
 62
7
  6
CONTINUOUS
 10
95.0739829489
 20
87.6919403478
 11
95.2417684784
 21
87.555596953
  0
LINE
  5
58B
100
AcDbEntity
  8
KONSTRUKTIONSELEMENTE
100
AcDbLine
 62
7
  6
CONTINUOUS
 10
95.9195314891
 20
87.4983255722
 11
95.7517467277
 21
87.6346683429
  0
LINE
  5
58C
100
AcDbEntity
  8
KONSTRUKTIONSELEMENTE
100
AcDbLine
 62
7
  6
CONTINUOUS
 10
95.7248133203
 20
88.1500367103
 11
95.5234712994
 21
88.3136482848
  0
LINE
  5
58D
100
AcDbEntity
  8
KONSTRUKTIONSELEMENTE
100
AcDbLine
 62
7
  6
CONTINUOUS
 10
95.758296428
 20
88.5340632795
 11
95.892524698
 21
88.4249886885
  0
LINE
  5
58E
100
AcDbEntity
  8
KONSTRUKTIONSELEMENTE
100
AcDbLine
 62
7
  6
CONTINUOUS
 10
94.518992898
 20
77.8320339366
 11
89.518992898
 21
74.9452825906
  0
LINE
  5
58F
100
AcDbEntity
  8
KONSTRUKTIONSELEMENTE
100
AcDbLine
 62
7
  6
CONTINUOUS
 10
96.9376420724
 20
82.901683554
 11
97.1169975144
 21
82.9814925113
  0
LINE
  5
590
100
AcDbEntity
  8
KONSTRUKTIONSELEMENTE
100
AcDbLine
 62
7
  6
CONTINUOUS
 10
98.7729106926
 20
81.8563559098
 11
98.5935548819
 21
81.7765478882
  0
LINE
  5
591
100
AcDbEntity
  8
KONSTRUKTIONSELEMENTE
100
AcDbLine
 62
7
  6
CONTINUOUS
 10
97.7681865813
 20
84.4317191608
 11
98.2396510369
 21
84.6278641551
  0
LINE
  5
592
100
AcDbEntity
  8
KONSTRUKTIONSELEMENTE
100
AcDbLine
 62
7
  6
CONTINUOUS
 10
95.9819833177
 20
83.4076056252
 11
98.2803720642
 21
84.3638122749
  0
LINE
  5
593
100
AcDbEntity
  8
KONSTRUKTIONSELEMENTE
100
AcDbLine
 62
7
  6
CONTINUOUS
 10
98.8514904184
 20
84.3204234361
 11
96.0816373814
 21
83.1680718607
  0
LINE
  5
594
100
AcDbEntity
  8
KONSTRUKTIONSELEMENTE
100
AcDbLine
 62
7
  6
CONTINUOUS
 10
84.7949939086
 20
86.4812585136
 11
84.9712107671
 21
86.5354450731
  0
LINE
  5
595
100
AcDbEntity
  8
KONSTRUKTIONSELEMENTE
100
AcDbLine
 62
7
  6
CONTINUOUS
 10
94.5170546171
 20
87.4865270231
 11
94.3694326432
 21
87.4419913609
  0
LINE
  5
596
100
AcDbEntity
  8
KONSTRUKTIONSELEMENTE
100
AcDbLine
 62
7
  6
CONTINUOUS
 10
97.0545133105
 20
79.0559777365
 11
97.2369947898
 21
78.9836006715
  0
LINE
  5
597
100
AcDbEntity
  8
KONSTRUKTIONSELEMENTE
100
AcDbLine
 62
7
  6
CONTINUOUS
 10
82.3768286262
 20
86.6944986702
 11
82.1974902771
 21
86.7743458284
  0
LINE
  5
598
100
AcDbEntity
  8
KONSTRUKTIONSELEMENTE
100
AcDbLine
 62
7
  6
CONTINUOUS
 10
82.3526249539
 20
86.9822895438
 11
82.531963303
 21
86.9024423855
  0
LINE
  5
599
100
AcDbEntity
  8
KONSTRUKTIONSELEMENTE
100
AcDbLine
 62
7
  6
CONTINUOUS
 10
97.1404505715
 20
78.7798996552
 11
96.8385465082
 21
78.9147638507
  0
LINE
  5
59A
100
AcDbEntity
  8
KONSTRUKTIONSELEMENTE
100
AcDbLine
 62
7
  6
CONTINUOUS
 10
98.6990951501
 20
80.067410152
 11
99.0009993459
 21
79.9325459357
  0
LINE
  5
59B
100
AcDbEntity
  8
KONSTRUKTIONSELEMENTE
100
AcDbLine
 62
7
  6
CONTINUOUS
 10
93.0102308295
 20
86.7915577188
 11
92.7806791537
 21
86.9124435529
  0
LINE
  5
59C
100
AcDbEntity
  8
KONSTRUKTIONSELEMENTE
100
AcDbLine
 62
7
  6
CONTINUOUS
 10
84.4295088475
 20
86.6038065007
 11
84.6144265839
 21
86.5040456798
  0
LINE
  5
59D
100
AcDbEntity
  8
KONSTRUKTIONSELEMENTE
100
AcDbLine
 62
7
  6
CONTINUOUS
 10
89.5189928981
 20
86.4922879744
 11
94.5189928981
 21
83.6055366285
  0
LINE
  5
59E
100
AcDbEntity
  8
KONSTRUKTIONSELEMENTE
100
AcDbLine
 62
7
  6
CONTINUOUS
 10
101.518992898
 20
73.7905820522
 11
89.5189928981
 21
66.862378822
  0
LINE
  5
59F
100
AcDbEntity
  8
KONSTRUKTIONSELEMENTE
100
AcDbLine
 62
7
  6
CONTINUOUS
 10
97.1169975144
 20
82.9814925113
 11
97.4215537817
 21
83.0862361681
  0
LINE
  5
5A0
100
AcDbEntity
  8
KONSTRUKTIONSELEMENTE
100
AcDbLine
 62
7
  6
CONTINUOUS
 10
98.5935548819
 20
81.7765478882
 11
98.2889988956
 21
81.6718032782
  0
LINE
  5
5A1
100
AcDbEntity
  8
KONSTRUKTIONSELEMENTE
100
AcDbLine
 62
7
  6
CONTINUOUS
 10
96.7671265744
 20
80.1076850679
 11
97.0394557288
 21
80.1962939531
  0
LINE
  5
5A2
100
AcDbEntity
  8
KONSTRUKTIONSELEMENTE
100
AcDbLine
 62
7
  6
CONTINUOUS
 10
97.845836301
 20
79.9823415005
 11
98.1181654333
 21
80.0709503891
  0
LINE
  5
5A3
100
AcDbEntity
  8
KONSTRUKTIONSELEMENTE
100
AcDbLine
 62
7
  6
CONTINUOUS
 10
97.5263822795
 20
82.8866698081
 11
97.1592254502
 21
82.7694597809
  0
LINE
  5
5A4
100
AcDbEntity
  8
KONSTRUKTIONSELEMENTE
100
AcDbLine
 62
7
  6
CONTINUOUS
 10
98.1841703978
 20
81.8713696382
 11
98.5513271395
 21
81.9885796479
  0
LINE
  5
5A5
100
AcDbEntity
  8
KONSTRUKTIONSELEMENTE
100
AcDbLine
 62
7
  6
CONTINUOUS
 10
97.2369947898
 20
78.9836006715
 11
97.6086553217
 21
78.881567457
  0
LINE
  5
5A6
100
AcDbEntity
  8
KONSTRUKTIONSELEMENTE
100
AcDbLine
 62
7
  6
CONTINUOUS
 10
84.7780216858
 20
86.1471311447
 11
84.4856338811
 21
86.2451697039
  0
LINE
  5
5A7
100
AcDbEntity
  8
KONSTRUKTIONSELEMENTE
100
AcDbLine
 62
7
  6
CONTINUOUS
 10
98.1265257924
 20
78.8879152057
 11
98.3090072717
 21
78.8155381408
  0
LINE
  5
5A8
100
AcDbEntity
  8
KONSTRUKTIONSELEMENTE
100
AcDbLine
 62
7
  6
CONTINUOUS
 10
98.7850325877
 20
79.791332043
 11
98.6025509318
 21
79.8637091356
  0
LINE
  5
5A9
100
AcDbEntity
  8
KONSTRUKTIONSELEMENTE
100
AcDbLine
 62
7
  6
CONTINUOUS
 10
82.9902085017
 20
86.1289982762
 11
84.3996105498
 21
85.5630465907
  0
LINE
  5
5AA
100
AcDbEntity
  8
KONSTRUKTIONSELEMENTE
100
AcDbLine
 62
7
  6
CONTINUOUS
 10
84.2186200441
 20
85.3204455233
 11
82.9373955174
 21
85.8447182372
  0
LINE
  5
5AB
100
AcDbEntity
  8
KONSTRUKTIONSELEMENTE
100
AcDbLine
 62
7
  6
CONTINUOUS
 10
94.2421950352
 20
85.9826916363
 11
94.0341565428
 21
86.0694977678
  0
LINE
  5
5AC
100
AcDbEntity
  8
KONSTRUKTIONSELEMENTE
100
AcDbLine
 62
7
  6
CONTINUOUS
 10
94.86594446
 20
87.7787464837
 11
95.0739829489
 21
87.6919403478
  0
LINE
  5
5AD
100
AcDbEntity
  8
KONSTRUKTIONSELEMENTE
100
AcDbLine
 62
7
  6
CONTINUOUS
 10
96.9406083612
 20
81.5796168284
 11
96.7274704327
 21
81.6694346334
  0
LINE
  5
5AE
100
AcDbEntity
  8
KONSTRUKTIONSELEMENTE
100
AcDbLine
 62
7
  6
CONTINUOUS
 10
98.7699441667
 20
83.1784235973
 11
98.9830820732
 21
83.0886057879
  0
LINE
  5
5AF
100
AcDbEntity
  8
KONSTRUKTIONSELEMENTE
100
AcDbLine
 62
7
  6
CONTINUOUS
 10
86.574450722
 20
89.6851977183
 11
86.4075119288
 21
89.7576907635
  0
LINE
  5
5B0
100
AcDbEntity
  8
KONSTRUKTIONSELEMENTE
100
AcDbLine
 62
7
  6
CONTINUOUS
 10
94.1785446918
 20
89.5668685259
 11
94.4080963676
 21
89.4459826918
  0
LINE
  5
5B1
100
AcDbEntity
  8
KONSTRUKTIONSELEMENTE
100
AcDbLine
 62
7
  6
CONTINUOUS
 10
89.5189928981
 20
94.5751917431
 11
101.518992898
 21
87.6469885128
  0
LINE
  5
5B2
100
AcDbEntity
  8
0
100
AcDbLine
 62
7
  6
CONTINUOUS
 10
141.7292013686
 20
87.7187852825
 11
141.6131107491
 21
88.8233137458
  0
LINE
  5
5B3
100
AcDbEntity
  8
BEZUGSACHSEN
100
AcDbLine
 62
7
  6
CONTINUOUS
 10
141.6131107491
 20
72.6142568193
 11
141.7292013686
 21
73.7187852825
  0
LINE
  5
5B4
100
AcDbEntity
  8
KONSTRUKTIONSELEMENTE
100
AcDbLine
 62
7
  6
CONTINUOUS
 10
99.0657220792
 20
78.6969057482
 11
98.7933929469
 21
78.6082968596
  0
LINE
  5
5B5
100
AcDbEntity
  8
KONSTRUKTIONSELEMENTE
100
AcDbLine
 62
7
  6
CONTINUOUS
 10
216.4841743415
 20
82.7076454202
 11
216.2815808598
 21
82.6519431734
  0
LINE
  5
5B6
100
AcDbEntity
  8
KONSTRUKTIONSELEMENTE
100
AcDbLine
 62
7
  6
CONTINUOUS
 10
217.9741643325
 20
79.0045329788
 11
217.6631682133
 21
78.9208246223
  0
LINE
  5
5B7
100
AcDbEntity
  8
KONSTRUKTIONSELEMENTE
100
AcDbLine
 62
7
  6
CONTINUOUS
 10
217.1416875629
 20
77.6329612229
 11
216.9486963529
 21
77.5970139697
  0
LINE
  5
5B8
100
AcDbEntity
  8
KONSTRUKTIONSELEMENTE
100
AcDbLine
 62
7
  6
CONTINUOUS
 10
216.9048141599
 20
77.8605589386
 11
217.0978053699
 21
77.8965061918
  0
LINE
  5
5B9
100
AcDbEntity
  8
KONSTRUKTIONSELEMENTE
100
AcDbLine
 62
7
  6
CONTINUOUS
 10
78.6289935084
 20
63.2187852825
 11
82.5081591578
 21
63.2187852825
  0
LINE
  5
5BA
100
AcDbEntity
  8
KONSTRUKTIONSELEMENTE
100
AcDbLine
 62
7
  6
CONTINUOUS
 10
83.3248248072
 20
63.2187852825
 11
87.1019091578
 21
63.2187852825
  0
LINE
  5
5BB
100
AcDbEntity
  8
KONSTRUKTIONSELEMENTE
100
AcDbLine
 62
7
  6
CONTINUOUS
 10
87.9185748072
 20
63.2187852825
 11
91.8998255702
 21
63.2187852825
  0
LINE
  5
5BC
100
AcDbEntity
  8
KONSTRUKTIONSELEMENTE
100
AcDbLine
 62
7
  6
CONTINUOUS
 10
97.6164927455
 20
63.2187852825
 11
101.2914919825
 21
63.2187852825
  0
LINE
  5
5BD
100
AcDbEntity
  8
KONSTRUKTIONSELEMENTE
100
AcDbLine
 62
7
  6
CONTINUOUS
 10
102.1081595393
 20
63.2187852825
 11
104.5581603022
 21
63.2187852825
  0
LINE
  5
5BE
100
AcDbEntity
  8
KONSTRUKTIONSELEMENTE
100
AcDbLine
 62
7
  6
CONTINUOUS
 10
245.518992898
 20
63.7187852825
 11
195.5189928981
 21
63.7187852825
  0
LINE
  5
5BF
100
AcDbEntity
  8
KONSTRUKTIONSELEMENTE
100
AcDbLine
 62
7
  6
CONTINUOUS
 10
69.5189928981
 20
63.7187852825
 11
119.5189928981
 21
63.7187852825
  0
LINE
  5
5C0
100
AcDbEntity
  8
KONSTRUKTIONSELEMENTE
100
AcDbLine
 62
7
  6
CONTINUOUS
 10
204.6620934573
 20
66.9115718529
 11
206.5189928981
 21
66.9115718529
  0
LINE
  5
5C1
100
AcDbEntity
  8
KONSTRUKTIONSELEMENTE
100
AcDbLine
 62
7
  6
CONTINUOUS
 10
96.9525351297
 20
81.8465238341
 11
97.3619200443
 21
81.7517001515
  0
LINE
  5
5C2
100
AcDbEntity
  8
KONSTRUKTIONSELEMENTE
100
AcDbLine
 62
7
  6
CONTINUOUS
 10
97.5751703494
 20
78.6679784548
 11
97.1404505715
 21
78.7798996552
  0
LINE
  5
5C3
100
AcDbEntity
  8
KONSTRUKTIONSELEMENTE
100
AcDbLine
 62
7
  6
CONTINUOUS
 10
95.5502579391
 20
88.6208694154
 11
95.758296428
 21
88.5340632795
  0
LINE
  5
5C4
100
AcDbEntity
  8
KONSTRUKTIONSELEMENTE
100
AcDbLine
 62
7
  6
CONTINUOUS
 10
152.2189928981
 20
73.7187852825
 11
152.2189928981
 21
73.2187852825
  0
LINE
  5
5C5
100
AcDbEntity
  8
KONSTRUKTIONSELEMENTE
100
AcDbLine
 62
7
  6
CONTINUOUS
 10
216.1957460012
 20
82.9280531096
 11
216.4613951877
 21
82.9738459658
  0
LINE
  5
5C6
100
AcDbEntity
  8
KONSTRUKTIONSELEMENTE
100
AcDbLine
 62
7
  6
CONTINUOUS
 10
217.6631682133
 20
78.9208246223
 11
215.7006998165
 21
78.6677154955
  0
LINE
  5
5C7
100
AcDbEntity
  8
KONSTRUKTIONSELEMENTE
100
AcDbLine
 62
7
  6
CONTINUOUS
 10
215.667513872
 20
78.9250209833
 11
217.6299822688
 21
79.17813011
  0
LINE
  5
5C8
100
AcDbEntity
  8
KONSTRUKTIONSELEMENTE
100
AcDbLine
 62
7
  6
CONTINUOUS
 10
217.497238554
 20
80.2073515701
 11
215.5347701572
 21
79.9542424434
  0
LINE
  5
5C9
100
AcDbEntity
  8
KONSTRUKTIONSELEMENTE
100
AcDbLine
 62
7
  6
CONTINUOUS
 10
215.5015842286
 20
80.2115478084
 11
217.4640526254
 21
80.4646569352
  0
LINE
  5
5CA
100
AcDbEntity
  8
RUNDUNGEN
100
AcDbLine
 62
7
  6
CONTINUOUS
 10
191.5189928981
 20
71.7187852825
 11
174.4445056194
 21
71.7187852825
  0
LINE
  5
5CB
100
AcDbEntity
  8
KONSTRUKTIONSELEMENTE
100
AcDbLine
 62
7
  6
CONTINUOUS
 10
124.4193976457
 20
71.7187852825
 11
140.6185883113
 21
71.7187852825
  0
LINE
  5
5CC
100
AcDbEntity
  8
RUNDUNGEN
100
AcDbLine
 62
7
  6
CONTINUOUS
 10
123.5189928981
 20
71.7187852825
 11
140.5934801767
 21
71.7187852825
  0
LINE
  5
5CD
100
AcDbEntity
  8
KONSTRUKTIONSELEMENTE
100
AcDbLine
 62
7
  6
CONTINUOUS
 10
174.4193974848
 20
71.7187852825
 11
190.6185881512
 21
71.7187852825
  0
LINE
  5
5CE
100
AcDbEntity
  8
KONSTRUKTIONSELEMENTE
100
AcDbLine
 62
7
  6
CONTINUOUS
 10
193.5189928981
 20
72.7187852825
 11
192.5189928981
 21
72.7187852825
  0
LINE
  5
5CF
100
AcDbEntity
  8
0
100
AcDbLine
 62
7
  6
CONTINUOUS
 10
122.5189928981
 20
72.7187852825
 11
121.5189928981
 21
72.7187852825
  0
LINE
  5
5D0
100
AcDbEntity
  8
KONSTRUKTIONSELEMENTE
100
AcDbLine
 62
7
  6
CONTINUOUS
 10
240.0189928981
 20
73.2187852825
 11
239.0189928981
 21
73.2187852825
  0
LINE
  5
5D1
100
AcDbEntity
  8
KONSTRUKTIONSELEMENTE
100
AcDbLine
 62
7
  6
CONTINUOUS
 10
163.0523259135
 20
73.2187852825
 11
159.7189928981
 21
73.2187852825
  0
LINE
  5
5D2
100
AcDbEntity
  8
KONSTRUKTIONSELEMENTE
100
AcDbLine
 62
7
  6
CONTINUOUS
 10
159.0523263903
 20
73.2187852825
 11
156.0523261519
 21
73.2187852825
  0
LINE
  5
5D3
100
AcDbEntity
  8
KONSTRUKTIONSELEMENTE
100
AcDbLine
 62
7
  6
CONTINUOUS
 10
155.3856596442
 20
73.2187852825
 11
152.2189928981
 21
73.2187852825
  0
LINE
  5
5D4
100
AcDbEntity
  8
KONSTRUKTIONSELEMENTE
100
AcDbLine
 62
7
  6
CONTINUOUS
 10
76.0189928981
 20
73.2187852825
 11
75.0189928981
 21
73.2187852825
  0
LINE
  5
5D5
100
AcDbEntity
  8
RUNDUNGEN
100
AcDbLine
 62
7
  6
CONTINUOUS
 10
190.5190045145
 20
73.7187852825
 11
124.518981254
 21
73.7187852825
  0
LINE
  5
5D6
100
AcDbEntity
  8
KONSTRUKTIONSELEMENTE
100
AcDbLine
 62
7
  6
CONTINUOUS
 10
98.4647012637
 20
78.5722930028
 11
98.0165872174
 21
78.5987762419
  0
LINE
  5
5D7
100
AcDbEntity
  8
KONSTRUKTIONSELEMENTE
100
AcDbLine
 62
7
  6
CONTINUOUS
 10
97.2079012092
 20
81.5446723325
 11
96.9406083612
 21
81.5796168284
  0
LINE
  5
5D8
100
AcDbEntity
  8
KONSTRUKTIONSELEMENTE
100
AcDbLine
 62
7
  6
CONTINUOUS
 10
98.0165872174
 20
78.5987762419
 11
97.5751703494
 21
78.6679784548
  0
LINE
  5
5D9
100
AcDbEntity
  8
KONSTRUKTIONSELEMENTE
100
AcDbLine
 62
7
  6
CONTINUOUS
 10
97.6086553217
 20
78.881567457
 11
97.7347744268
 21
78.8617953962
  0
LINE
  5
5DA
100
AcDbEntity
  8
KONSTRUKTIONSELEMENTE
100
AcDbLine
 62
7
  6
CONTINUOUS
 10
98.3090072717
 20
78.8155381408
 11
98.4351263769
 21
78.79576608
  0
LINE
  5
5DB
100
AcDbEntity
  8
KONSTRUKTIONSELEMENTE
100
AcDbLine
 62
7
  6
CONTINUOUS
 10
98.6025509318
 20
79.8637091356
 11
98.4764318266
 21
79.8834811964
  0
LINE
  5
5DC
100
AcDbEntity
  8
KONSTRUKTIONSELEMENTE
100
AcDbLine
 62
7
  6
CONTINUOUS
 10
98.4468569398
 20
80.1069542736
 11
98.6990951501
 21
80.067410152
  0
LINE
  5
5DD
100
AcDbEntity
  8
KONSTRUKTIONSELEMENTE
100
AcDbLine
 62
7
  6
CONTINUOUS
 10
82.0704141565
 20
87.0309902342
 11
82.3526249539
 21
86.9822895438
  0
LINE
  5
5DE
100
AcDbEntity
  8
KONSTRUKTIONSELEMENTE
100
AcDbLine
 62
7
  6
CONTINUOUS
 10
94.2689816996
 20
86.2899127972
 11
94.4099064375
 21
86.2576436448
  0
LINE
  5
5DF
100
AcDbEntity
  8
KONSTRUKTIONSELEMENTE
100
AcDbLine
 62
7
  6
CONTINUOUS
 10
94.8391578203
 20
87.4715253531
 11
94.6982330824
 21
87.5037945055
  0
LINE
  5
5E0
100
AcDbEntity
  8
KONSTRUKTIONSELEMENTE
100
AcDbLine
 62
7
  6
CONTINUOUS
 10
95.5234712994
 20
88.3136482848
 11
95.3825465615
 21
88.3459174372
  0
LINE
  5
5E1
100
AcDbEntity
  8
KONSTRUKTIONSELEMENTE
100
AcDbLine
 62
7
  6
CONTINUOUS
 10
98.7580173981
 20
82.9115165916
 11
98.3486325453
 21
83.0063392773
  0
LINE
  5
5E2
100
AcDbEntity
  8
KONSTRUKTIONSELEMENTE
100
AcDbLine
 62
7
  6
CONTINUOUS
 10
92.2562115487
 20
87.2444692901
 11
92.0048392612
 21
87.3086512955
  0
LINE
  5
5E3
100
AcDbEntity
  8
KONSTRUKTIONSELEMENTE
100
AcDbLine
 62
7
  6
CONTINUOUS
 10
91.4183042434
 20
87.4584092267
 11
91.0831405542
 21
87.5439853971
  0
LINE
  5
5E4
100
AcDbEntity
  8
KONSTRUKTIONSELEMENTE
100
AcDbLine
 62
7
  6
CONTINUOUS
 10
90.4966055364
 20
87.6937433283
 11
90.2452332489
 21
87.7579253337
  0
LINE
  5
5E5
100
AcDbEntity
  8
KONSTRUKTIONSELEMENTE
100
AcDbLine
 62
7
  6
CONTINUOUS
 10
90.9874030349
 20
90.6646733463
 11
91.3644614661
 21
90.5684003381
  0
LINE
  5
5E6
100
AcDbEntity
  8
KONSTRUKTIONSELEMENTE
100
AcDbLine
 62
7
  6
CONTINUOUS
 10
92.6213229035
 20
90.2474903109
 11
92.9983813347
 21
90.1512173027
  0
LINE
  5
5E7
100
AcDbEntity
  8
KONSTRUKTIONSELEMENTE
100
AcDbLine
 62
7
  6
CONTINUOUS
 10
86.3101842826
 20
90.1306112299
 11
86.5174717643
 21
90.0736622466
  0
LINE
  5
5E8
100
AcDbEntity
  8
KONSTRUKTIONSELEMENTE
100
AcDbLine
 62
7
  6
CONTINUOUS
 10
154.2189928981
 20
73.7187852825
 11
154.2189928981
 21
73.2187852825
  0
LINE
  5
5E9
100
AcDbEntity
  8
KONSTRUKTIONSELEMENTE
100
AcDbLine
 62
7
  6
CONTINUOUS
 10
154.6356596442
 20
73.7187852825
 11
154.6356596442
 21
73.2187852825
  0
LINE
  5
5EA
100
AcDbEntity
  8
KONSTRUKTIONSELEMENTE
100
AcDbLine
 62
7
  6
CONTINUOUS
 10
154.9689928981
 20
73.7187852825
 11
154.9689928981
 21
73.2187852825
  0
LINE
  5
5EB
100
AcDbEntity
  8
KONSTRUKTIONSELEMENTE
100
AcDbLine
 62
7
  6
CONTINUOUS
 10
155.2189928981
 20
73.7187852825
 11
155.2189928981
 21
73.2187852825
  0
LINE
  5
5EC
100
AcDbEntity
  8
KONSTRUKTIONSELEMENTE
100
AcDbLine
 62
7
  6
CONTINUOUS
 10
155.3023261519
 20
73.7187852825
 11
155.3023261519
 21
73.2187852825
  0
LINE
  5
5ED
100
AcDbEntity
  8
KONSTRUKTIONSELEMENTE
100
AcDbLine
 62
7
  6
CONTINUOUS
 10
155.3856596442
 20
73.7187852825
 11
155.3856596442
 21
73.2187852825
  0
LINE
  5
5EE
100
AcDbEntity
  8
KONSTRUKTIONSELEMENTE
100
AcDbLine
 62
7
  6
CONTINUOUS
 10
156.0523261519
 20
73.7187852825
 11
156.0523261519
 21
73.2187852825
  0
LINE
  5
5EF
100
AcDbEntity
  8
KONSTRUKTIONSELEMENTE
100
AcDbLine
 62
7
  6
CONTINUOUS
 10
156.5523263903
 20
73.7187852825
 11
156.5523263903
 21
73.2187852825
  0
LINE
  5
5F0
100
AcDbEntity
  8
KONSTRUKTIONSELEMENTE
100
AcDbLine
 62
7
  6
CONTINUOUS
 10
156.6356594058
 20
73.7187852825
 11
156.6356594058
 21
73.2187852825
  0
LINE
  5
5F1
100
AcDbEntity
  8
KONSTRUKTIONSELEMENTE
100
AcDbLine
 62
7
  6
CONTINUOUS
 10
156.8023263903
 20
73.7187852825
 11
156.8023263903
 21
73.2187852825
  0
LINE
  5
5F2
100
AcDbEntity
  8
KONSTRUKTIONSELEMENTE
100
AcDbLine
 62
7
  6
CONTINUOUS
 10
157.0523263903
 20
73.7187852825
 11
157.0523263903
 21
73.2187852825
  0
LINE
  5
5F3
100
AcDbEntity
  8
KONSTRUKTIONSELEMENTE
100
AcDbLine
 62
7
  6
CONTINUOUS
 10
157.3856594058
 20
73.7187852825
 11
157.3856594058
 21
73.2187852825
  0
LINE
  5
5F4
100
AcDbEntity
  8
KONSTRUKTIONSELEMENTE
100
AcDbLine
 62
7
  6
CONTINUOUS
 10
157.7189928981
 20
73.7187852825
 11
157.7189928981
 21
73.2187852825
  0
LINE
  5
5F5
100
AcDbEntity
  8
KONSTRUKTIONSELEMENTE
100
AcDbLine
 62
7
  6
CONTINUOUS
 10
158.0523263903
 20
73.7187852825
 11
158.0523263903
 21
73.2187852825
  0
LINE
  5
5F6
100
AcDbEntity
  8
KONSTRUKTIONSELEMENTE
100
AcDbLine
 62
7
  6
CONTINUOUS
 10
158.3023263903
 20
73.7187852825
 11
158.3023263903
 21
73.2187852825
  0
LINE
  5
5F7
100
AcDbEntity
  8
KONSTRUKTIONSELEMENTE
100
AcDbLine
 62
7
  6
CONTINUOUS
 10
230.3581005283
 20
86.3007848808
 11
230.5392214893
 21
86.3186454454
  0
LINE
  5
5F8
100
AcDbEntity
  8
KONSTRUKTIONSELEMENTE
100
AcDbLine
 62
7
  6
CONTINUOUS
 10
231.2350840786
 20
86.9053658552
 11
230.8728421567
 21
86.8696447262
  0
LINE
  5
5F9
100
AcDbEntity
  8
KONSTRUKTIONSELEMENTE
100
AcDbLine
 62
7
  6
CONTINUOUS
 10
231.0396532184
 20
87.1451436928
 11
231.2207741794
 21
87.1630042573
  0
LINE
  5
5FA
100
AcDbEntity
  8
KONSTRUKTIONSELEMENTE
100
AcDbLine
 62
7
  6
CONTINUOUS
 10
231.3238969335
 20
88.3922331283
 11
231.1427759726
 21
88.3743725638
  0
LINE
  5
5FB
100
AcDbEntity
  8
KONSTRUKTIONSELEMENTE
100
AcDbLine
 62
7
  6
CONTINUOUS
 10
217.4640526254
 20
80.4646569352
 11
217.7861107419
 21
80.462596673
  0
LINE
  5
5FC
100
AcDbEntity
  8
KONSTRUKTIONSELEMENTE
100
AcDbLine
 62
7
  6
CONTINUOUS
 10
97.4041477868
 20
81.5396683918
 11
97.2079012092
 21
81.5446723325
  0
LINE
  5
5FD
100
AcDbEntity
  8
KONSTRUKTIONSELEMENTE
100
AcDbLine
 62
7
  6
CONTINUOUS
 10
84.6144265839
 20
86.5040456798
 11
84.7949939086
 21
86.4812585136
  0
LINE
  5
5FE
100
AcDbEntity
  8
KONSTRUKTIONSELEMENTE
100
AcDbLine
 62
7
  6
CONTINUOUS
 10
98.5026515558
 20
83.2133671313
 11
98.7699441667
 21
83.1784235973
  0
LINE
  5
5FF
100
AcDbEntity
  8
KONSTRUKTIONSELEMENTE
100
AcDbLine
 62
7
  6
CONTINUOUS
 10
98.2803720642
 20
84.3638122749
 11
97.7681865813
 21
84.4317191608
  0
LINE
  5
600
100
AcDbEntity
  8
KONSTRUKTIONSELEMENTE
100
AcDbLine
 62
7
  6
CONTINUOUS
 10
98.2396510369
 20
84.6278641551
 11
98.7518363548
 21
84.5599572006
  0
LINE
  5
601
100
AcDbEntity
  8
KONSTRUKTIONSELEMENTE
100
AcDbLine
 62
7
  6
CONTINUOUS
 10
158.4689928981
 20
73.7187852825
 11
158.4689928981
 21
73.2187852825
  0
LINE
  5
602
100
AcDbEntity
  8
KONSTRUKTIONSELEMENTE
100
AcDbLine
 62
7
  6
CONTINUOUS
 10
158.5523263903
 20
73.7187852825
 11
158.5523263903
 21
73.2187852825
  0
LINE
  5
603
100
AcDbEntity
  8
KONSTRUKTIONSELEMENTE
100
AcDbLine
 62
7
  6
CONTINUOUS
 10
159.0523263903
 20
73.7187852825
 11
159.0523263903
 21
73.2187852825
  0
LINE
  5
604
100
AcDbEntity
  8
KONSTRUKTIONSELEMENTE
100
AcDbLine
 62
7
  6
CONTINUOUS
 10
159.7189928981
 20
73.7187852825
 11
159.7189928981
 21
73.2187852825
  0
LINE
  5
605
100
AcDbEntity
  8
KONSTRUKTIONSELEMENTE
100
AcDbLine
 62
7
  6
CONTINUOUS
 10
161.7189928981
 20
73.7187852825
 11
161.7189928981
 21
73.2187852825
  0
LINE
  5
606
100
AcDbEntity
  8
KONSTRUKTIONSELEMENTE
100
AcDbLine
 62
7
  6
CONTINUOUS
 10
162.1356598826
 20
73.7187852825
 11
162.1356598826
 21
73.2187852825
  0
LINE
  5
607
100
AcDbEntity
  8
KONSTRUKTIONSELEMENTE
100
AcDbLine
 62
7
  6
CONTINUOUS
 10
162.4689928981
 20
73.7187852825
 11
162.4689928981
 21
73.2187852825
  0
LINE
  5
608
100
AcDbEntity
  8
KONSTRUKTIONSELEMENTE
100
AcDbLine
 62
7
  6
CONTINUOUS
 10
162.8023259135
 20
73.7187852825
 11
162.8023259135
 21
73.2187852825
  0
LINE
  5
609
100
AcDbEntity
  8
KONSTRUKTIONSELEMENTE
100
AcDbLine
 62
7
  6
CONTINUOUS
 10
162.9689928981
 20
73.7187852825
 11
162.9689928981
 21
73.2187852825
  0
LINE
  5
60A
100
AcDbEntity
  8
KONSTRUKTIONSELEMENTE
100
AcDbLine
 62
7
  6
CONTINUOUS
 10
163.0523259135
 20
73.7187852825
 11
163.0523259135
 21
73.2187852825
  0
LINE
  5
60B
100
AcDbEntity
  8
KONSTRUKTIONSELEMENTE
100
AcDbLine
 62
7
  6
CONTINUOUS
 10
98.7933929469
 20
78.6082968596
 11
98.4647012637
 21
78.5722930028
  0
LINE
  5
60C
100
AcDbEntity
  8
KONSTRUKTIONSELEMENTE
100
AcDbLine
 62
7
  6
CONTINUOUS
 10
98.1181654333
 20
80.0709503891
 11
98.4468569398
 21
80.1069542736
  0
LINE
  5
60D
100
AcDbEntity
  8
KONSTRUKTIONSELEMENTE
100
AcDbLine
 62
7
  6
CONTINUOUS
 10
97.3619200443
 20
81.7517001515
 11
97.7459678161
 21
81.7840982513
  0
LINE
  5
60E
100
AcDbEntity
  8
KONSTRUKTIONSELEMENTE
100
AcDbLine
 62
7
  6
CONTINUOUS
 10
222.9407521714
 20
87.2272531103
 11
222.7160103651
 21
87.2097477031
  0
LINE
  5
60F
100
AcDbEntity
  8
KONSTRUKTIONSELEMENTE
100
AcDbLine
 62
7
  6
CONTINUOUS
 10
222.4595281007
 20
89.0932601505
 11
222.6842699051
 21
89.1107655629
  0
LINE
  5
610
100
AcDbEntity
  8
KONSTRUKTIONSELEMENTE
100
AcDbLine
 62
7
  6
CONTINUOUS
 10
222.0319908817
 20
90.091527436
 11
222.2567326861
 21
90.1090328484
  0
LINE
  5
611
100
AcDbEntity
  8
KONSTRUKTIONSELEMENTE
100
AcDbLine
 62
7
  6
CONTINUOUS
 10
98.4351263769
 20
78.79576608
 11
98.6310023896
 21
78.8088269348
  0
LINE
  5
612
100
AcDbEntity
  8
KONSTRUKTIONSELEMENTE
100
AcDbLine
 62
7
  6
CONTINUOUS
 10
98.4764318266
 20
79.8834811964
 11
98.2805559906
 21
79.8704203139
  0
LINE
  5
613
100
AcDbEntity
  8
KONSTRUKTIONSELEMENTE
100
AcDbLine
 62
7
  6
CONTINUOUS
 10
97.0394557288
 20
80.1962939531
 11
97.2353316091
 21
80.2093548287
  0
LINE
  5
614
100
AcDbEntity
  8
KONSTRUKTIONSELEMENTE
100
AcDbLine
 62
7
  6
CONTINUOUS
 10
97.7255955763
 20
81.5595972093
 11
97.4041477868
 21
81.5396683918
  0
LINE
  5
615
100
AcDbEntity
  8
KONSTRUKTIONSELEMENTE
100
AcDbLine
 62
7
  6
CONTINUOUS
 10
97.984957101
 20
83.1984422371
 11
98.3064046095
 21
83.2183720077
  0
LINE
  5
616
100
AcDbEntity
  8
KONSTRUKTIONSELEMENTE
100
AcDbLine
 62
7
  6
CONTINUOUS
 10
230.4797944576
 20
86.0384970369
 11
230.191289442
 21
86.0252858838
  0
LINE
  5
617
100
AcDbEntity
  8
KONSTRUKTIONSELEMENTE
100
AcDbLine
 62
7
  6
CONTINUOUS
 10
231.2022029902
 20
88.6545209549
 11
231.4907079952
 21
88.6677320949
  0
LINE
  5
618
100
AcDbEntity
  8
KONSTRUKTIONSELEMENTE
100
AcDbLine
 62
7
  6
CONTINUOUS
 10
96.8388181787
 20
80.7610284467
 11
96.5197365517
 21
80.7544738267
  0
LINE
  5
619
100
AcDbEntity
  8
KONSTRUKTIONSELEMENTE
100
AcDbLine
 62
7
  6
CONTINUOUS
 10
96.5152963218
 20
80.9706260638
 11
96.8343779488
 21
80.9771806838
  0
LINE
  5
61A
100
AcDbEntity
  8
KONSTRUKTIONSELEMENTE
100
AcDbLine
 62
7
  6
CONTINUOUS
 10
84.9929623954
 20
86.1505761407
 11
84.7780216858
 21
86.1471311447
  0
LINE
  5
61B
100
AcDbEntity
  8
KONSTRUKTIONSELEMENTE
100
AcDbLine
 62
7
  6
CONTINUOUS
 10
216.7431106594
 20
82.7107227672
 11
216.4841743415
 21
82.7076454202
  0
LINE
  5
61C
100
AcDbEntity
  8
KONSTRUKTIONSELEMENTE
100
AcDbLine
 62
7
  6
CONTINUOUS
 10
216.4613951877
 20
82.9738459658
 11
216.7833875638
 21
82.9670138667
  0
LINE
  5
61D
100
AcDbEntity
  8
KONSTRUKTIONSELEMENTE
100
AcDbLine
 62
7
  6
CONTINUOUS
 10
98.3064046095
 20
83.2183720077
 11
98.5026515558
 21
83.2133671313
  0
LINE
  5
61E
100
AcDbEntity
  8
KONSTRUKTIONSELEMENTE
100
AcDbLine
 62
7
  6
CONTINUOUS
 10
217.755991247
 20
80.1971264986
 11
217.497238554
 21
80.2073515701
  0
LINE
  5
61F
100
AcDbEntity
  8
KONSTRUKTIONSELEMENTE
100
AcDbLine
 62
7
  6
CONTINUOUS
 10
82.1974902771
 20
86.7743458284
 11
82.0434569639
 21
86.7813674976
  0
LINE
  5
620
100
AcDbEntity
  8
KONSTRUKTIONSELEMENTE
100
AcDbLine
 62
7
  6
CONTINUOUS
 10
217.0978053699
 20
77.8965061918
 11
217.3836040053
 21
77.8782351376
  0
LINE
  5
621
100
AcDbEntity
  8
KONSTRUKTIONSELEMENTE
100
AcDbLine
 62
7
  6
CONTINUOUS
 10
98.2889988956
 20
81.6718032782
 11
97.7255955763
 21
81.5595972093
  0
LINE
  5
622
100
AcDbEntity
  8
KONSTRUKTIONSELEMENTE
100
AcDbLine
 62
7
  6
CONTINUOUS
 10
97.7459678161
 20
81.7840982513
 11
98.1841703978
 21
81.8713696382
  0
LINE
  5
623
100
AcDbEntity
  8
KONSTRUKTIONSELEMENTE
100
AcDbLine
 62
7
  6
CONTINUOUS
 10
94.4099064375
 20
86.2576436448
 11
94.5910849028
 21
86.2749111273
  0
LINE
  5
624
100
AcDbEntity
  8
KONSTRUKTIONSELEMENTE
100
AcDbLine
 62
7
  6
CONTINUOUS
 10
94.6982330824
 20
87.5037945055
 11
94.5170546171
 21
87.4865270231
  0
LINE
  5
625
100
AcDbEntity
  8
KONSTRUKTIONSELEMENTE
100
AcDbLine
 62
7
  6
CONTINUOUS
 10
94.5035875294
 20
87.7442115188
 11
94.86594446
 21
87.7787464837
  0
LINE
  5
626
100
AcDbEntity
  8
KONSTRUKTIONSELEMENTE
100
AcDbLine
 62
7
  6
CONTINUOUS
 10
98.3486325453
 20
83.0063392773
 11
97.9645848612
 21
82.9739411951
  0
LINE
  5
627
100
AcDbEntity
  8
KONSTRUKTIONSELEMENTE
100
AcDbLine
 62
7
  6
CONTINUOUS
 10
94.5307409895
 20
85.9949587832
 11
94.2421950352
 21
85.9826916363
  0
LINE
  5
628
100
AcDbEntity
  8
KONSTRUKTIONSELEMENTE
100
AcDbLine
 62
7
  6
CONTINUOUS
 10
95.2617119954
 20
88.6086022816
 11
95.5502579391
 21
88.6208694154
  0
LINE
  5
629
100
AcDbEntity
  8
KONSTRUKTIONSELEMENTE
100
AcDbLine
 62
7
  6
CONTINUOUS
 10
86.4075119288
 20
89.7576907635
 11
86.2231705799
 21
89.7550770424
  0
LINE
  5
62A
100
AcDbEntity
  8
0
100
AcDbLine
 62
7
  6
CONTINUOUS
 10
190.5190045145
 20
87.7187852825
 11
124.518981254
 21
87.7187852825
  0
LINE
  5
62B
100
AcDbEntity
  8
KONSTRUKTIONSELEMENTE
100
AcDbLine
 62
7
  6
CONTINUOUS
 10
75.0189928981
 20
88.2187852825
 11
76.0189928981
 21
88.2187852825
  0
LINE
  5
62C
100
AcDbEntity
  8
KONSTRUKTIONSELEMENTE
100
AcDbLine
 62
7
  6
CONTINUOUS
 10
141.6766492509
 20
88.2187852825
 11
173.3613365452
 21
88.2187852825
  0
LINE
  5
62D
100
AcDbEntity
  8
KONSTRUKTIONSELEMENTE
100
AcDbLine
 62
7
  6
CONTINUOUS
 10
239.0189928981
 20
88.2187852825
 11
240.0189928981
 21
88.2187852825
  0
LINE
  5
62E
100
AcDbEntity
  8
0
100
AcDbLine
 62
7
  6
CONTINUOUS
 10
121.5189928981
 20
88.7187852825
 11
122.5189928981
 21
88.7187852825
  0
LINE
  5
62F
100
AcDbEntity
  8
0
100
AcDbLine
 62
7
  6
CONTINUOUS
 10
192.5189928981
 20
88.7187852825
 11
193.5189928981
 21
88.7187852825
  0
LINE
  5
630
100
AcDbEntity
  8
0
100
AcDbLine
 62
7
  6
CONTINUOUS
 10
191.5189928981
 20
89.7187852825
 11
174.4445056194
 21
89.7187852825
  0
LINE
  5
631
100
AcDbEntity
  8
KONSTRUKTIONSELEMENTE
100
AcDbLine
 62
7
  6
CONTINUOUS
 10
124.4193976457
 20
89.7187852825
 11
140.6185883113
 21
89.7187852825
  0
LINE
  5
632
100
AcDbEntity
  8
0
100
AcDbLine
 62
7
  6
CONTINUOUS
 10
123.5189928981
 20
89.7187852825
 11
140.5934801767
 21
89.7187852825
  0
LINE
  5
633
100
AcDbEntity
  8
KONSTRUKTIONSELEMENTE
100
AcDbLine
 62
7
  6
CONTINUOUS
 10
174.4193974848
 20
89.7187852825
 11
190.6185881512
 21
89.7187852825
  0
LINE
  5
634
100
AcDbEntity
  8
KONSTRUKTIONSELEMENTE
100
AcDbLine
 62
7
  6
CONTINUOUS
 10
227.8700215599
 20
87.6500626163
 11
228.0952634719
 21
87.6410642143
  0
LINE
  5
635
100
AcDbEntity
  8
KONSTRUKTIONSELEMENTE
100
AcDbLine
 62
7
  6
CONTINUOUS
 10
228.6286382247
 20
89.8866085792
 11
228.4033944383
 21
89.895607617
  0
LINE
  5
636
100
AcDbEntity
  8
KONSTRUKTIONSELEMENTE
100
AcDbLine
 62
7
  6
CONTINUOUS
 10
228.0336969593
 20
87.3249386513
 11
227.7675057936
 21
87.3478266731
  0
LINE
  5
637
100
AcDbEntity
  8
KONSTRUKTIONSELEMENTE
100
AcDbLine
 62
7
  6
CONTINUOUS
 10
222.6425388552
 20
87.5233201169
 11
222.7864933709
 21
87.5099718078
  0
LINE
  5
638
100
AcDbEntity
  8
KONSTRUKTIONSELEMENTE
100
AcDbLine
 62
7
  6
CONTINUOUS
 10
218.4696073971
 20
80.9512147039
 11
215.5059806119
 21
81.4169574203
  0
LINE
  5
639
100
AcDbEntity
  8
KONSTRUKTIONSELEMENTE
100
AcDbLine
 62
7
  6
CONTINUOUS
 10
215.9245928055
 20
81.6137920099
 11
218.1315489682
 21
81.2669623202
  0
LINE
  5
63A
100
AcDbEntity
  8
KONSTRUKTIONSELEMENTE
100
AcDbLine
 62
7
  6
CONTINUOUS
 10
217.6889489707
 20
82.5620814786
 11
216.7431106594
 21
82.7107227672
  0
LINE
  5
63B
100
AcDbEntity
  8
KONSTRUKTIONSELEMENTE
100
AcDbLine
 62
7
  6
CONTINUOUS
 10
216.7833875638
 20
82.9670138667
 11
217.7292258751
 21
82.8183725781
  0
LINE
  5
63C
100
AcDbEntity
  8
KONSTRUKTIONSELEMENTE
100
AcDbLine
 62
7
  6
CONTINUOUS
 10
217.293129997
 20
77.6039654555
 11
217.1416875629
 21
77.6329612229
  0
LINE
  5
63D
100
AcDbEntity
  8
KONSTRUKTIONSELEMENTE
100
AcDbLine
 62
7
  6
CONTINUOUS
 10
217.7861107419
 20
80.462596673
 11
218.0503944462
 21
80.4094875433
  0
LINE
  5
63E
100
AcDbEntity
  8
BEZUGSACHSEN
100
AcDbLine
 62
7
  6
CONTINUOUS
 10
173.3087844275
 20
73.7187852825
 11
173.424875047
 21
72.6142568193
  0
LINE
  5
63F
100
AcDbEntity
  8
0
100
AcDbLine
 62
7
  6
CONTINUOUS
 10
173.424875047
 20
88.8233137458
 11
173.3087844275
 21
87.7187852825
  0
LINE
  5
640
100
AcDbEntity
  8
KONSTRUKTIONSELEMENTE
100
AcDbLine
 62
7
  6
CONTINUOUS
 10
228.1987127256
 20
90.0998371846
 11
228.4649628128
 21
90.2117325072
  0
LINE
  5
641
100
AcDbEntity
  8
KONSTRUKTIONSELEMENTE
100
AcDbLine
 62
7
  6
CONTINUOUS
 10
221.8704153799
 20
90.0298196399
 11
222.0319908817
 21
90.091527436
  0
LINE
  5
642
100
AcDbEntity
  8
KONSTRUKTIONSELEMENTE
100
AcDbLine
 62
7
  6
CONTINUOUS
 10
222.1862505909
 20
89.8088091334
 11
221.9438878004
 21
89.7162476157
  0
LINE
  5
643
100
AcDbEntity
  8
KONSTRUKTIONSELEMENTE
100
AcDbLine
 62
7
  6
CONTINUOUS
 10
222.8480080768
 20
89.6515844451
 11
222.6460393929
 21
89.5744499647
  0
LINE
  5
644
100
AcDbEntity
  8
KONSTRUKTIONSELEMENTE
100
AcDbLine
 62
7
  6
CONTINUOUS
 10
222.2575584924
 20
89.016125317
 11
222.4595281007
 21
89.0932601505
  0
LINE
  5
645
100
AcDbEntity
  8
KONSTRUKTIONSELEMENTE
100
AcDbLine
 62
7
  6
CONTINUOUS
 10
222.6137868853
 20
88.8105414948
 11
222.3310309129
 21
88.7025532928
  0
LINE
  5
646
100
AcDbEntity
  8
KONSTRUKTIONSELEMENTE
100
AcDbLine
 62
7
  6
CONTINUOUS
 10
222.7864933709
 20
87.5099718078
 11
223.0692493433
 21
87.6179600097
  0
LINE
  5
647
100
AcDbEntity
  8
KONSTRUKTIONSELEMENTE
100
AcDbLine
 62
7
  6
CONTINUOUS
 10
223.1427217798
 20
87.3043879438
 11
222.9407521714
 21
87.2272531103
  0
LINE
  5
648
100
AcDbEntity
  8
KONSTRUKTIONSELEMENTE
100
AcDbLine
 62
7
  6
CONTINUOUS
 10
217.6299822688
 20
79.17813011
 11
217.8776729961
 21
79.2536734117
  0
LINE
  5
649
100
AcDbEntity
  8
KONSTRUKTIONSELEMENTE
100
AcDbLine
 62
7
  6
CONTINUOUS
 10
98.6310023896
 20
78.8088269348
 11
98.833574791
 21
78.8646028801
  0
LINE
  5
64A
100
AcDbEntity
  8
KONSTRUKTIONSELEMENTE
100
AcDbLine
 62
7
  6
CONTINUOUS
 10
98.2805559906
 20
79.8704203139
 11
98.0779835892
 21
79.8146443686
  0
LINE
  5
64B
100
AcDbEntity
  8
KONSTRUKTIONSELEMENTE
100
AcDbLine
 62
7
  6
CONTINUOUS
 10
97.2018466368
 20
79.9957658264
 11
96.9992738847
 21
79.9399879326
  0
LINE
  5
64C
100
AcDbEntity
  8
KONSTRUKTIONSELEMENTE
100
AcDbLine
 62
7
  6
CONTINUOUS
 10
97.9645848612
 20
82.9739411951
 11
97.5263822795
 21
82.8866698081
  0
LINE
  5
64D
100
AcDbEntity
  8
KONSTRUKTIONSELEMENTE
100
AcDbLine
 62
7
  6
CONTINUOUS
 10
97.4215537817
 20
83.0862361681
 11
97.984957101
 21
83.1984422371
  0
LINE
  5
64E
100
AcDbEntity
  8
KONSTRUKTIONSELEMENTE
100
AcDbLine
 62
7
  6
CONTINUOUS
 10
95.3825465615
 20
88.3459174372
 11
95.2013680961
 21
88.3286499548
  0
LINE
  5
64F
100
AcDbEntity
  8
KONSTRUKTIONSELEMENTE
100
AcDbLine
 62
7
  6
CONTINUOUS
 10
81.8135084689
 20
87.0068655348
 11
82.0704141565
 21
87.0309902342
  0
LINE
  5
650
100
AcDbEntity
  8
KONSTRUKTIONSELEMENTE
100
AcDbLine
 62
7
  6
CONTINUOUS
 10
86.0854937833
 20
90.1124532689
 11
86.3101842826
 21
90.1306112299
  0
LINE
  5
651
100
AcDbEntity
  8
KONSTRUKTIONSELEMENTE
100
AcDbLine
 62
7
  6
CONTINUOUS
 10
110.3758923388
 20
94.5259987122
 11
108.5189928981
 21
94.5259987122
  0
LINE
  5
652
100
AcDbEntity
  8
KONSTRUKTIONSELEMENTE
100
AcDbLine
 62
7
  6
CONTINUOUS
 10
245.5189928981
 20
97.7187852825
 11
195.5189928981
 21
97.7187852825
  0
LINE
  5
653
100
AcDbEntity
  8
KONSTRUKTIONSELEMENTE
100
AcDbLine
 62
7
  6
CONTINUOUS
 10
119.5189928981
 20
97.7187852825
 11
69.5189928981
 21
97.7187852825
  0
LINE
  5
654
100
AcDbEntity
  8
KONSTRUKTIONSELEMENTE
100
AcDbLine
 62
7
  6
CONTINUOUS
 10
236.4089922877
 20
98.2187852825
 11
232.5298266383
 21
98.2187852825
  0
LINE
  5
655
100
AcDbEntity
  8
KONSTRUKTIONSELEMENTE
100
AcDbLine
 62
7
  6
CONTINUOUS
 10
231.7131609889
 20
98.2187852825
 11
227.9360766383
 21
98.2187852825
  0
LINE
  5
656
100
AcDbEntity
  8
KONSTRUKTIONSELEMENTE
100
AcDbLine
 62
7
  6
CONTINUOUS
 10
227.1194109889
 20
98.2187852825
 11
223.1381602259
 21
98.2187852825
  0
LINE
  5
657
100
AcDbEntity
  8
KONSTRUKTIONSELEMENTE
100
AcDbLine
 62
7
  6
CONTINUOUS
 10
217.4214930506
 20
98.2187852825
 11
213.7464938136
 21
98.2187852825
  0
LINE
  5
658
100
AcDbEntity
  8
KONSTRUKTIONSELEMENTE
100
AcDbLine
 62
7
  6
CONTINUOUS
 10
212.9298262568
 20
98.2187852825
 11
210.4798254939
 21
98.2187852825
  0
LINE
  5
659
100
AcDbEntity
  8
KONSTRUKTIONSELEMENTE
100
AcDbLine
 62
7
  6
CONTINUOUS
 10
228.4649628128
 20
90.2117325072
 11
228.7311539766
 21
90.1888444801
  0
LINE
  5
65A
100
AcDbEntity
  8
KONSTRUKTIONSELEMENTE
100
AcDbLine
 62
7
  6
CONTINUOUS
 10
222.757741401
 20
88.7971931856
 11
222.6137868853
 21
88.8105414948
  0
LINE
  5
65B
100
AcDbEntity
  8
KONSTRUKTIONSELEMENTE
100
AcDbLine
 62
7
  6
CONTINUOUS
 10
222.3302051066
 20
89.7954608243
 11
222.1862505909
 21
89.8088091334
  0
LINE
  5
65C
100
AcDbEntity
  8
KONSTRUKTIONSELEMENTE
100
AcDbLine
 62
7
  6
CONTINUOUS
 10
226.6791707419
 20
87.6268454102
 11
226.421901385
 21
87.6603093417
  0
LINE
  5
65D
100
AcDbEntity
  8
KONSTRUKTIONSELEMENTE
100
AcDbLine
 62
7
  6
CONTINUOUS
 10
226.8088621651
 20
90.6352482242
 11
227.066131522
 21
90.6017842927
  0
LINE
  5
65E
100
AcDbEntity
  8
KONSTRUKTIONSELEMENTE
100
AcDbLine
 62
7
  6
CONTINUOUS
 10
217.9569694834
 20
80.1358525537
 11
217.755991247
 21
80.1971264986
  0
LINE
  5
65F
100
AcDbEntity
  8
KONSTRUKTIONSELEMENTE
100
AcDbLine
 62
7
  6
CONTINUOUS
 10
213.5189928981
 20
87.6469885128
 11
225.518992898
 21
94.5751917431
  0
LINE
  5
660
100
AcDbEntity
  8
KONSTRUKTIONSELEMENTE
100
AcDbLine
 62
7
  6
CONTINUOUS
 10
228.4033944383
 20
89.895607617
 11
228.2395441308
 21
89.8163808603
  0
LINE
  5
661
100
AcDbEntity
  8
KONSTRUKTIONSELEMENTE
100
AcDbLine
 62
7
  6
CONTINUOUS
 10
228.0952634719
 20
87.6410642143
 11
228.2591137794
 21
87.7202909711
  0
LINE
  5
662
100
AcDbEntity
  8
KONSTRUKTIONSELEMENTE
100
AcDbLine
 62
7
  6
CONTINUOUS
 10
215.916671231
 20
82.7968302128
 11
216.1957460012
 21
82.9280531096
  0
LINE
  5
663
100
AcDbEntity
  8
KONSTRUKTIONSELEMENTE
100
AcDbLine
 62
7
  6
CONTINUOUS
 10
230.9408993697
 20
88.5373240718
 11
231.2022029902
 21
88.6545209549
  0
LINE
  5
664
100
AcDbEntity
  8
KONSTRUKTIONSELEMENTE
100
AcDbLine
 62
7
  6
CONTINUOUS
 10
230.7410980921
 20
86.1556939373
 11
230.4797944576
 21
86.0384970369
  0
LINE
  5
665
100
AcDbEntity
  8
KONSTRUKTIONSELEMENTE
100
AcDbLine
 62
7
  6
CONTINUOUS
 10
228.2999451774
 20
87.4368346256
 11
228.0336969593
 21
87.3249386513
  0
LINE
  5
666
100
AcDbEntity
  8
KONSTRUKTIONSELEMENTE
100
AcDbLine
 62
7
  6
CONTINUOUS
 10
230.2170708972
 20
86.3325924756
 11
230.3581005283
 21
86.3007848808
  0
LINE
  5
667
100
AcDbEntity
  8
KONSTRUKTIONSELEMENTE
100
AcDbLine
 62
7
  6
CONTINUOUS
 10
230.8986235873
 20
87.1769512875
 11
231.0396532184
 21
87.1451436928
  0
LINE
  5
668
100
AcDbEntity
  8
KONSTRUKTIONSELEMENTE
100
AcDbLine
 62
7
  6
CONTINUOUS
 10
231.4649265646
 20
88.3604255336
 11
231.3238969335
 21
88.3922331283
  0
LINE
  5
669
100
AcDbEntity
  8
KONSTRUKTIONSELEMENTE
100
AcDbLine
 62
7
  6
CONTINUOUS
 10
217.7292258751
 20
82.8183725781
 11
218.037792491
 21
82.7261104662
  0
LINE
  5
66A
100
AcDbEntity
  8
KONSTRUKTIONSELEMENTE
100
AcDbLine
 62
7
  6
CONTINUOUS
 10
217.934459705
 20
82.479728785
 11
217.6889489707
 21
82.5620814786
  0
LINE
  5
66B
100
AcDbEntity
  8
KONSTRUKTIONSELEMENTE
100
AcDbLine
 62
7
  6
CONTINUOUS
 10
225.5189928981
 20
66.862378822
 11
213.5189928981
 21
73.7905820522
  0
LINE
  5
66C
100
AcDbEntity
  8
KONSTRUKTIONSELEMENTE
100
AcDbLine
 62
7
  6
CONTINUOUS
 10
220.1861039314
 20
89.1781171278
 11
220.4055699725
 21
89.3164717935
  0
LINE
  5
66D
100
AcDbEntity
  8
KONSTRUKTIONSELEMENTE
100
AcDbLine
 62
7
  6
CONTINUOUS
 10
222.0054366625
 20
86.7786722399
 11
221.7859706214
 21
86.6403175742
  0
LINE
  5
66E
100
AcDbEntity
  8
KONSTRUKTIONSELEMENTE
100
AcDbLine
 62
7
  6
CONTINUOUS
 10
220.5189928981
 20
83.6055366285
 11
225.518992898
 21
86.4922879744
  0
LINE
  5
66F
100
AcDbEntity
  8
KONSTRUKTIONSELEMENTE
100
AcDbLine
 62
7
  6
CONTINUOUS
 10
231.1427759726
 20
88.3743725638
 11
230.9552108091
 21
88.2796844265
  0
LINE
  5
670
100
AcDbEntity
  8
KONSTRUKTIONSELEMENTE
100
AcDbLine
 62
7
  6
CONTINUOUS
 10
231.2207741794
 20
87.1630042573
 11
231.4083393428
 21
87.2576923946
  0
LINE
  5
671
100
AcDbEntity
  8
KONSTRUKTIONSELEMENTE
100
AcDbLine
 62
7
  6
CONTINUOUS
 10
230.5392214893
 20
86.3186454454
 11
230.7267866807
 21
86.4133336174
  0
LINE
  5
672
100
AcDbEntity
  8
KONSTRUKTIONSELEMENTE
100
AcDbLine
 62
7
  6
CONTINUOUS
 10
218.2163240896
 20
79.1229607182
 11
217.9741643325
 21
79.0045329788
  0
LINE
  5
673
100
AcDbEntity
  8
KONSTRUKTIONSELEMENTE
100
AcDbLine
 62
7
  6
CONTINUOUS
 10
216.670273961
 20
77.7596687077
 11
216.9048141599
 21
77.8605589386
  0
LINE
  5
674
100
AcDbEntity
  8
KONSTRUKTIONSELEMENTE
100
AcDbLine
 62
7
  6
CONTINUOUS
 10
216.9486963529
 20
77.5970139697
 11
216.7727911627
 21
77.5213462789
  0
LINE
  5
675
100
AcDbEntity
  8
KONSTRUKTIONSELEMENTE
100
AcDbLine
 62
7
  6
CONTINUOUS
 10
216.8481361013
 20
76.3770009562
 11
217.7276613954
 21
76.7553391276
  0
LINE
  5
676
100
AcDbEntity
  8
KONSTRUKTIONSELEMENTE
100
AcDbLine
 62
7
  6
CONTINUOUS
 10
218.0794714474
 20
76.9066743679
 11
219.3108067935
 21
77.4363477795
  0
LINE
  5
677
100
AcDbEntity
  8
KONSTRUKTIONSELEMENTE
100
AcDbLine
 62
7
  6
CONTINUOUS
 10
219.4133239951
 20
77.1980253506
 11
216.6574782596
 21
76.0125658271
  0
LINE
  5
678
100
AcDbEntity
  8
KONSTRUKTIONSELEMENTE
100
AcDbLine
 62
7
  6
CONTINUOUS
 10
222.7160103651
 20
87.2097477031
 11
222.4457223138
 21
87.3115004423
  0
LINE
  5
679
100
AcDbEntity
  8
KONSTRUKTIONSELEMENTE
100
AcDbLine
 62
7
  6
CONTINUOUS
 10
222.6842699051
 20
89.1107655629
 11
222.9545579504
 21
89.0090128393
  0
LINE
  5
67A
100
AcDbEntity
  8
KONSTRUKTIONSELEMENTE
100
AcDbLine
 62
7
  6
CONTINUOUS
 10
218.0503944462
 20
80.4094875433
 11
218.3257401257
 21
80.2706097921
  0
LINE
  5
67B
100
AcDbEntity
  8
KONSTRUKTIONSELEMENTE
100
AcDbLine
 62
7
  6
CONTINUOUS
 10
218.037792491
 20
82.7261104662
 11
218.2765904008
 21
82.6010422565
  0
LINE
  5
67C
100
AcDbEntity
  8
KONSTRUKTIONSELEMENTE
100
AcDbLine
 62
7
  6
CONTINUOUS
 10
225.5189928981
 20
74.9452825906
 11
220.5189928981
 21
77.8320339366
  0
LINE
  5
67D
100
AcDbEntity
  8
KONSTRUKTIONSELEMENTE
100
AcDbLine
 62
7
  6
CONTINUOUS
 10
217.3836040053
 20
77.8782351376
 11
217.5692188075
 21
77.7697986363
  0
LINE
  5
67E
100
AcDbEntity
  8
0
100
AcDbLine
 62
7
  6
CONTINUOUS
 10
191.6131099571
 20
88.823314558
 11
191.7454781255
 21
87.5639222849
  0
LINE
  5
67F
100
AcDbEntity
  8
RUNDUNGEN
100
AcDbLine
 62
7
  6
CONTINUOUS
 10
192.5189928981
 20
74.1393028551
 11
192.5189928981
 21
72.7187852825
  0
LINE
  5
680
100
AcDbEntity
  8
0
100
AcDbLine
 62
7
  6
CONTINUOUS
 10
192.5189928981
 20
87.29826771
 11
192.5189928981
 21
88.7187852825
  0
LINE
  5
681
100
AcDbEntity
  8
KONSTRUKTIONSELEMENTE
100
AcDbLine
 62
7
  6
CONTINUOUS
 10
193.5189928981
 20
95.7187852825
 11
193.5189928981
 21
86.7157236011
  0
LINE
  5
682
100
AcDbEntity
  8
KONSTRUKTIONSELEMENTE
100
AcDbLine
 62
7
  6
CONTINUOUS
 10
193.5189928981
 20
74.7218469639
 11
193.5189928981
 21
65.7187852825
  0
LINE
  5
683
100
AcDbEntity
  8
RUNDUNGEN
100
AcDbLine
 62
7
  6
CONTINUOUS
 10
191.6131099571
 20
72.6142560071
 11
191.6648376749
 21
73.1064474419
  0
LINE
  5
684
100
AcDbEntity
  8
BEZUGSACHSEN
100
AcDbLine
 62
7
  6
CONTINUOUS
 10
191.7454781255
 20
73.8736482801
 11
191.613110664
 21
72.6142560092
  0
LINE
  5
685
100
AcDbEntity
  8
KONSTRUKTIONSELEMENTE
100
AcDbLine
 62
7
  6
CONTINUOUS
 10
221.6912198166
 20
89.8930560915
 11
221.8704153799
 21
90.0298196399
  0
LINE
  5
686
100
AcDbEntity
  8
KONSTRUKTIONSELEMENTE
100
AcDbLine
 62
7
  6
CONTINUOUS
 10
222.0783629291
 20
88.8793617686
 11
222.2575584924
 21
89.016125317
  0
LINE
  5
687
100
AcDbEntity
  8
KONSTRUKTIONSELEMENTE
100
AcDbLine
 62
7
  6
CONTINUOUS
 10
223.3219173411
 20
87.4411514974
 11
223.1427217798
 21
87.3043879438
  0
LINE
  5
688
100
AcDbEntity
  8
KONSTRUKTIONSELEMENTE
100
AcDbLine
 62
7
  6
CONTINUOUS
 10
228.0143592677
 20
89.9601632477
 11
228.1987127256
 21
90.0998371846
  0
LINE
  5
689
100
AcDbEntity
  8
KONSTRUKTIONSELEMENTE
100
AcDbLine
 62
7
  6
CONTINUOUS
 10
228.4842986425
 20
87.5765085836
 11
228.2999451774
 21
87.4368346256
  0
LINE
  5
68A
100
AcDbEntity
  8
KONSTRUKTIONSELEMENTE
100
AcDbLine
 62
7
  6
CONTINUOUS
 10
216.2815808598
 20
82.6519431734
 11
216.1353306445
 21
82.5436164603
  0
LINE
  5
68B
100
AcDbEntity
  8
KONSTRUKTIONSELEMENTE
100
AcDbLine
 62
7
  6
CONTINUOUS
 10
216.511455119
 20
77.6442807207
 11
216.670273961
 21
77.7596687077
  0
LINE
  5
68C
100
AcDbEntity
  8
KONSTRUKTIONSELEMENTE
100
AcDbLine
 62
7
  6
CONTINUOUS
 10
216.7727911627
 20
77.5213462789
 11
216.6139723207
 21
77.4059582918
  0
LINE
  5
68D
100
AcDbEntity
  8
KONSTRUKTIONSELEMENTE
100
AcDbLine
 62
7
  6
CONTINUOUS
 10
230.6731514345
 20
88.3432994768
 11
230.9408993697
 21
88.5373240718
  0
LINE
  5
68E
100
AcDbEntity
  8
KONSTRUKTIONSELEMENTE
100
AcDbLine
 62
7
  6
CONTINUOUS
 10
217.8776729961
 20
79.2536734117
 11
218.0565272694
 21
79.3639364586
  0
LINE
  5
68F
100
AcDbEntity
  8
KONSTRUKTIONSELEMENTE
100
AcDbLine
 62
7
  6
CONTINUOUS
 10
222.2567326861
 20
90.1090328484
 11
222.527021656
 21
90.007280478
  0
LINE
  5
690
100
AcDbEntity
  8
KONSTRUKTIONSELEMENTE
100
AcDbLine
 62
7
  6
CONTINUOUS
 10
230.191289442
 20
86.0252858838
 11
229.982967093
 21
86.1114110579
  0
LINE
  5
691
100
AcDbEntity
  8
KONSTRUKTIONSELEMENTE
100
AcDbLine
 62
7
  6
CONTINUOUS
 10
230.8728421567
 20
86.8696447262
 11
230.6645197551
 21
86.9557698351
  0
LINE
  5
692
100
AcDbEntity
  8
KONSTRUKTIONSELEMENTE
100
AcDbLine
 62
7
  6
CONTINUOUS
 10
231.4907079952
 20
88.6677320949
 11
231.6990303407
 21
88.5816069164
  0
LINE
  5
693
100
AcDbEntity
  8
KONSTRUKTIONSELEMENTE
100
AcDbLine
 62
7
  6
CONTINUOUS
 10
222.475811219
 20
87.596297494
 11
222.6425388552
 21
87.5233201169
  0
LINE
  5
694
100
AcDbEntity
  8
KONSTRUKTIONSELEMENTE
100
AcDbLine
 62
7
  6
CONTINUOUS
 10
222.9244690373
 20
88.7242158085
 11
222.757741401
 21
88.7971931856
  0
LINE
  5
695
100
AcDbEntity
  8
KONSTRUKTIONSELEMENTE
100
AcDbLine
 62
7
  6
CONTINUOUS
 10
222.4969327428
 20
89.7224834471
 11
222.3302051066
 21
89.7954608243
  0
LINE
  5
696
100
AcDbEntity
  8
KONSTRUKTIONSELEMENTE
100
AcDbLine
 62
7
  6
CONTINUOUS
 10
220.3902700409
 20
85.4859769453
 11
218.2777208379
 21
86.7030323791
  0
LINE
  5
697
100
AcDbEntity
  8
KONSTRUKTIONSELEMENTE
100
AcDbLine
 62
7
  6
CONTINUOUS
 10
217.9117103264
 20
87.2418154722
 11
220.2827938966
 21
85.8327036691
  0
LINE
  5
698
100
AcDbEntity
  8
KONSTRUKTIONSELEMENTE
100
AcDbLine
 62
7
  6
CONTINUOUS
 10
218.1102016891
 20
82.3645700006
 11
217.934459705
 21
82.479728785
  0
LINE
  5
699
100
AcDbEntity
  8
KONSTRUKTIONSELEMENTE
100
AcDbLine
 62
7
  6
CONTINUOUS
 10
218.1001733392
 20
80.0235294957
 11
217.9569694834
 21
80.1358525537
  0
LINE
  5
69A
100
AcDbEntity
  8
KONSTRUKTIONSELEMENTE
100
AcDbLine
 62
7
  6
CONTINUOUS
 10
217.4030236065
 20
77.5100267811
 11
217.293129997
 21
77.6039654555
  0
LINE
  5
69B
100
AcDbEntity
  8
KONSTRUKTIONSELEMENTE
100
AcDbLine
 62
7
  6
CONTINUOUS
 10
195.5189928981
 20
82.7187852825
 11
195.5189928981
 21
78.7187852825
  0
LINE
  5
69C
100
AcDbEntity
  8
KONSTRUKTIONSELEMENTE
100
AcDbLine
 62
7
  6
CONTINUOUS
 10
221.9438878004
 20
89.7162476157
 11
221.8454795258
 21
89.6103377889
  0
LINE
  5
69D
100
AcDbEntity
  8
KONSTRUKTIONSELEMENTE
100
AcDbLine
 62
7
  6
CONTINUOUS
 10
222.3310309129
 20
88.7025532928
 11
222.2326226382
 21
88.596643466
  0
LINE
  5
69E
100
AcDbEntity
  8
KONSTRUKTIONSELEMENTE
100
AcDbLine
 62
7
  6
CONTINUOUS
 10
223.0692493433
 20
87.6179600097
 11
223.167657618
 21
87.7238698365
  0
LINE
  5
69F
100
AcDbEntity
  8
KONSTRUKTIONSELEMENTE
100
AcDbLine
 62
7
  6
CONTINUOUS
 10
217.63980624
 20
86.9634097961
 11
217.9117103264
 21
87.2418154722
  0
LINE
  5
6A0
100
AcDbEntity
  8
KONSTRUKTIONSELEMENTE
100
AcDbLine
 62
7
  6
CONTINUOUS
 10
218.8180572811
 20
88.1698343923
 11
219.0899613675
 21
88.4482400684
  0
LINE
  5
6A1
100
AcDbEntity
  8
KONSTRUKTIONSELEMENTE
100
AcDbLine
 62
7
  6
CONTINUOUS
 10
221.2361940957
 20
86.3521281734
 11
221.0549247048
 21
86.1665243894
  0
LINE
  5
6A2
100
AcDbEntity
  8
KONSTRUKTIONSELEMENTE
100
AcDbLine
 62
7
  6
CONTINUOUS
 10
220.6319630232
 20
85.7334491294
 11
220.3902700409
 21
85.4859769453
  0
LINE
  5
6A3
100
AcDbEntity
  8
KONSTRUKTIONSELEMENTE
100
AcDbLine
 62
7
  6
CONTINUOUS
 10
219.9673083593
 20
85.0529016852
 11
219.7860389683
 21
84.8672979012
  0
LINE
  5
6A4
100
AcDbEntity
  8
KONSTRUKTIONSELEMENTE
100
AcDbLine
 62
7
  6
CONTINUOUS
 10
215.7637082239
 20
82.6457884793
 11
215.916671231
 21
82.7968302128
  0
LINE
  5
6A5
100
AcDbEntity
  8
KONSTRUKTIONSELEMENTE
100
AcDbLine
 62
7
  6
CONTINUOUS
 10
218.4474218747
 20
79.3271567052
 11
218.2163240896
 21
79.1229607182
  0
LINE
  5
6A6
100
AcDbEntity
  8
KONSTRUKTIONSELEMENTE
100
AcDbLine
 62
7
  6
CONTINUOUS
 10
230.9552108091
 20
88.2796844265
 11
230.8012895803
 21
88.157839223
  0
LINE
  5
6A7
100
AcDbEntity
  8
KONSTRUKTIONSELEMENTE
100
AcDbLine
 62
7
  6
CONTINUOUS
 10
231.4083393428
 20
87.2576923946
 11
231.5622604593
 21
87.3795374589
  0
LINE
  5
6A8
100
AcDbEntity
  8
KONSTRUKTIONSELEMENTE
100
AcDbLine
 62
7
  6
CONTINUOUS
 10
230.7267866807
 20
86.4133336174
 11
230.8807077973
 21
86.5351786817
  0
LINE
  5
6A9
100
AcDbEntity
  8
KONSTRUKTIONSELEMENTE
100
AcDbLine
 62
7
  6
CONTINUOUS
 10
217.5692188075
 20
77.7697986363
 11
218.7640483684
 21
78.7074007713
  0
LINE
  5
6AA
100
AcDbEntity
  8
KONSTRUKTIONSELEMENTE
100
AcDbLine
 62
7
  6
CONTINUOUS
 10
218.8836518029
 20
78.4293578619
 11
217.7890060509
 21
77.5819212307
  0
LINE
  5
6AB
100
AcDbEntity
  8
KONSTRUKTIONSELEMENTE
100
AcDbLine
 62
7
  6
CONTINUOUS
 10
231.0088459431
 20
86.3497184279
 11
230.7410980921
 21
86.1556939373
  0
LINE
  5
6AC
100
AcDbEntity
  8
KONSTRUKTIONSELEMENTE
100
AcDbLine
 62
7
  6
CONTINUOUS
 10
230.5189928981
 20
77.8320339366
 11
225.5189928981
 21
74.9452825906
  0
LINE
  5
6AD
100
AcDbEntity
  8
KONSTRUKTIONSELEMENTE
100
AcDbLine
 62
7
  6
CONTINUOUS
 10
228.988457539
 20
86.7994514041
 11
228.7990440956
 21
86.9036821707
  0
LINE
  5
6AE
100
AcDbEntity
  8
KONSTRUKTIONSELEMENTE
100
AcDbLine
 62
7
  6
CONTINUOUS
 10
228.9529084416
 20
87.1832922756
 11
229.142321885
 21
87.0790615089
  0
LINE
  5
6AF
100
AcDbEntity
  8
KONSTRUKTIONSELEMENTE
100
AcDbLine
 62
7
  6
CONTINUOUS
 10
225.518992898
 20
86.4922879744
 11
230.518992898
 21
83.6055366285
  0
LINE
  5
6B0
100
AcDbEntity
  8
KONSTRUKTIONSELEMENTE
100
AcDbLine
 62
7
  6
CONTINUOUS
 10
227.7675057936
 20
87.3478266731
 11
227.5423209323
 21
87.4916090659
  0
LINE
  5
6B1
100
AcDbEntity
  8
KONSTRUKTIONSELEMENTE
100
AcDbLine
 62
7
  6
CONTINUOUS
 10
218.2765904008
 20
82.6010422565
 11
218.501962705
 21
82.3905440097
  0
LINE
  5
6B2
100
AcDbEntity
  8
KONSTRUKTIONSELEMENTE
100
AcDbLine
 62
7
  6
CONTINUOUS
 10
218.3257401257
 20
80.2706097921
 11
218.4744749524
 21
80.1154024213
  0
LINE
  5
6B3
100
AcDbEntity
  8
KONSTRUKTIONSELEMENTE
100
AcDbLine
 62
7
  6
CONTINUOUS
 10
205.5189928981
 20
97.2187852825
 11
205.5189928981
 21
94.4349951757
  0
LINE
  5
6B4
100
AcDbEntity
  8
KONSTRUKTIONSELEMENTE
100
AcDbLine
 62
7
  6
CONTINUOUS
 10
205.5189928981
 20
65.9537896255
 11
205.5189928981
 21
64.7187852825
  0
LINE
  5
6B5
100
AcDbEntity
  8
KONSTRUKTIONSELEMENTE
100
AcDbLine
 62
7
  6
CONTINUOUS
 10
205.5859801962
 20
93.599670299
 11
205.5859801962
 21
69.1107263732
  0
LINE
  5
6B6
100
AcDbEntity
  8
KONSTRUKTIONSELEMENTE
100
AcDbLine
 62
7
  6
CONTINUOUS
 10
218.0565272694
 20
79.3639364586
 11
218.1665451966
 21
79.5089187657
  0
LINE
  5
6B7
100
AcDbEntity
  8
KONSTRUKTIONSELEMENTE
100
AcDbLine
 62
7
  6
CONTINUOUS
 10
226.4939603584
 20
90.2256362048
 11
226.8088621651
 21
90.6352482242
  0
LINE
  5
6B8
100
AcDbEntity
  8
KONSTRUKTIONSELEMENTE
100
AcDbLine
 62
7
  6
CONTINUOUS
 10
226.7429965082
 20
90.1288757088
 11
226.4280946785
 21
89.7192635121
  0
LINE
  5
6B9
100
AcDbEntity
  8
KONSTRUKTIONSELEMENTE
100
AcDbLine
 62
7
  6
CONTINUOUS
 10
216.3281736852
 20
77.4242293461
 11
216.511455119
 21
77.6442807207
  0
LINE
  5
6BA
100
AcDbEntity
  8
KONSTRUKTIONSELEMENTE
100
AcDbLine
 62
7
  6
CONTINUOUS
 10
228.2395441308
 20
89.8163808603
 11
227.9527328496
 21
89.5092545207
  0
LINE
  5
6BB
100
AcDbEntity
  8
KONSTRUKTIONSELEMENTE
100
AcDbLine
 62
7
  6
CONTINUOUS
 10
228.2591137794
 20
87.7202909711
 11
228.5459259547
 21
88.0274168657
  0
LINE
  5
6BC
100
AcDbEntity
  8
KONSTRUKTIONSELEMENTE
100
AcDbLine
 62
7
  6
CONTINUOUS
 10
231.3231324348
 20
86.6702361989
 11
231.0088459431
 21
86.3497184279
  0
LINE
  5
6BD
100
AcDbEntity
  8
KONSTRUKTIONSELEMENTE
100
AcDbLine
 62
7
  6
CONTINUOUS
 10
230.8807077973
 20
86.5351786817
 11
231.1549014191
 21
86.8060295367
  0
LINE
  5
6BE
100
AcDbEntity
  8
KONSTRUKTIONSELEMENTE
100
AcDbLine
 62
7
  6
CONTINUOUS
 10
237.5189928981
 20
73.7905820522
 11
225.518992898
 21
66.862378822
  0
LINE
  5
6BF
100
AcDbEntity
  8
KONSTRUKTIONSELEMENTE
100
AcDbLine
 62
7
  6
CONTINUOUS
 10
225.518992898
 20
94.5751917431
 11
237.518992898
 21
87.6469885128
  0
LINE
  5
6C0
100
AcDbEntity
  8
KONSTRUKTIONSELEMENTE
100
AcDbLine
 62
7
  6
CONTINUOUS
 10
228.7311539766
 20
90.1888444801
 11
228.9563388397
 21
90.0450620926
  0
LINE
  5
6C1
100
AcDbEntity
  8
KONSTRUKTIONSELEMENTE
100
AcDbLine
 62
7
  6
CONTINUOUS
 10
223.0508034914
 20
88.6358117472
 11
222.9244690373
 21
88.7242158085
  0
LINE
  5
6C2
100
AcDbEntity
  8
KONSTRUKTIONSELEMENTE
100
AcDbLine
 62
7
  6
CONTINUOUS
 10
222.9545579504
 20
89.0090128393
 11
223.1440587072
 21
88.8764063942
  0
LINE
  5
6C3
100
AcDbEntity
  8
KONSTRUKTIONSELEMENTE
100
AcDbLine
 62
7
  6
CONTINUOUS
 10
227.6857840743
 20
87.7799560145
 11
227.8700215599
 21
87.6500626163
  0
LINE
  5
6C4
100
AcDbEntity
  8
KONSTRUKTIONSELEMENTE
100
AcDbLine
 62
7
  6
CONTINUOUS
 10
228.8128738359
 20
89.7567158168
 11
228.6286382247
 21
89.8866085792
  0
LINE
  5
6C5
100
AcDbEntity
  8
KONSTRUKTIONSELEMENTE
100
AcDbLine
 62
7
  6
CONTINUOUS
 10
229.982967093
 20
86.1114110579
 11
229.8483832046
 21
86.2200449822
  0
LINE
  5
6C6
100
AcDbEntity
  8
KONSTRUKTIONSELEMENTE
100
AcDbLine
 62
7
  6
CONTINUOUS
 10
222.4457223138
 20
87.3115004423
 11
222.2334484286
 21
87.5037359763
  0
LINE
  5
6C7
100
AcDbEntity
  8
KONSTRUKTIONSELEMENTE
100
AcDbLine
 62
7
  6
CONTINUOUS
 10
219.7860389683
 20
84.8672979012
 11
217.63980624
 21
86.9634097961
  0
LINE
  5
6C8
100
AcDbEntity
  8
KONSTRUKTIONSELEMENTE
100
AcDbLine
 62
7
  6
CONTINUOUS
 10
218.2777208379
 20
86.7030323791
 11
219.9673083593
 21
85.0529016852
  0
LINE
  5
6C9
100
AcDbEntity
  8
KONSTRUKTIONSELEMENTE
100
AcDbLine
 62
7
  6
CONTINUOUS
 10
221.0549247048
 20
86.1665243894
 11
219.3653371834
 21
87.8166550833
  0
LINE
  5
6CA
100
AcDbEntity
  8
KONSTRUKTIONSELEMENTE
100
AcDbLine
 62
7
  6
CONTINUOUS
 10
219.0899613675
 20
88.4482400684
 11
221.2361940957
 21
86.3521281734
  0
LINE
  5
6CB
100
AcDbEntity
  8
KONSTRUKTIONSELEMENTE
100
AcDbLine
 62
7
  6
CONTINUOUS
 10
210.4798254939
 20
98.2187852825
 11
210.4798254939
 21
97.7187852825
  0
LINE
  5
6CC
100
AcDbEntity
  8
KONSTRUKTIONSELEMENTE
100
AcDbLine
 62
7
  6
CONTINUOUS
 10
211.6027426692
 20
98.2187852825
 11
211.6027426692
 21
97.7187852825
  0
LINE
  5
6CD
100
AcDbEntity
  8
KONSTRUKTIONSELEMENTE
100
AcDbLine
 62
7
  6
CONTINUOUS
 10
212.1131587001
 20
98.2187852825
 11
212.1131587001
 21
97.7187852825
  0
LINE
  5
6CE
100
AcDbEntity
  8
KONSTRUKTIONSELEMENTE
100
AcDbLine
 62
7
  6
CONTINUOUS
 10
212.9298262568
 20
98.2187852825
 11
212.9298262568
 21
97.7187852825
  0
LINE
  5
6CF
100
AcDbEntity
  8
KONSTRUKTIONSELEMENTE
100
AcDbLine
 62
7
  6
CONTINUOUS
 10
221.8454795258
 20
89.6103377889
 11
221.7698443716
 21
89.444798894
  0
LINE
  5
6D0
100
AcDbEntity
  8
KONSTRUKTIONSELEMENTE
100
AcDbLine
 62
7
  6
CONTINUOUS
 10
221.9270926207
 20
88.548283979
 11
222.0783629291
 21
88.8793617686
  0
LINE
  5
6D1
100
AcDbEntity
  8
KONSTRUKTIONSELEMENTE
100
AcDbLine
 62
7
  6
CONTINUOUS
 10
222.2326226382
 20
88.596643466
 11
222.156987484
 21
88.4311045712
  0
LINE
  5
6D2
100
AcDbEntity
  8
KONSTRUKTIONSELEMENTE
100
AcDbLine
 62
7
  6
CONTINUOUS
 10
216.220613444
 20
77.1896801446
 11
216.3281736852
 21
77.4242293461
  0
LINE
  5
6D3
100
AcDbEntity
  8
KONSTRUKTIONSELEMENTE
100
AcDbLine
 62
7
  6
CONTINUOUS
 10
215.6670882297
 20
82.4421218184
 11
215.7637082239
 21
82.6457884793
  0
LINE
  5
6D4
100
AcDbEntity
  8
KONSTRUKTIONSELEMENTE
100
AcDbLine
 62
7
  6
CONTINUOUS
 10
221.5575704943
 20
89.6370344071
 11
221.6912198166
 21
89.8930560915
  0
LINE
  5
6D5
100
AcDbEntity
  8
KONSTRUKTIONSELEMENTE
100
AcDbLine
 62
7
  6
CONTINUOUS
 10
223.4555666574
 20
87.6971731974
 11
223.3219173411
 21
87.4411514974
  0
LINE
  5
6D6
100
AcDbEntity
  8
KONSTRUKTIONSELEMENTE
100
AcDbLine
 62
7
  6
CONTINUOUS
 10
218.5519087755
 20
79.515023318
 11
218.4474218747
 21
79.3271567052
  0
LINE
  5
6D7
100
AcDbEntity
  8
KONSTRUKTIONSELEMENTE
100
AcDbLine
 62
7
  6
CONTINUOUS
 10
216.1353306445
 20
82.5436164603
 11
216.0454235189
 21
82.3826653085
  0
LINE
  5
6D8
100
AcDbEntity
  8
KONSTRUKTIONSELEMENTE
100
AcDbLine
 62
7
  6
CONTINUOUS
 10
227.7479931508
 20
89.5787004208
 11
227.850450974
 21
89.7461528235
  0
LINE
  5
6D9
100
AcDbEntity
  8
KONSTRUKTIONSELEMENTE
100
AcDbLine
 62
7
  6
CONTINUOUS
 10
216.6139723207
 20
77.4059582918
 11
216.5308747202
 21
77.2760723642
  0
LINE
  5
6DA
100
AcDbEntity
  8
KONSTRUKTIONSELEMENTE
100
AcDbLine
 62
7
  6
CONTINUOUS
 10
227.850450974
 20
89.7461528235
 11
228.0143592677
 21
89.9601632477
  0
LINE
  5
6DB
100
AcDbEntity
  8
KONSTRUKTIONSELEMENTE
100
AcDbLine
 62
7
  6
CONTINUOUS
 10
228.6482078877
 20
87.7905187323
 11
228.4842986425
 21
87.5765085836
  0
LINE
  5
6DC
100
AcDbEntity
  8
KONSTRUKTIONSELEMENTE
100
AcDbLine
 62
7
  6
CONTINUOUS
 10
230.5127861155
 20
88.1446268398
 11
230.6731514345
 21
88.3432994768
  0
LINE
  5
6DD
100
AcDbEntity
  8
KONSTRUKTIONSELEMENTE
100
AcDbLine
 62
7
  6
CONTINUOUS
 10
230.8012895803
 20
88.157839223
 11
230.7211069208
 21
88.0585029045
  0
LINE
  5
6DE
100
AcDbEntity
  8
KONSTRUKTIONSELEMENTE
100
AcDbLine
 62
7
  6
CONTINUOUS
 10
231.5622604593
 20
87.3795374589
 11
231.6424431188
 21
87.4788737774
  0
LINE
  5
6DF
100
AcDbEntity
  8
KONSTRUKTIONSELEMENTE
100
AcDbLine
 62
7
  6
CONTINUOUS
 10
231.1549014191
 20
86.8060295367
 11
231.2350840786
 21
86.9053658552
  0
LINE
  5
6E0
100
AcDbEntity
  8
KONSTRUKTIONSELEMENTE
100
AcDbLine
 62
7
  6
CONTINUOUS
 10
231.6037717431
 20
87.0179133138
 11
231.3231324348
 21
86.6702361989
  0
LINE
  5
6E1
100
AcDbEntity
  8
KONSTRUKTIONSELEMENTE
100
AcDbLine
 62
7
  6
CONTINUOUS
 10
230.0151942943
 20
86.4955439836
 11
230.2170708972
 21
86.3325924756
  0
LINE
  5
6E2
100
AcDbEntity
  8
KONSTRUKTIONSELEMENTE
100
AcDbLine
 62
7
  6
CONTINUOUS
 10
229.8183419681
 20
87.1466154035
 11
229.9865729838
 21
87.0108220658
  0
LINE
  5
6E3
100
AcDbEntity
  8
KONSTRUKTIONSELEMENTE
100
AcDbLine
 62
7
  6
CONTINUOUS
 10
230.6645197551
 20
86.9557698351
 11
230.4962902795
 21
87.0915619296
  0
LINE
  5
6E4
100
AcDbEntity
  8
KONSTRUKTIONSELEMENTE
100
AcDbLine
 62
7
  6
CONTINUOUS
 10
230.6630998572
 20
87.367062209
 11
230.8986235873
 21
87.1769512875
  0
LINE
  5
6E5
100
AcDbEntity
  8
KONSTRUKTIONSELEMENTE
100
AcDbLine
 62
7
  6
CONTINUOUS
 10
231.7004502947
 20
88.170314612
 11
231.4649265646
 21
88.3604255336
  0
LINE
  5
6E6
100
AcDbEntity
  8
KONSTRUKTIONSELEMENTE
100
AcDbLine
 62
7
  6
CONTINUOUS
 10
231.6990303407
 20
88.5816069164
 11
231.8672598163
 21
88.4458148219
  0
LINE
  5
6E7
100
AcDbEntity
  8
KONSTRUKTIONSELEMENTE
100
AcDbLine
 62
7
  6
CONTINUOUS
 10
222.527021656
 20
90.007280478
 11
222.7392955332
 21
89.8150449649
  0
LINE
  5
6E8
100
AcDbEntity
  8
KONSTRUKTIONSELEMENTE
100
AcDbLine
 62
7
  6
CONTINUOUS
 10
222.3267036283
 20
87.7443306651
 11
222.475811219
 21
87.596297494
  0
LINE
  5
6E9
100
AcDbEntity
  8
KONSTRUKTIONSELEMENTE
100
AcDbLine
 62
7
  6
CONTINUOUS
 10
222.6460393929
 20
89.5744499647
 11
222.4969327428
 21
89.7224834471
  0
LINE
  5
6EA
100
AcDbEntity
  8
KONSTRUKTIONSELEMENTE
100
AcDbLine
 62
7
  6
CONTINUOUS
 10
218.2161750441
 20
82.2166056072
 11
218.1102016891
 21
82.3645700006
  0
LINE
  5
6EB
100
AcDbEntity
  8
KONSTRUKTIONSELEMENTE
100
AcDbLine
 62
7
  6
CONTINUOUS
 10
218.1856027258
 20
79.8601573134
 11
218.1001733392
 21
80.0235294957
  0
LINE
  5
6EC
100
AcDbEntity
  8
KONSTRUKTIONSELEMENTE
100
AcDbLine
 62
7
  6
CONTINUOUS
 10
218.501962705
 20
82.3905440097
 11
218.6012232406
 21
82.1998646004
  0
LINE
  5
6ED
100
AcDbEntity
  8
KONSTRUKTIONSELEMENTE
100
AcDbLine
 62
7
  6
CONTINUOUS
 10
218.4744749524
 20
80.1154024213
 11
218.5654353116
 21
79.9091461757
  0
LINE
  5
6EE
100
AcDbEntity
  8
KONSTRUKTIONSELEMENTE
100
AcDbLine
 62
7
  6
CONTINUOUS
 10
216.6574782596
 20
76.0125658271
 11
216.247409453
 21
76.9658555426
  0
LINE
  5
6EF
100
AcDbEntity
  8
KONSTRUKTIONSELEMENTE
100
AcDbLine
 62
7
  6
CONTINUOUS
 10
216.5234983123
 20
77.1316886097
 11
216.8481361013
 21
76.3770009562
  0
LINE
  5
6F0
100
AcDbEntity
  8
KONSTRUKTIONSELEMENTE
100
AcDbLine
 62
7
  6
CONTINUOUS
 10
217.7276613954
 20
76.7553391276
 11
217.4030236065
 21
77.5100267811
  0
LINE
  5
6F1
100
AcDbEntity
  8
KONSTRUKTIONSELEMENTE
100
AcDbLine
 62
7
  6
CONTINUOUS
 10
217.7890060509
 20
77.5819212307
 11
218.0794714474
 21
76.9066743679
  0
LINE
  5
6F2
100
AcDbEntity
  8
KONSTRUKTIONSELEMENTE
100
AcDbLine
 62
7
  6
CONTINUOUS
 10
218.7640483684
 20
78.7074007713
 11
218.8836518029
 21
78.4293578619
  0
LINE
  5
6F3
100
AcDbEntity
  8
KONSTRUKTIONSELEMENTE
100
AcDbLine
 62
7
  6
CONTINUOUS
 10
219.3108067935
 20
77.4363477795
 11
219.4133239951
 21
77.1980253506
  0
LINE
  5
6F4
100
AcDbEntity
  8
KONSTRUKTIONSELEMENTE
100
AcDbLine
 62
7
  6
CONTINUOUS
 10
213.5189928981
 20
73.7905820522
 11
213.5189928981
 21
87.6469885128
  0
LINE
  5
6F5
100
AcDbEntity
  8
KONSTRUKTIONSELEMENTE
100
AcDbLine
 62
7
  6
CONTINUOUS
 10
213.7464938136
 20
98.2187852825
 11
213.7464938136
 21
97.7187852825
  0
LINE
  5
6F6
100
AcDbEntity
  8
KONSTRUKTIONSELEMENTE
100
AcDbLine
 62
7
  6
CONTINUOUS
 10
213.8485770198
 20
98.2187852825
 11
213.8485770198
 21
97.7187852825
  0
LINE
  5
6F7
100
AcDbEntity
  8
KONSTRUKTIONSELEMENTE
100
AcDbLine
 62
7
  6
CONTINUOUS
 10
213.9506602259
 20
98.2187852825
 11
213.9506602259
 21
97.7187852825
  0
LINE
  5
6F8
100
AcDbEntity
  8
KONSTRUKTIONSELEMENTE
100
AcDbLine
 62
7
  6
CONTINUOUS
 10
214.3589930506
 20
98.2187852825
 11
214.3589930506
 21
97.7187852825
  0
LINE
  5
6F9
100
AcDbEntity
  8
KONSTRUKTIONSELEMENTE
100
AcDbLine
 62
7
  6
CONTINUOUS
 10
214.7673258753
 20
98.2187852825
 11
214.7673258753
 21
97.7187852825
  0
LINE
  5
6FA
100
AcDbEntity
  8
KONSTRUKTIONSELEMENTE
100
AcDbLine
 62
7
  6
CONTINUOUS
 10
215.4819102259
 20
98.2187852825
 11
215.4819102259
 21
97.7187852825
  0
LINE
  5
6FB
100
AcDbEntity
  8
KONSTRUKTIONSELEMENTE
100
AcDbLine
 62
7
  6
CONTINUOUS
 10
215.6860766383
 20
98.2187852825
 11
215.6860766383
 21
97.7187852825
  0
LINE
  5
6FC
100
AcDbEntity
  8
KONSTRUKTIONSELEMENTE
100
AcDbLine
 62
7
  6
CONTINUOUS
 10
216.4006590815
 20
98.2187852825
 11
216.4006590815
 21
97.7187852825
  0
LINE
  5
6FD
100
AcDbEntity
  8
KONSTRUKTIONSELEMENTE
100
AcDbLine
 62
7
  6
CONTINUOUS
 10
216.8089938136
 20
98.2187852825
 11
216.8089938136
 21
97.7187852825
  0
LINE
  5
6FE
100
AcDbEntity
  8
KONSTRUKTIONSELEMENTE
100
AcDbLine
 62
7
  6
CONTINUOUS
 10
217.2173266383
 20
98.2187852825
 11
217.2173266383
 21
97.7187852825
  0
LINE
  5
6FF
100
AcDbEntity
  8
KONSTRUKTIONSELEMENTE
100
AcDbLine
 62
7
  6
CONTINUOUS
 10
217.3194098445
 20
98.2187852825
 11
217.3194098445
 21
97.7187852825
  0
LINE
  5
700
100
AcDbEntity
  8
KONSTRUKTIONSELEMENTE
100
AcDbLine
 62
7
  6
CONTINUOUS
 10
217.4214930506
 20
98.2187852825
 11
217.4214930506
 21
97.7187852825
  0
LINE
  5
701
100
AcDbEntity
  8
KONSTRUKTIONSELEMENTE
100
AcDbLine
 62
7
  6
CONTINUOUS
 10
216.5308747202
 20
77.2760723642
 11
216.5234983123
 21
77.1316886097
  0
LINE
  5
702
100
AcDbEntity
  8
KONSTRUKTIONSELEMENTE
100
AcDbLine
 62
7
  6
CONTINUOUS
 10
215.5059806119
 20
81.4169574203
 11
215.6670882297
 21
82.4421218184
  0
LINE
  5
703
100
AcDbEntity
  8
KONSTRUKTIONSELEMENTE
100
AcDbLine
 62
7
  6
CONTINUOUS
 10
216.0454235189
 20
82.3826653085
 11
215.9245928055
 21
81.6137920099
  0
LINE
  5
704
100
AcDbEntity
  8
KONSTRUKTIONSELEMENTE
100
AcDbLine
 62
7
  6
CONTINUOUS
 10
218.1315489682
 20
81.2669623202
 11
218.2523796816
 21
82.0358356188
  0
LINE
  5
705
100
AcDbEntity
  8
KONSTRUKTIONSELEMENTE
100
AcDbLine
 62
7
  6
CONTINUOUS
 10
218.630715015
 20
81.976379102
 11
218.4696073971
 21
80.9512147039
  0
LINE
  5
706
100
AcDbEntity
  8
KONSTRUKTIONSELEMENTE
100
AcDbLine
 62
7
  6
CONTINUOUS
 10
218.5875592746
 20
79.7376091839
 11
218.5519087755
 21
79.515023318
  0
LINE
  5
707
100
AcDbEntity
  8
KONSTRUKTIONSELEMENTE
100
AcDbLine
 62
7
  6
CONTINUOUS
 10
218.1665451966
 20
79.5089187657
 11
218.2077266888
 21
79.6886203216
  0
LINE
  5
708
100
AcDbEntity
  8
KONSTRUKTIONSELEMENTE
100
AcDbLine
 62
7
  6
CONTINUOUS
 10
222.156987484
 20
88.4311045712
 11
222.1217455119
 21
88.2809923605
  0
LINE
  5
709
100
AcDbEntity
  8
KONSTRUKTIONSELEMENTE
100
AcDbLine
 62
7
  6
CONTINUOUS
 10
223.167657618
 20
87.7238698365
 11
223.2432927722
 21
87.8894087314
  0
LINE
  5
70A
100
AcDbEntity
  8
KONSTRUKTIONSELEMENTE
100
AcDbLine
 62
7
  6
CONTINUOUS
 10
227.9527328496
 20
89.5092545207
 11
227.7887665699
 21
89.1604604289
  0
LINE
  5
70B
100
AcDbEntity
  8
KONSTRUKTIONSELEMENTE
100
AcDbLine
 62
7
  6
CONTINUOUS
 10
228.5459259547
 20
88.0274168657
 11
228.7098922631
 21
88.3762110422
  0
LINE
  5
70C
100
AcDbEntity
  8
KONSTRUKTIONSELEMENTE
100
AcDbLine
 62
7
  6
CONTINUOUS
 10
227.6045290842
 20
89.2903538271
 11
227.7479931508
 21
89.5787004208
  0
LINE
  5
70D
100
AcDbEntity
  8
KONSTRUKTIONSELEMENTE
100
AcDbLine
 62
7
  6
CONTINUOUS
 10
228.8941297488
 20
88.246317644
 11
228.7506647163
 21
87.9579712836
  0
LINE
  5
70E
100
AcDbEntity
  8
KONSTRUKTIONSELEMENTE
100
AcDbLine
 62
7
  6
CONTINUOUS
 10
228.7990440956
 20
86.9036821707
 11
228.9529084416
 21
87.1832922756
  0
LINE
  5
70F
100
AcDbEntity
  8
KONSTRUKTIONSELEMENTE
100
AcDbLine
 62
7
  6
CONTINUOUS
 10
229.142321885
 20
87.0790615089
 11
228.988457539
 21
86.7994514041
  0
LINE
  5
710
100
AcDbEntity
  8
KONSTRUKTIONSELEMENTE
100
AcDbLine
 62
7
  6
CONTINUOUS
 10
228.7506647163
 20
87.9579712836
 11
228.6482078877
 21
87.7905187323
  0
LINE
  5
711
100
AcDbEntity
  8
KONSTRUKTIONSELEMENTE
100
AcDbLine
 62
7
  6
CONTINUOUS
 10
231.8507639241
 20
87.3927498422
 11
231.6037717431
 21
87.0179133138
  0
LINE
  5
712
100
AcDbEntity
  8
KONSTRUKTIONSELEMENTE
100
AcDbLine
 62
7
  6
CONTINUOUS
 10
222.2334484286
 20
87.5037359763
 11
222.0387945969
 21
87.7710272834
  0
LINE
  5
713
100
AcDbEntity
  8
KONSTRUKTIONSELEMENTE
100
AcDbLine
 62
7
  6
CONTINUOUS
 10
223.1440587072
 20
88.8764063942
 11
223.3387125229
 21
88.6091151289
  0
LINE
  5
714
100
AcDbEntity
  8
KONSTRUKTIONSELEMENTE
100
AcDbLine
 62
7
  6
CONTINUOUS
 10
222.2179910848
 20
87.9077911849
 11
222.3267036283
 21
87.7443306651
  0
LINE
  5
715
100
AcDbEntity
  8
KONSTRUKTIONSELEMENTE
100
AcDbLine
 62
7
  6
CONTINUOUS
 10
223.1595160669
 20
88.4723511439
 11
223.0508034914
 21
88.6358117472
  0
LINE
  5
716
100
AcDbEntity
  8
KONSTRUKTIONSELEMENTE
100
AcDbLine
 62
7
  6
CONTINUOUS
 10
222.7392955332
 20
89.8150449649
 11
222.8480080768
 21
89.6515844451
  0
LINE
  5
717
100
AcDbEntity
  8
KONSTRUKTIONSELEMENTE
100
AcDbLine
 62
7
  6
CONTINUOUS
 10
220.4772336769
 20
88.2298263797
 11
220.2049158795
 21
88.6617923609
  0
LINE
  5
718
100
AcDbEntity
  8
KONSTRUKTIONSELEMENTE
100
AcDbLine
 62
7
  6
CONTINUOUS
 10
221.7859706214
 20
86.6403175742
 11
220.4584216334
 21
88.7461512979
  0
LINE
  5
719
100
AcDbEntity
  8
KONSTRUKTIONSELEMENTE
100
AcDbLine
 62
7
  6
CONTINUOUS
 10
220.4055699725
 20
89.3164717935
 11
222.0054366625
 21
86.7786722399
  0
LINE
  5
71A
100
AcDbEntity
  8
KONSTRUKTIONSELEMENTE
100
AcDbLine
 62
7
  6
CONTINUOUS
 10
220.2827938966
 20
85.8327036691
 11
218.8180572811
 21
88.1698343923
  0
LINE
  5
71B
100
AcDbEntity
  8
KONSTRUKTIONSELEMENTE
100
AcDbLine
 62
7
  6
CONTINUOUS
 10
219.3653371834
 20
87.8166550833
 11
220.6319630232
 21
85.7334491294
  0
LINE
  5
71C
100
AcDbEntity
  8
KONSTRUKTIONSELEMENTE
100
AcDbLine
 62
7
  6
CONTINUOUS
 10
222.0387945969
 20
87.7710272834
 11
221.8389895394
 21
88.1730041586
  0
LINE
  5
71D
100
AcDbEntity
  8
KONSTRUKTIONSELEMENTE
100
AcDbLine
 62
7
  6
CONTINUOUS
 10
218.2523796816
 20
82.0358356188
 11
218.2161750441
 21
82.2166056072
  0
LINE
  5
71E
100
AcDbEntity
  8
KONSTRUKTIONSELEMENTE
100
AcDbLine
 62
7
  6
CONTINUOUS
 10
218.6012232406
 20
82.1998646004
 11
218.630715015
 21
81.976379102
  0
LINE
  5
71F
100
AcDbEntity
  8
KONSTRUKTIONSELEMENTE
100
AcDbLine
 62
7
  6
CONTINUOUS
 10
215.7006998165
 20
78.6677154955
 11
215.667513872
 21
78.9250209833
  0
LINE
  5
720
100
AcDbEntity
  8
KONSTRUKTIONSELEMENTE
100
AcDbLine
 62
7
  6
CONTINUOUS
 10
215.5347701572
 20
79.9542424434
 11
215.5015842286
 21
80.2115478084
  0
LINE
  5
721
100
AcDbEntity
  8
KONSTRUKTIONSELEMENTE
100
AcDbLine
 62
7
  6
CONTINUOUS
 10
218.2077266888
 20
79.6886203216
 11
218.1856027258
 21
79.8601573134
  0
LINE
  5
722
100
AcDbEntity
  8
KONSTRUKTIONSELEMENTE
100
AcDbLine
 62
7
  6
CONTINUOUS
 10
218.5654353116
 20
79.9091461757
 11
218.5875592746
 21
79.7376091839
  0
LINE
  5
723
100
AcDbEntity
  8
KONSTRUKTIONSELEMENTE
100
AcDbLine
 62
7
  6
CONTINUOUS
 10
216.247409453
 20
76.9658555426
 11
216.220613444
 21
77.1896801446
  0
LINE
  5
724
100
AcDbEntity
  8
KONSTRUKTIONSELEMENTE
100
AcDbLine
 62
7
  6
CONTINUOUS
 10
221.5605590343
 20
89.0232377947
 11
221.5274815812
 21
89.3522373763
  0
LINE
  5
725
100
AcDbEntity
  8
KONSTRUKTIONSELEMENTE
100
AcDbLine
 62
7
  6
CONTINUOUS
 10
223.4525781573
 20
88.3109697054
 11
223.4856555626
 21
87.9819702491
  0
LINE
  5
726
100
AcDbEntity
  8
KONSTRUKTIONSELEMENTE
100
AcDbLine
 62
7
  6
CONTINUOUS
 10
220.2049158795
 20
88.6617923609
 11
220.1861039314
 21
89.1781171278
  0
LINE
  5
727
100
AcDbEntity
  8
KONSTRUKTIONSELEMENTE
100
AcDbLine
 62
7
  6
CONTINUOUS
 10
220.4584216334
 20
88.7461512979
 11
220.4772336769
 21
88.2298263797
  0
LINE
  5
728
100
AcDbEntity
  8
KONSTRUKTIONSELEMENTE
100
AcDbLine
 62
7
  6
CONTINUOUS
 10
220.5189928981
 20
77.8320339366
 11
220.5189928981
 21
83.6055366285
  0
LINE
  5
729
100
AcDbEntity
  8
KONSTRUKTIONSELEMENTE
100
AcDbLine
 62
7
  6
CONTINUOUS
 10
223.1381602259
 20
98.2187852825
 11
223.1381602259
 21
97.7187852825
  0
LINE
  5
72A
100
AcDbEntity
  8
KONSTRUKTIONSELEMENTE
100
AcDbLine
 62
7
  6
CONTINUOUS
 10
223.2402434321
 20
98.2187852825
 11
223.2402434321
 21
97.7187852825
  0
LINE
  5
72B
100
AcDbEntity
  8
KONSTRUKTIONSELEMENTE
100
AcDbLine
 62
7
  6
CONTINUOUS
 10
223.6485762568
 20
98.2187852825
 11
223.6485762568
 21
97.7187852825
  0
LINE
  5
72C
100
AcDbEntity
  8
KONSTRUKTIONSELEMENTE
100
AcDbLine
 62
7
  6
CONTINUOUS
 10
224.0569090815
 20
98.2187852825
 11
224.0569090815
 21
97.7187852825
  0
LINE
  5
72D
100
AcDbEntity
  8
KONSTRUKTIONSELEMENTE
100
AcDbLine
 62
7
  6
CONTINUOUS
 10
224.5673270197
 20
98.2187852825
 11
224.5673270197
 21
97.7187852825
  0
LINE
  5
72E
100
AcDbEntity
  8
KONSTRUKTIONSELEMENTE
100
AcDbLine
 62
7
  6
CONTINUOUS
 10
225.4860758753
 20
98.2187852825
 11
225.4860758753
 21
97.7187852825
  0
LINE
  5
72F
100
AcDbEntity
  8
KONSTRUKTIONSELEMENTE
100
AcDbLine
 62
7
  6
CONTINUOUS
 10
221.7698443716
 20
89.444798894
 11
221.7573755199
 21
89.2350576154
  0
LINE
  5
730
100
AcDbEntity
  8
KONSTRUKTIONSELEMENTE
100
AcDbLine
 62
7
  6
CONTINUOUS
 10
223.2432927722
 20
87.8894087314
 11
223.2557616079
 21
88.0991500517
  0
LINE
  5
731
100
AcDbEntity
  8
KONSTRUKTIONSELEMENTE
100
AcDbLine
 62
7
  6
CONTINUOUS
 10
221.5274815812
 20
89.3522373763
 11
221.5575704943
 21
89.6370344071
  0
LINE
  5
732
100
AcDbEntity
  8
KONSTRUKTIONSELEMENTE
100
AcDbLine
 62
7
  6
CONTINUOUS
 10
223.4856555626
 20
87.9819702491
 11
223.4555666574
 21
87.6971731974
  0
LINE
  5
733
100
AcDbEntity
  8
KONSTRUKTIONSELEMENTE
100
AcDbLine
 62
7
  6
CONTINUOUS
 10
226.4280946785
 20
89.7192635121
 11
226.4939603584
 21
90.2256362048
  0
LINE
  5
734
100
AcDbEntity
  8
KONSTRUKTIONSELEMENTE
100
AcDbLine
 62
7
  6
CONTINUOUS
 10
226.421901385
 20
87.6603093417
 11
226.7429965082
 21
90.1288757088
  0
LINE
  5
735
100
AcDbEntity
  8
KONSTRUKTIONSELEMENTE
100
AcDbLine
 62
7
  6
CONTINUOUS
 10
227.066131522
 20
90.6017842927
 11
226.6791707419
 21
87.6268454102
  0
LINE
  5
736
100
AcDbEntity
  8
KONSTRUKTIONSELEMENTE
100
AcDbLine
 62
7
  6
CONTINUOUS
 10
227.3584332648
 20
88.4302039128
 11
227.4200007307
 21
88.7463292055
  0
LINE
  5
737
100
AcDbEntity
  8
KONSTRUKTIONSELEMENTE
100
AcDbLine
 62
7
  6
CONTINUOUS
 10
227.6452445172
 20
88.7373301677
 11
227.5631729636
 21
88.3607580127
  0
LINE
  5
738
100
AcDbEntity
  8
KONSTRUKTIONSELEMENTE
100
AcDbLine
 62
7
  6
CONTINUOUS
 10
228.8534143159
 20
88.7993413034
 11
228.9354858407
 21
89.1759133738
  0
LINE
  5
739
100
AcDbEntity
  8
KONSTRUKTIONSELEMENTE
100
AcDbLine
 62
7
  6
CONTINUOUS
 10
227.4200007307
 20
88.7463292055
 11
227.6045290842
 21
89.2903538271
  0
LINE
  5
73A
100
AcDbEntity
  8
KONSTRUKTIONSELEMENTE
100
AcDbLine
 62
7
  6
CONTINUOUS
 10
227.7887665699
 20
89.1604604289
 11
227.6452445172
 21
88.7373301677
  0
LINE
  5
73B
100
AcDbEntity
  8
KONSTRUKTIONSELEMENTE
100
AcDbLine
 62
7
  6
CONTINUOUS
 10
228.7098922631
 20
88.3762110422
 11
228.8534143159
 21
88.7993413034
  0
LINE
  5
73C
100
AcDbEntity
  8
KONSTRUKTIONSELEMENTE
100
AcDbLine
 62
7
  6
CONTINUOUS
 10
229.0786581023
 20
88.7903422656
 11
228.8941297488
 21
88.246317644
  0
LINE
  5
73D
100
AcDbEntity
  8
KONSTRUKTIONSELEMENTE
100
AcDbLine
 62
7
  6
CONTINUOUS
 10
230.3796206408
 20
87.8419697029
 11
230.5127861155
 21
88.1446268398
  0
LINE
  5
73E
100
AcDbEntity
  8
KONSTRUKTIONSELEMENTE
100
AcDbLine
 62
7
  6
CONTINUOUS
 10
231.9839295111
 20
87.6954071182
 11
231.8507639241
 21
87.3927498422
  0
LINE
  5
73F
100
AcDbEntity
  8
KONSTRUKTIONSELEMENTE
100
AcDbLine
 62
7
  6
CONTINUOUS
 10
229.731715078
 20
86.9704514775
 11
229.8183419681
 21
87.1466154035
  0
LINE
  5
740
100
AcDbEntity
  8
KONSTRUKTIONSELEMENTE
100
AcDbLine
 62
7
  6
CONTINUOUS
 10
230.7211069208
 20
88.0585029045
 11
230.6344800588
 21
87.8823390132
  0
LINE
  5
741
100
AcDbEntity
  8
KONSTRUKTIONSELEMENTE
100
AcDbLine
 62
7
  6
CONTINUOUS
 10
231.6424431188
 20
87.4788737774
 11
231.7290700931
 21
87.6550378079
  0
LINE
  5
742
100
AcDbEntity
  8
KONSTRUKTIONSELEMENTE
100
AcDbLine
 62
7
  6
CONTINUOUS
 10
229.8483832046
 20
86.2200449822
 11
229.7202435221
 21
86.4055064836
  0
LINE
  5
743
100
AcDbEntity
  8
KONSTRUKTIONSELEMENTE
100
AcDbLine
 62
7
  6
CONTINUOUS
 10
230.4962902795
 20
87.0915619296
 11
230.3681506497
 21
87.2770234962
  0
LINE
  5
744
100
AcDbEntity
  8
KONSTRUKTIONSELEMENTE
100
AcDbLine
 62
7
  6
CONTINUOUS
 10
231.8672598163
 20
88.4458148219
 11
231.9953995022
 21
88.2603533249
  0
LINE
  5
745
100
AcDbEntity
  8
KONSTRUKTIONSELEMENTE
100
AcDbLine
 62
7
  6
CONTINUOUS
 10
227.5423209323
 20
87.4916090659
 11
227.3990897528
 21
87.7423968402
  0
LINE
  5
746
100
AcDbEntity
  8
KONSTRUKTIONSELEMENTE
100
AcDbLine
 62
7
  6
CONTINUOUS
 10
228.9563388397
 20
90.0450620926
 11
229.0995681501
 21
89.7942749699
  0
LINE
  5
747
100
AcDbEntity
  8
KONSTRUKTIONSELEMENTE
100
AcDbLine
 62
7
  6
CONTINUOUS
 10
227.6039463683
 20
87.9425179785
 11
227.6857840743
 21
87.7799560145
  0
LINE
  5
748
100
AcDbEntity
  8
KONSTRUKTIONSELEMENTE
100
AcDbLine
 62
7
  6
CONTINUOUS
 10
228.8947115419
 20
89.5941538529
 11
228.8128738359
 21
89.7567158168
  0
LINE
  5
749
100
AcDbEntity
  8
KONSTRUKTIONSELEMENTE
100
AcDbLine
 62
7
  6
CONTINUOUS
 10
221.8389895394
 20
88.1730041586
 11
221.6795776959
 21
88.5904076345
  0
LINE
  5
74A
100
AcDbEntity
  8
KONSTRUKTIONSELEMENTE
100
AcDbLine
 62
7
  6
CONTINUOUS
 10
221.8815463797
 20
88.6675421149
 11
221.9270926207
 21
88.548283979
  0
LINE
  5
74B
100
AcDbEntity
  8
KONSTRUKTIONSELEMENTE
100
AcDbLine
 62
7
  6
CONTINUOUS
 10
222.1496717232
 20
88.0866783888
 11
222.2179910848
 21
87.9077911849
  0
LINE
  5
74C
100
AcDbEntity
  8
KONSTRUKTIONSELEMENTE
100
AcDbLine
 62
7
  6
CONTINUOUS
 10
223.2278354284
 20
88.2934639399
 11
223.1595160669
 21
88.4723511439
  0
LINE
  5
74D
100
AcDbEntity
  8
KONSTRUKTIONSELEMENTE
100
AcDbLine
 62
7
  6
CONTINUOUS
 10
223.3387125229
 20
88.6091151289
 11
223.4525781573
 21
88.3109697054
  0
LINE
  5
74E
100
AcDbEntity
  8
KONSTRUKTIONSELEMENTE
100
AcDbLine
 62
7
  6
CONTINUOUS
 10
221.6795776959
 20
88.5904076345
 11
221.5605590343
 21
89.0232377947
  0
LINE
  5
74F
100
AcDbEntity
  8
KONSTRUKTIONSELEMENTE
100
AcDbLine
 62
7
  6
CONTINUOUS
 10
221.7853017632
 20
89.0407435602
 11
221.8815463797
 21
88.6675421149
  0
LINE
  5
750
100
AcDbEntity
  8
KONSTRUKTIONSELEMENTE
100
AcDbLine
 62
7
  6
CONTINUOUS
 10
221.7573755199
 20
89.2350576154
 11
221.7853017632
 21
89.0407435602
  0
LINE
  5
751
100
AcDbEntity
  8
KONSTRUKTIONSELEMENTE
100
AcDbLine
 62
7
  6
CONTINUOUS
 10
222.1217455119
 20
88.2809923605
 11
222.1496717232
 21
88.0866783888
  0
LINE
  5
752
100
AcDbEntity
  8
KONSTRUKTIONSELEMENTE
100
AcDbLine
 62
7
  6
CONTINUOUS
 10
223.2557616079
 20
88.0991500517
 11
223.2278354284
 21
88.2934639399
  0
LINE
  5
753
100
AcDbEntity
  8
KONSTRUKTIONSELEMENTE
100
AcDbLine
 62
7
  6
CONTINUOUS
 10
227.5631729636
 20
88.3607580127
 11
227.6039463683
 21
87.9425179785
  0
LINE
  5
754
100
AcDbEntity
  8
KONSTRUKTIONSELEMENTE
100
AcDbLine
 62
7
  6
CONTINUOUS
 10
228.9354858407
 20
89.1759133738
 11
228.8947115419
 21
89.5941538529
  0
LINE
  5
755
100
AcDbEntity
  8
KONSTRUKTIONSELEMENTE
100
AcDbLine
 62
7
  6
CONTINUOUS
 10
225.9964938136
 20
98.2187852825
 11
225.9964938136
 21
97.7187852825
  0
LINE
  5
756
100
AcDbEntity
  8
KONSTRUKTIONSELEMENTE
100
AcDbLine
 62
7
  6
CONTINUOUS
 10
226.4048266383
 20
98.2187852825
 11
226.4048266383
 21
97.7187852825
  0
LINE
  5
757
100
AcDbEntity
  8
KONSTRUKTIONSELEMENTE
100
AcDbLine
 62
7
  6
CONTINUOUS
 10
226.813159463
 20
98.2187852825
 11
226.813159463
 21
97.7187852825
  0
LINE
  5
758
100
AcDbEntity
  8
KONSTRUKTIONSELEMENTE
100
AcDbLine
 62
7
  6
CONTINUOUS
 10
227.0173258753
 20
98.2187852825
 11
227.0173258753
 21
97.7187852825
  0
LINE
  5
759
100
AcDbEntity
  8
KONSTRUKTIONSELEMENTE
100
AcDbLine
 62
7
  6
CONTINUOUS
 10
227.1194109889
 20
98.2187852825
 11
227.1194109889
 21
97.7187852825
  0
LINE
  5
75A
100
AcDbEntity
  8
KONSTRUKTIONSELEMENTE
100
AcDbLine
 62
7
  6
CONTINUOUS
 10
227.9360766383
 20
98.2187852825
 11
227.9360766383
 21
97.7187852825
  0
LINE
  5
75B
100
AcDbEntity
  8
KONSTRUKTIONSELEMENTE
100
AcDbLine
 62
7
  6
CONTINUOUS
 10
228.0381579371
 20
98.2187852825
 11
228.0381579371
 21
97.7187852825
  0
LINE
  5
75C
100
AcDbEntity
  8
KONSTRUKTIONSELEMENTE
100
AcDbLine
 62
7
  6
CONTINUOUS
 10
228.344409463
 20
98.2187852825
 11
228.344409463
 21
97.7187852825
  0
LINE
  5
75D
100
AcDbEntity
  8
KONSTRUKTIONSELEMENTE
100
AcDbLine
 62
7
  6
CONTINUOUS
 10
228.7527422877
 20
98.2187852825
 11
228.7527422877
 21
97.7187852825
  0
LINE
  5
75E
100
AcDbEntity
  8
KONSTRUKTIONSELEMENTE
100
AcDbLine
 62
7
  6
CONTINUOUS
 10
229.2631602259
 20
98.2187852825
 11
229.2631602259
 21
97.7187852825
  0
LINE
  5
75F
100
AcDbEntity
  8
KONSTRUKTIONSELEMENTE
100
AcDbLine
 62
7
  6
CONTINUOUS
 10
230.5189928981
 20
83.6055366285
 11
230.5189928981
 21
77.8320339366
  0
LINE
  5
760
100
AcDbEntity
  8
KONSTRUKTIONSELEMENTE
100
AcDbLine
 62
7
  6
CONTINUOUS
 10
227.3377552044
 20
87.9654060056
 11
227.3378721283
 21
88.234973065
  0
LINE
  5
761
100
AcDbEntity
  8
KONSTRUKTIONSELEMENTE
100
AcDbLine
 62
7
  6
CONTINUOUS
 10
229.1609027057
 20
89.5712658258
 11
229.1607867335
 21
89.3016984907
  0
LINE
  5
762
100
AcDbEntity
  8
KONSTRUKTIONSELEMENTE
100
AcDbLine
 62
7
  6
CONTINUOUS
 10
227.3378721283
 20
88.234973065
 11
227.3584332648
 21
88.4302039128
  0
LINE
  5
763
100
AcDbEntity
  8
KONSTRUKTIONSELEMENTE
100
AcDbLine
 62
7
  6
CONTINUOUS
 10
229.1607867335
 20
89.3016984907
 11
229.1402246023
 21
89.1064677916
  0
LINE
  5
764
100
AcDbEntity
  8
KONSTRUKTIONSELEMENTE
100
AcDbLine
 62
7
  6
CONTINUOUS
 10
229.1402246023
 20
89.1064677916
 11
229.0786581023
 21
88.7903422656
  0
LINE
  5
765
100
AcDbEntity
  8
KONSTRUKTIONSELEMENTE
100
AcDbLine
 62
7
  6
CONTINUOUS
 10
229.6722880463
 20
86.690303069
 11
229.731715078
 21
86.9704514775
  0
LINE
  5
766
100
AcDbEntity
  8
KONSTRUKTIONSELEMENTE
100
AcDbLine
 62
7
  6
CONTINUOUS
 10
230.3201936232
 20
87.5618213118
 11
230.3796206408
 21
87.8419697029
  0
LINE
  5
767
100
AcDbEntity
  8
KONSTRUKTIONSELEMENTE
100
AcDbLine
 62
7
  6
CONTINUOUS
 10
232.0433565287
 20
87.9755555093
 11
231.9839295111
 21
87.6954071182
  0
LINE
  5
768
100
AcDbEntity
  8
KONSTRUKTIONSELEMENTE
100
AcDbLine
 62
7
  6
CONTINUOUS
 10
229.9865729838
 20
87.0108220658
 11
229.9335916808
 21
86.8074999694
  0
LINE
  5
769
100
AcDbEntity
  8
KONSTRUKTIONSELEMENTE
100
AcDbLine
 62
7
  6
CONTINUOUS
 10
230.6344800588
 20
87.8823390132
 11
230.5814972436
 21
87.6790181949
  0
LINE
  5
76A
100
AcDbEntity
  8
KONSTRUKTIONSELEMENTE
100
AcDbLine
 62
7
  6
CONTINUOUS
 10
231.7290700931
 20
87.6550378079
 11
231.7820529083
 21
87.8583586262
  0
LINE
  5
76B
100
AcDbEntity
  8
KONSTRUKTIONSELEMENTE
100
AcDbLine
 62
7
  6
CONTINUOUS
 10
229.9543473227
 20
86.6266878969
 11
230.0151942943
 21
86.4955439836
  0
LINE
  5
76C
100
AcDbEntity
  8
KONSTRUKTIONSELEMENTE
100
AcDbLine
 62
7
  6
CONTINUOUS
 10
230.6022528855
 20
87.4982061223
 11
230.6630998572
 21
87.367062209
  0
LINE
  5
76D
100
AcDbEntity
  8
KONSTRUKTIONSELEMENTE
100
AcDbLine
 62
7
  6
CONTINUOUS
 10
231.7612972664
 20
88.0391706988
 11
231.7004502947
 21
88.170314612
  0
LINE
  5
76E
100
AcDbEntity
  8
KONSTRUKTIONSELEMENTE
100
AcDbLine
 62
7
  6
CONTINUOUS
 10
227.3990897528
 20
87.7423968402
 11
227.3377552044
 21
87.9654060056
  0
LINE
  5
76F
100
AcDbEntity
  8
KONSTRUKTIONSELEMENTE
100
AcDbLine
 62
7
  6
CONTINUOUS
 10
229.0995681501
 20
89.7942749699
 11
229.1609027057
 21
89.5712658258
  0
LINE
  5
770
100
AcDbEntity
  8
KONSTRUKTIONSELEMENTE
100
AcDbLine
 62
7
  6
CONTINUOUS
 10
229.7202435221
 20
86.4055064836
 11
229.6722880463
 21
86.690303069
  0
LINE
  5
771
100
AcDbEntity
  8
KONSTRUKTIONSELEMENTE
100
AcDbLine
 62
7
  6
CONTINUOUS
 10
230.3681506497
 20
87.2770234962
 11
230.3201936232
 21
87.5618213118
  0
LINE
  5
772
100
AcDbEntity
  8
KONSTRUKTIONSELEMENTE
100
AcDbLine
 62
7
  6
CONTINUOUS
 10
229.9335916808
 20
86.8074999694
 11
229.9543473227
 21
86.6266878969
  0
LINE
  5
773
100
AcDbEntity
  8
KONSTRUKTIONSELEMENTE
100
AcDbLine
 62
7
  6
CONTINUOUS
 10
230.5814972436
 20
87.6790181949
 11
230.6022528855
 21
87.4982061223
  0
LINE
  5
774
100
AcDbEntity
  8
KONSTRUKTIONSELEMENTE
100
AcDbLine
 62
7
  6
CONTINUOUS
 10
231.7131609889
 20
98.2187852825
 11
231.7131609889
 21
97.7187852825
  0
LINE
  5
775
100
AcDbEntity
  8
KONSTRUKTIONSELEMENTE
100
AcDbLine
 62
7
  6
CONTINUOUS
 10
232.5298266383
 20
98.2187852825
 11
232.5298266383
 21
97.7187852825
  0
LINE
  5
776
100
AcDbEntity
  8
KONSTRUKTIONSELEMENTE
100
AcDbLine
 62
7
  6
CONTINUOUS
 10
232.6319079371
 20
98.2187852825
 11
232.6319079371
 21
97.7187852825
  0
LINE
  5
777
100
AcDbEntity
  8
KONSTRUKTIONSELEMENTE
100
AcDbLine
 62
7
  6
CONTINUOUS
 10
232.7339930506
 20
98.2187852825
 11
232.7339930506
 21
97.7187852825
  0
LINE
  5
778
100
AcDbEntity
  8
KONSTRUKTIONSELEMENTE
100
AcDbLine
 62
7
  6
CONTINUOUS
 10
233.0402445765
 20
98.2187852825
 11
233.0402445765
 21
97.7187852825
  0
LINE
  5
779
100
AcDbEntity
  8
KONSTRUKTIONSELEMENTE
100
AcDbLine
 62
7
  6
CONTINUOUS
 10
233.4485774012
 20
98.2187852825
 11
233.4485774012
 21
97.7187852825
  0
LINE
  5
77A
100
AcDbEntity
  8
KONSTRUKTIONSELEMENTE
100
AcDbLine
 62
7
  6
CONTINUOUS
 10
233.9589915248
 20
98.2187852825
 11
233.9589915248
 21
97.7187852825
  0
LINE
  5
77B
100
AcDbEntity
  8
KONSTRUKTIONSELEMENTE
100
AcDbLine
 62
7
  6
CONTINUOUS
 10
236.4089922877
 20
98.2187852825
 11
236.4089922877
 21
97.7187852825
  0
LINE
  5
77C
100
AcDbEntity
  8
KONSTRUKTIONSELEMENTE
100
AcDbLine
 62
7
  6
CONTINUOUS
 10
237.5189928981
 20
87.6469885128
 11
237.5189928981
 21
73.7905820522
  0
LINE
  5
77D
100
AcDbEntity
  8
KONSTRUKTIONSELEMENTE
100
AcDbLine
 62
7
  6
CONTINUOUS
 10
231.9953995022
 20
88.2603533249
 11
232.0433565287
 21
87.9755555093
  0
LINE
  5
77E
100
AcDbEntity
  8
KONSTRUKTIONSELEMENTE
100
AcDbLine
 62
7
  6
CONTINUOUS
 10
231.7820529083
 20
87.8583586262
 11
231.7612972664
 21
88.0391706988
  0
LINE
  5
77F
100
AcDbEntity
  8
KONSTRUKTIONSELEMENTE
100
AcDbLine
 62
7
  6
CONTINUOUS
 10
239.0189928981
 20
73.2187852825
 11
239.0189928981
 21
88.2187852825
  0
LINE
  5
780
100
AcDbEntity
  8
KONSTRUKTIONSELEMENTE
100
AcDbLine
 62
7
  6
CONTINUOUS
 10
240.0189928981
 20
88.2187852825
 11
240.0189928981
 21
73.2187852825
  0
LINE
  5
781
100
AcDbEntity
  8
KONSTRUKTIONSELEMENTE
100
AcDbLine
 62
7
  6
CONTINUOUS
 10
247.5189928981
 20
95.7187852825
 11
247.5189928981
 21
65.7187852825
  0
ARC
  5
782
100
AcDbEntity
  8
KONSTRUKTIONSELEMENTE
100
AcDbCircle
 62
7
  6
CONTINUOUS
 10
111.5189928981
 20
178.3284578883
 40
10.0
100
AcDbArc
 50
353.9999999992
 51
360.0
  0
ARC
  5
783
100
AcDbEntity
  8
0
100
AcDbCircle
 62
7
  6
CONTINUOUS
 10
132.5189928981
 20
191.8043800955
 40
9.9459381174
100
AcDbArc
 50
171.4800650345
 51
174.2295282215
  0
ARC
  5
784
100
AcDbEntity
  8
RUNDUNGEN
100
AcDbCircle
 62
7
  6
CONTINUOUS
 10
132.5189928981
 20
191.8043800955
 40
9.2102084705
100
AcDbArc
 50
101.9467244552
 51
133.6683840308
  0
ARC
  5
785
100
AcDbEntity
  8
RUNDUNGEN
100
AcDbCircle
 62
7
  6
CONTINUOUS
 10
132.5189928981
 20
191.8043800955
 40
9.2102084705
100
AcDbArc
 50
313.1342666547
 51
345.714996889
  0
ARC
  5
786
100
AcDbEntity
  8
RUNDUNGEN
100
AcDbCircle
 62
7
  6
CONTINUOUS
 10
132.9803890196
 20
191.8763262272
 40
9.0026473763
100
AcDbArc
 50
296.3986625312
 51
298.8391749817
  0
ARC
  5
787
100
AcDbEntity
  8
RUNDUNGEN
100
AcDbCircle
 62
7
  6
CONTINUOUS
 10
133.5225767972
 20
190.7330272879
 40
7.7422243179
100
AcDbArc
 50
310.0257898551
 51
313.1352045212
  0
ARC
  5
788
100
AcDbEntity
  8
0
100
AcDbCircle
 62
7
  6
CONTINUOUS
 10
132.5189928981
 20
191.8043800955
 40
7.5
100
AcDbArc
 50
0.0
 51
180.0
  0
ARC
  5
789
100
AcDbEntity
  8
KONSTRUKTIONSELEMENTE
100
AcDbCircle
 62
7
  6
CONTINUOUS
 10
132.5189928981
 20
191.8043800955
 40
7.5
100
AcDbArc
 50
180.0
 51
360.0
  0
ARC
  5
78A
100
AcDbEntity
  8
0
100
AcDbCircle
 62
7
  6
CONTINUOUS
 10
138.8228404753
 20
174.8043800955
 40
3.0
100
AcDbArc
 50
90.0
 51
120.0
  0
ARC
  5
78B
100
AcDbEntity
  8
0
100
AcDbCircle
 62
7
  6
CONTINUOUS
 10
135.4830945132
 20
179.8043800955
 40
3.0
100
AcDbArc
 50
270.0
 51
300.0
  0
ARC
  5
78C
100
AcDbEntity
  8
KONSTRUKTIONSELEMENTE
100
AcDbCircle
 62
7
  6
CONTINUOUS
 10
70.3708433393
 20
174.8043800955
 40
2.0
100
AcDbArc
 50
186.0
 51
270.0
  0
ARC
  5
78D
100
AcDbEntity
  8
RUNDUNGEN
100
AcDbCircle
 62
7
  6
CONTINUOUS
 10
122.0062355779
 20
191.8556275247
 40
1.1596211423
100
AcDbArc
 50
318.596857569
 51
321.1094624106
  0
ARC
  5
78E
100
AcDbEntity
  8
RUNDUNGEN
100
AcDbCircle
 62
7
  6
CONTINUOUS
 10
123.5189928981
 20
185.8043800955
 40
1.0
100
AcDbArc
 50
180.0
 51
270.0000000487
  0
ARC
  5
78F
100
AcDbEntity
  8
RUNDUNGEN
100
AcDbCircle
 62
7
  6
CONTINUOUS
 10
122.2247945514
 20
191.5515832408
 40
0.7989813445
100
AcDbArc
 50
317.1962950147
 51
324.5964991298
  0
ARC
  5
790
100
AcDbEntity
  8
RUNDUNGEN
100
AcDbCircle
 62
7
  6
CONTINUOUS
 10
122.2510493053
 20
191.534142881
 40
0.7674212457
100
AcDbArc
 50
328.8492652507
 51
337.9456776104
  0
ARC
  5
791
100
AcDbEntity
  8
KONSTRUKTIONSELEMENTE
100
AcDbCircle
 62
7
  6
CONTINUOUS
 10
102.9679505454
 20
168.3043800955
 40
0.5
100
AcDbArc
 50
180.0
 51
270.0008667487
  0
ARC
  5
792
100
AcDbEntity
  8
KONSTRUKTIONSELEMENTE
100
AcDbCircle
 62
7
  6
CONTINUOUS
 10
119.9679505454
 20
168.3043800955
 40
0.5
100
AcDbArc
 50
269.9991332513
 51
360.0
  0
ARC
  5
793
100
AcDbEntity
  8
KONSTRUKTIONSELEMENTE
100
AcDbCircle
 62
7
  6
CONTINUOUS
 10
120.5432696996
 20
173.3043800955
 40
0.5
100
AcDbArc
 50
270.0
 51
354.0
  0
ARC
  5
794
100
AcDbEntity
  8
KONSTRUKTIONSELEMENTE
100
AcDbCircle
 62
7
  6
CONTINUOUS
 10
148.0189928981
 20
182.3043800955
 40
0.5
100
AcDbArc
 50
180.0
 51
270.0
  0
ARC
  5
795
100
AcDbEntity
  8
KONSTRUKTIONSELEMENTE
100
AcDbCircle
 62
7
  6
CONTINUOUS
 10
148.0189928981
 20
187.3043800955
 40
0.5
100
AcDbArc
 50
90.0
 51
180.0
  0
ARC
  5
796
100
AcDbEntity
  8
KONSTRUKTIONSELEMENTE
100
AcDbCircle
 62
7
  6
CONTINUOUS
 10
119.5189928981
 20
193.6995645369
 40
2.0
100
AcDbArc
 50
0.0
 51
6.0000000023
  0
ARC
  5
797
100
AcDbEntity
  8
KONSTRUKTIONSELEMENTE
100
AcDbCircle
 62
7
  6
CONTINUOUS
 10
71.7331387983
 20
194.8043800955
 40
2.0
100
AcDbArc
 50
90.0
 51
164.9999999999
  0
ARC
  5
798
100
AcDbEntity
  8
RUNDUNGEN
100
AcDbCircle
 62
7
  6
CONTINUOUS
 10
120.533331704
 20
194.595323169
 40
2.0
100
AcDbArc
 50
6.0013257425
 51
47.4096221093
  0
ARC
  5
799
100
AcDbEntity
  8
0
100
AcDbCircle
 62
7
  6
CONTINUOUS
 10
123.2403410714
 20
197.5401661673
 40
2.0
100
AcDbArc
 50
186.0
 51
227.4096221093
  0
ARC
  5
79A
100
AcDbEntity
  8
RUNDUNGEN
100
AcDbCircle
 62
7
  6
CONTINUOUS
 10
123.2403410714
 20
197.5401661673
 40
2.0
100
AcDbArc
 50
186.0
 51
227.4096221093
  0
ARC
  5
79B
100
AcDbEntity
  8
KONSTRUKTIONSELEMENTE
100
AcDbCircle
 62
7
  6
CONTINUOUS
 10
109.0189928981
 20
196.3043800955
 40
0.5
100
AcDbArc
 50
29.2690148222
 51
90.0
  0
ARC
  5
79C
100
AcDbEntity
  8
KONSTRUKTIONSELEMENTE
100
AcDbCircle
 62
7
  6
CONTINUOUS
 10
203.5189928981
 20
178.3284578883
 40
10.0
100
AcDbArc
 50
180.0
 51
186.0000000008
  0
ARC
  5
79D
100
AcDbEntity
  8
0
100
AcDbCircle
 62
7
  6
CONTINUOUS
 10
182.5189928981
 20
191.8043800955
 40
9.9459381174
100
AcDbArc
 50
5.7704717785
 51
8.5199349655
  0
ARC
  5
79E
100
AcDbEntity
  8
RUNDUNGEN
100
AcDbCircle
 62
7
  6
CONTINUOUS
 10
182.5189928981
 20
191.8043800955
 40
9.2102084705
100
AcDbArc
 50
46.3316159692
 51
78.0532755448
  0
ARC
  5
79F
100
AcDbEntity
  8
RUNDUNGEN
100
AcDbCircle
 62
7
  6
CONTINUOUS
 10
182.5189928981
 20
191.8043800955
 40
9.2102084705
100
AcDbArc
 50
194.285003111
 51
226.8657312851
  0
ARC
  5
7A0
100
AcDbEntity
  8
RUNDUNGEN
100
AcDbCircle
 62
7
  6
CONTINUOUS
 10
182.0575967765
 20
191.8763262272
 40
9.0026473764
100
AcDbArc
 50
241.1608250183
 51
243.6013374688
  0
ARC
  5
7A1
100
AcDbEntity
  8
RUNDUNGEN
100
AcDbCircle
 62
7
  6
CONTINUOUS
 10
181.5154071609
 20
190.7330252107
 40
7.7422215452
100
AcDbArc
 50
226.8647955956
 51
229.9742106869
  0
ARC
  5
7A2
100
AcDbEntity
  8
0
100
AcDbCircle
 62
7
  6
CONTINUOUS
 10
182.5189928981
 20
191.8043800955
 40
7.5
100
AcDbArc
 50
0.0
 51
180.0
  0
ARC
  5
7A3
100
AcDbEntity
  8
KONSTRUKTIONSELEMENTE
100
AcDbCircle
 62
7
  6
CONTINUOUS
 10
182.5189928981
 20
191.8043800955
 40
7.5
100
AcDbArc
 50
180.0
 51
360.0
  0
ARC
  5
7A4
100
AcDbEntity
  8
0
100
AcDbCircle
 62
7
  6
CONTINUOUS
 10
176.2151453208
 20
174.8043800955
 40
3.0
100
AcDbArc
 50
60.0
 51
90.0
  0
ARC
  5
7A5
100
AcDbEntity
  8
0
100
AcDbCircle
 62
7
  6
CONTINUOUS
 10
179.5548912829
 20
179.8043800955
 40
3.0
100
AcDbArc
 50
240.0
 51
270.0
  0
ARC
  5
7A6
100
AcDbEntity
  8
KONSTRUKTIONSELEMENTE
100
AcDbCircle
 62
7
  6
CONTINUOUS
 10
244.6671424568
 20
174.8043800955
 40
2.0
100
AcDbArc
 50
270.0
 51
354.0
  0
ARC
  5
7A7
100
AcDbEntity
  8
RUNDUNGEN
100
AcDbCircle
 62
7
  6
CONTINUOUS
 10
193.0414082635
 20
191.8639909804
 40
1.1723966009
100
AcDbArc
 50
220.7759537722
 51
221.3975633607
  0
ARC
  5
7A8
100
AcDbEntity
  8
RUNDUNGEN
100
AcDbCircle
 62
7
  6
CONTINUOUS
 10
193.028436569
 20
191.8528823721
 40
1.1553184738
100
AcDbArc
 50
218.8877476141
 51
220.778911676
  0
ARC
  5
7A9
100
AcDbEntity
  8
RUNDUNGEN
100
AcDbCircle
 62
7
  6
CONTINUOUS
 10
191.5189928981
 20
185.8043800955
 40
1.0
100
AcDbArc
 50
269.9999999513
 51
360.0
  0
ARC
  5
7AA
100
AcDbEntity
  8
RUNDUNGEN
100
AcDbCircle
 62
7
  6
CONTINUOUS
 10
192.8127894989
 20
191.5513255604
 40
0.7985113849
100
AcDbArc
 50
217.2643204421
 51
222.8096180395
  0
ARC
  5
7AB
100
AcDbEntity
  8
RUNDUNGEN
100
AcDbCircle
 62
7
  6
CONTINUOUS
 10
192.8053900162
 20
191.5456267593
 40
0.7891719197
100
AcDbArc
 50
215.3791362722
 51
217.260322926
  0
ARC
  5
7AC
100
AcDbEntity
  8
RUNDUNGEN
100
AcDbCircle
 62
7
  6
CONTINUOUS
 10
192.786936481
 20
191.5341428748
 40
0.7674212343
100
AcDbArc
 50
202.0543222414
 51
211.1507347544
  0
ARC
  5
7AD
100
AcDbEntity
  8
KONSTRUKTIONSELEMENTE
100
AcDbCircle
 62
7
  6
CONTINUOUS
 10
212.0700352507
 20
168.3043800955
 40
0.5
100
AcDbArc
 50
269.9991332513
 51
360.0
  0
ARC
  5
7AE
100
AcDbEntity
  8
KONSTRUKTIONSELEMENTE
100
AcDbCircle
 62
7
  6
CONTINUOUS
 10
195.0700352507
 20
168.3043800955
 40
0.5
100
AcDbArc
 50
180.0
 51
270.0008667487
  0
ARC
  5
7AF
100
AcDbEntity
  8
KONSTRUKTIONSELEMENTE
100
AcDbCircle
 62
7
  6
CONTINUOUS
 10
194.4947160965
 20
173.3043800955
 40
0.5
100
AcDbArc
 50
186.0
 51
270.0
  0
ARC
  5
7B0
100
AcDbEntity
  8
KONSTRUKTIONSELEMENTE
100
AcDbCircle
 62
7
  6
CONTINUOUS
 10
167.0189928981
 20
182.3043800955
 40
0.5
100
AcDbArc
 50
270.0
 51
360.0
  0
ARC
  5
7B1
100
AcDbEntity
  8
KONSTRUKTIONSELEMENTE
100
AcDbCircle
 62
7
  6
CONTINUOUS
 10
167.0189928981
 20
187.3043800955
 40
0.5
100
AcDbArc
 50
0.0
 51
90.0
  0
ARC
  5
7B2
100
AcDbEntity
  8
0
100
AcDbCircle
 62
7
  6
CONTINUOUS
 10
157.5189928981
 20
215.8043800955
 40
38.0
100
AcDbArc
 50
172.7220865887
 51
174.3636364866
  0
ARC
  5
7B3
100
AcDbEntity
  8
0
100
AcDbCircle
 62
7
  6
CONTINUOUS
 10
157.5189928981
 20
215.8043800955
 40
38.0
100
AcDbArc
 50
175.968186055
 51
179.074031052
  0
ARC
  5
7B4
100
AcDbEntity
  8
0
100
AcDbCircle
 62
7
  6
CONTINUOUS
 10
157.5189928981
 20
215.8043800955
 40
38.0
100
AcDbArc
 50
182.1213582137
 51
186.0
  0
ARC
  5
7B5
100
AcDbEntity
  8
RUNDUNGEN
100
AcDbCircle
 62
7
  6
CONTINUOUS
 10
157.5189928981
 20
215.8043800955
 40
38.0
100
AcDbArc
 50
354.0
 51
186.0
  0
CIRCLE
  5
7B6
100
AcDbEntity
  8
KONSTRUKTIONSELEMENTE
100
AcDbCircle
 62
7
  6
CONTINUOUS
 10
157.5189928981
 20
215.8043800955
 40
24.0
  0
ARC
  5
7B7
100
AcDbEntity
  8
KONSTRUKTIONSELEMENTE
100
AcDbCircle
 62
7
  6
CONTINUOUS
 10
195.5189928981
 20
193.6995645369
 40
2.0
100
AcDbArc
 50
173.9974114588
 51
180.0
  0
ARC
  5
7B8
100
AcDbEntity
  8
KONSTRUKTIONSELEMENTE
100
AcDbCircle
 62
7
  6
CONTINUOUS
 10
243.3048469978
 20
194.8043800955
 40
2.0
100
AcDbArc
 50
15.0000000001
 51
90.0
  0
ARC
  5
7B9
100
AcDbEntity
  8
RUNDUNGEN
100
AcDbCircle
 62
7
  6
CONTINUOUS
 10
194.5046540921
 20
194.595323169
 40
2.0
100
AcDbArc
 50
132.5903778907
 51
173.9977031488
  0
ARC
  5
7BA
100
AcDbEntity
  8
0
100
AcDbCircle
 62
7
  6
CONTINUOUS
 10
191.7976447247
 20
197.5401661673
 40
2.0
100
AcDbArc
 50
312.5903778907
 51
354.0
  0
ARC
  5
7BB
100
AcDbEntity
  8
RUNDUNGEN
100
AcDbCircle
 62
7
  6
CONTINUOUS
 10
191.7976447247
 20
197.5401661673
 40
2.0
100
AcDbArc
 50
312.5903778907
 51
354.0
  0
ARC
  5
7BC
100
AcDbEntity
  8
KONSTRUKTIONSELEMENTE
100
AcDbCircle
 62
7
  6
CONTINUOUS
 10
306.0267650294
 20
192.8043800955
 40
4.0
100
AcDbArc
 50
90.0
 51
180.0
  0
ARC
  5
7BD
100
AcDbEntity
  8
KONSTRUKTIONSELEMENTE
100
AcDbCircle
 62
7
  6
CONTINUOUS
 10
310.5267650294
 20
168.3043800955
 40
0.5
100
AcDbArc
 50
180.0
 51
270.0008667487
  0
ARC
  5
7BE
100
AcDbEntity
  8
KONSTRUKTIONSELEMENTE
100
AcDbCircle
 62
7
  6
CONTINUOUS
 10
302.5267653673
 20
173.3043802559
 40
0.4999999803
100
AcDbArc
 50
180.0000763269
 51
269.9999893133
  0
ARC
  5
7BF
100
AcDbEntity
  8
0
100
AcDbCircle
 62
7
  6
CONTINUOUS
 10
317.0267650294
 20
248.8043800955
 40
5.0
100
AcDbArc
 50
90.0
 51
180.0
  0
ARC
  5
7C0
100
AcDbEntity
  8
KONSTRUKTIONSELEMENTE
100
AcDbCircle
 62
7
  6
CONTINUOUS
 10
319.0267650294
 20
186.8043800955
 40
17.0
100
AcDbArc
 50
143.9456423767
 51
144.3103598041
  0
ARC
  5
7C1
100
AcDbEntity
  8
KONSTRUKTIONSELEMENTE
100
AcDbCircle
 62
7
  6
CONTINUOUS
 10
319.0267650294
 20
186.8043800955
 40
17.0
100
AcDbArc
 50
137.4014009356
 51
139.6646725696
  0
ARC
  5
7C2
100
AcDbEntity
  8
KONSTRUKTIONSELEMENTE
100
AcDbCircle
 62
7
  6
CONTINUOUS
 10
319.0267650294
 20
186.8043800955
 40
17.0
100
AcDbArc
 50
40.3319503152
 51
42.6007861338
  0
ARC
  5
7C3
100
AcDbEntity
  8
KONSTRUKTIONSELEMENTE
100
AcDbCircle
 62
7
  6
CONTINUOUS
 10
319.0267650294
 20
186.8043800955
 40
17.0
100
AcDbArc
 50
35.6854164151
 51
36.0543576233
  0
ARC
  5
7C4
100
AcDbEntity
  8
KONSTRUKTIONSELEMENTE
100
AcDbCircle
 62
7
  6
CONTINUOUS
 10
327.5267650294
 20
168.3043800955
 40
0.5
100
AcDbArc
 50
269.9991332513
 51
360.0
  0
ARC
  5
7C5
100
AcDbEntity
  8
KONSTRUKTIONSELEMENTE
100
AcDbCircle
 62
7
  6
CONTINUOUS
 10
335.5267643392
 20
173.3043803778
 40
0.4999999355
100
AcDbArc
 50
270.0000790906
 51
359.9998790964
  0
ARC
  5
7C6
100
AcDbEntity
  8
KONSTRUKTIONSELEMENTE
100
AcDbCircle
 62
7
  6
CONTINUOUS
 10
332.0267650294
 20
192.8043800955
 40
4.0
100
AcDbArc
 50
0.0
 51
90.0
  0
ARC
  5
7C7
100
AcDbEntity
  8
RUNDUNGEN
100
AcDbCircle
 62
7
  6
CONTINUOUS
 10
321.0267650294
 20
248.8043800955
 40
5.0
100
AcDbArc
 50
0.0
 51
90.0
  0
ARC
  5
7C8
100
AcDbEntity
  8
RUNDUNGEN
100
AcDbCircle
 62
7
  6
CONTINUOUS
 10
124.5189928981
 20
78.7187852825
 40
5.0
100
AcDbArc
 50
180.0
 51
270.0
  0
ARC
  5
7C9
100
AcDbEntity
  8
KONSTRUKTIONSELEMENTE
100
AcDbCircle
 62
7
  6
CONTINUOUS
 10
111.7692481794
 20
67.8396622414
 40
2.3172432493
100
AcDbArc
 50
180.0435663187
 51
182.9901411386
  0
ARC
  5
7CA
100
AcDbEntity
  8
KONSTRUKTIONSELEMENTE
100
AcDbCircle
 62
7
  6
CONTINUOUS
 10
119.5189928981
 20
65.7187852825
 40
2.0
100
AcDbArc
 50
270.0
 51
360.0
  0
ARC
  5
7CB
100
AcDbEntity
  8
KONSTRUKTIONSELEMENTE
100
AcDbCircle
 62
7
  6
CONTINUOUS
 10
69.5189928981
 20
65.7187852825
 40
2.0
100
AcDbArc
 50
180.0
 51
270.0
  0
ARC
  5
7CC
100
AcDbEntity
  8
RUNDUNGEN
100
AcDbCircle
 62
7
  6
CONTINUOUS
 10
140.6185888538
 20
72.7187852825
 40
1.0
100
AcDbArc
 50
270.0
 51
354.0
  0
ARC
  5
7CD
100
AcDbEntity
  8
RUNDUNGEN
100
AcDbCircle
 62
7
  6
CONTINUOUS
 10
123.5189928981
 20
72.7187852825
 40
1.0
100
AcDbArc
 50
180.0
 51
270.0
  0
ARC
  5
7CE
100
AcDbEntity
  8
RUNDUNGEN
100
AcDbCircle
 62
7
  6
CONTINUOUS
 10
124.4193975587
 20
72.7187852825
 40
1.0
100
AcDbArc
 50
186.0000473169
 51
270.0000000001
  0
ARC
  5
7CF
100
AcDbEntity
  8
KONSTRUKTIONSELEMENTE
100
AcDbCircle
 62
7
  6
CONTINUOUS
 10
109.0189928981
 20
64.2187852825
 40
0.5
100
AcDbArc
 50
270.0
 51
360.0
  0
ARC
  5
7D0
100
AcDbEntity
  8
KONSTRUKTIONSELEMENTE
100
AcDbCircle
 62
7
  6
CONTINUOUS
 10
88.5189928981
 20
80.7187852825
 40
15.0
100
AcDbArc
 50
210.0
 51
150.0
  0
CIRCLE
  5
7D1
100
AcDbEntity
  8
KONSTRUKTIONSELEMENTE
100
AcDbCircle
 62
7
  6
CONTINUOUS
 10
89.5189928981
 20
80.7187852825
 40
12.0
  0
ARC
  5
7D2
100
AcDbEntity
  8
0
100
AcDbCircle
 62
7
  6
CONTINUOUS
 10
124.5189928981
 20
82.7187852825
 40
5.0
100
AcDbArc
 50
90.0
 51
180.0
  0
ARC
  5
7D3
100
AcDbEntity
  8
KONSTRUKTIONSELEMENTE
100
AcDbCircle
 62
7
  6
CONTINUOUS
 10
119.5189928981
 20
95.7187852825
 40
2.0
100
AcDbArc
 50
0.0
 51
90.0
  0
ARC
  5
7D4
100
AcDbEntity
  8
KONSTRUKTIONSELEMENTE
100
AcDbCircle
 62
7
  6
CONTINUOUS
 10
69.5189928981
 20
95.7187852825
 40
2.0
100
AcDbArc
 50
89.9999999999
 51
180.0
  0
ARC
  5
7D5
100
AcDbEntity
  8
KONSTRUKTIONSELEMENTE
100
AcDbCircle
 62
7
  6
CONTINUOUS
 10
108.5189928981
 20
96.7187852825
 40
1.0
100
AcDbArc
 50
0.0
 51
90.0
  0
ARC
  5
7D6
100
AcDbEntity
  8
0
100
AcDbCircle
 62
7
  6
CONTINUOUS
 10
140.6185888538
 20
88.7187852825
 40
1.0
100
AcDbArc
 50
6.0
 51
90.0
  0
ARC
  5
7D7
100
AcDbEntity
  8
0
100
AcDbCircle
 62
7
  6
CONTINUOUS
 10
124.4193975587
 20
88.7187852825
 40
1.0
100
AcDbArc
 50
89.9999999999
 51
173.9999526831
  0
ARC
  5
7D8
100
AcDbEntity
  8
0
100
AcDbCircle
 62
7
  6
CONTINUOUS
 10
123.5189928981
 20
88.7187852825
 40
1.0
100
AcDbArc
 50
90.0
 51
180.0
  0
ARC
  5
7D9
100
AcDbEntity
  8
RUNDUNGEN
100
AcDbCircle
 62
7
  6
CONTINUOUS
 10
190.5189928981
 20
78.7187852825
 40
5.0
100
AcDbArc
 50
270.0
 51
360.0
  0
ARC
  5
7DA
100
AcDbEntity
  8
KONSTRUKTIONSELEMENTE
100
AcDbCircle
 62
7
  6
CONTINUOUS
 10
195.5189928981
 20
65.7187852825
 40
2.0
100
AcDbArc
 50
180.0
 51
270.0
  0
ARC
  5
7DB
100
AcDbEntity
  8
KONSTRUKTIONSELEMENTE
100
AcDbCircle
 62
7
  6
CONTINUOUS
 10
245.5189928981
 20
65.7187852825
 40
2.0
100
AcDbArc
 50
269.9999999999
 51
360.0
  0
ARC
  5
7DC
100
AcDbEntity
  8
KONSTRUKTIONSELEMENTE
100
AcDbCircle
 62
7
  6
CONTINUOUS
 10
206.5189928981
 20
64.7187852825
 40
1.0
100
AcDbArc
 50
180.0
 51
270.0
  0
ARC
  5
7DD
100
AcDbEntity
  8
RUNDUNGEN
100
AcDbCircle
 62
7
  6
CONTINUOUS
 10
174.4193969423
 20
72.7187852825
 40
1.0
100
AcDbArc
 50
186.0
 51
270.0
  0
ARC
  5
7DE
100
AcDbEntity
  8
RUNDUNGEN
100
AcDbCircle
 62
7
  6
CONTINUOUS
 10
191.5189928981
 20
72.7187852825
 40
1.0
100
AcDbArc
 50
270.0
 51
360.0
  0
ARC
  5
7DF
100
AcDbEntity
  8
RUNDUNGEN
100
AcDbCircle
 62
7
  6
CONTINUOUS
 10
190.618588439
 20
72.7187852825
 40
0.999999785
100
AcDbArc
 50
269.9999818356
 51
353.9999515485
  0
ARC
  5
7E0
100
AcDbEntity
  8
KONSTRUKTIONSELEMENTE
100
AcDbCircle
 62
7
  6
CONTINUOUS
 10
226.5189928981
 20
80.7187852825
 40
15.0
100
AcDbArc
 50
30.0
 51
330.0
  0
CIRCLE
  5
7E1
100
AcDbEntity
  8
KONSTRUKTIONSELEMENTE
100
AcDbCircle
 62
7
  6
CONTINUOUS
 10
225.5189928981
 20
80.7187852825
 40
12.0
  0
ARC
  5
7E2
100
AcDbEntity
  8
0
100
AcDbCircle
 62
7
  6
CONTINUOUS
 10
190.5189928981
 20
82.7187852825
 40
5.0
100
AcDbArc
 50
0.0
 51
90.0
  0
ARC
  5
7E3
100
AcDbEntity
  8
KONSTRUKTIONSELEMENTE
100
AcDbCircle
 62
7
  6
CONTINUOUS
 10
203.2687376167
 20
93.5979083237
 40
2.3172432493
100
AcDbArc
 50
0.0435663187
 51
2.9901411386
  0
ARC
  5
7E4
100
AcDbEntity
  8
KONSTRUKTIONSELEMENTE
100
AcDbCircle
 62
7
  6
CONTINUOUS
 10
195.5189928981
 20
95.7187852825
 40
2.0
100
AcDbArc
 50
90.0
 51
180.0
  0
ARC
  5
7E5
100
AcDbEntity
  8
KONSTRUKTIONSELEMENTE
100
AcDbCircle
 62
7
  6
CONTINUOUS
 10
245.5189928981
 20
95.7187852825
 40
2.0
100
AcDbArc
 50
0.0
 51
90.0
  0
ARC
  5
7E6
100
AcDbEntity
  8
0
100
AcDbCircle
 62
7
  6
CONTINUOUS
 10
174.4193969423
 20
88.7187852825
 40
1.0
100
AcDbArc
 50
90.0
 51
174.0
  0
ARC
  5
7E7
100
AcDbEntity
  8
0
100
AcDbCircle
 62
7
  6
CONTINUOUS
 10
191.5189928981
 20
88.7187852825
 40
1.0
100
AcDbArc
 50
0.0
 51
90.0
  0
ARC
  5
7E8
100
AcDbEntity
  8
0
100
AcDbCircle
 62
7
  6
CONTINUOUS
 10
190.618588439
 20
88.7187852825
 40
0.999999785
100
AcDbArc
 50
6.0000484515
 51
90.0000115555
  0
ARC
  5
7E9
100
AcDbEntity
  8
KONSTRUKTIONSELEMENTE
100
AcDbCircle
 62
7
  6
CONTINUOUS
 10
206.0189928981
 20
97.2187852825
 40
0.5
100
AcDbArc
 50
90.0
 51
180.0
  0
SPLINE
  5
7EA
100
AcDbEntity
  8
KONSTRUKTIONSELEMENTE
100
AcDbSpline
 62
7
  6
CONTINUOUS
 70
0
 71
3
 72
10
 73
6
 74
0
 42
0.0000001
 43
0.0000001
 44
0.0000000001
 40
0.0
 40
0.0
 40
0.0
 40
0.0
 40
0.2489296457
 40
0.4984063413
 40
1.0
 40
1.0
 40
1.0
 40
1.0
 10
83.5189928981
 20
207.8043800955
 30
0.0
 10
83.0112968188
 20
207.8043800955
 30
0.0
 10
81.9940779013
 20
207.754237161
 30
0.0
 10
79.9732521512
 20
207.462599478
 30
0.0
 10
78.4895039393
 20
207.0560870062
 30
0.0
 10
77.518992898
 20
206.7325833258
 30
0.0
  0
SPLINE
  5
7EB
100
AcDbEntity
  8
KONSTRUKTIONSELEMENTE
100
AcDbSpline
 62
7
  6
CONTINUOUS
 70
0
 71
3
 72
10
 73
6
 74
0
 42
0.0000001
 43
0.0000001
 44
0.0000000001
 40
0.0
 40
0.0
 40
0.0
 40
0.0
 40
0.5015936611
 40
0.7510703561
 40
1.0
 40
1.0
 40
1.0
 40
1.0
 10
101.518992898
 20
206.7325833258
 30
0.0
 10
100.5484818521
 20
207.0560870078
 30
0.0
 10
99.0647336363
 20
207.4625994807
 30
0.0
 10
97.0439078857
 20
207.7542371617
 30
0.0
 10
96.026688973
 20
207.8043800955
 30
0.0
 10
95.5189928974
 20
207.8043800955
 30
0.0
  0
SPLINE
  5
7EC
100
AcDbEntity
  8
KONSTRUKTIONSELEMENTE
100
AcDbSpline
 62
7
  6
CONTINUOUS
 70
0
 71
3
 72
10
 73
6
 74
0
 42
0.0000001
 43
0.0000001
 44
0.0000000001
 40
0.0
 40
0.0
 40
0.0
 40
0.0
 40
0.2489296448
 40
0.4984063405
 40
1.0
 40
1.0
 40
1.0
 40
1.0
 10
95.5189928974
 20
207.8043800955
 30
0.0
 10
95.0112968201
 20
207.8043800955
 30
0.0
 10
93.9940779043
 20
207.7542371612
 30
0.0
 10
91.9732521542
 20
207.4625994792
 30
0.0
 10
90.4895039407
 20
207.0560870067
 30
0.0
 10
89.5189928981
 20
206.7325833258
 30
0.0
  0
SPLINE
  5
7ED
100
AcDbEntity
  8
KONSTRUKTIONSELEMENTE
100
AcDbSpline
 62
7
  6
CONTINUOUS
 70
0
 71
3
 72
10
 73
6
 74
0
 42
0.0000001
 43
0.0000001
 44
0.0000000001
 40
0.0
 40
0.0
 40
0.0
 40
0.0
 40
0.50159366
 40
0.7510703551
 40
1.0
 40
1.0
 40
1.0
 40
1.0
 10
89.5189928981
 20
206.7325833258
 30
0.0
 10
88.5484818543
 20
207.056087007
 30
0.0
 10
87.0647336408
 20
207.4625994791
 30
0.0
 10
85.0439078906
 20
207.7542371614
 30
0.0
 10
84.0266889757
 20
207.8043800955
 30
0.0
 10
83.5189928981
 20
207.8043800955
 30
0.0
  0
SPLINE
  5
7EE
100
AcDbEntity
  8
KONSTRUKTIONSELEMENTE
100
AcDbSpline
 62
7
  6
CONTINUOUS
 70
0
 71
3
 72
10
 73
6
 74
0
 42
0.0000001
 43
0.0000001
 44
0.0000000001
 40
0.0
 40
0.0
 40
0.0
 40
0.0
 40
0.2489296448
 40
0.4984063405
 40
1.0
 40
1.0
 40
1.0
 40
1.0
 10
219.5189928974
 20
207.8043800955
 30
0.0
 10
219.01129682
 20
207.8043800955
 30
0.0
 10
217.9940779042
 20
207.7542371612
 30
0.0
 10
215.9732521542
 20
207.4625994792
 30
0.0
 10
214.4895039407
 20
207.0560870067
 30
0.0
 10
213.5189928981
 20
206.7325833258
 30
0.0
  0
SPLINE
  5
7EF
100
AcDbEntity
  8
KONSTRUKTIONSELEMENTE
100
AcDbSpline
 62
7
  6
CONTINUOUS
 70
0
 71
3
 72
10
 73
6
 74
0
 42
0.0000001
 43
0.0000001
 44
0.0000000001
 40
0.0
 40
0.0
 40
0.0
 40
0.0
 40
0.50159366
 40
0.7510703551
 40
1.0
 40
1.0
 40
1.0
 40
1.0
 10
237.5189928981
 20
206.7325833258
 30
0.0
 10
236.5484818543
 20
207.056087007
 30
0.0
 10
235.0647336408
 20
207.4625994791
 30
0.0
 10
233.0439078906
 20
207.7542371614
 30
0.0
 10
232.0266889757
 20
207.8043800955
 30
0.0
 10
231.5189928981
 20
207.8043800955
 30
0.0
  0
SPLINE
  5
7F0
100
AcDbEntity
  8
KONSTRUKTIONSELEMENTE
100
AcDbSpline
 62
7
  6
CONTINUOUS
 70
0
 71
3
 72
10
 73
6
 74
0
 42
0.0000001
 43
0.0000001
 44
0.0000000001
 40
0.0
 40
0.0
 40
0.0
 40
0.0
 40
0.2489296457
 40
0.4984063413
 40
1.0
 40
1.0
 40
1.0
 40
1.0
 10
231.5189928981
 20
207.8043800955
 30
0.0
 10
231.0112968188
 20
207.8043800955
 30
0.0
 10
229.9940779013
 20
207.754237161
 30
0.0
 10
227.9732521512
 20
207.462599478
 30
0.0
 10
226.4895039393
 20
207.0560870062
 30
0.0
 10
225.518992898
 20
206.7325833258
 30
0.0
  0
SPLINE
  5
7F1
100
AcDbEntity
  8
KONSTRUKTIONSELEMENTE
100
AcDbSpline
 62
7
  6
CONTINUOUS
 70
0
 71
3
 72
10
 73
6
 74
0
 42
0.0000001
 43
0.0000001
 44
0.0000000001
 40
0.0
 40
0.0
 40
0.0
 40
0.0
 40
0.5015936611
 40
0.7510703561
 40
1.0
 40
1.0
 40
1.0
 40
1.0
 10
225.5189928981
 20
206.7325833258
 30
0.0
 10
224.5484818521
 20
207.0560870078
 30
0.0
 10
223.0647336363
 20
207.4625994807
 30
0.0
 10
221.0439078857
 20
207.7542371617
 30
0.0
 10
220.0266889729
 20
207.8043800955
 30
0.0
 10
219.5189928974
 20
207.8043800955
 30
0.0
  0
SPLINE
  5
7F2
100
AcDbEntity
  8
KONSTRUKTIONSELEMENTE
100
AcDbSpline
 62
7
  6
CONTINUOUS
 70
0
 71
3
 72
11
 73
7
 74
0
 42
0.0000001
 43
0.0000001
 44
0.0000000001
 40
0.0
 40
0.0
 40
0.0
 40
0.0
 40
0.2729647245
 40
0.532695565
 40
0.7732779348
 40
1.0
 40
1.0
 40
1.0
 40
1.0
 10
211.6720929571
 20
168.3043800955
 30
0.0
 10
211.6720929571
 20
168.2393152782
 30
0.0
 10
211.6515391767
 20
168.1112848695
 30
0.0
 10
211.5618638748
 20
167.9459080987
 30
0.0
 10
211.4247844755
 20
167.8320450649
 30
0.0
 10
211.3119413582
 20
167.8043800955
 30
0.0
 10
211.2578991014
 20
167.8043800955
 30
0.0
  0
SPLINE
  5
7F3
100
AcDbEntity
  8
KONSTRUKTIONSELEMENTE
100
AcDbSpline
 62
7
  6
CONTINUOUS
 70
0
 71
3
 72
13
 73
9
 74
0
 42
0.0000001
 43
0.0000001
 44
0.0000000001
 40
0.0
 40
0.0
 40
0.0
 40
0.0
 40
0.3070704834
 40
0.5833807209
 40
0.7040151671
 40
0.8119308841
 40
0.9092136424
 40
1.0
 40
1.0
 40
1.0
 40
1.0
 10
207.4887928245
 20
168.3043800955
 30
0.0
 10
207.4887928245
 20
168.2397464924
 30
0.0
 10
207.4750751032
 20
168.1165643114
 30
0.0
 10
207.4227253913
 20
167.9754826326
 30
0.0
 10
207.3612556343
 20
167.8880814281
 30
0.0
 10
207.3105678807
 20
167.8409450165
 30
0.0
 10
207.2548227882
 20
167.8113339906
 30
0.0
 10
207.2149890278
 20
167.8043800955
 30
0.0
 10
207.195879899
 20
167.8043800955
 30
0.0
  0
SPLINE
  5
7F4
100
AcDbEntity
  8
KONSTRUKTIONSELEMENTE
100
AcDbSpline
 62
7
  6
CONTINUOUS
 70
0
 71
3
 72
13
 73
9
 74
0
 42
0.0000001
 43
0.0000001
 44
0.0000000001
 40
0.0
 40
0.0
 40
0.0
 40
0.0
 40
0.3070676078
 40
0.583374873
 40
0.7040071935
 40
0.8119211626
 40
0.9092085275
 40
1.0
 40
1.0
 40
1.0
 40
1.0
 10
199.651277677
 20
168.3043800955
 30
0.0
 10
199.651277677
 20
168.2397466857
 30
0.0
 10
199.6649910831
 20
168.1165645063
 30
0.0
 10
199.717340864
 20
167.9754833812
 30
0.0
 10
199.778808657
 20
167.8880819864
 30
0.0
 10
199.8294961145
 20
167.8409440165
 30
0.0
 10
199.8852443577
 20
167.8113342367
 30
0.0
 10
199.9250802752
 20
167.8043800955
 30
0.0
 10
199.9441906024
 20
167.8043800955
 30
0.0
  0
SPLINE
  5
7F5
100
AcDbEntity
  8
KONSTRUKTIONSELEMENTE
100
AcDbSpline
 62
7
  6
CONTINUOUS
 70
0
 71
3
 72
11
 73
7
 74
0
 42
0.0000001
 43
0.0000001
 44
0.0000000001
 40
0.0
 40
0.0
 40
0.0
 40
0.0
 40
0.2729628693
 40
0.5326918394
 40
0.7732714966
 40
1.0
 40
1.0
 40
1.0
 40
1.0
 10
195.4679775443
 20
168.3043800955
 30
0.0
 10
195.4679775443
 20
168.2393153864
 30
0.0
 10
195.4885271246
 20
168.1112845611
 30
0.0
 10
195.5782024256
 20
167.945908218
 30
0.0
 10
195.7152818169
 20
167.8320425003
 30
0.0
 10
195.8281273311
 20
167.8043800955
 30
0.0
 10
195.8821714001
 20
167.8043800955
 30
0.0
  0
SPLINE
  5
7F6
100
AcDbEntity
  8
KONSTRUKTIONSELEMENTE
100
AcDbSpline
 62
7
  6
CONTINUOUS
 70
0
 71
3
 72
11
 73
7
 74
0
 42
0.0000001
 43
0.0000001
 44
0.0000000001
 40
0.0
 40
0.0
 40
0.0
 40
0.0
 40
0.254630359
 40
0.5074888143
 40
0.7566268633
 40
1.0
 40
1.0
 40
1.0
 40
1.0
 10
206.5189928981
 20
186.8043800955
 30
0.0
 10
206.4021138022
 20
187.2862849533
 30
0.0
 10
206.1691540082
 20
188.246709258
 30
0.0
 10
205.8507031841
 20
189.6857484757
 30
0.0
 10
205.6024097463
 20
191.1162450534
 30
0.0
 10
205.5189928981
 20
192.0750094637
 30
0.0
 10
205.5189928981
 20
192.5489627656
 30
0.0
  0
SPLINE
  5
7F7
100
AcDbEntity
  8
KONSTRUKTIONSELEMENTE
100
AcDbSpline
 62
7
  6
CONTINUOUS
 70
0
 71
3
 72
14
 73
10
 74
0
 42
0.0000001
 43
0.0000001
 44
0.0000000001
 40
0.0
 40
0.0
 40
0.0
 40
0.0
 40
0.138677299
 40
0.2714713594
 40
0.3977148386
 40
0.5196097546
 40
0.6395270312
 40
0.7590631661
 40
1.0
 40
1.0
 40
1.0
 40
1.0
 10
206.5189928981
 20
196.7220843313
 30
0.0
 10
206.4263054167
 20
196.7220843313
 30
0.0
 10
206.2434119395
 20
196.6911673822
 30
0.0
 10
206.0054474207
 20
196.564061505
 30
0.0
 10
205.8213594731
 20
196.383963785
 30
0.0
 10
205.689944729
 20
196.1738463308
 30
0.0
 10
205.6023703246
 20
195.9475560817
 30
0.0
 10
205.5317746155
 20
195.6334710618
 30
0.0
 10
205.518992898
 20
195.3913385204
 30
0.0
 10
205.5189928981
 20
195.230304029
 30
0.0
  0
LINE
  5
7F8
100
AcDbEntity
  8
KONSTRUKTIONSELEMENTE
100
AcDbLine
 62
7
  6
CONTINUOUS
 10
247.5189928981
 20
182.804372988
 11
245.5189928981
 21
182.909195654
  0
LINE
  5
7F9
100
AcDbEntity
  8
KONSTRUKTIONSELEMENTE
100
AcDbLine
 62
7
  6
CONTINUOUS
 10
244.5094861039
 20
173.3043800955
 11
244.7191203795
 21
173.2989169957
  0
LINE
  5
7FA
100
AcDbEntity
  8
KONSTRUKTIONSELEMENTE
100
AcDbLine
 62
7
  6
CONTINUOUS
 10
247.518992898
 20
186.8043800955
 11
245.518992898
 21
186.5410751003
  0
SPLINE
  5
7FB
100
AcDbEntity
  8
KONSTRUKTIONSELEMENTE
100
AcDbSpline
 62
7
  6
CONTINUOUS
 70
0
 71
3
 72
11
 73
7
 74
0
 42
0.0000001
 43
0.0000001
 44
0.0000000001
 40
0.0
 40
0.0
 40
0.0
 40
0.0
 40
0.2194494803
 40
0.4660882147
 40
0.7292639463
 40
1.0
 40
1.0
 40
1.0
 40
1.0
 10
194.725368209
 20
172.8043800955
 30
0.0
 10
194.8264080579
 20
172.8043800955
 30
0.0
 10
195.0397304896
 20
172.8508352518
 30
0.0
 10
195.351456863
 20
172.9748943545
 30
0.0
 10
195.6749928281
 20
173.1322162836
 30
0.0
 10
195.8925962395
 20
173.2464643798
 30
0.0
 10
196.0029785159
 20
173.3043800955
 30
0.0
  0
SPLINE
  5
7FC
100
AcDbEntity
  8
KONSTRUKTIONSELEMENTE
100
AcDbSpline
 62
7
  6
CONTINUOUS
 70
0
 71
3
 72
12
 73
8
 74
0
 42
0.0000001
 43
0.0000001
 44
0.0000000001
 40
0.0
 40
0.0
 40
0.0
 40
0.0
 40
0.3645589828
 40
0.6640210246
 40
0.8748884502
 40
0.9478047018
 40
1.0
 40
1.0
 40
1.0
 40
1.0
 10
204.6620934573
 20
196.7220843313
 30
0.0
 10
204.7626881033
 20
196.7220843313
 30
0.0
 10
204.9460527252
 20
196.7302568007
 30
0.0
 10
205.1856625796
 20
196.7608549861
 30
0.0
 10
205.344284564
 20
196.7882804182
 30
0.0
 10
205.4360468514
 20
196.8013084326
 30
0.0
 10
205.4705171801
 20
196.8043567088
 30
0.0
 10
205.4849196849
 20
196.8043766402
 30
0.0
  0
LINE
  5
7FD
100
AcDbEntity
  8
KONSTRUKTIONSELEMENTE
100
AcDbLine
 62
7
  6
CONTINUOUS
 10
70.5284996922
 20
173.3043800955
 11
70.3188654166
 21
173.2989169957
  0
SPLINE
  5
7FE
100
AcDbEntity
  8
KONSTRUKTIONSELEMENTE
100
AcDbSpline
 62
7
  6
CONTINUOUS
 70
0
 71
3
 72
13
 73
9
 74
0
 42
0.0000001
 43
0.0000001
 44
0.0000000001
 40
0.0
 40
0.0
 40
0.0
 40
0.0
 40
0.3070704834
 40
0.5833807209
 40
0.7040151671
 40
0.8119308841
 40
0.9092136424
 40
1.0
 40
1.0
 40
1.0
 40
1.0
 10
115.3867081191
 20
168.3043800955
 30
0.0
 10
115.3867081191
 20
168.2397464924
 30
0.0
 10
115.3729903979
 20
168.1165643114
 30
0.0
 10
115.320640686
 20
167.9754826326
 30
0.0
 10
115.259170929
 20
167.8880814281
 30
0.0
 10
115.2084831754
 20
167.8409450165
 30
0.0
 10
115.1527380829
 20
167.8113339906
 30
0.0
 10
115.1129043225
 20
167.8043800955
 30
0.0
 10
115.0937951937
 20
167.8043800955
 30
0.0
  0
LINE
  5
7FF
100
AcDbEntity
  8
KONSTRUKTIONSELEMENTE
100
AcDbLine
 62
7
  6
CONTINUOUS
 10
67.5189928981
 20
186.8043800955
 11
69.5189928981
 21
186.5410751003
  0
LINE
  5
800
100
AcDbEntity
  8
KONSTRUKTIONSELEMENTE
100
AcDbLine
 62
7
  6
CONTINUOUS
 10
69.5189928981
 20
182.909195654
 11
67.5189928981
 21
182.804372355
  0
SPLINE
  5
801
100
AcDbEntity
  8
KONSTRUKTIONSELEMENTE
100
AcDbSpline
 62
7
  6
CONTINUOUS
 70
0
 71
3
 72
11
 73
7
 74
0
 42
0.0000001
 43
0.0000001
 44
0.0000000001
 40
0.0
 40
0.0
 40
0.0
 40
0.0
 40
0.2729647245
 40
0.532695565
 40
0.7732779348
 40
1.0
 40
1.0
 40
1.0
 40
1.0
 10
119.5700082518
 20
168.3043800955
 30
0.0
 10
119.5700082518
 20
168.2393152782
 30
0.0
 10
119.5494544714
 20
168.1112848695
 30
0.0
 10
119.4597791695
 20
167.9459080987
 30
0.0
 10
119.3226997702
 20
167.8320450649
 30
0.0
 10
119.2098566529
 20
167.8043800955
 30
0.0
 10
119.155814396
 20
167.8043800955
 30
0.0
  0
SPLINE
  5
802
100
AcDbEntity
  8
KONSTRUKTIONSELEMENTE
100
AcDbSpline
 62
7
  6
CONTINUOUS
 70
0
 71
3
 72
11
 73
7
 74
0
 42
0.0000001
 43
0.0000001
 44
0.0000000001
 40
0.0
 40
0.0
 40
0.0
 40
0.0
 40
0.2707371999
 40
0.5339129949
 40
0.7805507123
 40
1.0
 40
1.0
 40
1.0
 40
1.0
 10
119.0350072802
 20
173.3043800955
 30
0.0
 10
119.1453900337
 20
173.2464641294
 30
0.0
 10
119.362994206
 20
173.1322161862
 30
0.0
 10
119.6865303635
 20
172.9748946177
 30
0.0
 10
119.9982555737
 20
172.8508335024
 30
0.0
 10
120.2115778179
 20
172.8043800955
 30
0.0
 10
120.3126175871
 20
172.8043800955
 30
0.0
  0
SPLINE
  5
803
100
AcDbEntity
  8
KONSTRUKTIONSELEMENTE
100
AcDbSpline
 62
7
  6
CONTINUOUS
 70
0
 71
3
 72
10
 73
6
 74
0
 42
0.0000001
 43
0.0000001
 44
0.0000000001
 40
0.0
 40
0.0
 40
0.0
 40
0.0
 40
0.5036793798
 40
0.7532705354
 40
1.0
 40
1.0
 40
1.0
 40
1.0
 10
109.0189928981
 20
186.8043800955
 30
0.0
 10
109.1361206284
 20
187.4873462568
 30
0.0
 10
109.3124422974
 20
188.508958396
 30
0.0
 10
109.4785020981
 20
189.8748921862
 30
0.0
 10
109.5189928981
 20
190.5576319441
 30
0.0
 10
109.5189928981
 20
190.8970700496
 30
0.0
  0
SPLINE
  5
804
100
AcDbEntity
  8
KONSTRUKTIONSELEMENTE
100
AcDbSpline
 62
7
  6
CONTINUOUS
 70
0
 71
3
 72
11
 73
7
 74
0
 42
0.0000001
 43
0.0000001
 44
0.0000000001
 40
0.0
 40
0.0
 40
0.0
 40
0.0
 40
0.2729628693
 40
0.5326918394
 40
0.7732714966
 40
1.0
 40
1.0
 40
1.0
 40
1.0
 10
103.365892839
 20
168.3043800955
 30
0.0
 10
103.365892839
 20
168.2393153864
 30
0.0
 10
103.3864424193
 20
168.1112845611
 30
0.0
 10
103.4761177203
 20
167.945908218
 30
0.0
 10
103.6131971116
 20
167.8320425003
 30
0.0
 10
103.7260426258
 20
167.8043800955
 30
0.0
 10
103.7800866947
 20
167.8043800955
 30
0.0
  0
SPLINE
  5
805
100
AcDbEntity
  8
KONSTRUKTIONSELEMENTE
100
AcDbSpline
 62
7
  6
CONTINUOUS
 70
0
 71
3
 72
13
 73
9
 74
0
 42
0.0000001
 43
0.0000001
 44
0.0000000001
 40
0.0
 40
0.0
 40
0.0
 40
0.0
 40
0.3070676078
 40
0.583374873
 40
0.7040071935
 40
0.8119211626
 40
0.9092085275
 40
1.0
 40
1.0
 40
1.0
 40
1.0
 10
107.5491929716
 20
168.3043800955
 30
0.0
 10
107.5491929716
 20
168.2397466857
 30
0.0
 10
107.5629063778
 20
168.1165645063
 30
0.0
 10
107.6152561587
 20
167.9754833812
 30
0.0
 10
107.6767239517
 20
167.8880819864
 30
0.0
 10
107.7274114092
 20
167.8409440165
 30
0.0
 10
107.7831596524
 20
167.8113342367
 30
0.0
 10
107.8229955699
 20
167.8043800955
 30
0.0
 10
107.8421058971
 20
167.8043800955
 30
0.0
  0
SPLINE
  5
806
100
AcDbEntity
  8
KONSTRUKTIONSELEMENTE
100
AcDbSpline
 62
7
  6
CONTINUOUS
 70
0
 71
3
 72
11
 73
7
 74
0
 42
0.0000001
 43
0.0000001
 44
0.0000000001
 40
0.0
 40
0.0
 40
0.0
 40
0.0
 40
0.1181151621
 40
0.3327450947
 40
0.6299241811
 40
1.0
 40
1.0
 40
1.0
 40
1.0
 10
109.4551597979
 20
196.548835481
 30
0.0
 10
109.4614581491
 20
196.5375977155
 30
0.0
 10
109.4750311103
 20
196.5037611562
 30
0.0
 10
109.4957514104
 20
196.4382383155
 30
0.0
 10
109.5140681729
 20
196.3435382561
 30
0.0
 10
109.5189928981
 20
196.2706798549
 30
0.0
 10
109.5189928981
 20
196.2303169585
 30
0.0
  0
SPLINE
  5
807
100
AcDbEntity
  8
RUNDUNGEN
100
AcDbSpline
 62
7
  6
CONTINUOUS
 70
0
 71
3
 72
9
 73
5
 74
0
 42
0.0000001
 43
0.0000001
 44
0.0000000001
 40
0.0
 40
0.0
 40
0.0
 40
0.0
 40
0.6202255831
 40
1.0
 40
1.0
 40
1.0
 40
1.0
 10
123.1256358734
 20
191.7335967373
 30
0.0
 10
123.1241964294
 20
191.6260697839
 30
0.0
 10
123.0870266183
 20
191.4516420615
 30
0.0
 10
123.0024706384
 20
191.2981739212
 30
0.0
 10
122.9623170121
 20
191.2459873368
 30
0.0
  0
SPLINE
  5
808
100
AcDbEntity
  8
RUNDUNGEN
100
AcDbSpline
 62
7
  6
CONTINUOUS
 70
0
 71
3
 72
9
 73
5
 74
0
 42
0.0000001
 43
0.0000001
 44
0.0000000001
 40
0.0
 40
0.0
 40
0.0
 40
0.0
 40
0.3797744559
 40
1.0
 40
1.0
 40
1.0
 40
1.0
 10
192.075668784
 20
191.2459873368
 30
0.0
 10
192.0355151494
 20
191.2981739312
 30
0.0
 10
191.9509592086
 20
191.4516420966
 30
0.0
 10
191.913789198
 20
191.6260697942
 30
0.0
 10
191.9123497548
 20
191.7335967511
 30
0.0
  0
SPLINE
  5
809
100
AcDbEntity
  8
RUNDUNGEN
100
AcDbSpline
 62
7
  6
CONTINUOUS
 70
0
 71
3
 72
9
 73
5
 74
0
 42
0.0000001
 43
0.0000001
 44
0.0000000001
 40
0.0
 40
0.0
 40
0.0
 40
0.0
 40
0.2523531818
 40
1.0
 40
1.0
 40
1.0
 40
1.0
 10
191.9123497548
 20
191.7335967511
 30
0.0
 10
191.9103468121
 20
191.8832173455
 30
0.0
 10
191.8861045226
 20
192.4758403712
 30
0.0
 10
191.8011858706
 20
193.0655686495
 30
0.0
 10
191.7080704732
 20
193.4990000147
 30
0.0
  0
SPLINE
  5
80A
100
AcDbEntity
  8
RUNDUNGEN
100
AcDbSpline
 62
7
  6
CONTINUOUS
 70
0
 71
3
 72
9
 73
5
 74
0
 42
0.0000001
 43
0.0000001
 44
0.0000000001
 40
0.0
 40
0.0
 40
0.0
 40
0.0
 40
0.2668912034
 40
1.0
 40
1.0
 40
1.0
 40
1.0
 10
122.9623170121
 20
191.2459873368
 30
0.0
 10
122.9488277739
 20
191.2750830972
 30
0.0
 10
122.901728732
 20
191.3855370084
 30
0.0
 10
122.8693427895
 20
191.5032068002
 30
0.0
 10
122.8601345691
 20
191.5908171644
 30
0.0
  0
SPLINE
  5
80B
100
AcDbEntity
  8
RUNDUNGEN
100
AcDbSpline
 62
7
  6
CONTINUOUS
 70
0
 71
3
 72
9
 73
5
 74
0
 42
0.0000001
 43
0.0000001
 44
0.0000000001
 40
0.0
 40
0.0
 40
0.0
 40
0.0
 40
0.5008001837
 40
1.0
 40
1.0
 40
1.0
 40
1.0
 10
192.2269889314
 20
191.0086855997
 30
0.0
 10
192.3202147688
 20
190.9079927182
 30
0.0
 10
192.4681454452
 20
190.6684840786
 30
0.0
 10
192.5189928307
 20
190.3922177157
 30
0.0
 10
192.5189928981
 20
190.2554333685
 30
0.0
  0
SPLINE
  5
80C
100
AcDbEntity
  8
RUNDUNGEN
100
AcDbSpline
 62
7
  6
CONTINUOUS
 70
0
 71
3
 72
9
 73
5
 74
0
 42
0.0000001
 43
0.0000001
 44
0.0000000001
 40
0.0
 40
0.0
 40
0.0
 40
0.0
 40
0.5000392433
 40
1.0
 40
1.0
 40
1.0
 40
1.0
 10
188.7015882612
 20
184.8043800955
 30
0.0
 10
188.5901368098
 20
184.8043800959
 30
0.0
 10
188.3657380521
 20
184.7677457189
 30
0.0
 10
188.1651728728
 20
184.660297264
 30
0.0
 10
188.0770238804
 20
184.5921262868
 30
0.0
  0
SPLINE
  5
80D
100
AcDbEntity
  8
RUNDUNGEN
100
AcDbSpline
 62
7
  6
CONTINUOUS
 70
0
 71
3
 72
9
 73
5
 74
0
 42
0.0000001
 43
0.0000001
 44
0.0000000001
 40
0.0
 40
0.0
 40
0.0
 40
0.0
 40
0.4991998114
 40
1.0
 40
1.0
 40
1.0
 40
1.0
 10
122.5189928981
 20
190.2554333684
 30
0.0
 10
122.518992935
 20
190.3922174669
 30
0.0
 10
122.5698400616
 20
190.6684833304
 30
0.0
 10
122.7177702683
 20
190.9079916897
 30
0.0
 10
122.8109959201
 20
191.0086844066
 30
0.0
  0
SPLINE
  5
80E
100
AcDbEntity
  8
RUNDUNGEN
100
AcDbSpline
 62
7
  6
CONTINUOUS
 70
0
 71
3
 72
9
 73
5
 74
0
 42
0.0000001
 43
0.0000001
 44
0.0000000001
 40
0.0
 40
0.0
 40
0.0
 40
0.0
 40
0.2344723169
 40
1.0
 40
1.0
 40
1.0
 40
1.0
 10
192.177851227
 20
191.5908171644
 30
0.0
 10
192.1749050847
 20
191.5627864934
 30
0.0
 10
192.1558982266
 20
191.4439055401
 30
0.0
 10
192.1143739494
 20
191.3294728682
 30
0.0
 10
192.075668784
 20
191.2459873368
 30
0.0
  0
SPLINE
  5
80F
100
AcDbEntity
  8
KONSTRUKTIONSELEMENTE
100
AcDbSpline
 62
7
  6
CONTINUOUS
 70
0
 71
3
 72
15
 73
11
 74
0
 42
0.0000001
 43
0.0000001
 44
0.0000000001
 40
0.0
 40
0.0
 40
0.0
 40
0.0
 40
0.1250335656
 40
0.249956794
 40
0.3749277593
 40
0.4999992598
 40
0.6250705332
 40
0.7500418527
 40
0.8749655367
 40
1.0
 40
1.0
 40
1.0
 40
1.0
 10
186.5937265882
 20
184.8043800955
 30
0.0
 10
186.3222037773
 20
184.5470897483
 30
0.0
 10
185.7311139315
 20
184.0806063805
 30
0.0
 10
184.7272684781
 20
183.564978387
 30
0.0
 10
183.6428611819
 20
183.2518934459
 30
0.0
 10
182.5190002974
 20
183.1473837522
 30
0.0
 10
181.395138157
 20
183.2518911175
 30
0.0
 10
180.3107284723
 20
183.564974039
 30
0.0
 10
179.3068771033
 20
184.0806019462
 30
0.0
 10
178.7157839683
 20
184.547087901
 30
0.0
 10
178.4442592079
 20
184.8043800955
 30
0.0
  0
SPLINE
  5
810
100
AcDbEntity
  8
KONSTRUKTIONSELEMENTE
100
AcDbSpline
 62
7
  6
CONTINUOUS
 70
0
 71
3
 72
15
 73
11
 74
0
 42
0.0000001
 43
0.0000001
 44
0.0000000001
 40
0.0
 40
0.0
 40
0.0
 40
0.0
 40
0.1250344633
 40
0.2499581473
 40
0.3749294668
 40
0.5000007402
 40
0.6250722407
 40
0.750043206
 40
0.8749664344
 40
1.0
 40
1.0
 40
1.0
 40
1.0
 10
136.5937265882
 20
184.8043800955
 30
0.0
 10
136.3222018278
 20
184.547087901
 30
0.0
 10
135.7311086928
 20
184.0806019462
 30
0.0
 10
134.7272573238
 20
183.564974039
 30
0.0
 10
133.6428476391
 20
183.2518911175
 30
0.0
 10
132.5189854987
 20
183.1473837522
 30
0.0
 10
131.3951246142
 20
183.2518934459
 30
0.0
 10
130.310717318
 20
183.564978387
 30
0.0
 10
129.3068718646
 20
184.0806063805
 30
0.0
 10
128.7157820188
 20
184.5470897483
 30
0.0
 10
128.4442592079
 20
184.8043800955
 30
0.0
  0
SPLINE
  5
811
100
AcDbEntity
  8
RUNDUNGEN
100
AcDbSpline
 62
7
  6
CONTINUOUS
 70
0
 71
3
 72
11
 73
7
 74
0
 42
0.0000001
 43
0.0000001
 44
0.0000000001
 40
0.0
 40
0.0
 40
0.0
 40
0.0
 40
0.2499834623
 40
0.5002050144
 40
0.7500140632
 40
1.0
 40
1.0
 40
1.0
 40
1.0
 10
135.4830945132
 20
183.1766559587
 30
0.0
 10
134.7765812986
 20
182.9281911924
 30
0.0
 10
133.2938888612
 20
182.6060190879
 30
0.0
 10
131.0251326684
 20
182.698644033
 30
0.0
 10
128.8523253762
 20
183.3551775337
 30
0.0
 10
127.5534029611
 20
184.1339555947
 30
0.0
 10
126.9609619208
 20
184.5921262835
 30
0.0
  0
SPLINE
  5
812
100
AcDbEntity
  8
RUNDUNGEN
100
AcDbSpline
 62
7
  6
CONTINUOUS
 70
0
 71
3
 72
9
 73
5
 74
0
 42
0.0000001
 43
0.0000001
 44
0.0000000001
 40
0.0
 40
0.0
 40
0.0
 40
0.0
 40
0.249087959
 40
1.0
 40
1.0
 40
1.0
 40
1.0
 10
123.3299153229
 20
193.4990000147
 30
0.0
 10
123.2988945294
 20
193.3546051534
 30
0.0
 10
123.1877468043
 20
192.7721718469
 30
0.0
 10
123.1315955713
 20
192.178788189
 30
0.0
 10
123.1256358734
 20
191.7335967373
 30
0.0
  0
SPLINE
  5
813
100
AcDbEntity
  8
RUNDUNGEN
100
AcDbSpline
 62
7
  6
CONTINUOUS
 70
0
 71
3
 72
11
 73
7
 74
0
 42
0.0000001
 43
0.0000001
 44
0.0000000001
 40
0.0
 40
0.0
 40
0.0
 40
0.0
 40
0.2558028389
 40
0.5069874118
 40
0.7538481533
 40
1.0
 40
1.0
 40
1.0
 40
1.0
 10
126.1594971089
 20
198.4665684281
 30
0.0
 10
125.8019441852
 20
198.1252607077
 30
0.0
 10
125.1402420801
 20
197.3973838921
 30
0.0
 10
124.3247180896
 20
196.1842166149
 30
0.0
 10
123.7049046233
 20
194.8809272461
 30
0.0
 10
123.4298219132
 20
193.9640428648
 30
0.0
 10
123.3299153229
 20
193.4990000147
 30
0.0
  0
SPLINE
  5
814
100
AcDbEntity
  8
0
100
AcDbSpline
 62
7
  6
CONTINUOUS
 70
0
 71
3
 72
19
 73
15
 74
0
 42
0.0000001
 43
0.0000001
 44
0.0000000001
 40
0.0
 40
0.0
 40
0.0
 40
0.0
 40
0.1305352581
 40
0.2536407113
 40
0.3131349829
 40
0.3727924716
 40
0.4346434377
 40
0.4999986297
 40
0.5653546027
 40
0.6272058629
 40
0.6868638267
 40
0.7463586445
 40
0.869464521
 40
1.0
 40
1.0
 40
1.0
 40
1.0
 10
130.6124605276
 20
200.8151000662
 30
0.0
 10
131.4196779547
 20
200.9858950926
 30
0.0
 10
133.0337088939
 20
201.1339384081
 30
0.0
 10
135.010967449
 20
200.8481072258
 30
0.0
 10
136.4676514016
 20
200.366291073
 30
0.0
 10
137.5056970436
 20
199.8781547695
 30
0.0
 10
138.5026690225
 20
199.2377142582
 30
0.0
 10
139.419551171
 20
198.4289451125
 30
0.0
 10
140.1902457143
 20
197.4798325026
 30
0.0
 10
140.7894893822
 20
196.4575565412
 30
0.0
 10
141.2348694908
 20
195.4004511824
 30
0.0
 10
141.6568599322
 20
193.9253150408
 30
0.0
 10
141.8617834917
 20
191.9380331432
 30
0.0
 10
141.6480120306
 20
190.3313821427
 30
0.0
 10
141.444424937
 20
189.5318038065
 30
0.0
  0
SPLINE
  5
815
100
AcDbEntity
  8
RUNDUNGEN
100
AcDbSpline
 62
7
  6
CONTINUOUS
 70
0
 71
3
 72
9
 73
5
 74
0
 42
0.0000001
 43
0.0000001
 44
0.0000000001
 40
0.0
 40
0.0
 40
0.0
 40
0.0
 40
0.2407502641
 40
1.0
 40
1.0
 40
1.0
 40
1.0
 10
137.3228404753
 20
183.9902134245
 30
0.0
 10
137.4236543995
 20
184.0457228407
 30
0.0
 10
137.8362327769
 20
184.287398678
 30
0.0
 10
138.2239184454
 20
184.5709674503
 30
0.0
 10
138.5018517547
 20
184.8043800319
 30
0.0
  0
SPLINE
  5
816
100
AcDbEntity
  8
0
100
AcDbSpline
 62
7
  6
CONTINUOUS
 70
0
 71
3
 72
11
 73
7
 74
0
 42
0.0000001
 43
0.0000001
 44
0.0000000001
 40
0.0
 40
0.0
 40
0.0
 40
0.0
 40
0.312512737
 40
0.5735465889
 40
0.7959490247
 40
1.0
 40
1.0
 40
1.0
 40
1.0
 10
122.7422477875
 20
192.7124349694
 30
0.0
 10
122.7338772984
 20
192.7264480861
 30
0.0
 10
122.7170421574
 20
192.751372101
 30
0.0
 10
122.6878414036
 20
192.7813944775
 30
0.0
 10
122.6565753251
 20
192.8001377696
 30
0.0
 10
122.6341119817
 20
192.8043800955
 30
0.0
 10
122.6234542551
 20
192.8043800955
 30
0.0
  0
SPLINE
  5
817
100
AcDbEntity
  8
RUNDUNGEN
100
AcDbSpline
 62
7
  6
CONTINUOUS
 70
0
 71
3
 72
11
 73
7
 74
0
 42
0.0000001
 43
0.0000001
 44
0.0000000001
 40
0.0
 40
0.0
 40
0.0
 40
0.0
 40
0.2499905451
 40
0.499804597
 40
0.7500302188
 40
1.0
 40
1.0
 40
1.0
 40
1.0
 10
188.0770238804
 20
184.5921262868
 30
0.0
 10
187.4845719119
 20
184.1339471466
 30
0.0
 10
186.1856225564
 20
183.3551558624
 30
0.0
 10
184.0127696468
 20
182.6986272025
 30
0.0
 10
181.7440251926
 20
182.6060283043
 30
0.0
 10
180.2613658395
 20
182.9282047876
 30
0.0
 10
179.5548912829
 20
183.1766559587
 30
0.0
  0
SPLINE
  5
818
100
AcDbEntity
  8
RUNDUNGEN
100
AcDbSpline
 62
7
  6
CONTINUOUS
 70
0
 71
3
 72
9
 73
5
 74
0
 42
0.0000001
 43
0.0000001
 44
0.0000000001
 40
0.0
 40
0.0
 40
0.0
 40
0.0
 40
0.2566511494
 40
1.0
 40
1.0
 40
1.0
 40
1.0
 10
176.5361340428
 20
184.8043800307
 30
0.0
 10
176.6300823473
 20
184.7254808289
 30
0.0
 10
177.0030955115
 20
184.4265220273
 30
0.0
 10
177.4038760803
 20
184.1616021883
 30
0.0
 10
177.7151453208
 20
183.9902134245
 30
0.0
  0
SPLINE
  5
819
100
AcDbEntity
  8
RUNDUNGEN
100
AcDbSpline
 62
7
  6
CONTINUOUS
 70
0
 71
3
 72
9
 73
5
 74
0
 42
0.0000001
 43
0.0000001
 44
0.0000000001
 40
0.0
 40
0.0
 40
0.0
 40
0.0
 40
0.4999607568
 40
1.0
 40
1.0
 40
1.0
 40
1.0
 10
126.9609619208
 20
184.5921262835
 30
0.0
 10
126.8728129278
 20
184.6602972614
 30
0.0
 10
126.6722477469
 20
184.7677457176
 30
0.0
 10
126.4478489873
 20
184.8043800963
 30
0.0
 10
126.3363975349
 20
184.8043800955
 30
0.0
  0
SPLINE
  5
81A
100
AcDbEntity
  8
KONSTRUKTIONSELEMENTE
100
AcDbSpline
 62
7
  6
CONTINUOUS
 70
0
 71
3
 72
19
 73
15
 74
0
 42
0.0000001
 43
0.0000001
 44
0.0000000001
 40
0.0
 40
0.0
 40
0.0
 40
0.0
 40
0.1305351184
 40
0.2536406522
 40
0.3131351718
 40
0.3727930782
 40
0.4346449313
 40
0.5000013128
 40
0.5653567647
 40
0.6272084084
 40
0.6868660172
 40
0.7463602691
 40
0.8694652194
 40
1.0
 40
1.0
 40
1.0
 40
1.0
 10
173.5935608591
 20
189.5318038065
 30
0.0
 10
173.3899743283
 20
190.3313799322
 30
0.0
 10
173.1762031482
 20
191.9380264218
 30
0.0
 10
173.3811243988
 20
193.9253017872
 30
0.0
 10
173.8031095203
 20
195.4004349166
 30
0.0
 10
174.2484903011
 20
196.4575416413
 30
0.0
 10
174.8477346395
 20
197.4798240335
 30
0.0
 10
175.6184327052
 20
198.4289443221
 30
0.0
 10
176.5353223018
 20
199.2377180669
 30
0.0
 10
177.5323005896
 20
199.8781611228
 30
0.0
 10
178.5703510952
 20
200.3662987269
 30
0.0
 10
180.0270337903
 20
200.8481107723
 30
0.0
 10
182.004286275
 20
201.1339374286
 30
0.0
 10
183.6183107956
 20
200.9858944675
 30
0.0
 10
184.4255252685
 20
200.8151000662
 30
0.0
  0
SPLINE
  5
81B
100
AcDbEntity
  8
0
100
AcDbSpline
 62
7
  6
CONTINUOUS
 70
0
 71
3
 72
11
 73
7
 74
0
 42
0.0000001
 43
0.0000001
 44
0.0000000001
 40
0.0
 40
0.0
 40
0.0
 40
0.0
 40
0.2040508612
 40
0.4264524976
 40
0.6874867372
 40
1.0
 40
1.0
 40
1.0
 40
1.0
 10
192.414531541
 20
192.8043800955
 30
0.0
 10
192.4038738196
 20
192.8043800955
 30
0.0
 10
192.3814104913
 20
192.8001379297
 30
0.0
 10
192.3501444714
 20
192.7813945248
 30
0.0
 10
192.3209438194
 20
192.7513720731
 30
0.0
 10
192.3041085125
 20
192.7264481107
 30
0.0
 10
192.2957380086
 20
192.7124349694
 30
0.0
  0
SPLINE
  5
81C
100
AcDbEntity
  8
RUNDUNGEN
100
AcDbSpline
 62
7
  6
CONTINUOUS
 70
0
 71
3
 72
9
 73
5
 74
0
 42
0.0000001
 43
0.0000001
 44
0.0000000001
 40
0.0
 40
0.0
 40
0.0
 40
0.0
 40
0.2567535346
 40
1.0
 40
1.0
 40
1.0
 40
1.0
 10
135.4830945132
 20
183.1766559587
 30
0.0
 10
135.6146794497
 20
183.2229314138
 30
0.0
 10
136.1242493687
 20
183.4114495891
 30
0.0
 10
136.6214156581
 20
183.6329407543
 30
0.0
 10
136.9830945132
 20
183.8124556606
 30
0.0
  0
SPLINE
  5
81D
100
AcDbEntity
  8
RUNDUNGEN
100
AcDbSpline
 62
7
  6
CONTINUOUS
 70
0
 71
3
 72
9
 73
5
 74
0
 42
0.0000001
 43
0.0000001
 44
0.0000000001
 40
0.0
 40
0.0
 40
0.0
 40
0.0
 40
0.2393856064
 40
1.0
 40
1.0
 40
1.0
 40
1.0
 10
178.0548912829
 20
183.8124556606
 30
0.0
 10
178.1713773321
 20
183.7546392251
 30
0.0
 10
178.6610485943
 20
183.5193851197
 30
0.0
 10
179.1650930202
 20
183.3137392181
 30
0.0
 10
179.5548912829
 20
183.1766559587
 30
0.0
  0
SPLINE
  5
81E
100
AcDbEntity
  8
RUNDUNGEN
100
AcDbSpline
 62
7
  6
CONTINUOUS
 70
0
 71
3
 72
11
 73
7
 74
0
 42
0.0000001
 43
0.0000001
 44
0.0000000001
 40
0.0
 40
0.0
 40
0.0
 40
0.0
 40
0.2461518467
 40
0.4930125882
 40
0.7441971611
 40
1.0
 40
1.0
 40
1.0
 40
1.0
 10
191.7080704732
 20
193.4990000147
 30
0.0
 10
191.6081638829
 20
193.9640428648
 30
0.0
 10
191.3330811728
 20
194.8809272461
 30
0.0
 10
190.7132677065
 20
196.1842166149
 30
0.0
 10
189.897743716
 20
197.3973838921
 30
0.0
 10
189.2360416109
 20
198.1252607077
 30
0.0
 10
188.8784886872
 20
198.4665684281
 30
0.0
  0
SPLINE
  5
81F
100
AcDbEntity
  8
KONSTRUKTIONSELEMENTE
100
AcDbSpline
 62
7
  6
CONTINUOUS
 70
0
 71
3
 72
9
 73
5
 74
0
 42
0.0000001
 43
0.0000001
 44
0.0000000001
 40
0.0
 40
0.0
 40
0.0
 40
0.0
 40
0.3090947281
 40
1.0
 40
1.0
 40
1.0
 40
1.0
 10
302.0267650295
 20
173.3043795903
 30
0.0
 10
302.0267655082
 20
173.3030887887
 30
0.0
 10
302.0313585362
 20
173.3004850486
 30
0.0
 10
302.0349210168
 20
173.2996123657
 30
0.0
 10
302.0377212387
 20
173.2989169957
 30
0.0
  0
SPLINE
  5
820
100
AcDbEntity
  8
KONSTRUKTIONSELEMENTE
100
AcDbSpline
 62
7
  6
CONTINUOUS
 70
0
 71
3
 72
9
 73
5
 74
0
 42
0.0000001
 43
0.0000001
 44
0.0000000001
 40
0.0
 40
0.0
 40
0.0
 40
0.0
 40
0.3091063725
 40
1.0
 40
1.0
 40
1.0
 40
1.0
 10
336.0267650292
 20
173.3043793235
 30
0.0
 10
336.0267642976
 20
173.3030884949
 30
0.0
 10
336.0221714342
 20
173.3004852239
 30
0.0
 10
336.0186089443
 20
173.2996123582
 30
0.0
 10
336.0158088201
 20
173.2989169957
 30
0.0
  0
SPLINE
  5
821
100
AcDbEntity
  8
KONSTRUKTIONSELEMENTE
100
AcDbSpline
 62
7
  6
CONTINUOUS
 70
0
 71
3
 72
18
 73
14
 74
0
 42
0.0000001
 43
0.0000001
 44
0.0000000001
 40
0.0
 40
0.0
 40
0.0
 40
0.0
 40
0.1942083657
 40
0.381094966
 40
0.5532069026
 40
0.7041363946
 40
0.8280746792
 40
0.8784314972
 40
0.9203901078
 40
0.9536132523
 40
0.9778224043
 40
0.9929981993
 40
1.0
 40
1.0
 40
1.0
 40
1.0
 10
304.0267650294
 20
182.804372988
 30
0.0
 10
303.8966586469
 20
182.804372988
 30
0.0
 10
303.6413483436
 20
182.8056809409
 30
0.0
 10
303.2707779275
 20
182.8114564207
 30
0.0
 10
302.9292707045
 20
182.8207979512
 30
0.0
 10
302.6300977892
 20
182.8332835055
 30
0.0
 10
302.4125422034
 20
182.846560347
 30
0.0
 10
302.2682725962
 20
182.8588893123
 30
0.0
 10
302.18446813
 20
182.8680684403
 30
0.0
 10
302.118997391
 20
182.8770253823
 30
0.0
 10
302.0701035861
 20
182.8871573695
 30
0.0
 10
302.0424092742
 20
182.8947228414
 30
0.0
 10
302.0267650294
 20
182.9045049242
 30
0.0
 10
302.0267650294
 20
182.909195654
 30
0.0
  0
SPLINE
  5
822
100
AcDbEntity
  8
KONSTRUKTIONSELEMENTE
100
AcDbSpline
 62
7
  6
CONTINUOUS
 70
0
 71
3
 72
9
 73
5
 74
0
 42
0.0000001
 43
0.0000001
 44
0.0000000001
 40
0.0
 40
0.0
 40
0.0
 40
0.0
 40
0.5103512221
 40
1.0
 40
1.0
 40
1.0
 40
1.0
 10
310.924707323
 20
168.3043800955
 30
0.0
 10
310.924707323
 20
168.245356804
 30
0.0
 10
310.9415993858
 20
168.1290428335
 30
0.0
 10
310.9928041421
 20
168.0227928823
 30
0.0
 10
311.0258368835
 20
167.9767963353
 30
0.0
  0
SPLINE
  5
823
100
AcDbEntity
  8
KONSTRUKTIONSELEMENTE
100
AcDbSpline
 62
7
  6
CONTINUOUS
 70
0
 71
3
 72
9
 73
5
 74
0
 42
0.0000001
 43
0.0000001
 44
0.0000000001
 40
0.0
 40
0.0
 40
0.0
 40
0.0
 40
0.5103506084
 40
1.0
 40
1.0
 40
1.0
 40
1.0
 10
327.1288227358
 20
168.3043800955
 30
0.0
 10
327.1288227358
 20
168.2453580879
 30
0.0
 10
327.1119275021
 20
168.1290470221
 30
0.0
 10
327.0607252638
 20
168.0227990743
 30
0.0
 10
327.0276936476
 20
167.9768030645
 30
0.0
  0
SPLINE
  5
824
100
AcDbEntity
  8
KONSTRUKTIONSELEMENTE
100
AcDbSpline
 62
7
  6
CONTINUOUS
 70
0
 71
3
 72
16
 73
12
 74
0
 42
0.0000001
 43
0.0000001
 44
0.0000000001
 40
0.0
 40
0.0
 40
0.0
 40
0.0
 40
0.3752485255
 40
0.5447357511
 40
0.6934657993
 40
0.8160672195
 40
0.8662649488
 40
0.9085457629
 40
0.9427217096
 40
0.9688533018
 40
1.0
 40
1.0
 40
1.0
 40
1.0
 10
334.0267650294
 20
186.8043800955
 30
0.0
 10
334.2829240048
 20
186.8043800955
 30
0.0
 10
334.6549233014
 20
186.7954357297
 30
0.0
 10
335.1272535362
 20
186.762920542
 30
0.0
 10
335.4266061936
 20
186.7313295778
 30
0.0
 10
335.6436406963
 20
186.6980276556
 30
0.0
 10
335.7872990405
 20
186.6668260838
 30
0.0
 10
335.870494122
 20
186.6442588624
 30
0.0
 10
335.9372603277
 20
186.6200606381
 30
0.0
 10
335.9912643837
 20
186.593977283
 30
0.0
 10
336.0267650294
 20
186.5623370261
 30
0.0
 10
336.0267650294
 20
186.5410751003
 30
0.0
  0
SPLINE
  5
825
100
AcDbEntity
  8
KONSTRUKTIONSELEMENTE
100
AcDbSpline
 62
7
  6
CONTINUOUS
 70
0
 71
3
 72
16
 73
12
 74
0
 42
0.0000001
 43
0.0000001
 44
0.0000000001
 40
0.0
 40
0.0
 40
0.0
 40
0.0
 40
0.3752474383
 40
0.5447341664
 40
0.6934637004
 40
0.8160645091
 40
0.8662618845
 40
0.9085423326
 40
0.9427180922
 40
0.968850217
 40
1.0
 40
1.0
 40
1.0
 40
1.0
 10
304.0267650294
 20
186.8043800955
 30
0.0
 10
303.7706060627
 20
186.8043800955
 30
0.0
 10
303.3986067539
 20
186.7954368691
 30
0.0
 10
302.9262765971
 20
186.7629215956
 30
0.0
 10
302.6269240744
 20
186.73133208
 30
0.0
 10
302.4098895302
 20
186.6980330418
 30
0.0
 10
302.2662311204
 20
186.6668343259
 30
0.0
 10
302.1830358079
 20
186.644268997
 30
0.0
 10
302.1162692345
 20
186.6200719674
 30
0.0
 10
302.062263179
 20
186.5939847381
 30
0.0
 10
302.0267650294
 20
186.5623391928
 30
0.0
 10
302.0267650294
 20
186.5410751003
 30
0.0
  0
SPLINE
  5
826
100
AcDbEntity
  8
KONSTRUKTIONSELEMENTE
100
AcDbSpline
 62
7
  6
CONTINUOUS
 70
0
 71
3
 72
18
 73
14
 74
0
 42
0.0000001
 43
0.0000001
 44
0.0000000001
 40
0.0
 40
0.0
 40
0.0
 40
0.0
 40
0.007001791
 40
0.0221775773
 40
0.0463867253
 40
0.0796098691
 40
0.1215684809
 40
0.1719253014
 40
0.295863591
 40
0.4467930864
 40
0.6189050278
 40
0.8057916322
 40
1.0
 40
1.0
 40
1.0
 40
1.0
 10
336.0267650294
 20
182.909195654
 30
0.0
 10
336.0267650294
 20
182.9045049308
 30
0.0
 10
336.011120773
 20
182.8947228756
 30
0.0
 10
335.9834264673
 20
182.8871574677
 30
0.0
 10
335.9345326618
 20
182.8770255157
 30
0.0
 10
335.8690619275
 20
182.8680685792
 30
0.0
 10
335.7852574616
 20
182.8588894331
 30
0.0
 10
335.6409878545
 20
182.8465604244
 30
0.0
 10
335.4234322691
 20
182.833283497
 30
0.0
 10
335.1242593552
 20
182.8207977861
 30
0.0
 10
334.782752132
 20
182.8114561046
 30
0.0
 10
334.4121817162
 20
182.8056804305
 30
0.0
 10
334.1568714118
 20
182.804372355
 30
0.0
 10
334.0267650294
 20
182.804372355
 30
0.0
  0
SPLINE
  5
827
100
AcDbEntity
  8
KONSTRUKTIONSELEMENTE
100
AcDbSpline
 62
7
  6
CONTINUOUS
 70
0
 71
3
 72
11
 73
7
 74
0
 42
0.0000001
 43
0.0000001
 44
0.0000000001
 40
0.0
 40
0.0
 40
0.0
 40
0.0
 40
0.2616345998
 40
0.5144877173
 40
0.7595892508
 40
1.0
 40
1.0
 40
1.0
 40
1.0
 10
332.88317149
 20
206.7325833258
 30
0.0
 10
332.6062648186
 20
206.892455467
 30
0.0
 10
332.0491781122
 20
207.186059852
 30
0.0
 10
331.1853750122
 20
207.5318929474
 30
0.0
 10
330.307323467
 20
207.7531635632
 30
0.0
 10
329.7128764376
 20
207.8043800955
 30
0.0
 10
329.4190698748
 20
207.8043800955
 30
0.0
  0
SPLINE
  5
828
100
AcDbEntity
  8
KONSTRUKTIONSELEMENTE
100
AcDbSpline
 62
7
  6
CONTINUOUS
 70
0
 71
3
 72
10
 73
6
 74
0
 42
0.0000001
 43
0.0000001
 44
0.0000000001
 40
0.0
 40
0.0
 40
0.0
 40
0.0
 40
0.2500541579
 40
0.5001084954
 40
1.0
 40
1.0
 40
1.0
 40
1.0
 10
319.0267650286
 20
207.8043800955
 30
0.0
 10
318.4407003459
 20
207.8043800955
 30
0.0
 10
317.2679492049
 20
207.754371821
 30
0.0
 10
314.9403322216
 20
207.4637765791
 30
0.0
 10
313.2242190507
 20
207.0575325844
 30
0.0
 10
312.0985617991
 20
206.7325833258
 30
0.0
  0
SPLINE
  5
829
100
AcDbEntity
  8
KONSTRUKTIONSELEMENTE
100
AcDbSpline
 62
7
  6
CONTINUOUS
 70
0
 71
3
 72
11
 73
7
 74
0
 42
0.0000001
 43
0.0000001
 44
0.0000000001
 40
0.0
 40
0.0
 40
0.0
 40
0.0
 40
0.261634602
 40
0.514487718
 40
0.7595892518
 40
1.0
 40
1.0
 40
1.0
 40
1.0
 10
312.0985617991
 20
206.7325833258
 30
0.0
 10
311.8216551463
 20
206.8924554564
 30
0.0
 10
311.2645684823
 20
207.1860598215
 30
0.0
 10
310.4007654504
 20
207.5318929042
 30
0.0
 10
309.5227139797
 20
207.7531635151
 30
0.0
 10
308.9282670002
 20
207.8043800978
 30
0.0
 10
308.6344604607
 20
207.8043801068
 30
0.0
  0
SPLINE
  5
82A
100
AcDbEntity
  8
KONSTRUKTIONSELEMENTE
100
AcDbSpline
 62
7
  6
CONTINUOUS
 70
0
 71
3
 72
11
 73
7
 74
0
 42
0.0000001
 43
0.0000001
 44
0.0000000001
 40
0.0
 40
0.0
 40
0.0
 40
0.0
 40
0.2404107499
 40
0.485512284
 40
0.738365401
 40
1.0
 40
1.0
 40
1.0
 40
1.0
 10
329.4190698748
 20
207.8043800955
 30
0.0
 10
329.1252633111
 20
207.8043800955
 30
0.0
 10
328.5308162802
 20
207.7531635628
 30
0.0
 10
327.6527647341
 20
207.5318929464
 30
0.0
 10
326.7889616353
 20
207.1860598503
 30
0.0
 10
326.2318749302
 20
206.8924554665
 30
0.0
 10
325.9549682597
 20
206.7325833258
 30
0.0
  0
SPLINE
  5
82B
100
AcDbEntity
  8
KONSTRUKTIONSELEMENTE
100
AcDbSpline
 62
7
  6
CONTINUOUS
 70
0
 71
3
 72
10
 73
6
 74
0
 42
0.0000001
 43
0.0000001
 44
0.0000000001
 40
0.0
 40
0.0
 40
0.0
 40
0.0
 40
0.4998915062
 40
0.749945843
 40
1.0
 40
1.0
 40
1.0
 40
1.0
 10
325.9549682597
 20
206.7325833258
 30
0.0
 10
324.8293110041
 20
207.0575325855
 30
0.0
 10
323.1131978307
 20
207.4637765807
 30
0.0
 10
320.7855808467
 20
207.7543718216
 30
0.0
 10
319.6128297093
 20
207.8043800955
 30
0.0
 10
319.0267650286
 20
207.8043800955
 30
0.0
  0
SPLINE
  5
82C
100
AcDbEntity
  8
KONSTRUKTIONSELEMENTE
100
AcDbSpline
 62
7
  6
CONTINUOUS
 70
0
 71
3
 72
11
 73
7
 74
0
 42
0.0000001
 43
0.0000001
 44
0.0000000001
 40
0.0
 40
0.0
 40
0.0
 40
0.0
 40
0.2404107493
 40
0.485512283
 40
0.738365398
 40
1.0
 40
1.0
 40
1.0
 40
1.0
 10
308.6344604607
 20
207.8043801068
 30
0.0
 10
308.3406538755
 20
207.8043801291
 30
0.0
 10
307.7462067994
 20
207.7531635934
 30
0.0
 10
306.8681551826
 20
207.5318929985
 30
0.0
 10
306.0043520124
 20
207.1860598856
 30
0.0
 10
305.4472652634
 20
206.8924554804
 30
0.0
 10
305.1703585689
 20
206.7325833258
 30
0.0
  0
SPLINE
  5
82D
100
AcDbEntity
  8
KONSTRUKTIONSELEMENTE
100
AcDbSpline
 62
7
  6
CONTINUOUS
 70
0
 71
3
 72
11
 73
7
 74
0
 42
0.0000001
 43
0.0000001
 44
0.0000000001
 40
0.0
 40
0.0
 40
0.0
 40
0.0
 40
0.3395355067
 40
0.6032696712
 40
0.8134780689
 40
1.0
 40
1.0
 40
1.0
 40
1.0
 10
108.5189928981
 20
94.5259987122
 30
0.0
 10
108.6935859582
 20
94.5259987122
 30
0.0
 10
109.0100646913
 20
94.596662706
 30
0.0
 10
109.3465474718
 20
94.8680685408
 30
0.0
 10
109.498283951
 20
95.1820712912
 30
0.0
 10
109.5189928981
 20
95.3878255043
 30
0.0
 10
109.5189928981
 20
95.4837372251
 30
0.0
  0
SPLINE
  5
82E
100
AcDbEntity
  8
KONSTRUKTIONSELEMENTE
100
AcDbSpline
 62
7
  6
CONTINUOUS
 70
0
 71
3
 72
10
 73
6
 74
0
 42
0.0000001
 43
0.0000001
 44
0.0000000001
 40
0.0
 40
0.0
 40
0.0
 40
0.0
 40
0.5348556089
 40
0.7789597785
 40
1.0
 40
1.0
 40
1.0
 40
1.0
 10
109.4551597979
 20
67.7187852825
 30
0.0
 10
109.4617524799
 20
67.5907324324
 30
0.0
 10
109.4839301214
 20
67.4050664278
 30
0.0
 10
109.5116844463
 20
67.1670293454
 30
0.0
 10
109.5189928981
 20
67.0555659864
 30
0.0
 10
109.5189928981
 20
67.0025753893
 30
0.0
  0
SPLINE
  5
82F
100
AcDbEntity
  8
KONSTRUKTIONSELEMENTE
100
AcDbSpline
 62
7
  6
CONTINUOUS
 70
0
 71
3
 72
13
 73
9
 74
0
 42
0.0000001
 43
0.0000001
 44
0.0000000001
 40
0.0
 40
0.0
 40
0.0
 40
0.0
 40
0.1253082248
 40
0.2503303303
 40
0.3750932861
 40
0.4999483717
 40
0.749674989
 40
1.0
 40
1.0
 40
1.0
 40
1.0
 10
110.3758923388
 20
94.5259987122
 30
0.0
 10
110.3114363254
 20
94.5259987122
 30
0.0
 10
110.1818434828
 20
94.5083022863
 30
0.0
 10
110.0036639019
 20
94.4282932502
 30
0.0
 10
109.8523294265
 20
94.3060710596
 30
0.0
 10
109.6901768411
 20
94.1049781265
 30
0.0
 10
109.5572800908
 20
93.8064178867
 30
0.0
 10
109.5185853323
 20
93.5489448028
 30
0.0
 10
109.5160027641
 20
93.4202085878
 30
0.0
  0
SPLINE
  5
830
100
AcDbEntity
  8
KONSTRUKTIONSELEMENTE
100
AcDbSpline
 62
7
  6
CONTINUOUS
 70
0
 71
3
 72
9
 73
5
 74
0
 42
0.0000001
 43
0.0000001
 44
0.0000000001
 40
0.0
 40
0.0
 40
0.0
 40
0.0
 40
0.255122993
 40
1.0
 40
1.0
 40
1.0
 40
1.0
 10
109.5160027893
 20
93.4202085997
 30
0.0
 10
109.5141348083
 20
93.3270740488
 30
0.0
 10
109.5033580622
 20
92.9620993515
 30
0.0
 10
109.4789232847
 20
92.5974864834
 30
0.0
 10
109.4520055999
 20
92.3268441918
 30
0.0
  0
SPLINE
  5
831
100
AcDbEntity
  8
KONSTRUKTIONSELEMENTE
100
AcDbSpline
 62
7
  6
CONTINUOUS
 70
0
 71
3
 72
9
 73
5
 74
0
 42
0.0000001
 43
0.0000001
 44
0.0000000001
 40
0.0
 40
0.0
 40
0.0
 40
0.0
 40
0.4924424106
 40
1.0
 40
1.0
 40
1.0
 40
1.0
 10
109.4520055999
 20
92.3268441918
 30
0.0
 10
109.40184206
 20
92.5609214469
 30
0.0
 10
109.2632931911
 20
93.02802945
 30
0.0
 10
109.1012395642
 20
93.4861565811
 30
0.0
 10
109.0189928981
 20
93.7187852825
 30
0.0
  0
SPLINE
  5
832
100
AcDbEntity
  8
KONSTRUKTIONSELEMENTE
100
AcDbSpline
 62
7
  6
CONTINUOUS
 70
0
 71
3
 72
11
 73
7
 74
0
 42
0.0000001
 43
0.0000001
 44
0.0000000001
 40
0.0
 40
0.0
 40
0.0
 40
0.0
 40
0.3395355067
 40
0.6032696712
 40
0.8134780689
 40
1.0
 40
1.0
 40
1.0
 40
1.0
 10
206.5189928981
 20
66.9115718529
 30
0.0
 10
206.3443998379
 20
66.9115718529
 30
0.0
 10
206.0279211048
 20
66.8409078591
 30
0.0
 10
205.6914383243
 20
66.5695020242
 30
0.0
 10
205.5397018451
 20
66.2554992739
 30
0.0
 10
205.518992898
 20
66.0497450608
 30
0.0
 10
205.5189928981
 20
65.9538333399
 30
0.0
  0
SPLINE
  5
833
100
AcDbEntity
  8
KONSTRUKTIONSELEMENTE
100
AcDbSpline
 62
7
  6
CONTINUOUS
 70
0
 71
3
 72
10
 73
6
 74
0
 42
0.0000001
 43
0.0000001
 44
0.0000000001
 40
0.0
 40
0.0
 40
0.0
 40
0.0
 40
0.5348556089
 40
0.7789597785
 40
1.0
 40
1.0
 40
1.0
 40
1.0
 10
205.5828259982
 20
93.7187852825
 30
0.0
 10
205.5762333162
 20
93.8468381327
 30
0.0
 10
205.5540556747
 20
94.0325041372
 30
0.0
 10
205.5263013498
 20
94.2705412197
 30
0.0
 10
205.5189928981
 20
94.3820045787
 30
0.0
 10
205.5189928981
 20
94.4349951757
 30
0.0
  0
SPLINE
  5
834
100
AcDbEntity
  8
KONSTRUKTIONSELEMENTE
100
AcDbSpline
 62
7
  6
CONTINUOUS
 70
0
 71
3
 72
13
 73
9
 74
0
 42
0.0000001
 43
0.0000001
 44
0.0000000001
 40
0.0
 40
0.0
 40
0.0
 40
0.0
 40
0.1253082248
 40
0.2503303303
 40
0.3750932861
 40
0.4999483717
 40
0.749674989
 40
1.0
 40
1.0
 40
1.0
 40
1.0
 10
204.6620934573
 20
66.9115718529
 30
0.0
 10
204.7265494707
 20
66.9115718529
 30
0.0
 10
204.8561423133
 20
66.9292682788
 30
0.0
 10
205.0343218942
 20
67.0092773148
 30
0.0
 10
205.1856563696
 20
67.1314995054
 30
0.0
 10
205.347808955
 20
67.3325924385
 30
0.0
 10
205.4807057053
 20
67.6311526783
 30
0.0
 10
205.5194004638
 20
67.8886257623
 30
0.0
 10
205.521983032
 20
68.0173619773
 30
0.0
  0
SPLINE
  5
835
100
AcDbEntity
  8
KONSTRUKTIONSELEMENTE
100
AcDbSpline
 62
7
  6
CONTINUOUS
 70
0
 71
3
 72
9
 73
5
 74
0
 42
0.0000001
 43
0.0000001
 44
0.0000000001
 40
0.0
 40
0.0
 40
0.0
 40
0.0
 40
0.255122993
 40
1.0
 40
1.0
 40
1.0
 40
1.0
 10
205.5219830068
 20
68.0173619653
 30
0.0
 10
205.5238509878
 20
68.1104965163
 30
0.0
 10
205.5346277339
 20
68.4754712135
 30
0.0
 10
205.5590625114
 20
68.8400840816
 30
0.0
 10
205.5859801962
 20
69.1107263732
 30
0.0
  0
SPLINE
  5
836
100
AcDbEntity
  8
KONSTRUKTIONSELEMENTE
100
AcDbSpline
 62
7
  6
CONTINUOUS
 70
0
 71
3
 72
9
 73
5
 74
0
 42
0.0000001
 43
0.0000001
 44
0.0000000001
 40
0.0
 40
0.0
 40
0.0
 40
0.0
 40
0.4924424106
 40
1.0
 40
1.0
 40
1.0
 40
1.0
 10
205.5859801962
 20
69.1107263732
 30
0.0
 10
205.6361437361
 20
68.8766491182
 30
0.0
 10
205.774692605
 20
68.4095411151
 30
0.0
 10
205.9367462319
 20
67.9514139839
 30
0.0
 10
206.0189928981
 20
67.7187852825
 30
0.0
  0
LINE
  5
837
100
AcDbEntity
  8
0
100
AcDbLine
 62
7
  6
CONTINUOUS
 10
123.3731474718
 20
88.3311196932
 11
123.292534891
 21
87.5639247381
  0
LINE
  5
838
100
AcDbEntity
  8
0
100
AcDbLine
 62
7
  6
CONTINUOUS
 10
191.6648379736
 20
88.3311229712
 11
191.7454509098
 21
87.5639247081
  0
LINE
  5
839
100
AcDbEntity
  8
RUNDUNGEN
100
AcDbLine
 62
7
  6
CONTINUOUS
 10
123.3731474718
 20
73.1064508719
 11
123.292534891
 21
73.8736458269
  0
LINE
  5
83A
100
AcDbEntity
  8
RUNDUNGEN
100
AcDbLine
 62
7
  6
CONTINUOUS
 10
191.6648379736
 20
73.1064475939
 11
191.7454509098
 21
73.873645857
  0
ENDSEC
  0
SECTION
  2
OBJECTS
  0
DICTIONARY
  5
C
100
AcDbDictionary
280
0
281
1
  3
ACAD_GROUP
350
D
  3
ACAD_MLINESTYLE
350
17
  3
ACAD_LAYOUT
350
1A
  3
ACAD_PLOTSETTINGS
350
19
  3
ACAD_PLOTSTYLENAME
350
E
  0
DICTIONARY
  5
D
102
{ACAD_REACTORS
330
C
102
}
100
AcDbDictionary
280
0
281
1
  0
ACDBDICTIONARYWDFLT
  5
E
102
{ACAD_REACTORS
330
C
102
}
100
AcDbDictionary
281
1
  3
Normal
350
F
100
AcDbDictionaryWithDefault
340
F
  0
DICTIONARY
  5
17
102
{ACAD_REACTORS
330
C
102
}
100
AcDbDictionary
280
0
281
1
  3
Standard
350
18
  0
DICTIONARY
  5
19
102
{ACAD_REACTORS
330
C
102
}
100
AcDbDictionary
281
1
  0
DICTIONARY
  5
1A
102
{ACAD_REACTORS
330
C
102
}
100
AcDbDictionary
281
1
  3
Model
350
83B
  3
Layout1
350
83C
  0
ACDBPLACEHOLDER
  5
F
102
{ACAD_REACTORS
330
E
102
}
  0
MLINESTYLE
  5
18
102
{ACAD_REACTORS
330
17
102
}
100
AcDbMlineStyle
  2
STANDARD
 70
0
  3

 62
256
 51
90.0
 52
90.0
 71
2
 49
0.5
 62
256
  6
BYLAYER
 49
-0.5
 62
256
  6
BYLAYER
  0
LAYOUT
  5
83B
102
{ACAD_REACTORS
330
1A
102
}
100
AcDbPlotSettings
  1

  2
none_device
  4
ISO_A3_(420.00_x_297.00_MM)
  6

 40
0.0
 41
0.0
 42
0.0
 43
0.0
 44
420.0
 45
297.0
 46
0.0
 47
0.0
 48
0.0
 49
0.0
140
0.0
141
0.0
142
1.0
143
1.0
 70
1024
 72
1
 73
0
 74
0
  7

 75
0
147
1.0
148
0.0
149
0.0
100
AcDbLayout
  1
Model
 70
0
 71
0
 10
0.0
 20
0.0
 11
420.0
 21
297.0
 12
0.0
 22
0.0
 32
0.0
 14
0.0
 24
0.0
 34
0.0
 15
0.0
 25
0.0
 35
0.0
146
0.0
 13
0.0
 23
0.0
 33
0.0
 16
1.0
 26
0.0
 36
0.0
 17
0.0
 27
1.0
 37
0.0
 76
0
330
20F
345
0
346
0
  0
LAYOUT
  5
83C
102
{ACAD_REACTORS
330
1A
102
}
100
AcDbPlotSettings
  1

  2
none_device
  4
ISO_A3_(420.00_x_297.00_MM)
  6

 40
0.0
 41
0.0
 42
0.0
 43
0.0
 44
420.0
 45
297.0
 46
0.0
 47
0.0
 48
0.0
 49
0.0
140
0.0
141
0.0
142
1.0
143
1.0
 70
0
 72
1
 73
0
 74
0
  7

 75
0
147
1.0
148
0.0
149
0.0
100
AcDbLayout
  1
Layout1
 70
0
 71
1
 10
0.0
 20
0.0
 11
420.0
 21
297.0
 12
0.0
 22
0.0
 32
0.0
 14
0.0
 24
0.0
 34
0.0
 15
0.0
 25
0.0
 35
0.0
146
0.0
 13
0.0
 23
0.0
 33
0.0
 16
1.0
 26
0.0
 36
0.0
 17
0.0
 27
1.0
 37
0.0
 76
0
330
210
345
0
346
0
  0
ENDSEC
  0
EOF
