999
DXF file: 001-m36286-p-1.dxf
999
Pro/ENGINEER 2011490 by Parametric Technology Corporation
  0
SECTION
  2
HEADER
  9
$ACADVER
  1
AC1015
  9
$DWGCODEPAGE
  3
ANSI_1252
  9
$EXTMAX
 10
1189.0
 20
841.0
 30
0.0
  9
$EXTMIN
 10
0.0
 20
0.0
 30
0.0
  9
$LIMMIN
 10
0.0
 20
0.0
  9
$LIMMAX
 10
1189.0
 20
841.0
  9
$VIEWCTR
 10
594.5
 20
420.5
  9
$VIEWSIZE
 40
841.0
  9
$CLAYER
  8
0
  9
$LTSCALE
 40
65.395
  9
$CELTYPE
  6
BYLAYER
  9
$DIMSCALE
 40
1.0
  9
$DIMASZ
 40
3.5
  9
$DIMEXO
 40
7.43125
  9
$DIMDLI
 40
45.182
  9
$DIMEXE
 40
21.402
  9
$DIMCEN
 40
10.701
  9
$DIMLFAC
 40
1.0
  9
$DIMBLK
  1
_FILLED
  9
$DIMTXT
 40
3.5
  9
$DIMTOL
 70
1
  9
$DIMLIM
 70
0
  9
$DIMTFAC
 40
1.0
  9
$DIMTP
 40
0.005
  9
$DIMTM
 40
0.005
  9
$PDMODE
 70
3
  9
$PDSIZE
 40
0.3125
  9
$HANDSEED
  5
462
  9
$TILEMODE
 70
1
  9
$MEASUREMENT
 70
1
  9
$INSUNITS
 70
4
  0
ENDSEC
  0
SECTION
  2
CLASSES
  0
CLASS
  1
ACDBDICTIONARYWDFLT
  2
AcDbDictionaryWithDefault
  3
AutoCAD 2000
 90
0
280
0
281
0
  0
CLASS
  1
ACDBPLACEHOLDER
  2
AcDbPlaceHolder
  3
AutoCAD 2000
 90
0
280
0
281
0
  0
CLASS
  1
LAYOUT
  2
AcDbLayout
  3
AutoCAD 2000
 90
0
280
0
281
0
  0
ENDSEC
  0
SECTION
  2
TABLES
  0
TABLE
  2
VPORT
  5
8
100
AcDbSymbolTable
 70
2
  0
VPORT
  5
1F4
100
AcDbSymbolTableRecord
100
AcDbViewportTableRecord
  2
*ACTIVE
 70
0
 10
0.0
 20
0.0
 11
1.0
 21
1.0
 12
594.5
 22
420.5
 13
0.0
 23
0.0
 14
1.0
 24
1.0
 15
0.0
 25
0.0
 16
0.0
 26
0.0
 36
1.0
 17
0.0
 27
0.0
 37
0.0
 40
841.0
 41
1.4137931034
 42
50.0
 43
0.0
 44
0.0
 50
0.0
 51
0.0
 71
0
 72
100
 73
1
 74
1
 75
0
 76
0
 77
0
 78
0
  0
ENDTAB
  0
TABLE
  2
LTYPE
  5
5
100
AcDbSymbolTable
 70
6
  0
LTYPE
  5
14
100
AcDbSymbolTableRecord
100
AcDbLinetypeTableRecord
  2
BYBLOCK
 70
0
  3

 72
65
 73
0
 40
0.0
  0
LTYPE
  5
15
100
AcDbSymbolTableRecord
100
AcDbLinetypeTableRecord
  2
BYLAYER
 70
0
  3

 72
65
 73
0
 40
0.0
  0
LTYPE
  5
16
100
AcDbSymbolTableRecord
100
AcDbLinetypeTableRecord
  2
CONTINUOUS
 70
64
  3
Solid line
 72
65
 73
0
 40
0.0
  0
LTYPE
  5
1F5
100
AcDbSymbolTableRecord
100
AcDbLinetypeTableRecord
  2
CENTER
 70
64
  3
____ _ ____ _ ____ _ ____ _ ____ _ ____ _ ____
 72
65
 73
4
 40
0.6
 49
0.375
 74
0
 49
-0.075
 74
0
 49
0.075
 74
0
 49
-0.075
 74
0
  0
LTYPE
  5
1F6
100
AcDbSymbolTableRecord
100
AcDbLinetypeTableRecord
  2
HIDDEN
 70
64
  3
- - - - - - - - - - - - - - - - - - - -
 72
65
 73
2
 40
0.2
 49
0.1
 74
0
 49
-0.1
 74
0
  0
LTYPE
  5
1F7
100
AcDbSymbolTableRecord
100
AcDbLinetypeTableRecord
  2
PHANTOM
 70
64
  3
_____ _ _ _____ _ _ _____ _ _ _____
 72
65
 73
6
 40
0.8
 49
0.45
 74
0
 49
-0.05
 74
0
 49
0.1
 74
0
 49
-0.05
 74
0
 49
0.1
 74
0
 49
-0.05
 74
0
  0
LTYPE
  5
1F8
100
AcDbSymbolTableRecord
100
AcDbLinetypeTableRecord
  2
DOT
 70
64
  3
. . . . . . . . . . . . . . . . . . . .
 72
65
 73
2
 40
0.2
 49
0.1
 74
0
 49
-0.1
 74
0
  0
LTYPE
  5
1F9
100
AcDbSymbolTableRecord
100
AcDbLinetypeTableRecord
  2
DASHED
 70
64
  3
- - - - - - - - - - - - - - - - - - - -
 72
65
 73
2
 40
0.2
 49
0.1
 74
0
 49
-0.1
 74
0
  0
ENDTAB
  0
TABLE
  2
LAYER
  5
2
100
AcDbSymbolTable
 70
36
  0
LAYER
  5
10
100
AcDbSymbolTableRecord
100
AcDbLayerTableRecord
  2
0
 70
0
 62
7
  6
CONTINUOUS
370
-3
390
F
  0
LAYER
  5
1FA
100
AcDbSymbolTableRecord
100
AcDbLayerTableRecord
  2
DEFAULT_1
 70
0
 62
7
  6
CENTER
370
-3
390
F
  0
LAYER
  5
1FB
100
AcDbSymbolTableRecord
100
AcDbLayerTableRecord
  2
DEFAULT_2
 70
0
 62
8
  6
HIDDEN
370
-3
390
F
  0
LAYER
  5
1FC
100
AcDbSymbolTableRecord
100
AcDbLayerTableRecord
  2
DEFAULT_3
 70
0
 62
7
  6
PHANTOM
370
-3
390
F
  0
LAYER
  5
1FD
100
AcDbSymbolTableRecord
100
AcDbLayerTableRecord
  2
AUSFORMSCHRAEGEN
 70
0
 62
7
  6
CONTINUOUS
370
-3
390
F
  0
LAYER
  5
1FE
100
AcDbSymbolTableRecord
100
AcDbLayerTableRecord
  2
BEZUGSACHSEN
 70
0
 62
7
  6
CONTINUOUS
370
-3
390
F
  0
LAYER
  5
1FF
100
AcDbSymbolTableRecord
100
AcDbLayerTableRecord
  2
BEZUGSEBENEN
 70
0
 62
7
  6
CONTINUOUS
370
-3
390
F
  0
LAYER
  5
200
100
AcDbSymbolTableRecord
100
AcDbLayerTableRecord
  2
BEZUGSPUNKTE
 70
0
 62
7
  6
CONTINUOUS
370
-3
390
F
  0
LAYER
  5
201
100
AcDbSymbolTableRecord
100
AcDbLayerTableRecord
  2
BG_STARTBEZUEGE
 70
0
 62
7
  6
CONTINUOUS
370
-3
390
F
  0
LAYER
  5
202
100
AcDbSymbolTableRecord
100
AcDbLayerTableRecord
  2
FASEN
 70
0
 62
7
  6
CONTINUOUS
370
-3
390
F
  0
LAYER
  5
203
100
AcDbSymbolTableRecord
100
AcDbLayerTableRecord
  2
FLAECHEN
 70
0
 62
7
  6
CONTINUOUS
370
-3
390
F
  0
LAYER
  5
204
100
AcDbSymbolTableRecord
100
AcDbLayerTableRecord
  2
FLAECHENVERBUND
 70
0
 62
7
  6
CONTINUOUS
370
-3
390
F
  0
LAYER
  5
205
100
AcDbSymbolTableRecord
100
AcDbLayerTableRecord
  2
GEWINDE
 70
0
 62
7
  6
CONTINUOUS
370
-3
390
F
  0
LAYER
  5
206
100
AcDbSymbolTableRecord
100
AcDbLayerTableRecord
  2
HILFEN
 70
0
 62
7
  6
CONTINUOUS
370
-3
390
F
  0
LAYER
  5
207
100
AcDbSymbolTableRecord
100
AcDbLayerTableRecord
  2
KONSTRUKTIONSELEMENTE
 70
0
 62
7
  6
CONTINUOUS
370
-3
390
F
  0
LAYER
  5
208
100
AcDbSymbolTableRecord
100
AcDbLayerTableRecord
  2
KURVEN
 70
0
 62
7
  6
CONTINUOUS
370
-3
390
F
  0
LAYER
  5
209
100
AcDbSymbolTableRecord
100
AcDbLayerTableRecord
  2
NORM
 70
0
 62
7
  6
CONTINUOUS
370
-3
390
F
  0
LAYER
  5
20A
100
AcDbSymbolTableRecord
100
AcDbLayerTableRecord
  2
PLATZIERUNG
 70
0
 62
7
  6
CONTINUOUS
370
-3
390
F
  0
LAYER
  5
20B
100
AcDbSymbolTableRecord
100
AcDbLayerTableRecord
  2
PLAZIERUNG
 70
0
 62
7
  6
CONTINUOUS
370
-3
390
F
  0
LAYER
  5
20C
100
AcDbSymbolTableRecord
100
AcDbLayerTableRecord
  2
RUNDUNGEN
 70
0
 62
7
  6
CONTINUOUS
370
-3
390
F
  0
LAYER
  5
20D
100
AcDbSymbolTableRecord
100
AcDbLayerTableRecord
  2
TEIL_STARTBEZUEGE
 70
0
 62
7
  6
CONTINUOUS
370
-3
390
F
  0
LAYER
  5
20E
100
AcDbSymbolTableRecord
100
AcDbLayerTableRecord
  2
T_STARTBEZUEGE
 70
0
 62
7
  6
CONTINUOUS
370
-3
390
F
  0
LAYER
  5
20F
100
AcDbSymbolTableRecord
100
AcDbLayerTableRecord
  2
ZEICHNUNGSBEMASSUNGEN
 70
0
 62
7
  6
CONTINUOUS
370
-3
390
F
  0
ENDTAB
  0
TABLE
  2
STYLE
  5
3
100
AcDbSymbolTable
 70
1
  0
STYLE
  5
11
100
AcDbSymbolTableRecord
100
AcDbTextStyleTableRecord
  2
STANDARD
 70
0
 40
0.0
 41
0.7
 50
0.0
 71
0
 42
0.2
  3
txt
  4

  0
STYLE
  5
210
100
AcDbSymbolTableRecord
100
AcDbTextStyleTableRecord
  2
TEXTSTYLE_1
 70
0
 40
0.0
 41
0.8
 50
0.0
 71
0
 42
0.2
  3
gdt
  4

  0
ENDTAB
  0
TABLE
  2
VIEW
  5
6
100
AcDbSymbolTable
 70
0
  0
ENDTAB
  0
TABLE
  2
UCS
  5
7
100
AcDbSymbolTable
 70
0
  0
ENDTAB
  0
TABLE
  2
APPID
  5
9
100
AcDbSymbolTable
 70
1
  0
APPID
  5
211
100
AcDbSymbolTableRecord
100
AcDbRegAppTableRecord
  2
ACAD
 70
0
  0
ENDTAB
  0
TABLE
  2
BLOCK_RECORD
  5
1
100
AcDbSymbolTable
 70
0
  0
BLOCK_RECORD
  5
212
100
AcDbSymbolTableRecord
100
AcDbBlockTableRecord
  2
*Model_Space
  0
BLOCK_RECORD
  5
213
100
AcDbSymbolTableRecord
100
AcDbBlockTableRecord
  2
*Paper_Space
  0
ENDTAB
  0
TABLE
  2
DIMSTYLE
  5
A
100
AcDbSymbolTable
 70
1
100
AcDbDimStyleTable
 71
0
  0
DIMSTYLE
105
214
100
AcDbSymbolTableRecord
100
AcDbDimStyleTableRecord
  2
STANDARD
 70
0
  3

  4

 40
1.0
 41
3.5
 42
0.0625
 43
0.38
 44
0.18
 45
0.0
 46
0.0
 47
0.005
 48
0.005
140
3.5
141
0.09
142
0.0
143
25.4
144
1.0
145
0.0
146
1.0
147
0.09
 71
1.0
 72
0.0
 73
0
 74
0
 75
0
 76
0
 77
1
 78
8
170
0
171
2
172
0
173
0
174
0
175
0
176
0
177
0
178
5
270
2
271
3
272
3
273
2
274
2
275
0
280
0
281
0
282
0
283
1
284
8
285
0
286
0
287
3
288
0
340
11
  0
ENDTAB
  0
ENDSEC
  0
SECTION
  2
BLOCKS
  0
BLOCK
  5
20
100
AcDbEntity
  8
0
100
AcDbBlockBegin
  2
*Model_Space
 70
0
 10
0.0
 20
0.0
 30
0.0
  3
*Model_Space
  1

  0
ENDBLK
  5
21
100
AcDbEntity
  8
0
100
AcDbBlockEnd
  0
BLOCK
  5
1C
100
AcDbEntity
  8
0
100
AcDbBlockBegin
  2
*Paper_Space
 70
0
 10
0.0
 20
0.0
 30
0.0
  3
*Paper_Space
  1

  0
ENDBLK
  5
1D
100
AcDbEntity
  8
0
100
AcDbBlockEnd
  0
ENDSEC
  0
SECTION
  2
ENTITIES
  0
LINE
  5
215
100
AcDbEntity
  8
0
100
AcDbLine
 62
7
  6
CONTINUOUS
 10
0.0
 20
0.0
 11
0.0
 21
841.0
  0
LINE
  5
216
100
AcDbEntity
  8
0
100
AcDbLine
 62
7
  6
CONTINUOUS
 10
0.0
 20
0.0
 11
1189.0
 21
0.0
  0
LINE
  5
217
100
AcDbEntity
  8
0
100
AcDbLine
 62
7
  6
CONTINUOUS
 10
0.0
 20
841.0
 11
1189.0
 21
841.0
  0
LINE
  5
218
100
AcDbEntity
  8
0
100
AcDbLine
 62
7
  6
CONTINUOUS
 10
1189.0
 20
0.0
 11
1189.0
 21
841.0
  0
LINE
  5
219
100
AcDbEntity
  8
0
100
AcDbLine
 62
7
  6
CONTINUOUS
 10
426.8533031438
 20
35.148619216
 11
447.8533031438
 21
35.148619216
  0
LINE
  5
21A
100
AcDbEntity
  8
0
100
AcDbLine
 62
7
  6
CONTINUOUS
 10
425.3533031438
 20
36.648619216
 11
449.3533031438
 21
36.648619216
  0
LINE
  5
21B
100
AcDbEntity
  8
0
100
AcDbLine
 62
7
  6
CONTINUOUS
 10
477.3533031438
 20
71.148619216
 11
397.3533031438
 21
71.148619216
  0
LINE
  5
21C
100
AcDbEntity
  8
RUNDUNGEN
100
AcDbLine
 62
7
  6
CONTINUOUS
 10
427.8533031438
 20
74.348619216
 11
446.8533031438
 21
74.348619216
  0
LINE
  5
21D
100
AcDbEntity
  8
0
100
AcDbLine
 62
7
  6
CONTINUOUS
 10
435.7116365467
 20
79.358619216
 11
436.2949699496
 21
79.5075553815
  0
LINE
  5
21E
100
AcDbEntity
  8
0
100
AcDbLine
 62
7
  6
CONTINUOUS
 10
446.4499691747
 20
92.1201085549
 11
445.7833031438
 21
91.9498958092
  0
LINE
  5
21F
100
AcDbEntity
  8
0
100
AcDbLine
 62
7
  6
CONTINUOUS
 10
438.4499701284
 20
92.1201085549
 11
437.7833031438
 21
91.9498958092
  0
LINE
  5
220
100
AcDbEntity
  8
0
100
AcDbLine
 62
7
  6
CONTINUOUS
 10
436.2949699496
 20
80.252236235
 11
435.5658031438
 21
80.1033000826
  0
LINE
  5
221
100
AcDbEntity
  8
0
100
AcDbLine
 62
7
  6
CONTINUOUS
 10
434.1074698453
 20
85.4650023012
 11
434.8366365467
 21
85.6139384537
  0
LINE
  5
222
100
AcDbEntity
  8
0
100
AcDbLine
 62
7
  6
CONTINUOUS
 10
445.7833031438
 20
90.928619216
 11
446.6166371129
 21
91.0988319766
  0
LINE
  5
223
100
AcDbEntity
  8
0
100
AcDbLine
 62
7
  6
CONTINUOUS
 10
437.7833031438
 20
90.928619216
 11
438.6166361593
 21
91.0988319766
  0
LINE
  5
224
100
AcDbEntity
  8
0
100
AcDbLine
 62
7
  6
CONTINUOUS
 10
434.982469741
 20
86.358619216
 11
433.9616364424
 21
86.2096830635
  0
LINE
  5
225
100
AcDbEntity
  8
0
100
AcDbLine
 62
7
  6
CONTINUOUS
 10
434.544969741
 20
79.358619216
 11
435.7116365467
 21
79.358619216
  0
LINE
  5
226
100
AcDbEntity
  8
0
100
AcDbLine
 62
7
  6
CONTINUOUS
 10
435.5658031438
 20
80.1033000826
 11
434.6908031438
 21
80.1033000826
  0
LINE
  5
227
100
AcDbEntity
  8
0
100
AcDbLine
 62
7
  6
CONTINUOUS
 10
433.2324697931
 20
80.9969171016
 11
432.5033031438
 21
80.9969171016
  0
LINE
  5
228
100
AcDbEntity
  8
0
100
AcDbLine
 62
7
  6
CONTINUOUS
 10
434.8366365467
 20
82.6352149873
 11
435.419969741
 21
82.6352149873
  0
LINE
  5
229
100
AcDbEntity
  8
0
100
AcDbLine
 62
7
  6
CONTINUOUS
 10
435.419969741
 20
83.2309595971
 11
434.8366365467
 21
83.2309595971
  0
LINE
  5
22A
100
AcDbEntity
  8
0
100
AcDbLine
 62
7
  6
CONTINUOUS
 10
438.9199699496
 20
83.528831902
 11
440.0866367553
 21
83.528831902
  0
LINE
  5
22B
100
AcDbEntity
  8
0
100
AcDbLine
 62
7
  6
CONTINUOUS
 10
440.8158031438
 20
83.528831902
 11
442.4199695323
 21
83.528831902
  0
LINE
  5
22C
100
AcDbEntity
  8
0
100
AcDbLine
 62
7
  6
CONTINUOUS
 10
442.4199695323
 20
84.1245765119
 11
440.8158031438
 21
84.1245765119
  0
LINE
  5
22D
100
AcDbEntity
  8
0
100
AcDbLine
 62
7
  6
CONTINUOUS
 10
440.0866367553
 20
84.1245765119
 11
438.9199699496
 21
84.1245765119
  0
LINE
  5
22E
100
AcDbEntity
  8
0
100
AcDbLine
 62
7
  6
CONTINUOUS
 10
432.6491364815
 20
84.7203215389
 11
433.3783031438
 21
84.7203215389
  0
LINE
  5
22F
100
AcDbEntity
  8
0
100
AcDbLine
 62
7
  6
CONTINUOUS
 10
440.8158031438
 20
85.3160661488
 11
440.0866367553
 21
85.3160661488
  0
LINE
  5
230
100
AcDbEntity
  8
0
100
AcDbLine
 62
7
  6
CONTINUOUS
 10
434.8366365467
 20
85.6139384537
 11
435.419969741
 21
85.6139384537
  0
LINE
  5
231
100
AcDbEntity
  8
0
100
AcDbLine
 62
7
  6
CONTINUOUS
 10
435.2741365467
 20
86.358619216
 11
434.982469741
 21
86.358619216
  0
LINE
  5
232
100
AcDbEntity
  8
0
100
AcDbLine
 62
7
  6
CONTINUOUS
 10
426.7833031438
 20
90.928619216
 11
427.7833031438
 21
90.928619216
  0
LINE
  5
233
100
AcDbEntity
  8
0
100
AcDbLine
 62
7
  6
CONTINUOUS
 10
431.9499696516
 20
90.928619216
 11
433.1166366361
 21
90.928619216
  0
LINE
  5
234
100
AcDbEntity
  8
0
100
AcDbLine
 62
7
  6
CONTINUOUS
 10
437.1166361593
 20
90.928619216
 11
437.7833031438
 21
90.928619216
  0
LINE
  5
235
100
AcDbEntity
  8
0
100
AcDbLine
 62
7
  6
CONTINUOUS
 10
441.7833031438
 20
90.928619216
 11
445.7833031438
 21
90.928619216
  0
LINE
  5
236
100
AcDbEntity
  8
0
100
AcDbLine
 62
7
  6
CONTINUOUS
 10
445.7833031438
 20
91.9498958092
 11
442.7833031438
 21
91.9498958092
  0
LINE
  5
237
100
AcDbEntity
  8
0
100
AcDbLine
 62
7
  6
CONTINUOUS
 10
437.7833031438
 20
91.9498958092
 11
437.1166361593
 21
91.9498958092
  0
LINE
  5
238
100
AcDbEntity
  8
0
100
AcDbLine
 62
7
  6
CONTINUOUS
 10
427.7833031438
 20
94.5030873518
 11
430.6166363977
 21
94.5030873518
  0
LINE
  5
239
100
AcDbEntity
  8
0
100
AcDbLine
 62
7
  6
CONTINUOUS
 10
430.9499696516
 20
95.5243638258
 11
427.7833031438
 21
95.5243638258
  0
LINE
  5
23A
100
AcDbEntity
  8
0
100
AcDbLine
 62
7
  6
CONTINUOUS
 10
442.7833031438
 20
97.907342742
 11
445.7833031438
 21
97.907342742
  0
LINE
  5
23B
100
AcDbEntity
  8
0
100
AcDbLine
 62
7
  6
CONTINUOUS
 10
427.7833031438
 20
98.0775554877
 11
430.9499696516
 21
98.0775554877
  0
LINE
  5
23C
100
AcDbEntity
  8
0
100
AcDbLine
 62
7
  6
CONTINUOUS
 10
445.7833031438
 20
98.928619216
 11
441.7833031438
 21
98.928619216
  0
LINE
  5
23D
100
AcDbEntity
  8
0
100
AcDbLine
 62
7
  6
CONTINUOUS
 10
440.4499701284
 20
98.928619216
 11
439.4499701284
 21
98.928619216
  0
LINE
  5
23E
100
AcDbEntity
  8
0
100
AcDbLine
 62
7
  6
CONTINUOUS
 10
435.4499701284
 20
98.928619216
 11
434.4499696516
 21
98.928619216
  0
LINE
  5
23F
100
AcDbEntity
  8
0
100
AcDbLine
 62
7
  6
CONTINUOUS
 10
430.7833031438
 20
98.928619216
 11
426.7833031438
 21
98.928619216
  0
LINE
  5
240
100
AcDbEntity
  8
RUNDUNGEN
100
AcDbLine
 62
7
  6
CONTINUOUS
 10
446.8533031438
 20
114.848619216
 11
427.8533031438
 21
114.848619216
  0
LINE
  5
241
100
AcDbEntity
  8
0
100
AcDbLine
 62
7
  6
CONTINUOUS
 10
436.2949699496
 20
86.2096830635
 11
435.2741365467
 21
86.358619216
  0
LINE
  5
242
100
AcDbEntity
  8
0
100
AcDbLine
 62
7
  6
CONTINUOUS
 10
441.2533031438
 20
79.5075553815
 11
442.1283031438
 21
79.358619216
  0
LINE
  5
243
100
AcDbEntity
  8
0
100
AcDbLine
 62
7
  6
CONTINUOUS
 10
435.419969741
 20
82.6352149873
 11
436.2949699496
 21
82.4862788348
  0
LINE
  5
244
100
AcDbEntity
  8
0
100
AcDbLine
 62
7
  6
CONTINUOUS
 10
434.6908031438
 20
80.1033000826
 11
433.9616364424
 21
80.252236235
  0
LINE
  5
245
100
AcDbEntity
  8
0
100
AcDbLine
 62
7
  6
CONTINUOUS
 10
442.1283031438
 20
79.954363878
 11
441.3991367553
 21
80.1033000826
  0
LINE
  5
246
100
AcDbEntity
  8
0
100
AcDbLine
 62
7
  6
CONTINUOUS
 10
435.419969741
 20
85.6139384537
 11
436.1491363381
 21
85.4650023012
  0
LINE
  5
247
100
AcDbEntity
  8
0
100
AcDbLine
 62
7
  6
CONTINUOUS
 10
436.2833031438
 20
91.0988319766
 11
437.1166361593
 21
90.928619216
  0
LINE
  5
248
100
AcDbEntity
  8
0
100
AcDbLine
 62
7
  6
CONTINUOUS
 10
431.6166366361
 20
98.7584064703
 11
430.7833031438
 21
98.928619216
  0
LINE
  5
249
100
AcDbEntity
  8
0
100
AcDbLine
 62
7
  6
CONTINUOUS
 10
446.6166371129
 20
98.7584064703
 11
445.7833031438
 21
98.928619216
  0
LINE
  5
24A
100
AcDbEntity
  8
0
100
AcDbLine
 62
7
  6
CONTINUOUS
 10
433.9616364424
 20
79.5075553815
 11
434.544969741
 21
79.358619216
  0
LINE
  5
24B
100
AcDbEntity
  8
0
100
AcDbLine
 62
7
  6
CONTINUOUS
 10
437.1166361593
 20
91.9498958092
 11
436.4499701284
 21
92.1201085549
  0
LINE
  5
24C
100
AcDbEntity
  8
0
100
AcDbLine
 62
7
  6
CONTINUOUS
 10
440.8158031438
 20
79.656491547
 11
441.2533031438
 21
79.5075553815
  0
LINE
  5
24D
100
AcDbEntity
  8
FASEN
100
AcDbLine
 62
7
  6
CONTINUOUS
 10
472.2724072964
 20
123.163811463
 11
402.4341989913
 21
123.163811463
  0
LINE
  5
24E
100
AcDbEntity
  8
FASEN
100
AcDbLine
 62
7
  6
CONTINUOUS
 10
471.0987591187
 20
124.148619216
 11
403.607847169
 21
124.148619216
  0
LINE
  5
24F
100
AcDbEntity
  8
RUNDUNGEN
100
AcDbLine
 62
7
  6
CONTINUOUS
 10
413.3989718337
 20
134.148619216
 11
461.307638611
 21
134.148619216
  0
LINE
  5
250
100
AcDbEntity
  8
0
100
AcDbLine
 62
7
  6
CONTINUOUS
 10
445.7833031438
 20
97.907342742
 11
446.4499691747
 21
97.7371299963
  0
LINE
  5
251
100
AcDbEntity
  8
0
100
AcDbLine
 62
7
  6
CONTINUOUS
 10
430.9499696516
 20
98.0775554877
 11
431.4499696516
 21
97.907342742
  0
LINE
  5
252
100
AcDbEntity
  8
0
100
AcDbLine
 62
7
  6
CONTINUOUS
 10
437.3158031438
 20
82.6352149873
 11
436.5866363381
 21
82.9330872922
  0
LINE
  5
253
100
AcDbEntity
  8
0
100
AcDbLine
 62
7
  6
CONTINUOUS
 10
433.3783031438
 20
79.8054277255
 11
433.9616364424
 21
79.5075553815
  0
LINE
  5
254
100
AcDbEntity
  8
0
100
AcDbLine
 62
7
  6
CONTINUOUS
 10
433.9616364424
 20
80.252236235
 11
433.6699698453
 21
80.4011723875
  0
LINE
  5
255
100
AcDbEntity
  8
0
100
AcDbLine
 62
7
  6
CONTINUOUS
 10
436.8783031438
 20
85.9118107586
 11
436.2949699496
 21
86.2096830635
  0
LINE
  5
256
100
AcDbEntity
  8
0
100
AcDbLine
 62
7
  6
CONTINUOUS
 10
435.6166361593
 20
91.4392575126
 11
436.2833031438
 21
91.0988319766
  0
LINE
  5
257
100
AcDbEntity
  8
0
100
AcDbLine
 62
7
  6
CONTINUOUS
 10
422.3608251315
 20
159.148619216
 11
452.3457811562
 21
159.148619216
  0
LINE
  5
258
100
AcDbEntity
  8
0
100
AcDbLine
 62
7
  6
CONTINUOUS
 10
447.2833031438
 20
98.417980979
 11
446.6166371129
 21
98.7584064703
  0
LINE
  5
259
100
AcDbEntity
  8
0
100
AcDbLine
 62
7
  6
CONTINUOUS
 10
432.9408031438
 20
80.1033000826
 11
433.3783031438
 21
79.8054277255
  0
LINE
  5
25A
100
AcDbEntity
  8
0
100
AcDbLine
 62
7
  6
CONTINUOUS
 10
436.2949699496
 20
82.4862788348
 11
436.7324699496
 21
82.1884065299
  0
LINE
  5
25B
100
AcDbEntity
  8
0
100
AcDbLine
 62
7
  6
CONTINUOUS
 10
440.3783031438
 20
79.954363878
 11
440.8158031438
 21
79.656491547
  0
LINE
  5
25C
100
AcDbEntity
  8
0
100
AcDbLine
 62
7
  6
CONTINUOUS
 10
441.3991367553
 20
80.1033000826
 11
440.9616367553
 21
80.4011723875
  0
LINE
  5
25D
100
AcDbEntity
  8
0
100
AcDbLine
 62
7
  6
CONTINUOUS
 10
436.1491363381
 20
85.4650023012
 11
436.5866363381
 21
85.1671299963
  0
LINE
  5
25E
100
AcDbEntity
  8
0
100
AcDbLine
 62
7
  6
CONTINUOUS
 10
436.4499701284
 20
92.1201085549
 11
435.9499701284
 21
92.4605341654
  0
LINE
  5
25F
100
AcDbEntity
  8
0
100
AcDbLine
 62
7
  6
CONTINUOUS
 10
446.4499691747
 20
97.7371299963
 11
446.9499691747
 21
97.396704505
  0
LINE
  5
260
100
AcDbEntity
  8
0
100
AcDbLine
 62
7
  6
CONTINUOUS
 10
432.2833031438
 20
98.2477682333
 11
431.6166366361
 21
98.7584064703
  0
LINE
  5
261
100
AcDbEntity
  8
0
100
AcDbLine
 62
7
  6
CONTINUOUS
 10
425.3533031438
 20
36.648619216
 11
426.8533031438
 21
35.148619216
  0
LINE
  5
262
100
AcDbEntity
  8
0
100
AcDbLine
 62
7
  6
CONTINUOUS
 10
442.8264270049
 20
258.6069684439
 11
440.698767684
 21
258.086119216
  0
LINE
  5
263
100
AcDbEntity
  8
0
100
AcDbLine
 62
7
  6
CONTINUOUS
 10
440.698767684
 20
254.961119216
 11
443.3583433252
 21
255.4819684439
  0
LINE
  5
264
100
AcDbEntity
  8
0
100
AcDbLine
 62
7
  6
CONTINUOUS
 10
432.7200444859
 20
254.961119216
 11
440.698767684
 21
254.961119216
  0
LINE
  5
265
100
AcDbEntity
  8
0
100
AcDbLine
 62
7
  6
CONTINUOUS
 10
440.698767684
 20
258.086119216
 11
432.7200444859
 21
258.086119216
  0
LINE
  5
266
100
AcDbEntity
  8
0
100
AcDbLine
 62
7
  6
CONTINUOUS
 10
430.0604703348
 20
255.4819684439
 11
432.7200444859
 21
254.961119216
  0
LINE
  5
267
100
AcDbEntity
  8
0
100
AcDbLine
 62
7
  6
CONTINUOUS
 10
432.7200444859
 20
258.086119216
 11
430.592385165
 21
258.6069684439
  0
LINE
  5
268
100
AcDbEntity
  8
FASEN
100
AcDbLine
 62
7
  6
CONTINUOUS
 10
471.0987591187
 20
124.148619216
 11
472.2724072963
 21
123.163811463
  0
LINE
  5
269
100
AcDbEntity
  8
0
100
AcDbLine
 62
7
  6
CONTINUOUS
 10
433.6699698453
 20
80.4011723875
 11
433.3783031438
 21
80.6990447967
  0
LINE
  5
26A
100
AcDbEntity
  8
0
100
AcDbLine
 62
7
  6
CONTINUOUS
 10
437.4616363381
 20
85.3160661488
 11
436.8783031438
 21
85.9118107586
  0
LINE
  5
26B
100
AcDbEntity
  8
0
100
AcDbLine
 62
7
  6
CONTINUOUS
 10
434.9499701284
 20
92.1201085549
 11
435.6166361593
 21
91.4392575126
  0
LINE
  5
26C
100
AcDbEntity
  8
0
100
AcDbLine
 62
7
  6
CONTINUOUS
 10
431.4499696516
 20
97.907342742
 11
431.7833031438
 21
97.5669172507
  0
LINE
  5
26D
100
AcDbEntity
  8
0
100
AcDbLine
 62
7
  6
CONTINUOUS
 10
447.9499691747
 20
97.7371299963
 11
447.2833031438
 21
98.417980979
  0
LINE
  5
26E
100
AcDbEntity
  8
0
100
AcDbLine
 62
7
  6
CONTINUOUS
 10
430.592385165
 20
295.0652699881
 11
432.7200444859
 21
295.586119216
  0
LINE
  5
26F
100
AcDbEntity
  8
0
100
AcDbLine
 62
7
  6
CONTINUOUS
 10
432.7200444859
 20
298.711119216
 11
430.0604703348
 21
298.1902699881
  0
LINE
  5
270
100
AcDbEntity
  8
0
100
AcDbLine
 62
7
  6
CONTINUOUS
 10
427.4008958113
 20
272.6694684439
 11
446.0179174762
 21
272.6694684439
  0
LINE
  5
271
100
AcDbEntity
  8
0
100
AcDbLine
 62
7
  6
CONTINUOUS
 10
449.2094064575
 20
275.7944684439
 11
424.2094064575
 21
275.7944684439
  0
LINE
  5
272
100
AcDbEntity
  8
0
100
AcDbLine
 62
7
  6
CONTINUOUS
 10
432.7200444859
 20
279.961119216
 11
449.2094064575
 21
279.961119216
  0
LINE
  5
273
100
AcDbEntity
  8
0
100
AcDbLine
 62
7
  6
CONTINUOUS
 10
449.2094064575
 20
283.086119216
 11
432.7200444859
 21
283.086119216
  0
LINE
  5
274
100
AcDbEntity
  8
0
100
AcDbLine
 62
7
  6
CONTINUOUS
 10
432.7200444859
 20
295.586119216
 11
449.2094064575
 21
295.586119216
  0
LINE
  5
275
100
AcDbEntity
  8
0
100
AcDbLine
 62
7
  6
CONTINUOUS
 10
449.2094064575
 20
298.711119216
 11
432.7200444859
 21
298.711119216
  0
LINE
  5
276
100
AcDbEntity
  8
0
100
AcDbLine
 62
7
  6
CONTINUOUS
 10
441.2306825142
 20
303.398619216
 11
443.3583433252
 21
303.398619216
  0
LINE
  5
277
100
AcDbEntity
  8
0
100
AcDbLine
 62
7
  6
CONTINUOUS
 10
443.3583433252
 20
306.523619216
 11
441.7625973445
 21
306.523619216
  0
LINE
  5
278
100
AcDbEntity
  8
0
100
AcDbLine
 62
7
  6
CONTINUOUS
 10
430.0604703348
 20
280.4819684439
 11
432.7200444859
 21
279.961119216
  0
LINE
  5
279
100
AcDbEntity
  8
0
100
AcDbLine
 62
7
  6
CONTINUOUS
 10
432.7200444859
 20
283.086119216
 11
430.592385165
 21
283.6069684439
  0
LINE
  5
27A
100
AcDbEntity
  8
0
100
AcDbLine
 62
7
  6
CONTINUOUS
 10
427.9328106415
 20
256.523619216
 11
430.0604703348
 21
255.4819684439
  0
LINE
  5
27B
100
AcDbEntity
  8
0
100
AcDbLine
 62
7
  6
CONTINUOUS
 10
432.7833031438
 20
97.5669172507
 11
432.2833031438
 21
98.2477682333
  0
LINE
  5
27C
100
AcDbEntity
  8
0
100
AcDbLine
 62
7
  6
CONTINUOUS
 10
424.2094064575
 20
319.5444684439
 11
435.379619382
 21
319.5444684439
  0
LINE
  5
27D
100
AcDbEntity
  8
0
100
AcDbLine
 62
7
  6
CONTINUOUS
 10
438.5711083632
 20
319.5444684439
 11
446.5498323064
 21
319.5444684439
  0
LINE
  5
27E
100
AcDbEntity
  8
0
100
AcDbLine
 62
7
  6
CONTINUOUS
 10
449.2094064575
 20
322.6694684439
 11
424.2094064575
 21
322.6694684439
  0
LINE
  5
27F
100
AcDbEntity
  8
0
100
AcDbLine
 62
7
  6
CONTINUOUS
 10
439.6349380236
 20
303.9194684439
 11
441.2306825142
 21
303.398619216
  0
LINE
  5
280
100
AcDbEntity
  8
0
100
AcDbLine
 62
7
  6
CONTINUOUS
 10
441.7625973445
 20
306.523619216
 11
440.1668528538
 21
307.0444684439
  0
LINE
  5
281
100
AcDbEntity
  8
0
100
AcDbLine
 62
7
  6
CONTINUOUS
 10
427.9328106415
 20
281.523619216
 11
430.0604703348
 21
280.4819684439
  0
LINE
  5
282
100
AcDbEntity
  8
0
100
AcDbLine
 62
7
  6
CONTINUOUS
 10
430.592385165
 20
258.6069684439
 11
428.9966406744
 21
259.648619216
  0
LINE
  5
283
100
AcDbEntity
  8
0
100
AcDbLine
 62
7
  6
CONTINUOUS
 10
430.592385165
 20
283.6069684439
 11
428.9966406744
 21
284.648619216
  0
LINE
  5
284
100
AcDbEntity
  8
0
100
AcDbLine
 62
7
  6
CONTINUOUS
 10
432.6491364815
 20
80.55010854
 11
432.9408031438
 21
80.1033000826
  0
LINE
  5
285
100
AcDbEntity
  8
0
100
AcDbLine
 62
7
  6
CONTINUOUS
 10
437.6074699496
 20
82.1884065299
 11
437.3158031438
 21
82.6352149873
  0
LINE
  5
286
100
AcDbEntity
  8
0
100
AcDbLine
 62
7
  6
CONTINUOUS
 10
436.5866363381
 20
85.1671299963
 11
436.8783031438
 21
84.7203215389
  0
LINE
  5
287
100
AcDbEntity
  8
0
100
AcDbLine
 62
7
  6
CONTINUOUS
 10
435.9499701284
 20
92.4605341654
 11
435.6166361593
 21
92.9711724024
  0
LINE
  5
288
100
AcDbEntity
  8
0
100
AcDbLine
 62
7
  6
CONTINUOUS
 10
446.9499691747
 20
97.396704505
 11
447.2833031438
 21
96.8860657912
  0
LINE
  5
289
100
AcDbEntity
  8
0
100
AcDbLine
 62
7
  6
CONTINUOUS
 10
437.5072787028
 20
305.4819684439
 11
439.6349380236
 21
303.9194684439
  0
LINE
  5
28A
100
AcDbEntity
  8
0
100
AcDbLine
 62
7
  6
CONTINUOUS
 10
425.8051511344
 20
258.6069684439
 11
427.9328106415
 21
256.523619216
  0
LINE
  5
28B
100
AcDbEntity
  8
0
100
AcDbLine
 62
7
  6
CONTINUOUS
 10
425.8051511344
 20
283.6069684439
 11
427.9328106415
 21
281.523619216
  0
LINE
  5
28C
100
AcDbEntity
  8
0
100
AcDbLine
 62
7
  6
CONTINUOUS
 10
433.3783031438
 20
80.6990447967
 11
433.2324697931
 21
80.9969171016
  0
LINE
  5
28D
100
AcDbEntity
  8
0
100
AcDbLine
 62
7
  6
CONTINUOUS
 10
436.7324699496
 20
82.1884065299
 11
437.0241363381
 21
81.5926617115
  0
LINE
  5
28E
100
AcDbEntity
  8
0
100
AcDbLine
 62
7
  6
CONTINUOUS
 10
440.0866367553
 20
80.55010854
 11
440.3783031438
 21
79.954363878
  0
LINE
  5
28F
100
AcDbEntity
  8
0
100
AcDbLine
 62
7
  6
CONTINUOUS
 10
434.6166366361
 20
92.8009596567
 11
434.9499701284
 21
92.1201085549
  0
LINE
  5
290
100
AcDbEntity
  8
0
100
AcDbLine
 62
7
  6
CONTINUOUS
 10
440.1668528538
 20
307.0444684439
 11
439.1030231934
 21
308.086119216
  0
LINE
  5
291
100
AcDbEntity
  8
0
100
AcDbLine
 62
7
  6
CONTINUOUS
 10
428.9966406744
 20
259.648619216
 11
427.9328106415
 21
261.211119216
  0
LINE
  5
292
100
AcDbEntity
  8
0
100
AcDbLine
 62
7
  6
CONTINUOUS
 10
428.9966406744
 20
284.648619216
 11
427.9328106415
 21
286.211119216
  0
LINE
  5
293
100
AcDbEntity
  8
0
100
AcDbLine
 62
7
  6
CONTINUOUS
 10
448.2833031438
 20
97.0562790137
 11
447.9499691747
 21
97.7371299963
  0
LINE
  5
294
100
AcDbEntity
  8
0
100
AcDbLine
 62
7
  6
CONTINUOUS
 10
433.1166366361
 20
90.928619216
 11
431.6166366361
 21
94.8435128432
  0
LINE
  5
295
100
AcDbEntity
  8
0
100
AcDbLine
 62
7
  6
CONTINUOUS
 10
449.2094064575
 20
835.6902863794
 11
436.9753638726
 21
826.836119216
  0
LINE
  5
296
100
AcDbEntity
  8
0
100
AcDbLine
 62
7
  6
CONTINUOUS
 10
434.3157897215
 20
825.273619216
 11
424.2094064575
 21
817.9819535427
  0
LINE
  5
297
100
AcDbEntity
  8
0
100
AcDbLine
 62
7
  6
CONTINUOUS
 10
439.1030231934
 20
825.273619216
 11
449.2094064575
 21
832.5652848892
  0
LINE
  5
298
100
AcDbEntity
  8
0
100
AcDbLine
 62
7
  6
CONTINUOUS
 10
424.2094064575
 20
814.8569535427
 11
436.9753638726
 21
823.711119216
  0
LINE
  5
299
100
AcDbEntity
  8
0
100
AcDbLine
 62
7
  6
CONTINUOUS
 10
444.9540878158
 20
795.0652878695
 11
443.3583433252
 21
794.5444505625
  0
LINE
  5
29A
100
AcDbEntity
  8
0
100
AcDbLine
 62
7
  6
CONTINUOUS
 10
443.3583433252
 20
791.4194505625
 11
444.9540878158
 21
791.9402878695
  0
LINE
  5
29B
100
AcDbEntity
  8
0
100
AcDbLine
 62
7
  6
CONTINUOUS
 10
443.3583433252
 20
444.023619216
 11
445.486002646
 21
444.5444684439
  0
LINE
  5
29C
100
AcDbEntity
  8
0
100
AcDbLine
 62
7
  6
CONTINUOUS
 10
432.1881296557
 20
443.5027699881
 11
434.3157897215
 21
444.023619216
  0
LINE
  5
29D
100
AcDbEntity
  8
0
100
AcDbLine
 62
7
  6
CONTINUOUS
 10
439.1030231934
 20
426.836119216
 11
441.2306825142
 21
426.836119216
  0
LINE
  5
29E
100
AcDbEntity
  8
0
100
AcDbLine
 62
7
  6
CONTINUOUS
 10
424.2094064575
 20
427.8777699881
 11
426.3370659646
 21
427.8777699881
  0
LINE
  5
29F
100
AcDbEntity
  8
0
100
AcDbLine
 62
7
  6
CONTINUOUS
 10
429.5285555046
 20
432.5652699881
 11
439.1030231934
 21
432.5652699881
  0
LINE
  5
2A0
100
AcDbEntity
  8
0
100
AcDbLine
 62
7
  6
CONTINUOUS
 10
441.2306825142
 20
432.5652699881
 11
445.486002646
 21
432.5652699881
  0
LINE
  5
2A1
100
AcDbEntity
  8
0
100
AcDbLine
 62
7
  6
CONTINUOUS
 10
445.486002646
 20
435.1694684439
 11
441.2306825142
 21
435.1694684439
  0
LINE
  5
2A2
100
AcDbEntity
  8
0
100
AcDbLine
 62
7
  6
CONTINUOUS
 10
439.1030231934
 20
435.1694684439
 11
428.4647254717
 21
435.1694684439
  0
LINE
  5
2A3
100
AcDbEntity
  8
0
100
AcDbLine
 62
7
  6
CONTINUOUS
 10
441.2306825142
 20
439.336119216
 11
439.1030231934
 21
439.336119216
  0
LINE
  5
2A4
100
AcDbEntity
  8
0
100
AcDbLine
 62
7
  6
CONTINUOUS
 10
430.0604703348
 20
443.5027699881
 11
432.1881296557
 21
443.5027699881
  0
LINE
  5
2A5
100
AcDbEntity
  8
0
100
AcDbLine
 62
7
  6
CONTINUOUS
 10
442.2945121747
 20
444.023619216
 11
443.3583433252
 21
444.023619216
  0
LINE
  5
2A6
100
AcDbEntity
  8
0
100
AcDbLine
 62
7
  6
CONTINUOUS
 10
432.1881296557
 20
446.1069684439
 11
430.0604703348
 21
446.1069684439
  0
LINE
  5
2A7
100
AcDbEntity
  8
0
100
AcDbLine
 62
7
  6
CONTINUOUS
 10
443.3583433252
 20
446.6277699881
 11
442.2945121747
 21
446.6277699881
  0
LINE
  5
2A8
100
AcDbEntity
  8
0
100
AcDbLine
 62
7
  6
CONTINUOUS
 10
438.039193533
 20
453.9194684439
 11
435.9115342122
 21
453.9194684439
  0
LINE
  5
2A9
100
AcDbEntity
  8
0
100
AcDbLine
 62
7
  6
CONTINUOUS
 10
440.1668528538
 20
444.5444684439
 11
442.2945121747
 21
444.023619216
  0
LINE
  5
2AA
100
AcDbEntity
  8
0
100
AcDbLine
 62
7
  6
CONTINUOUS
 10
428.4647254717
 20
444.023619216
 11
430.0604703348
 21
443.5027699881
  0
LINE
  5
2AB
100
AcDbEntity
  8
0
100
AcDbLine
 62
7
  6
CONTINUOUS
 10
430.0604703348
 20
446.1069684439
 11
428.9966406744
 21
446.6277699881
  0
LINE
  5
2AC
100
AcDbEntity
  8
0
100
AcDbLine
 62
7
  6
CONTINUOUS
 10
424.7413213343
 20
260.6902699881
 11
425.8051511344
 21
258.6069684439
  0
LINE
  5
2AD
100
AcDbEntity
  8
0
100
AcDbLine
 62
7
  6
CONTINUOUS
 10
424.7413213343
 20
285.6902699881
 11
425.8051511344
 21
283.6069684439
  0
LINE
  5
2AE
100
AcDbEntity
  8
0
100
AcDbLine
 62
7
  6
CONTINUOUS
 10
430.6166363977
 20
94.5030873518
 11
431.9499696516
 21
90.928619216
  0
LINE
  5
2AF
100
AcDbEntity
  8
0
100
AcDbLine
 62
7
  6
CONTINUOUS
 10
432.5033031438
 20
80.9969171016
 11
432.6491364815
 21
80.55010854
  0
LINE
  5
2B0
100
AcDbEntity
  8
0
100
AcDbLine
 62
7
  6
CONTINUOUS
 10
431.7833031438
 20
97.5669172507
 11
431.9499696516
 21
97.0562790137
  0
LINE
  5
2B1
100
AcDbEntity
  8
0
100
AcDbLine
 62
7
  6
CONTINUOUS
 10
432.9499696516
 20
97.0562790137
 11
432.7833031438
 21
97.5669172507
  0
LINE
  5
2B2
100
AcDbEntity
  8
0
100
AcDbLine
 62
7
  6
CONTINUOUS
 10
440.9616367553
 20
80.4011723875
 11
440.8158031438
 21
80.8479809492
  0
LINE
  5
2B3
100
AcDbEntity
  8
0
100
AcDbLine
 62
7
  6
CONTINUOUS
 10
446.0179174762
 20
796.1069505625
 11
444.9540878158
 21
795.0652878695
  0
LINE
  5
2B4
100
AcDbEntity
  8
0
100
AcDbLine
 62
7
  6
CONTINUOUS
 10
444.9540878158
 20
791.9402878695
 11
447.0817471366
 21
793.5027878695
  0
LINE
  5
2B5
100
AcDbEntity
  8
0
100
AcDbLine
 62
7
  6
CONTINUOUS
 10
424.2094064575
 20
466.419444602
 11
427.4008958113
 21
466.419444602
  0
LINE
  5
2B6
100
AcDbEntity
  8
0
100
AcDbLine
 62
7
  6
CONTINUOUS
 10
427.4008958113
 20
482.044444602
 11
449.2094064575
 21
482.044444602
  0
LINE
  5
2B7
100
AcDbEntity
  8
0
100
AcDbLine
 62
7
  6
CONTINUOUS
 10
449.2094064575
 20
485.169444602
 11
424.2094064575
 21
485.169444602
  0
LINE
  5
2B8
100
AcDbEntity
  8
0
100
AcDbLine
 62
7
  6
CONTINUOUS
 10
424.2094064575
 20
489.336119216
 11
427.4008958113
 21
489.336119216
  0
LINE
  5
2B9
100
AcDbEntity
  8
0
100
AcDbLine
 62
7
  6
CONTINUOUS
 10
445.486002646
 20
461.211119216
 11
443.3583433252
 21
461.731944602
  0
LINE
  5
2BA
100
AcDbEntity
  8
0
100
AcDbLine
 62
7
  6
CONTINUOUS
 10
442.2945121747
 20
446.6277699881
 11
440.1668528538
 21
447.6694684439
  0
LINE
  5
2BB
100
AcDbEntity
  8
0
100
AcDbLine
 62
7
  6
CONTINUOUS
 10
426.868980981
 20
445.0652699881
 11
428.4647254717
 21
444.023619216
  0
LINE
  5
2BC
100
AcDbEntity
  8
0
100
AcDbLine
 62
7
  6
CONTINUOUS
 10
438.5711083632
 20
445.586119216
 11
440.1668528538
 21
444.5444684439
  0
LINE
  5
2BD
100
AcDbEntity
  8
0
100
AcDbLine
 62
7
  6
CONTINUOUS
 10
443.3583433252
 20
459.1277699881
 11
444.9540878158
 21
458.086119216
  0
LINE
  5
2BE
100
AcDbEntity
  8
0
100
AcDbLine
 62
7
  6
CONTINUOUS
 10
428.9966406744
 20
446.6277699881
 11
427.9328106415
 21
447.6694684439
  0
LINE
  5
2BF
100
AcDbEntity
  8
0
100
AcDbLine
 62
7
  6
CONTINUOUS
 10
440.1668528538
 20
447.6694684439
 11
439.1030231934
 21
448.711119216
  0
LINE
  5
2C0
100
AcDbEntity
  8
0
100
AcDbLine
 62
7
  6
CONTINUOUS
 10
436.4434490424
 20
307.5652699881
 11
437.5072787028
 21
305.4819684439
  0
LINE
  5
2C1
100
AcDbEntity
  8
0
100
AcDbLine
 62
7
  6
CONTINUOUS
 10
437.7533031438
 20
81.5926617115
 11
437.6074699496
 21
82.1884065299
  0
LINE
  5
2C2
100
AcDbEntity
  8
0
100
AcDbLine
 62
7
  6
CONTINUOUS
 10
437.6074699496
 20
84.7203215389
 11
437.4616363381
 21
85.3160661488
  0
LINE
  5
2C3
100
AcDbEntity
  8
0
100
AcDbLine
 62
7
  6
CONTINUOUS
 10
435.6166361593
 20
92.9711724024
 11
435.4499701284
 21
93.6520233851
  0
LINE
  5
2C4
100
AcDbEntity
  8
0
100
AcDbLine
 62
7
  6
CONTINUOUS
 10
447.2833031438
 20
96.8860657912
 11
447.4499691747
 21
96.2052148085
  0
LINE
  5
2C5
100
AcDbEntity
  8
0
100
AcDbLine
 62
7
  6
CONTINUOUS
 10
447.0817471366
 20
793.5027878695
 11
448.6774916273
 21
795.586119216
  0
LINE
  5
2C6
100
AcDbEntity
  8
0
100
AcDbLine
 62
7
  6
CONTINUOUS
 10
430.0604703348
 20
518.5027938299
 11
449.2094064575
 21
522.669444602
  0
LINE
  5
2C7
100
AcDbEntity
  8
0
100
AcDbLine
 62
7
  6
CONTINUOUS
 10
444.4221729856
 20
524.7527938299
 11
424.2094064575
 21
520.586119216
  0
LINE
  5
2C8
100
AcDbEntity
  8
0
100
AcDbLine
 62
7
  6
CONTINUOUS
 10
449.2094064575
 20
537.2527938299
 11
424.2094064575
 21
533.086119216
  0
LINE
  5
2C9
100
AcDbEntity
  8
0
100
AcDbLine
 62
7
  6
CONTINUOUS
 10
430.0604703348
 20
531.0027938299
 11
449.2094064575
 21
534.1277938299
  0
LINE
  5
2CA
100
AcDbEntity
  8
0
100
AcDbLine
 62
7
  6
CONTINUOUS
 10
427.4008958113
 20
504.961119216
 11
449.2094064575
 21
504.961119216
  0
LINE
  5
2CB
100
AcDbEntity
  8
0
100
AcDbLine
 62
7
  6
CONTINUOUS
 10
449.2094064575
 20
508.086119216
 11
424.2094064575
 21
508.086119216
  0
LINE
  5
2CC
100
AcDbEntity
  8
0
100
AcDbLine
 62
7
  6
CONTINUOUS
 10
449.2094064575
 20
515.3777938299
 11
430.0604703348
 21
518.5027938299
  0
LINE
  5
2CD
100
AcDbEntity
  8
0
100
AcDbLine
 62
7
  6
CONTINUOUS
 10
424.2094064575
 20
516.419444602
 11
449.2094064575
 21
512.2527938299
  0
LINE
  5
2CE
100
AcDbEntity
  8
0
100
AcDbLine
 62
7
  6
CONTINUOUS
 10
424.2094064575
 20
528.919444602
 11
444.4221729856
 21
524.7527938299
  0
LINE
  5
2CF
100
AcDbEntity
  8
0
100
AcDbLine
 62
7
  6
CONTINUOUS
 10
449.2094064575
 20
526.836119216
 11
430.0604703348
 21
531.0027938299
  0
LINE
  5
2D0
100
AcDbEntity
  8
0
100
AcDbLine
 62
7
  6
CONTINUOUS
 10
447.6136619669
 20
459.1277699881
 11
445.486002646
 21
461.211119216
  0
LINE
  5
2D1
100
AcDbEntity
  8
0
100
AcDbLine
 62
7
  6
CONTINUOUS
 10
436.9753638726
 20
447.6694684439
 11
438.5711083632
 21
445.586119216
  0
LINE
  5
2D2
100
AcDbEntity
  8
0
100
AcDbLine
 62
7
  6
CONTINUOUS
 10
425.8051511344
 20
446.6277699881
 11
426.868980981
 21
445.0652699881
  0
LINE
  5
2D3
100
AcDbEntity
  8
0
100
AcDbLine
 62
7
  6
CONTINUOUS
 10
444.9540878158
 20
458.086119216
 11
446.0179174762
 21
456.523619216
  0
LINE
  5
2D4
100
AcDbEntity
  8
0
100
AcDbLine
 62
7
  6
CONTINUOUS
 10
424.7413213343
 20
448.711119216
 11
425.8051511344
 21
446.6277699881
  0
LINE
  5
2D5
100
AcDbEntity
  8
0
100
AcDbLine
 62
7
  6
CONTINUOUS
 10
427.9328106415
 20
447.6694684439
 11
427.4008958113
 21
448.711119216
  0
LINE
  5
2D6
100
AcDbEntity
  8
0
100
AcDbLine
 62
7
  6
CONTINUOUS
 10
439.1030231934
 20
308.086119216
 11
438.5711083632
 21
309.648619216
  0
LINE
  5
2D7
100
AcDbEntity
  8
0
100
AcDbLine
 62
7
  6
CONTINUOUS
 10
427.9328106415
 20
261.211119216
 11
427.4008958113
 21
263.2944684439
  0
LINE
  5
2D8
100
AcDbEntity
  8
0
100
AcDbLine
 62
7
  6
CONTINUOUS
 10
427.9328106415
 20
286.211119216
 11
427.4008958113
 21
288.2944684439
  0
LINE
  5
2D9
100
AcDbEntity
  8
0
100
AcDbLine
 62
7
  6
CONTINUOUS
 10
424.2094064575
 20
263.2944684439
 11
424.7413213343
 21
260.6902699881
  0
LINE
  5
2DA
100
AcDbEntity
  8
0
100
AcDbLine
 62
7
  6
CONTINUOUS
 10
424.2094064575
 20
288.2944684439
 11
424.7413213343
 21
285.6902699881
  0
LINE
  5
2DB
100
AcDbEntity
  8
0
100
AcDbLine
 62
7
  6
CONTINUOUS
 10
434.4499696516
 20
93.6520233851
 11
434.6166366361
 21
92.8009596567
  0
LINE
  5
2DC
100
AcDbEntity
  8
0
100
AcDbLine
 62
7
  6
CONTINUOUS
 10
448.4499691747
 20
96.2052148085
 11
448.2833031438
 21
97.0562790137
  0
LINE
  5
2DD
100
AcDbEntity
  8
0
100
AcDbLine
 62
7
  6
CONTINUOUS
 10
397.3533031438
 20
94.3120794235
 11
397.3533031438
 21
71.148619216
  0
LINE
  5
2DE
100
AcDbEntity
  8
0
100
AcDbLine
 62
7
  6
CONTINUOUS
 10
446.5498323064
 20
797.6694505625
 11
446.0179174762
 21
796.1069505625
  0
LINE
  5
2DF
100
AcDbEntity
  8
0
100
AcDbLine
 62
7
  6
CONTINUOUS
 10
448.6774916273
 20
457.0444684439
 11
447.6136619669
 21
459.1277699881
  0
LINE
  5
2E0
100
AcDbEntity
  8
0
100
AcDbLine
 62
7
  6
CONTINUOUS
 10
439.1030231934
 20
448.711119216
 11
438.039193533
 21
451.836119216
  0
LINE
  5
2E1
100
AcDbEntity
  8
0
100
AcDbLine
 62
7
  6
CONTINUOUS
 10
424.2094064575
 20
450.7944684439
 11
424.7413213343
 21
448.711119216
  0
LINE
  5
2E2
100
AcDbEntity
  8
0
100
AcDbLine
 62
7
  6
CONTINUOUS
 10
427.4008958113
 20
448.711119216
 11
426.868980981
 21
451.3152699881
  0
LINE
  5
2E3
100
AcDbEntity
  8
BEZUGSACHSEN
100
AcDbLine
 62
7
  6
CONTINUOUS
 10
472.2724072964
 20
123.163811463
 11
477.3533031438
 21
94.348619216
  0
LINE
  5
2E4
100
AcDbEntity
  8
FASEN
100
AcDbLine
 62
7
  6
CONTINUOUS
 10
477.3533030993
 20
94.3486194687
 11
472.2724072964
 21
123.163811463
  0
LINE
  5
2E5
100
AcDbEntity
  8
BEZUGSACHSEN
100
AcDbLine
 62
7
  6
CONTINUOUS
 10
405.3533031438
 20
129.5153115632
 11
405.3533031438
 21
124.148619216
  0
LINE
  5
2E6
100
AcDbEntity
  8
RUNDUNGEN
100
AcDbLine
 62
7
  6
CONTINUOUS
 10
405.3533031438
 20
124.148619216
 11
405.3533031438
 21
129.5153115632
  0
LINE
  5
2E7
100
AcDbEntity
  8
0
100
AcDbLine
 62
7
  6
CONTINUOUS
 10
416.7315248789
 20
94.3120794235
 11
416.7315248789
 21
71.148619216
  0
LINE
  5
2E8
100
AcDbEntity
  8
RUNDUNGEN
100
AcDbLine
 62
7
  6
CONTINUOUS
 10
417.9750814087
 20
107.848619216
 11
417.9750814087
 21
102.1531776394
  0
LINE
  5
2E9
100
AcDbEntity
  8
RUNDUNGEN
100
AcDbLine
 62
7
  6
CONTINUOUS
 10
417.9750815564
 20
93.4989779538
 11
417.9750814087
 21
71.148619216
  0
LINE
  5
2EA
100
AcDbEntity
  8
BEZUGSACHSEN
100
AcDbLine
 62
7
  6
CONTINUOUS
 10
419.8533031438
 20
159.148647827
 11
419.8533031438
 21
1183.148590605
  0
LINE
  5
2EB
100
AcDbEntity
  8
0
100
AcDbLine
 62
7
  6
CONTINUOUS
 10
424.2094064575
 20
851.3152856343
 11
424.2094064575
 21
848.1902856343
  0
LINE
  5
2EC
100
AcDbEntity
  8
0
100
AcDbLine
 62
7
  6
CONTINUOUS
 10
424.2094064575
 20
835.6902863794
 11
424.2094064575
 21
832.5652848892
  0
LINE
  5
2ED
100
AcDbEntity
  8
0
100
AcDbLine
 62
7
  6
CONTINUOUS
 10
424.2094064575
 20
817.9819535427
 11
424.2094064575
 21
814.8569535427
  0
LINE
  5
2EE
100
AcDbEntity
  8
0
100
AcDbLine
 62
7
  6
CONTINUOUS
 10
424.2094064575
 20
810.6902848892
 11
424.2094064575
 21
807.5652878695
  0
LINE
  5
2EF
100
AcDbEntity
  8
0
100
AcDbLine
 62
7
  6
CONTINUOUS
 10
424.2094064575
 20
533.086119216
 11
424.2094064575
 21
528.919444602
  0
LINE
  5
2F0
100
AcDbEntity
  8
0
100
AcDbLine
 62
7
  6
CONTINUOUS
 10
424.2094064575
 20
520.586119216
 11
424.2094064575
 21
516.419444602
  0
LINE
  5
2F1
100
AcDbEntity
  8
0
100
AcDbLine
 62
7
  6
CONTINUOUS
 10
424.2094064575
 20
508.086119216
 11
424.2094064575
 21
489.336119216
  0
LINE
  5
2F2
100
AcDbEntity
  8
0
100
AcDbLine
 62
7
  6
CONTINUOUS
 10
424.2094064575
 20
485.169444602
 11
424.2094064575
 21
466.419444602
  0
LINE
  5
2F3
100
AcDbEntity
  8
0
100
AcDbLine
 62
7
  6
CONTINUOUS
 10
424.2094064575
 20
454.961119216
 11
424.2094064575
 21
450.7944684439
  0
LINE
  5
2F4
100
AcDbEntity
  8
0
100
AcDbLine
 62
7
  6
CONTINUOUS
 10
424.2094064575
 20
322.6694684439
 11
424.2094064575
 21
319.5444684439
  0
LINE
  5
2F5
100
AcDbEntity
  8
0
100
AcDbLine
 62
7
  6
CONTINUOUS
 10
424.2094064575
 20
306.523619216
 11
424.2094064575
 21
302.8777699881
  0
LINE
  5
2F6
100
AcDbEntity
  8
0
100
AcDbLine
 62
7
  6
CONTINUOUS
 10
424.2094064575
 20
290.3777699881
 11
424.2094064575
 21
288.2944684439
  0
LINE
  5
2F7
100
AcDbEntity
  8
0
100
AcDbLine
 62
7
  6
CONTINUOUS
 10
424.2094064575
 20
275.7944684439
 11
424.2094064575
 21
263.2944684439
  0
LINE
  5
2F8
100
AcDbEntity
  8
RUNDUNGEN
100
AcDbLine
 62
7
  6
CONTINUOUS
 10
424.8533031438
 20
111.848619216
 11
424.8533031438
 21
77.348619216
  0
LINE
  5
2F9
100
AcDbEntity
  8
BEZUGSACHSEN
100
AcDbLine
 62
7
  6
CONTINUOUS
 10
425.3533031438
 20
36.648619216
 11
425.3533031438
 21
71.148619216
  0
LINE
  5
2FA
100
AcDbEntity
  8
0
100
AcDbLine
 62
7
  6
CONTINUOUS
 10
426.7833031438
 20
98.928619216
 11
426.7833031438
 21
90.928619216
  0
LINE
  5
2FB
100
AcDbEntity
  8
0
100
AcDbLine
 62
7
  6
CONTINUOUS
 10
426.868980981
 20
451.3152699881
 11
426.868980981
 21
454.4402699881
  0
LINE
  5
2FC
100
AcDbEntity
  8
0
100
AcDbLine
 62
7
  6
CONTINUOUS
 10
427.4008958113
 20
263.2944684439
 11
427.4008958113
 21
272.6694684439
  0
LINE
  5
2FD
100
AcDbEntity
  8
0
100
AcDbLine
 62
7
  6
CONTINUOUS
 10
427.4008958113
 20
288.2944684439
 11
427.4008958113
 21
290.3777699881
  0
LINE
  5
2FE
100
AcDbEntity
  8
0
100
AcDbLine
 62
7
  6
CONTINUOUS
 10
427.4008958113
 20
466.419444602
 11
427.4008958113
 21
482.044444602
  0
LINE
  5
2FF
100
AcDbEntity
  8
0
100
AcDbLine
 62
7
  6
CONTINUOUS
 10
427.4008958113
 20
489.336119216
 11
427.4008958113
 21
504.961119216
  0
LINE
  5
300
100
AcDbEntity
  8
0
100
AcDbLine
 62
7
  6
CONTINUOUS
 10
427.7833031438
 20
90.928619216
 11
427.7833031438
 21
94.5030873518
  0
LINE
  5
301
100
AcDbEntity
  8
0
100
AcDbLine
 62
7
  6
CONTINUOUS
 10
427.7833031438
 20
95.5243638258
 11
427.7833031438
 21
98.0775554877
  0
LINE
  5
302
100
AcDbEntity
  8
0
100
AcDbLine
 62
7
  6
CONTINUOUS
 10
430.0604703348
 20
459.648619216
 11
430.0604703348
 21
462.2527938299
  0
LINE
  5
303
100
AcDbEntity
  8
0
100
AcDbLine
 62
7
  6
CONTINUOUS
 10
431.9499696516
 20
97.0562790137
 11
431.9499696516
 21
96.5456402998
  0
LINE
  5
304
100
AcDbEntity
  8
0
100
AcDbLine
 62
7
  6
CONTINUOUS
 10
432.9499696516
 20
96.3754275542
 11
432.9499696516
 21
97.0562790137
  0
LINE
  5
305
100
AcDbEntity
  8
0
100
AcDbLine
 62
7
  6
CONTINUOUS
 10
434.4499696516
 20
98.928619216
 11
434.4499696516
 21
93.6520233851
  0
LINE
  5
306
100
AcDbEntity
  8
0
100
AcDbLine
 62
7
  6
CONTINUOUS
 10
434.8366365467
 20
83.2309595971
 11
434.8366365467
 21
82.6352149873
  0
LINE
  5
307
100
AcDbEntity
  8
0
100
AcDbLine
 62
7
  6
CONTINUOUS
 10
435.379619382
 20
807.5652878695
 11
435.379619382
 21
798.1902878695
  0
LINE
  5
308
100
AcDbEntity
  8
0
100
AcDbLine
 62
7
  6
CONTINUOUS
 10
435.379619382
 20
319.5444684439
 11
435.379619382
 21
310.6902699881
  0
LINE
  5
309
100
AcDbEntity
  8
0
100
AcDbLine
 62
7
  6
CONTINUOUS
 10
435.4499701284
 20
93.6520233851
 11
435.4499701284
 21
98.928619216
  0
LINE
  5
30A
100
AcDbEntity
  8
0
100
AcDbLine
 62
7
  6
CONTINUOUS
 10
435.9115342122
 20
453.9194684439
 11
435.9115342122
 21
451.836119216
  0
LINE
  5
30B
100
AcDbEntity
  8
0
100
AcDbLine
 62
7
  6
CONTINUOUS
 10
436.8783031438
 20
84.7203215389
 11
436.8783031438
 21
84.4224488168
  0
LINE
  5
30C
100
AcDbEntity
  8
0
100
AcDbLine
 62
7
  6
CONTINUOUS
 10
437.0241363381
 20
81.5926617115
 11
437.0241363381
 21
80.9969171016
  0
LINE
  5
30D
100
AcDbEntity
  8
0
100
AcDbLine
 62
7
  6
CONTINUOUS
 10
437.6074699496
 20
84.4224488168
 11
437.6074699496
 21
84.7203215389
  0
LINE
  5
30E
100
AcDbEntity
  8
0
100
AcDbLine
 62
7
  6
CONTINUOUS
 10
437.7533031438
 20
80.9969171016
 11
437.7533031438
 21
81.5926617115
  0
LINE
  5
30F
100
AcDbEntity
  8
0
100
AcDbLine
 62
7
  6
CONTINUOUS
 10
438.039193533
 20
451.836119216
 11
438.039193533
 21
453.9194684439
  0
LINE
  5
310
100
AcDbEntity
  8
0
100
AcDbLine
 62
7
  6
CONTINUOUS
 10
438.5711083632
 20
309.648619216
 11
438.5711083632
 21
319.5444684439
  0
LINE
  5
311
100
AcDbEntity
  8
0
100
AcDbLine
 62
7
  6
CONTINUOUS
 10
438.5711083632
 20
797.6694505625
 11
438.5711083632
 21
807.5652878695
  0
LINE
  5
312
100
AcDbEntity
  8
0
100
AcDbLine
 62
7
  6
CONTINUOUS
 10
438.9199699496
 20
84.1245765119
 11
438.9199699496
 21
83.528831902
  0
LINE
  5
313
100
AcDbEntity
  8
0
100
AcDbLine
 62
7
  6
CONTINUOUS
 10
439.1030231934
 20
439.336119216
 11
439.1030231934
 21
435.1694684439
  0
LINE
  5
314
100
AcDbEntity
  8
0
100
AcDbLine
 62
7
  6
CONTINUOUS
 10
439.1030231934
 20
432.5652699881
 11
439.1030231934
 21
426.836119216
  0
LINE
  5
315
100
AcDbEntity
  8
0
100
AcDbLine
 62
7
  6
CONTINUOUS
 10
439.4499701284
 20
98.928619216
 11
439.4499701284
 21
93.6520233851
  0
LINE
  5
316
100
AcDbEntity
  8
0
100
AcDbLine
 62
7
  6
CONTINUOUS
 10
440.0866367553
 20
85.3160661488
 11
440.0866367553
 21
84.1245765119
  0
LINE
  5
317
100
AcDbEntity
  8
0
100
AcDbLine
 62
7
  6
CONTINUOUS
 10
440.0866367553
 20
83.528831902
 11
440.0866367553
 21
80.55010854
  0
LINE
  5
318
100
AcDbEntity
  8
0
100
AcDbLine
 62
7
  6
CONTINUOUS
 10
440.4499701284
 20
93.6520233851
 11
440.4499701284
 21
98.928619216
  0
LINE
  5
319
100
AcDbEntity
  8
0
100
AcDbLine
 62
7
  6
CONTINUOUS
 10
440.8158031438
 20
80.8479809492
 11
440.8158031438
 21
83.528831902
  0
LINE
  5
31A
100
AcDbEntity
  8
0
100
AcDbLine
 62
7
  6
CONTINUOUS
 10
440.8158031438
 20
84.1245765119
 11
440.8158031438
 21
85.3160661488
  0
LINE
  5
31B
100
AcDbEntity
  8
0
100
AcDbLine
 62
7
  6
CONTINUOUS
 10
441.2306825142
 20
426.836119216
 11
441.2306825142
 21
432.5652699881
  0
LINE
  5
31C
100
AcDbEntity
  8
0
100
AcDbLine
 62
7
  6
CONTINUOUS
 10
441.2306825142
 20
435.1694684439
 11
441.2306825142
 21
439.336119216
  0
LINE
  5
31D
100
AcDbEntity
  8
0
100
AcDbLine
 62
7
  6
CONTINUOUS
 10
441.7833031438
 20
98.928619216
 11
441.7833031438
 21
90.928619216
  0
LINE
  5
31E
100
AcDbEntity
  8
0
100
AcDbLine
 62
7
  6
CONTINUOUS
 10
442.1283031438
 20
79.358619216
 11
442.1283031438
 21
79.954363878
  0
LINE
  5
31F
100
AcDbEntity
  8
0
100
AcDbLine
 62
7
  6
CONTINUOUS
 10
442.4199695323
 20
83.528831902
 11
442.4199695323
 21
84.1245765119
  0
LINE
  5
320
100
AcDbEntity
  8
0
100
AcDbLine
 62
7
  6
CONTINUOUS
 10
448.6774916273
 20
795.586119216
 11
449.2094064575
 21
798.1902878695
  0
LINE
  5
321
100
AcDbEntity
  8
0
100
AcDbLine
 62
7
  6
CONTINUOUS
 10
446.0179174762
 20
456.523619216
 11
446.5498323064
 21
453.9194684439
  0
LINE
  5
322
100
AcDbEntity
  8
0
100
AcDbLine
 62
7
  6
CONTINUOUS
 10
449.2094064575
 20
453.398619216
 11
448.6774916273
 21
457.0444684439
  0
LINE
  5
323
100
AcDbEntity
  8
0
100
AcDbLine
 62
7
  6
CONTINUOUS
 10
442.7833031438
 20
91.9498958092
 11
442.7833031438
 21
97.907342742
  0
LINE
  5
324
100
AcDbEntity
  8
0
100
AcDbLine
 62
7
  6
CONTINUOUS
 10
443.3583433252
 20
461.731944602
 11
443.3583433252
 21
459.1277699881
  0
LINE
  5
325
100
AcDbEntity
  8
0
100
AcDbLine
 62
7
  6
CONTINUOUS
 10
445.486002646
 20
432.5652699881
 11
445.486002646
 21
435.1694684439
  0
LINE
  5
326
100
AcDbEntity
  8
0
100
AcDbLine
 62
7
  6
CONTINUOUS
 10
446.0179174762
 20
272.6694684439
 11
446.0179174762
 21
263.2944684439
  0
LINE
  5
327
100
AcDbEntity
  8
0
100
AcDbLine
 62
7
  6
CONTINUOUS
 10
446.5498323064
 20
859.648619216
 11
446.5498323064
 21
851.3152856343
  0
LINE
  5
328
100
AcDbEntity
  8
0
100
AcDbLine
 62
7
  6
CONTINUOUS
 10
446.5498323064
 20
848.1902856343
 11
446.5498323064
 21
839.8569520526
  0
LINE
  5
329
100
AcDbEntity
  8
0
100
AcDbLine
 62
7
  6
CONTINUOUS
 10
446.5498323064
 20
807.5652878695
 11
446.5498323064
 21
797.6694505625
  0
LINE
  5
32A
100
AcDbEntity
  8
0
100
AcDbLine
 62
7
  6
CONTINUOUS
 10
446.5498323064
 20
453.9194684439
 11
446.5498323064
 21
451.836119216
  0
LINE
  5
32B
100
AcDbEntity
  8
0
100
AcDbLine
 62
7
  6
CONTINUOUS
 10
446.5498323064
 20
319.5444684439
 11
446.5498323064
 21
309.648619216
  0
LINE
  5
32C
100
AcDbEntity
  8
0
100
AcDbLine
 62
7
  6
CONTINUOUS
 10
447.4499691747
 20
96.2052148085
 11
447.4499691747
 21
93.6520233851
  0
LINE
  5
32D
100
AcDbEntity
  8
0
100
AcDbLine
 62
7
  6
CONTINUOUS
 10
448.4499691747
 20
93.6520233851
 11
448.4499691747
 21
96.2052148085
  0
LINE
  5
32E
100
AcDbEntity
  8
0
100
AcDbLine
 62
7
  6
CONTINUOUS
 10
449.2094064575
 20
263.2944684439
 11
449.2094064575
 21
275.7944684439
  0
LINE
  5
32F
100
AcDbEntity
  8
0
100
AcDbLine
 62
7
  6
CONTINUOUS
 10
449.2094064575
 20
279.961119216
 11
449.2094064575
 21
283.086119216
  0
LINE
  5
330
100
AcDbEntity
  8
0
100
AcDbLine
 62
7
  6
CONTINUOUS
 10
449.2094064575
 20
295.586119216
 11
449.2094064575
 21
298.711119216
  0
LINE
  5
331
100
AcDbEntity
  8
0
100
AcDbLine
 62
7
  6
CONTINUOUS
 10
449.2094064575
 20
310.1694684439
 11
449.2094064575
 21
322.6694684439
  0
LINE
  5
332
100
AcDbEntity
  8
0
100
AcDbLine
 62
7
  6
CONTINUOUS
 10
449.2094064575
 20
452.3569684439
 11
449.2094064575
 21
453.398619216
  0
LINE
  5
333
100
AcDbEntity
  8
0
100
AcDbLine
 62
7
  6
CONTINUOUS
 10
449.2094064575
 20
482.044444602
 11
449.2094064575
 21
485.169444602
  0
LINE
  5
334
100
AcDbEntity
  8
0
100
AcDbLine
 62
7
  6
CONTINUOUS
 10
449.2094064575
 20
504.961119216
 11
449.2094064575
 21
508.086119216
  0
LINE
  5
335
100
AcDbEntity
  8
0
100
AcDbLine
 62
7
  6
CONTINUOUS
 10
449.2094064575
 20
512.2527938299
 11
449.2094064575
 21
515.3777938299
  0
LINE
  5
336
100
AcDbEntity
  8
0
100
AcDbLine
 62
7
  6
CONTINUOUS
 10
449.2094064575
 20
522.669444602
 11
449.2094064575
 21
526.836119216
  0
LINE
  5
337
100
AcDbEntity
  8
0
100
AcDbLine
 62
7
  6
CONTINUOUS
 10
449.2094064575
 20
534.1277938299
 11
449.2094064575
 21
537.2527938299
  0
LINE
  5
338
100
AcDbEntity
  8
0
100
AcDbLine
 62
7
  6
CONTINUOUS
 10
449.2094064575
 20
798.1902878695
 11
449.2094064575
 21
810.6902848892
  0
LINE
  5
339
100
AcDbEntity
  8
0
100
AcDbLine
 62
7
  6
CONTINUOUS
 10
449.2094064575
 20
814.8569535427
 11
449.2094064575
 21
817.9819535427
  0
LINE
  5
33A
100
AcDbEntity
  8
0
100
AcDbLine
 62
7
  6
CONTINUOUS
 10
449.2094064575
 20
832.5652848892
 11
449.2094064575
 21
835.6902863794
  0
LINE
  5
33B
100
AcDbEntity
  8
0
100
AcDbLine
 62
7
  6
CONTINUOUS
 10
449.2094064575
 20
839.8569520526
 11
449.2094064575
 21
859.648619216
  0
LINE
  5
33C
100
AcDbEntity
  8
BEZUGSACHSEN
100
AcDbLine
 62
7
  6
CONTINUOUS
 10
449.3533031438
 20
36.648619216
 11
449.3533031438
 21
71.148619216
  0
LINE
  5
33D
100
AcDbEntity
  8
RUNDUNGEN
100
AcDbLine
 62
7
  6
CONTINUOUS
 10
449.8533031438
 20
77.348619216
 11
449.8533031438
 21
111.848619216
  0
LINE
  5
33E
100
AcDbEntity
  8
BEZUGSACHSEN
100
AcDbLine
 62
7
  6
CONTINUOUS
 10
454.8533031438
 20
159.148647827
 11
454.8533031438
 21
1183.148590605
  0
LINE
  5
33F
100
AcDbEntity
  8
RUNDUNGEN
100
AcDbLine
 62
7
  6
CONTINUOUS
 10
456.7315248789
 20
71.148619216
 11
456.7315248039
 21
93.4989825648
  0
LINE
  5
340
100
AcDbEntity
  8
RUNDUNGEN
100
AcDbLine
 62
7
  6
CONTINUOUS
 10
456.7315248789
 20
102.1531776067
 11
456.7315248789
 21
107.848619216
  0
LINE
  5
341
100
AcDbEntity
  8
0
100
AcDbLine
 62
7
  6
CONTINUOUS
 10
457.9750814087
 20
94.3120794235
 11
457.9750814087
 21
71.148619216
  0
LINE
  5
342
100
AcDbEntity
  8
BEZUGSACHSEN
100
AcDbLine
 62
7
  6
CONTINUOUS
 10
469.3533031438
 20
129.5153115632
 11
469.3533031438
 21
124.148619216
  0
LINE
  5
343
100
AcDbEntity
  8
RUNDUNGEN
100
AcDbLine
 62
7
  6
CONTINUOUS
 10
469.3533031438
 20
124.148619216
 11
469.3533031438
 21
129.5153115632
  0
LINE
  5
344
100
AcDbEntity
  8
0
100
AcDbLine
 62
7
  6
CONTINUOUS
 10
477.3533031438
 20
94.3120794235
 11
477.3533031438
 21
71.148619216
  0
LINE
  5
345
100
AcDbEntity
  8
0
100
AcDbLine
 62
7
  6
CONTINUOUS
 10
448.6774916273
 20
448.711119216
 11
449.2094064575
 21
452.3569684439
  0
LINE
  5
346
100
AcDbEntity
  8
0
100
AcDbLine
 62
7
  6
CONTINUOUS
 10
424.7413213343
 20
431.0027699881
 11
424.2094064575
 21
427.8777699881
  0
LINE
  5
347
100
AcDbEntity
  8
0
100
AcDbLine
 62
7
  6
CONTINUOUS
 10
435.9115342122
 20
451.836119216
 11
435.379619382
 21
448.711119216
  0
LINE
  5
348
100
AcDbEntity
  8
0
100
AcDbLine
 62
7
  6
CONTINUOUS
 10
426.868980981
 20
454.4402699881
 11
427.4008958113
 21
457.0444684439
  0
LINE
  5
349
100
AcDbEntity
  8
0
100
AcDbLine
 62
7
  6
CONTINUOUS
 10
426.3370659646
 20
427.8777699881
 11
426.868980981
 21
430.4819684439
  0
LINE
  5
34A
100
AcDbEntity
  8
0
100
AcDbLine
 62
7
  6
CONTINUOUS
 10
446.5498323064
 20
451.836119216
 11
446.0179174762
 21
449.2319684439
  0
LINE
  5
34B
100
AcDbEntity
  8
0
100
AcDbLine
 62
7
  6
CONTINUOUS
 10
424.7413213343
 20
457.0444684439
 11
424.2094064575
 21
454.961119216
  0
LINE
  5
34C
100
AcDbEntity
  8
0
100
AcDbLine
 62
7
  6
CONTINUOUS
 10
435.379619382
 20
798.1902878695
 11
435.9115342122
 21
795.586119216
  0
LINE
  5
34D
100
AcDbEntity
  8
BEZUGSACHSEN
100
AcDbLine
 62
7
  6
CONTINUOUS
 10
402.4341989913
 20
123.163811463
 11
397.3533031438
 21
94.348619216
  0
LINE
  5
34E
100
AcDbEntity
  8
FASEN
100
AcDbLine
 62
7
  6
CONTINUOUS
 10
397.3533031438
 20
94.348619216
 11
402.4341989913
 21
123.163811463
  0
LINE
  5
34F
100
AcDbEntity
  8
0
100
AcDbLine
 62
7
  6
CONTINUOUS
 10
424.7413213343
 20
292.9819684439
 11
424.2094064575
 21
290.3777699881
  0
LINE
  5
350
100
AcDbEntity
  8
0
100
AcDbLine
 62
7
  6
CONTINUOUS
 10
448.6774916273
 20
307.5652699881
 11
449.2094064575
 21
310.1694684439
  0
LINE
  5
351
100
AcDbEntity
  8
0
100
AcDbLine
 62
7
  6
CONTINUOUS
 10
448.6774916273
 20
260.6902699881
 11
449.2094064575
 21
263.2944684439
  0
LINE
  5
352
100
AcDbEntity
  8
0
100
AcDbLine
 62
7
  6
CONTINUOUS
 10
427.4008958113
 20
290.3777699881
 11
427.9328106415
 21
292.461119216
  0
LINE
  5
353
100
AcDbEntity
  8
0
100
AcDbLine
 62
7
  6
CONTINUOUS
 10
425.273236211
 20
432.5652699881
 11
424.7413213343
 21
431.0027699881
  0
LINE
  5
354
100
AcDbEntity
  8
0
100
AcDbLine
 62
7
  6
CONTINUOUS
 10
435.9115342122
 20
445.0652699881
 11
436.9753638726
 21
447.6694684439
  0
LINE
  5
355
100
AcDbEntity
  8
0
100
AcDbLine
 62
7
  6
CONTINUOUS
 10
425.8051511344
 20
459.1277699881
 11
424.7413213343
 21
457.0444684439
  0
LINE
  5
356
100
AcDbEntity
  8
0
100
AcDbLine
 62
7
  6
CONTINUOUS
 10
427.4008958113
 20
457.0444684439
 11
427.9328106415
 21
458.086119216
  0
LINE
  5
357
100
AcDbEntity
  8
0
100
AcDbLine
 62
7
  6
CONTINUOUS
 10
426.868980981
 20
460.6902938299
 11
425.8051511344
 21
459.1277699881
  0
LINE
  5
358
100
AcDbEntity
  8
0
100
AcDbLine
 62
7
  6
CONTINUOUS
 10
439.1030231934
 20
796.1069505625
 11
438.5711083632
 21
797.6694505625
  0
LINE
  5
359
100
AcDbEntity
  8
0
100
AcDbLine
 62
7
  6
CONTINUOUS
 10
440.2833031438
 20
92.8009596567
 11
440.4499701284
 21
93.6520233851
  0
LINE
  5
35A
100
AcDbEntity
  8
0
100
AcDbLine
 62
7
  6
CONTINUOUS
 10
448.2833031438
 20
92.8009596567
 11
448.4499691747
 21
93.6520233851
  0
LINE
  5
35B
100
AcDbEntity
  8
0
100
AcDbLine
 62
7
  6
CONTINUOUS
 10
432.7949698192
 20
85.3160661488
 11
432.6491364815
 21
84.7203215389
  0
LINE
  5
35C
100
AcDbEntity
  8
0
100
AcDbLine
 62
7
  6
CONTINUOUS
 10
446.0179174762
 20
263.2944684439
 11
445.486002646
 21
261.211119216
  0
LINE
  5
35D
100
AcDbEntity
  8
0
100
AcDbLine
 62
7
  6
CONTINUOUS
 10
446.5498323064
 20
309.648619216
 11
446.0179174762
 21
308.086119216
  0
LINE
  5
35E
100
AcDbEntity
  8
0
100
AcDbLine
 62
7
  6
CONTINUOUS
 10
447.6136619669
 20
446.6277699881
 11
448.6774916273
 21
448.711119216
  0
LINE
  5
35F
100
AcDbEntity
  8
0
100
AcDbLine
 62
7
  6
CONTINUOUS
 10
435.379619382
 20
448.711119216
 11
434.3157897215
 21
447.148619216
  0
LINE
  5
360
100
AcDbEntity
  8
0
100
AcDbLine
 62
7
  6
CONTINUOUS
 10
426.3370659646
 20
434.1277699881
 11
425.273236211
 21
432.5652699881
  0
LINE
  5
361
100
AcDbEntity
  8
0
100
AcDbLine
 62
7
  6
CONTINUOUS
 10
426.868980981
 20
430.4819684439
 11
427.9328106415
 21
432.0444684439
  0
LINE
  5
362
100
AcDbEntity
  8
0
100
AcDbLine
 62
7
  6
CONTINUOUS
 10
446.0179174762
 20
449.2319684439
 11
444.9540878158
 21
447.6694684439
  0
LINE
  5
363
100
AcDbEntity
  8
0
100
AcDbLine
 62
7
  6
CONTINUOUS
 10
427.9328106415
 20
458.086119216
 11
428.9966406744
 21
459.1277699881
  0
LINE
  5
364
100
AcDbEntity
  8
0
100
AcDbLine
 62
7
  6
CONTINUOUS
 10
428.4647254717
 20
461.731944602
 11
426.868980981
 21
460.6902938299
  0
LINE
  5
365
100
AcDbEntity
  8
0
100
AcDbLine
 62
7
  6
CONTINUOUS
 10
419.3533031438
 20
709.648619216
 11
419.8533031438
 21
709.648619216
  0
LINE
  5
366
100
AcDbEntity
  8
0
100
AcDbLine
 62
7
  6
CONTINUOUS
 10
454.8533031438
 20
709.648619216
 11
455.3533031438
 21
709.648619216
  0
LINE
  5
367
100
AcDbEntity
  8
0
100
AcDbLine
 62
7
  6
CONTINUOUS
 10
435.9115342122
 20
795.586119216
 11
437.5072787028
 21
793.5027878695
  0
LINE
  5
368
100
AcDbEntity
  8
0
100
AcDbLine
 62
7
  6
CONTINUOUS
 10
439.4499701284
 20
93.6520233851
 11
439.2833031438
 21
92.9711724024
  0
LINE
  5
369
100
AcDbEntity
  8
0
100
AcDbLine
 62
7
  6
CONTINUOUS
 10
437.4616363381
 20
83.826704207
 11
437.6074699496
 21
84.4224488168
  0
LINE
  5
36A
100
AcDbEntity
  8
0
100
AcDbLine
 62
7
  6
CONTINUOUS
 10
447.4499691747
 20
93.6520233851
 11
447.2833031438
 21
92.9711724024
  0
LINE
  5
36B
100
AcDbEntity
  8
0
100
AcDbLine
 62
7
  6
CONTINUOUS
 10
431.9499696516
 20
96.5456402998
 11
431.7833031438
 21
96.0350020628
  0
LINE
  5
36C
100
AcDbEntity
  8
0
100
AcDbLine
 62
7
  6
CONTINUOUS
 10
432.7833031438
 20
95.8647893172
 11
432.9499696516
 21
96.3754275542
  0
LINE
  5
36D
100
AcDbEntity
  8
0
100
AcDbLine
 62
7
  6
CONTINUOUS
 10
425.8051511344
 20
295.0652699881
 11
424.7413213343
 21
292.9819684439
  0
LINE
  5
36E
100
AcDbEntity
  8
0
100
AcDbLine
 62
7
  6
CONTINUOUS
 10
445.486002646
 20
444.5444684439
 11
447.6136619669
 21
446.6277699881
  0
LINE
  5
36F
100
AcDbEntity
  8
0
100
AcDbLine
 62
7
  6
CONTINUOUS
 10
434.3157897215
 20
444.023619216
 11
435.9115342122
 21
445.0652699881
  0
LINE
  5
370
100
AcDbEntity
  8
0
100
AcDbLine
 62
7
  6
CONTINUOUS
 10
444.9540878158
 20
447.6694684439
 11
443.3583433252
 21
446.6277699881
  0
LINE
  5
371
100
AcDbEntity
  8
0
100
AcDbLine
 62
7
  6
CONTINUOUS
 10
428.9966406744
 20
459.1277699881
 11
430.0604703348
 21
459.648619216
  0
LINE
  5
372
100
AcDbEntity
  8
0
100
AcDbLine
 62
7
  6
CONTINUOUS
 10
434.3157897215
 20
447.148619216
 11
432.1881296557
 21
446.1069684439
  0
LINE
  5
373
100
AcDbEntity
  8
0
100
AcDbLine
 62
7
  6
CONTINUOUS
 10
428.4647254717
 20
435.1694684439
 11
426.3370659646
 21
434.1277699881
  0
LINE
  5
374
100
AcDbEntity
  8
0
100
AcDbLine
 62
7
  6
CONTINUOUS
 10
430.0604703348
 20
462.2527938299
 11
428.4647254717
 21
461.731944602
  0
LINE
  5
375
100
AcDbEntity
  8
0
100
AcDbLine
 62
7
  6
CONTINUOUS
 10
437.5072787028
 20
793.5027878695
 11
439.6349380236
 21
791.9402878695
  0
LINE
  5
376
100
AcDbEntity
  8
0
100
AcDbLine
 62
7
  6
CONTINUOUS
 10
440.1668528538
 20
795.0652878695
 11
439.1030231934
 21
796.1069505625
  0
LINE
  5
377
100
AcDbEntity
  8
0
100
AcDbLine
 62
7
  6
CONTINUOUS
 10
437.6074699496
 20
80.55010854
 11
437.7533031438
 21
80.9969171016
  0
LINE
  5
378
100
AcDbEntity
  8
0
100
AcDbLine
 62
7
  6
CONTINUOUS
 10
447.6136619669
 20
258.6069684439
 11
448.6774916273
 21
260.6902699881
  0
LINE
  5
379
100
AcDbEntity
  8
0
100
AcDbLine
 62
7
  6
CONTINUOUS
 10
427.9328106415
 20
292.461119216
 11
428.9966406744
 21
294.023619216
  0
LINE
  5
37A
100
AcDbEntity
  8
0
100
AcDbLine
 62
7
  6
CONTINUOUS
 10
447.0817471366
 20
305.4819684439
 11
448.6774916273
 21
307.5652699881
  0
LINE
  5
37B
100
AcDbEntity
  8
0
100
AcDbLine
 62
7
  6
CONTINUOUS
 10
427.9328106415
 20
432.0444684439
 11
429.5285555046
 21
432.5652699881
  0
LINE
  5
37C
100
AcDbEntity
  8
0
100
AcDbLine
 62
7
  6
CONTINUOUS
 10
441.2306825142
 20
791.4194505625
 11
443.3583433252
 21
791.4194505625
  0
LINE
  5
37D
100
AcDbEntity
  8
0
100
AcDbLine
 62
7
  6
CONTINUOUS
 10
443.3583433252
 20
794.5444505625
 11
441.7625973445
 21
794.5444505625
  0
LINE
  5
37E
100
AcDbEntity
  8
0
100
AcDbLine
 62
7
  6
CONTINUOUS
 10
439.6349380236
 20
791.9402878695
 11
441.2306825142
 21
791.4194505625
  0
LINE
  5
37F
100
AcDbEntity
  8
0
100
AcDbLine
 62
7
  6
CONTINUOUS
 10
441.7625973445
 20
794.5444505625
 11
440.1668528538
 21
795.0652878695
  0
LINE
  5
380
100
AcDbEntity
  8
0
100
AcDbLine
 62
7
  6
CONTINUOUS
 10
436.9753638726
 20
826.836119216
 11
424.2094064575
 21
835.6902863794
  0
LINE
  5
381
100
AcDbEntity
  8
0
100
AcDbLine
 62
7
  6
CONTINUOUS
 10
424.2094064575
 20
832.5652848892
 11
434.3157897215
 21
825.273619216
  0
LINE
  5
382
100
AcDbEntity
  8
0
100
AcDbLine
 62
7
  6
CONTINUOUS
 10
449.2094064575
 20
817.9819535427
 11
439.1030231934
 21
825.273619216
  0
LINE
  5
383
100
AcDbEntity
  8
0
100
AcDbLine
 62
7
  6
CONTINUOUS
 10
436.9753638726
 20
823.711119216
 11
449.2094064575
 21
814.8569535427
  0
LINE
  5
384
100
AcDbEntity
  8
0
100
AcDbLine
 62
7
  6
CONTINUOUS
 10
439.9499701284
 20
92.1201085549
 11
440.2833031438
 21
92.8009596567
  0
LINE
  5
385
100
AcDbEntity
  8
0
100
AcDbLine
 62
7
  6
CONTINUOUS
 10
436.8783031438
 20
84.4224488168
 11
436.5866363381
 21
83.826704207
  0
LINE
  5
386
100
AcDbEntity
  8
0
100
AcDbLine
 62
7
  6
CONTINUOUS
 10
437.0241363381
 20
80.9969171016
 11
436.8783031438
 21
80.6990447967
  0
LINE
  5
387
100
AcDbEntity
  8
0
100
AcDbLine
 62
7
  6
CONTINUOUS
 10
445.486002646
 20
261.211119216
 11
444.4221729856
 21
259.648619216
  0
LINE
  5
388
100
AcDbEntity
  8
0
100
AcDbLine
 62
7
  6
CONTINUOUS
 10
427.9328106415
 20
297.148619216
 11
425.8051511344
 21
295.0652699881
  0
LINE
  5
389
100
AcDbEntity
  8
0
100
AcDbLine
 62
7
  6
CONTINUOUS
 10
446.0179174762
 20
308.086119216
 11
444.9540878158
 21
307.0444684439
  0
LINE
  5
38A
100
AcDbEntity
  8
0
100
AcDbLine
 62
7
  6
CONTINUOUS
 10
424.2094064575
 20
807.5652878695
 11
435.379619382
 21
807.5652878695
  0
LINE
  5
38B
100
AcDbEntity
  8
0
100
AcDbLine
 62
7
  6
CONTINUOUS
 10
438.5711083632
 20
807.5652878695
 11
446.5498323064
 21
807.5652878695
  0
LINE
  5
38C
100
AcDbEntity
  8
0
100
AcDbLine
 62
7
  6
CONTINUOUS
 10
449.2094064575
 20
810.6902848892
 11
424.2094064575
 21
810.6902848892
  0
LINE
  5
38D
100
AcDbEntity
  8
0
100
AcDbLine
 62
7
  6
CONTINUOUS
 10
446.5498323064
 20
839.8569520526
 11
449.2094064575
 21
839.8569520526
  0
LINE
  5
38E
100
AcDbEntity
  8
0
100
AcDbLine
 62
7
  6
CONTINUOUS
 10
447.9499691747
 20
92.1201085549
 11
448.2833031438
 21
92.8009596567
  0
LINE
  5
38F
100
AcDbEntity
  8
0
100
AcDbLine
 62
7
  6
CONTINUOUS
 10
445.486002646
 20
256.523619216
 11
447.6136619669
 21
258.6069684439
  0
LINE
  5
390
100
AcDbEntity
  8
0
100
AcDbLine
 62
7
  6
CONTINUOUS
 10
444.9540878158
 20
303.9194684439
 11
447.0817471366
 21
305.4819684439
  0
LINE
  5
391
100
AcDbEntity
  8
0
100
AcDbLine
 62
7
  6
CONTINUOUS
 10
428.9966406744
 20
294.023619216
 11
430.592385165
 21
295.0652699881
  0
LINE
  5
392
100
AcDbEntity
  8
0
100
AcDbLine
 62
7
  6
CONTINUOUS
 10
424.2094064575
 20
848.1902856343
 11
446.5498323064
 21
848.1902856343
  0
LINE
  5
393
100
AcDbEntity
  8
0
100
AcDbLine
 62
7
  6
CONTINUOUS
 10
446.5498323064
 20
851.3152856343
 11
424.2094064575
 21
851.3152856343
  0
LINE
  5
394
100
AcDbEntity
  8
0
100
AcDbLine
 62
7
  6
CONTINUOUS
 10
449.2094064575
 20
859.648619216
 11
446.5498323064
 21
859.648619216
  0
LINE
  5
395
100
AcDbEntity
  8
0
100
AcDbLine
 62
7
  6
CONTINUOUS
 10
433.3783031438
 20
84.7203215389
 11
433.6699698453
 21
85.1671299963
  0
LINE
  5
396
100
AcDbEntity
  8
0
100
AcDbLine
 62
7
  6
CONTINUOUS
 10
439.2833031438
 20
92.9711724024
 11
438.9499701284
 21
92.4605341654
  0
LINE
  5
397
100
AcDbEntity
  8
0
100
AcDbLine
 62
7
  6
CONTINUOUS
 10
437.1699699496
 20
83.3798957496
 11
437.4616363381
 21
83.826704207
  0
LINE
  5
398
100
AcDbEntity
  8
0
100
AcDbLine
 62
7
  6
CONTINUOUS
 10
437.3158031438
 20
80.1033000826
 11
437.6074699496
 21
80.55010854
  0
LINE
  5
399
100
AcDbEntity
  8
0
100
AcDbLine
 62
7
  6
CONTINUOUS
 10
447.2833031438
 20
92.9711724024
 11
446.9499691747
 21
92.4605341654
  0
LINE
  5
39A
100
AcDbEntity
  8
0
100
AcDbLine
 62
7
  6
CONTINUOUS
 10
432.2833031438
 20
95.1839383345
 11
432.7833031438
 21
95.8647893172
  0
LINE
  5
39B
100
AcDbEntity
  8
0
100
AcDbLine
 62
7
  6
CONTINUOUS
 10
444.4221729856
 20
259.648619216
 11
442.8264270049
 21
258.6069684439
  0
LINE
  5
39C
100
AcDbEntity
  8
0
100
AcDbLine
 62
7
  6
CONTINUOUS
 10
430.0604703348
 20
298.1902699881
 11
427.9328106415
 21
297.148619216
  0
LINE
  5
39D
100
AcDbEntity
  8
0
100
AcDbLine
 62
7
  6
CONTINUOUS
 10
424.2094064575
 20
302.8777699881
 11
436.4434490424
 21
307.5652699881
  0
LINE
  5
39E
100
AcDbEntity
  8
0
100
AcDbLine
 62
7
  6
CONTINUOUS
 10
435.379619382
 20
310.6902699881
 11
424.2094064575
 21
306.523619216
  0
LINE
  5
39F
100
AcDbEntity
  8
0
100
AcDbLine
 62
7
  6
CONTINUOUS
 10
444.9540878158
 20
307.0444684439
 11
443.3583433252
 21
306.523619216
  0
LINE
  5
3A0
100
AcDbEntity
  8
0
100
AcDbLine
 62
7
  6
CONTINUOUS
 10
443.3583433252
 20
303.398619216
 11
444.9540878158
 21
303.9194684439
  0
LINE
  5
3A1
100
AcDbEntity
  8
FASEN
100
AcDbLine
 62
7
  6
CONTINUOUS
 10
403.607847169
 20
124.148619216
 11
402.4341989913
 21
123.163811463
  0
LINE
  5
3A2
100
AcDbEntity
  8
0
100
AcDbLine
 62
7
  6
CONTINUOUS
 10
443.3583433252
 20
255.4819684439
 11
445.486002646
 21
256.523619216
  0
LINE
  5
3A3
100
AcDbEntity
  8
0
100
AcDbLine
 62
7
  6
CONTINUOUS
 10
431.7833031438
 20
96.0350020628
 11
431.4499696516
 21
95.6945765715
  0
LINE
  5
3A4
100
AcDbEntity
  8
0
100
AcDbLine
 62
7
  6
CONTINUOUS
 10
433.3783031438
 20
85.9118107586
 11
432.7949698192
 21
85.3160661488
  0
LINE
  5
3A5
100
AcDbEntity
  8
0
100
AcDbLine
 62
7
  6
CONTINUOUS
 10
439.2833031438
 20
91.4392575126
 11
439.9499701284
 21
92.1201085549
  0
LINE
  5
3A6
100
AcDbEntity
  8
0
100
AcDbLine
 62
7
  6
CONTINUOUS
 10
436.5866363381
 20
83.826704207
 11
436.2949699496
 21
83.528831902
  0
LINE
  5
3A7
100
AcDbEntity
  8
0
100
AcDbLine
 62
7
  6
CONTINUOUS
 10
447.2833031438
 20
91.4392575126
 11
447.9499691747
 21
92.1201085549
  0
LINE
  5
3A8
100
AcDbEntity
  8
0
100
AcDbLine
 62
7
  6
CONTINUOUS
 10
436.8783031438
 20
80.6990447967
 11
436.5866363381
 21
80.4011723875
  0
LINE
  5
3A9
100
AcDbEntity
  8
0
100
AcDbLine
 62
7
  6
CONTINUOUS
 10
449.3533031438
 20
36.648619216
 11
447.8533031438
 21
35.148619216
  0
LINE
  5
3AA
100
AcDbEntity
  8
0
100
AcDbLine
 62
7
  6
CONTINUOUS
 10
436.5866363381
 20
82.9330872922
 11
437.1699699496
 21
83.3798957496
  0
LINE
  5
3AB
100
AcDbEntity
  8
0
100
AcDbLine
 62
7
  6
CONTINUOUS
 10
438.9499701284
 20
92.4605341654
 11
438.4499701284
 21
92.1201085549
  0
LINE
  5
3AC
100
AcDbEntity
  8
0
100
AcDbLine
 62
7
  6
CONTINUOUS
 10
433.6699698453
 20
85.1671299963
 11
434.1074698453
 21
85.4650023012
  0
LINE
  5
3AD
100
AcDbEntity
  8
0
100
AcDbLine
 62
7
  6
CONTINUOUS
 10
446.9499691747
 20
92.4605341654
 11
446.4499691747
 21
92.1201085549
  0
LINE
  5
3AE
100
AcDbEntity
  8
0
100
AcDbLine
 62
7
  6
CONTINUOUS
 10
436.8783031438
 20
79.8054277255
 11
437.3158031438
 21
80.1033000826
  0
LINE
  5
3AF
100
AcDbEntity
  8
0
100
AcDbLine
 62
7
  6
CONTINUOUS
 10
431.6166366361
 20
94.8435128432
 11
432.2833031438
 21
95.1839383345
  0
LINE
  5
3B0
100
AcDbEntity
  8
0
100
AcDbLine
 62
7
  6
CONTINUOUS
 10
438.6166361593
 20
91.0988319766
 11
439.2833031438
 21
91.4392575126
  0
LINE
  5
3B1
100
AcDbEntity
  8
0
100
AcDbLine
 62
7
  6
CONTINUOUS
 10
433.9616364424
 20
86.2096830635
 11
433.3783031438
 21
85.9118107586
  0
LINE
  5
3B2
100
AcDbEntity
  8
0
100
AcDbLine
 62
7
  6
CONTINUOUS
 10
446.6166371129
 20
91.0988319766
 11
447.2833031438
 21
91.4392575126
  0
LINE
  5
3B3
100
AcDbEntity
  8
0
100
AcDbLine
 62
7
  6
CONTINUOUS
 10
436.5866363381
 20
80.4011723875
 11
436.2949699496
 21
80.252236235
  0
LINE
  5
3B4
100
AcDbEntity
  8
0
100
AcDbLine
 62
7
  6
CONTINUOUS
 10
436.2949699496
 20
79.5075553815
 11
436.8783031438
 21
79.8054277255
  0
LINE
  5
3B5
100
AcDbEntity
  8
0
100
AcDbLine
 62
7
  6
CONTINUOUS
 10
431.4499696516
 20
95.6945765715
 11
430.9499696516
 21
95.5243638258
  0
LINE
  5
3B6
100
AcDbEntity
  8
0
100
AcDbLine
 62
7
  6
CONTINUOUS
 10
436.2949699496
 20
83.528831902
 11
435.419969741
 21
83.2309595971
  0
LINE
  5
3B7
100
AcDbEntity
  8
0
100
AcDbLine
 62
7
  6
CONTINUOUS
 10
419.8533031438
 20
1183.148619216
 11
454.8533031438
 21
1183.148619216
  0
LINE
  5
3B8
100
AcDbEntity
  8
0
100
AcDbLine
 62
7
  6
CONTINUOUS
 10
721.4543944852
 20
35.148619216
 11
700.4543944852
 21
35.148619216
  0
LINE
  5
3B9
100
AcDbEntity
  8
0
100
AcDbLine
 62
7
  6
CONTINUOUS
 10
698.9543944852
 20
36.648619216
 11
722.9543944852
 21
36.648619216
  0
LINE
  5
3BA
100
AcDbEntity
  8
0
100
AcDbLine
 62
7
  6
CONTINUOUS
 10
745.9543944852
 20
71.148619216
 11
675.9543944852
 21
71.148619216
  0
LINE
  5
3BB
100
AcDbEntity
  8
RUNDUNGEN
100
AcDbLine
 62
9
  6
CONTINUOUS
 10
742.9413724226
 20
107.6749710386
 11
743.778048455
 21
107.8486192159
  0
LINE
  5
3BC
100
AcDbEntity
  8
RUNDUNGEN
100
AcDbLine
 62
7
  6
CONTINUOUS
 10
675.9543944852
 20
97.142719216
 11
673.4543944852
 21
97.142719216
  0
LINE
  5
3BD
100
AcDbEntity
  8
RUNDUNGEN
100
AcDbLine
 62
9
  6
CONTINUOUS
 10
672.4543944852
 20
101.142719216
 11
675.9543944852
 21
101.142719216
  0
LINE
  5
3BE
100
AcDbEntity
  8
RUNDUNGEN
100
AcDbLine
 62
9
  6
CONTINUOUS
 10
745.9543944852
 20
102.1531776392
 11
744.9543944853
 21
102.1531776389
  0
LINE
  5
3BF
100
AcDbEntity
  8
RUNDUNGEN
100
AcDbLine
 62
9
  6
CONTINUOUS
 10
745.9543944852
 20
107.848619216
 11
743.7780652251
 21
107.8485381695
  0
LINE
  5
3C0
100
AcDbEntity
  8
RUNDUNGEN
100
AcDbLine
 62
9
  6
CONTINUOUS
 10
672.4543944852
 20
109.348619216
 11
675.9543944852
 21
109.348619216
  0
LINE
  5
3C1
100
AcDbEntity
  8
RUNDUNGEN
100
AcDbLine
 62
7
  6
CONTINUOUS
 10
697.495300385
 20
134.2859437279
 11
696.7776669074
 21
134.1615428385
  0
LINE
  5
3C2
100
AcDbEntity
  8
RUNDUNGEN
100
AcDbLine
 62
7
  6
CONTINUOUS
 10
696.7776669074
 20
134.1615428385
 11
696.484044509
 21
134.1487139865
  0
LINE
  5
3C3
100
AcDbEntity
  8
0
100
AcDbLine
 62
7
  6
CONTINUOUS
 10
674.9543944852
 20
121.348619216
 11
673.4543944852
 21
121.348619216
  0
LINE
  5
3C4
100
AcDbEntity
  8
FASEN
100
AcDbLine
 62
7
  6
CONTINUOUS
 10
745.8734986378
 20
123.163811463
 11
676.0352903327
 21
123.163811463
  0
LINE
  5
3C5
100
AcDbEntity
  8
FASEN
100
AcDbLine
 62
7
  6
CONTINUOUS
 10
744.6998504601
 20
124.148619216
 11
677.2089385103
 21
124.148619216
  0
LINE
  5
3C6
100
AcDbEntity
  8
RUNDUNGEN
100
AcDbLine
 62
9
  6
CONTINUOUS
 10
707.629026592
 20
130.148619216
 11
678.9543944852
 21
130.148619216
  0
LINE
  5
3C7
100
AcDbEntity
  8
RUNDUNGEN
100
AcDbLine
 62
9
  6
CONTINUOUS
 10
742.9543944852
 20
130.148619216
 11
714.2799177518
 21
130.1486694977
  0
LINE
  5
3C8
100
AcDbEntity
  8
RUNDUNGEN
100
AcDbLine
 62
7
  6
CONTINUOUS
 10
682.9562567106
 20
134.148619216
 11
696.4840445314
 21
134.1487136461
  0
LINE
  5
3C9
100
AcDbEntity
  8
RUNDUNGEN
100
AcDbLine
 62
7
  6
CONTINUOUS
 10
725.4245280225
 20
134.148715483
 11
738.9543944852
 21
134.148619216
  0
LINE
  5
3CA
100
AcDbEntity
  8
RUNDUNGEN
100
AcDbLine
 62
7
  6
CONTINUOUS
 10
725.4245280225
 20
134.148715483
 11
725.1299531903
 21
134.16163722
  0
LWPOLYLINE
  5
3CB
100
AcDbEntity
  8
RUNDUNGEN
100
AcDbPolyline
 62
7
  6
CONTINUOUS
 90
4
 70
0
 10
725.1311184171
 20
134.1615431279
 10
724.4154451855
 20
134.2854177655
 10
723.7339568641
 20
134.5367348766
 10
723.1091525051
 20
134.9072119932
  0
LWPOLYLINE
  5
3CC
100
AcDbEntity
  8
RUNDUNGEN
100
AcDbPolyline
 62
7
  6
CONTINUOUS
 90
3
 70
0
 10
675.9044002474
 20
97.4097192285
 10
675.9035490077
 20
97.4105176875
 10
675.9057417141
 20
97.4074053713
  0
LWPOLYLINE
  5
3CD
100
AcDbEntity
  8
RUNDUNGEN
100
AcDbPolyline
 62
7
  6
CONTINUOUS
 90
8
 70
0
 10
675.9091307167
 20
97.4050402357
 10
675.9048083805
 20
97.409302435
 10
675.9032629326
 20
97.4108806766
 10
675.9106711627
 20
97.4004941779
 10
675.923415637
 20
97.3778836529
 10
675.9381032771
 20
97.3417774131
 10
675.9494986553
 20
97.2965547132
 10
675.9543934055
 20
97.2442918622
  0
LINE
  5
3CE
100
AcDbEntity
  8
0
100
AcDbLine
 62
7
  6
CONTINUOUS
 10
698.9543944852
 20
36.648619216
 11
700.4543944852
 21
35.148619216
  0
LINE
  5
3CF
100
AcDbEntity
  8
FASEN
100
AcDbLine
 62
7
  6
CONTINUOUS
 10
744.6998504601
 20
124.148619216
 11
745.8734986378
 21
123.163811463
  0
LINE
  5
3D0
100
AcDbEntity
  8
RUNDUNGEN
100
AcDbLine
 62
7
  6
CONTINUOUS
 10
723.1091525051
 20
134.9072119932
 11
722.5580508864
 21
135.3884215106
  0
LINE
  5
3D1
100
AcDbEntity
  8
RUNDUNGEN
100
AcDbLine
 62
7
  6
CONTINUOUS
 10
722.5613705666
 20
135.3849425957
 11
722.1065043519
 21
135.9579533065
  0
LINE
  5
3D2
100
AcDbEntity
  8
RUNDUNGEN
100
AcDbLine
 62
7
  6
CONTINUOUS
 10
722.1095840755
 20
135.953253034
 11
721.7667489953
 21
136.5969379313
  0
LWPOLYLINE
  5
3D3
100
AcDbEntity
  8
RUNDUNGEN
100
AcDbPolyline
 62
7
  6
CONTINUOUS
 90
3
 70
0
 10
721.7662097818
 20
136.598220886
 10
721.549915115
 20
137.2771049249
 10
721.458748337
 20
137.9587182443
  0
LINE
  5
3D4
100
AcDbEntity
  8
RUNDUNGEN
100
AcDbLine
 62
7
  6
CONTINUOUS
 10
672.4543944852
 20
98.142719216
 11
672.4543944852
 21
120.348619216
  0
LINE
  5
3D5
100
AcDbEntity
  8
RUNDUNGEN
100
AcDbLine
 62
9
  6
CONTINUOUS
 10
673.4543944852
 20
97.142719216
 11
673.4543944852
 21
121.348619216
  0
LINE
  5
3D6
100
AcDbEntity
  8
RUNDUNGEN
100
AcDbLine
 62
9
  6
CONTINUOUS
 10
674.9543944852
 20
98.0216815168
 11
674.9543944852
 21
109.8687242655
  0
LINE
  5
3D7
100
AcDbEntity
  8
RUNDUNGEN
100
AcDbLine
 62
9
  6
CONTINUOUS
 10
674.9543944852
 20
120.9425062281
 11
674.9543944852
 21
121.348619216
  0
LINE
  5
3D8
100
AcDbEntity
  8
0
100
AcDbLine
 62
7
  6
CONTINUOUS
 10
675.9543944852
 20
94.3120794235
 11
675.9543944852
 21
71.148619216
  0
LINE
  5
3D9
100
AcDbEntity
  8
RUNDUNGEN
100
AcDbLine
 62
7
  6
CONTINUOUS
 10
675.9543944852
 20
94.3120794235
 11
675.9543944852
 21
109.4560355772
  0
LINE
  5
3DA
100
AcDbEntity
  8
RUNDUNGEN
100
AcDbLine
 62
7
  6
CONTINUOUS
 10
675.9543944852
 20
122.0173978996
 11
675.9543944852
 21
122.7057799626
  0
LINE
  5
3DB
100
AcDbEntity
  8
BEZUGSACHSEN
100
AcDbLine
 62
7
  6
CONTINUOUS
 10
745.8734986378
 20
123.163811463
 11
745.9443593476
 21
122.7619404077
  0
LINE
  5
3DC
100
AcDbEntity
  8
RUNDUNGEN
100
AcDbLine
 62
7
  6
CONTINUOUS
 10
721.458748337
 20
137.9587182443
 11
721.4550844469
 21
138.0708051497
  0
LINE
  5
3DD
100
AcDbEntity
  8
0
100
AcDbLine
 62
7
  6
CONTINUOUS
 10
676.6723621825
 20
94.3120794235
 11
676.6723621825
 21
71.148619216
  0
LINE
  5
3DE
100
AcDbEntity
  8
BEZUGSACHSEN
100
AcDbLine
 62
7
  6
CONTINUOUS
 10
678.9543944852
 20
130.148619216
 11
678.9543944852
 21
124.148619216
  0
LINE
  5
3DF
100
AcDbEntity
  8
0
100
AcDbLine
 62
7
  6
CONTINUOUS
 10
687.4543944852
 20
182.648619216
 11
687.4543944852
 21
709.648619216
  0
LINE
  5
3E0
100
AcDbEntity
  8
0
100
AcDbLine
 62
7
  6
CONTINUOUS
 10
687.4543944852
 20
712.148619216
 11
687.4543944852
 21
1159.648619216
  0
LINE
  5
3E1
100
AcDbEntity
  8
0
100
AcDbLine
 62
7
  6
CONTINUOUS
 10
698.9543944852
 20
71.148619216
 11
698.9543944852
 21
36.648619216
  0
LINE
  5
3E2
100
AcDbEntity
  8
BEZUGSACHSEN
100
AcDbLine
 62
7
  6
CONTINUOUS
 10
698.9543944852
 20
36.648619216
 11
698.9543944852
 21
71.148619216
  0
LINE
  5
3E3
100
AcDbEntity
  8
0
100
AcDbLine
 62
7
  6
CONTINUOUS
 10
699.4543944852
 20
182.648619216
 11
699.4543944852
 21
709.648619216
  0
LINE
  5
3E4
100
AcDbEntity
  8
0
100
AcDbLine
 62
7
  6
CONTINUOUS
 10
699.4543944852
 20
712.148619216
 11
699.4543944852
 21
1159.648619216
  0
LINE
  5
3E5
100
AcDbEntity
  8
0
100
AcDbLine
 62
7
  6
CONTINUOUS
 10
700.4543944852
 20
177.9655183795
 11
700.4543944852
 21
178.648619216
  0
LINE
  5
3E6
100
AcDbEntity
  8
0
100
AcDbLine
 62
7
  6
CONTINUOUS
 10
710.236426788
 20
94.3120794235
 11
710.236426788
 21
71.148619216
  0
LINE
  5
3E7
100
AcDbEntity
  8
0
100
AcDbLine
 62
7
  6
CONTINUOUS
 10
711.6723621825
 20
94.3120794235
 11
711.6723621825
 21
71.148619216
  0
LINE
  5
3E8
100
AcDbEntity
  8
RUNDUNGEN
100
AcDbLine
 62
7
  6
CONTINUOUS
 10
721.4543944852
 20
177.9655183795
 11
721.4543944852
 21
178.648619216
  0
LINE
  5
3E9
100
AcDbEntity
  8
0
100
AcDbLine
 62
7
  6
CONTINUOUS
 10
721.4543944852
 20
177.9655183795
 11
721.4543944852
 21
178.648619216
  0
LINE
  5
3EA
100
AcDbEntity
  8
BEZUGSACHSEN
100
AcDbLine
 62
7
  6
CONTINUOUS
 10
722.4543944852
 20
182.648619216
 11
722.4543944852
 21
1159.648619216
  0
LINE
  5
3EB
100
AcDbEntity
  8
0
100
AcDbLine
 62
7
  6
CONTINUOUS
 10
722.9543944852
 20
71.148619216
 11
722.9543944852
 21
36.648619216
  0
LINE
  5
3EC
100
AcDbEntity
  8
BEZUGSACHSEN
100
AcDbLine
 62
7
  6
CONTINUOUS
 10
722.9543944852
 20
36.648619216
 11
722.9543944852
 21
71.148619216
  0
LINE
  5
3ED
100
AcDbEntity
  8
BEZUGSACHSEN
100
AcDbLine
 62
7
  6
CONTINUOUS
 10
734.4543944852
 20
182.648619216
 11
734.4543944852
 21
1159.648619216
  0
LINE
  5
3EE
100
AcDbEntity
  8
BEZUGSACHSEN
100
AcDbLine
 62
7
  6
CONTINUOUS
 10
742.9543944852
 20
130.148619216
 11
742.9543944852
 21
124.148619216
  0
LINE
  5
3EF
100
AcDbEntity
  8
RUNDUNGEN
100
AcDbLine
 62
9
  6
CONTINUOUS
 10
744.9543944016
 20
116.7679709336
 11
744.9543944853
 21
102.1531776394
  0
LINE
  5
3F0
100
AcDbEntity
  8
0
100
AcDbLine
 62
7
  6
CONTINUOUS
 10
745.236426788
 20
94.3120794235
 11
745.236426788
 21
71.148619216
  0
LINE
  5
3F1
100
AcDbEntity
  8
RUNDUNGEN
100
AcDbLine
 62
7
  6
CONTINUOUS
 10
745.9543944852
 20
122.6185191536
 11
745.9543944852
 21
71.148619216
  0
LINE
  5
3F2
100
AcDbEntity
  8
RUNDUNGEN
100
AcDbLine
 62
7
  6
CONTINUOUS
 10
700.4537256843
 20
138.0719507065
 11
700.4501706901
 21
137.9615205258
  0
LWPOLYLINE
  5
3F3
100
AcDbEntity
  8
RUNDUNGEN
100
AcDbPolyline
 62
7
  6
CONTINUOUS
 90
3
 70
0
 10
700.4501706901
 20
137.9615205258
 10
700.3594814874
 20
137.2798373123
 10
700.1420287927
 20
136.5969113124
  0
LINE
  5
3F4
100
AcDbEntity
  8
BEZUGSACHSEN
100
AcDbLine
 62
7
  6
CONTINUOUS
 10
676.0352903327
 20
123.163811463
 11
675.9498617199
 21
122.6793217243
  0
LINE
  5
3F5
100
AcDbEntity
  8
0
100
AcDbLine
 62
7
  6
CONTINUOUS
 10
683.837435371
 20
698.177090489
 11
683.5002459188
 21
698.4131930852
  0
LINE
  5
3F6
100
AcDbEntity
  8
0
100
AcDbLine
 62
7
  6
CONTINUOUS
 10
686.9543944852
 20
709.648619216
 11
699.9543944852
 21
709.648619216
  0
LINE
  5
3F7
100
AcDbEntity
  8
0
100
AcDbLine
 62
7
  6
CONTINUOUS
 10
687.4543944852
 20
712.148619216
 11
699.4543944852
 21
712.148619216
  0
LINE
  5
3F8
100
AcDbEntity
  8
RUNDUNGEN
100
AcDbLine
 62
7
  6
CONTINUOUS
 10
700.1425707619
 20
136.5982008007
 11
699.7991923085
 21
135.9532338698
  0
LINE
  5
3F9
100
AcDbEntity
  8
RUNDUNGEN
100
AcDbLine
 62
7
  6
CONTINUOUS
 10
699.8022745093
 20
135.9579378698
 11
699.3474052064
 21
135.3849288121
  0
LWPOLYLINE
  5
3FA
100
AcDbEntity
  8
RUNDUNGEN
100
AcDbPolyline
 62
7
  6
CONTINUOUS
 90
4
 70
0
 10
699.3507274347
 20
135.3884103673
 10
698.8019277517
 20
134.9088704933
 10
698.1769813191
 20
134.5377586996
 10
697.495300385
 20
134.2859437279
  0
LINE
  5
3FB
100
AcDbEntity
  8
FASEN
100
AcDbLine
 62
7
  6
CONTINUOUS
 10
677.2089385103
 20
124.148619216
 11
676.0352903327
 21
123.163811463
  0
LINE
  5
3FC
100
AcDbEntity
  8
0
100
AcDbLine
 62
7
  6
CONTINUOUS
 10
722.9543944852
 20
36.648619216
 11
721.4543944852
 21
35.148619216
  0
ARC
  5
3FD
100
AcDbEntity
  8
0
100
AcDbCircle
 62
7
  6
CONTINUOUS
 10
437.3533031438
 20
151.148619216
 40
38.0
100
AcDbArc
 50
117.4620898047
 51
211.0027191339
  0
ARC
  5
3FE
100
AcDbEntity
  8
0
100
AcDbCircle
 62
7
  6
CONTINUOUS
 10
437.3533031438
 20
151.148619216
 40
38.0
100
AcDbArc
 50
328.9972808661
 51
62.5379101953
  0
ARC
  5
3FF
100
AcDbEntity
  8
0
100
AcDbCircle
 62
7
  6
CONTINUOUS
 10
437.3533031438
 20
151.148619216
 40
17.0
100
AcDbArc
 50
151.9147789602
 51
28.0852210398
  0
ARC
  5
400
100
AcDbEntity
  8
RUNDUNGEN
100
AcDbCircle
 62
7
  6
CONTINUOUS
 10
446.7315248789
 20
107.848619216
 40
10.0
100
AcDbArc
 50
359.9996364635
 51
63.117477922
  0
ARC
  5
401
100
AcDbEntity
  8
RUNDUNGEN
100
AcDbCircle
 62
7
  6
CONTINUOUS
 10
427.9750814087
 20
107.848619216
 40
10.0
100
AcDbArc
 50
116.882563935
 51
180.0
  0
ARC
  5
402
100
AcDbEntity
  8
0
100
AcDbCircle
 62
7
  6
CONTINUOUS
 10
448.8533031438
 20
709.648619216
 40
6.5
100
AcDbArc
 50
0.0
 51
22.619864948
  0
ARC
  5
403
100
AcDbEntity
  8
0
100
AcDbCircle
 62
7
  6
CONTINUOUS
 10
425.8533031438
 20
709.648619216
 40
6.5
100
AcDbArc
 50
157.380135052
 51
180.0
  0
ARC
  5
404
100
AcDbEntity
  8
RUNDUNGEN
100
AcDbCircle
 62
7
  6
CONTINUOUS
 10
417.3542154369
 20
89.0206366759
 40
5.3279555067
100
AcDbArc
 50
88.8113555043
 51
96.7116298099
  0
ARC
  5
405
100
AcDbEntity
  8
RUNDUNGEN
100
AcDbCircle
 62
7
  6
CONTINUOUS
 10
457.3523912839
 20
89.0206376635
 40
5.3279544754
100
AcDbArc
 50
83.288373575
 51
91.1886479262
  0
ARC
  5
406
100
AcDbEntity
  8
RUNDUNGEN
100
AcDbCircle
 62
7
  6
CONTINUOUS
 10
401.3533232099
 20
129.5153426516
 40
3.9999901228
100
AcDbArc
 50
359.9995546887
 51
31.0024854851
  0
ARC
  5
407
100
AcDbEntity
  8
RUNDUNGEN
100
AcDbCircle
 62
7
  6
CONTINUOUS
 10
473.3532830733
 20
129.5153426598
 40
3.9999901205
100
AcDbArc
 50
148.997514583
 51
180.000445429
  0
ARC
  5
408
100
AcDbEntity
  8
RUNDUNGEN
100
AcDbCircle
 62
7
  6
CONTINUOUS
 10
427.8533031438
 20
77.348619216
 40
3.0
100
AcDbArc
 50
179.999999937
 51
270.000000058
  0
ARC
  5
409
100
AcDbEntity
  8
RUNDUNGEN
100
AcDbCircle
 62
7
  6
CONTINUOUS
 10
446.8533031438
 20
77.348619216
 40
3.0
100
AcDbArc
 50
269.999999937
 51
0.000000058
  0
ARC
  5
40A
100
AcDbEntity
  8
RUNDUNGEN
100
AcDbCircle
 62
7
  6
CONTINUOUS
 10
446.8533031438
 20
111.848619216
 40
3.0
100
AcDbArc
 50
359.999999937
 51
90.000000058
  0
ARC
  5
40B
100
AcDbEntity
  8
RUNDUNGEN
100
AcDbCircle
 62
7
  6
CONTINUOUS
 10
427.8533031438
 20
111.848619216
 40
3.0
100
AcDbArc
 50
89.999999937
 51
180.000000058
  0
ARC
  5
40C
100
AcDbEntity
  8
RUNDUNGEN
100
AcDbCircle
 62
9
  6
CONTINUOUS
 10
-2681.5752373778
 20
-597.7545102878
 40
3496.4188484668
100
AcDbArc
 50
11.4168695084
 51
11.639764335
  0
ARC
  5
40D
100
AcDbEntity
  8
RUNDUNGEN
100
AcDbCircle
 62
9
  6
CONTINUOUS
 10
639.9146742976
 20
115.841555381
 40
36.4992204616
100
AcDbArc
 50
1.9523491391
 51
9.2829798343
  0
ARC
  5
40E
100
AcDbEntity
  8
BEZUGSACHSEN
100
AcDbCircle
 62
7
  6
CONTINUOUS
 10
710.9543944852
 20
182.648619216
 40
23.5
100
AcDbArc
 50
296.5413688526
 51
360.0
  0
ARC
  5
40F
100
AcDbEntity
  8
BEZUGSACHSEN
100
AcDbCircle
 62
7
  6
CONTINUOUS
 10
710.9543944852
 20
182.648619216
 40
23.5
100
AcDbArc
 50
180.0
 51
243.4586311474
  0
ARC
  5
410
100
AcDbEntity
  8
BEZUGSACHSEN
100
AcDbCircle
 62
7
  6
CONTINUOUS
 10
710.9543944852
 20
182.648619216
 40
11.5
100
AcDbArc
 50
339.1241080182
 51
360.0
  0
ARC
  5
411
100
AcDbEntity
  8
BEZUGSACHSEN
100
AcDbCircle
 62
7
  6
CONTINUOUS
 10
710.9543944852
 20
182.648619216
 40
11.5
100
AcDbArc
 50
180.0
 51
200.8758919818
  0
ARC
  5
412
100
AcDbEntity
  8
0
100
AcDbCircle
 62
7
  6
CONTINUOUS
 10
710.9543944852
 20
178.648619216
 40
10.5
100
AcDbArc
 50
0.0
 51
180.0
  0
ARC
  5
413
100
AcDbEntity
  8
RUNDUNGEN
100
AcDbCircle
 62
9
  6
CONTINUOUS
 10
710.9567996723
 20
138.5750050801
 40
9.0596938362
100
AcDbArc
 50
248.4497994781
 51
269.9847889925
  0
ARC
  5
414
100
AcDbEntity
  8
RUNDUNGEN
100
AcDbCircle
 62
9
  6
CONTINUOUS
 10
710.9520969362
 20
138.5745873294
 40
9.0592760576
100
AcDbArc
 50
270.0145309472
 51
291.5515686107
  0
ARC
  5
415
100
AcDbEntity
  8
BEZUGSACHSEN
100
AcDbCircle
 62
7
  6
CONTINUOUS
 10
710.9532076356
 20
87.2534064672
 40
7.0952129754
100
AcDbArc
 50
84.1826411245
 51
95.8173184871
  0
ARC
  5
416
100
AcDbEntity
  8
RUNDUNGEN
100
AcDbCircle
 62
7
  6
CONTINUOUS
 10
725.4665778906
 20
138.1492124382
 40
4.012146454
100
AcDbArc
 50
181.1197381187
 51
191.3164896551
  0
ARC
  5
417
100
AcDbEntity
  8
RUNDUNGEN
100
AcDbCircle
 62
7
  6
CONTINUOUS
 10
696.4425021443
 20
138.1494898851
 40
4.0119576761
100
AcDbArc
 50
348.6819509932
 51
358.8925785447
  0
ARC
  5
418
100
AcDbEntity
  8
RUNDUNGEN
100
AcDbCircle
 62
7
  6
CONTINUOUS
 10
738.9543944852
 20
130.148619216
 40
4.0
100
AcDbArc
 50
0.0
 51
90.0
  0
ARC
  5
419
100
AcDbEntity
  8
RUNDUNGEN
100
AcDbCircle
 62
7
  6
CONTINUOUS
 10
682.9543944852
 20
130.148619216
 40
4.0
100
AcDbArc
 50
90.0
 51
180.0
  0
ARC
  5
41A
100
AcDbEntity
  8
RUNDUNGEN
100
AcDbCircle
 62
7
  6
CONTINUOUS
 10
696.4563807118
 20
138.1442445642
 40
3.9973203183
100
AcDbArc
 50
277.2191825989
 51
348.7166320983
  0
ARC
  5
41B
100
AcDbEntity
  8
RUNDUNGEN
100
AcDbCircle
 62
7
  6
CONTINUOUS
 10
725.4521880023
 20
138.143766843
 40
3.9969685424
100
AcDbArc
 50
191.2804230005
 51
262.5662401696
  0
ARC
  5
41C
100
AcDbEntity
  8
RUNDUNGEN
100
AcDbCircle
 62
7
  6
CONTINUOUS
 10
725.4546666662
 20
138.1337007411
 40
3.9851085284
100
AcDbArc
 50
262.5123724808
 51
269.1228980018
  0
ARC
  5
41D
100
AcDbEntity
  8
RUNDUNGEN
100
AcDbCircle
 62
7
  6
CONTINUOUS
 10
696.4543101047
 20
138.131923896
 40
3.9833300566
100
AcDbArc
 50
270.8749498309
 51
277.2707917509
  0
ARC
  5
41E
100
AcDbEntity
  8
RUNDUNGEN
100
AcDbCircle
 62
7
  6
CONTINUOUS
 10
725.4550285531
 20
138.1188266143
 40
3.9726100408
100
AcDbArc
 50
262.4790773858
 51
269.1079863598
  0
ARC
  5
41F
100
AcDbEntity
  8
RUNDUNGEN
100
AcDbCircle
 62
7
  6
CONTINUOUS
 10
696.4535934387
 20
138.1176504915
 40
3.9712920248
100
AcDbArc
 50
270.8946872791
 51
277.3072932239
  0
ARC
  5
420
100
AcDbEntity
  8
RUNDUNGEN
100
AcDbCircle
 62
7
  6
CONTINUOUS
 10
696.5132568826
 20
138.1453990193
 40
3.9410370848
100
AcDbArc
 50
357.4035868071
 51
358.9139971219
  0
ARC
  5
421
100
AcDbEntity
  8
RUNDUNGEN
100
AcDbCircle
 62
7
  6
CONTINUOUS
 10
725.3720467898
 20
138.1448860773
 40
3.9175496435
100
AcDbArc
 50
180.4175324994
 51
181.0834931262
  0
ARC
  5
422
100
AcDbEntity
  8
RUNDUNGEN
100
AcDbCircle
 62
7
  6
CONTINUOUS
 10
696.5371224582
 20
138.1451702114
 40
3.917272341
100
AcDbArc
 50
358.929000525
 51
359.5782675107
  0
ARC
  5
423
100
AcDbEntity
  8
RUNDUNGEN
100
AcDbCircle
 62
7
  6
CONTINUOUS
 10
725.4523934949
 20
138.0641951169
 40
3.9155764378
100
AcDbArc
 50
269.1405880474
 51
269.592247399
  0
ARC
  5
424
100
AcDbEntity
  8
RUNDUNGEN
100
AcDbCircle
 62
7
  6
CONTINUOUS
 10
696.4564836723
 20
138.0641367997
 40
3.9155178386
100
AcDbArc
 50
270.4033011922
 51
270.8582946311
  0
ARC
  5
425
100
AcDbEntity
  8
RUNDUNGEN
100
AcDbCircle
 62
7
  6
CONTINUOUS
 10
725.3596045042
 20
138.1447867756
 40
3.9051069647
100
AcDbArc
 50
179.9959022674
 51
180.4174058949
  0
ARC
  5
426
100
AcDbEntity
  8
RUNDUNGEN
100
AcDbCircle
 62
7
  6
CONTINUOUS
 10
696.5493790632
 20
138.1450720835
 40
3.9050153458
100
AcDbArc
 50
359.5783835657
 51
359.9999117842
  0
ARC
  5
427
100
AcDbEntity
  8
RUNDUNGEN
100
AcDbCircle
 62
9
  6
CONTINUOUS
 10
725.4561369852
 20
133.0728026734
 40
1.0758832475
100
AcDbArc
 50
92.5561969452
 51
93.3543812665
  0
ARC
  5
428
100
AcDbEntity
  8
RUNDUNGEN
100
AcDbCircle
 62
9
  6
CONTINUOUS
 10
696.4548036511
 20
133.1164309166
 40
1.0322039332
100
AcDbArc
 50
86.6231502848
 51
89.0970438204
  0
ARC
  5
429
100
AcDbEntity
  8
RUNDUNGEN
100
AcDbCircle
 62
7
  6
CONTINUOUS
 10
744.9543944852
 20
122.6175182647
 40
1.0
100
AcDbArc
 50
0.000000072
 51
9.999735895
  0
ARC
  5
42A
100
AcDbEntity
  8
RUNDUNGEN
100
AcDbCircle
 62
7
  6
CONTINUOUS
 10
673.4543944852
 20
98.142719216
 40
1.0
100
AcDbArc
 50
180.0
 51
270.0
  0
ARC
  5
42B
100
AcDbEntity
  8
RUNDUNGEN
100
AcDbCircle
 62
7
  6
CONTINUOUS
 10
673.4543944852
 20
120.348619216
 40
1.0
100
AcDbArc
 50
90.0
 51
180.0
  0
ARC
  5
42C
100
AcDbEntity
  8
RUNDUNGEN
100
AcDbCircle
 62
7
  6
CONTINUOUS
 10
674.9543944852
 20
122.348619216
 40
1.0
100
AcDbArc
 50
270.0
 51
360.0
  0
ARC
  5
42D
100
AcDbEntity
  8
RUNDUNGEN
100
AcDbCircle
 62
9
  6
CONTINUOUS
 10
725.4527610973
 20
133.1571017635
 40
0.991517552
100
AcDbArc
 50
90.0256729027
 51
92.57856865
  0
ARC
  5
42E
100
AcDbEntity
  8
RUNDUNGEN
100
AcDbCircle
 62
9
  6
CONTINUOUS
 10
696.4564221928
 20
133.1953511874
 40
0.9532680299
100
AcDbArc
 50
89.1195616182
 51
89.9969974001
  0
ARC
  5
42F
100
AcDbEntity
  8
BEZUGSACHSEN
100
AcDbCircle
 62
7
  6
CONTINUOUS
 10
710.9543944852
 20
1159.648619216
 40
23.5
100
AcDbArc
 50
0.0
 51
180.0
  0
ARC
  5
430
100
AcDbEntity
  8
0
100
AcDbCircle
 62
7
  6
CONTINUOUS
 10
666.9543944852
 20
709.648619216
 40
20.0
100
AcDbArc
 50
325.821615884
 51
360.0
  0
ARC
  5
431
100
AcDbEntity
  8
0
100
AcDbCircle
 62
7
  6
CONTINUOUS
 10
667.4543944852
 20
709.648619216
 40
20.0
100
AcDbArc
 50
325.0
 51
360.0
  0
ARC
  5
432
100
AcDbEntity
  8
BEZUGSACHSEN
100
AcDbCircle
 62
7
  6
CONTINUOUS
 10
710.9543944852
 20
1159.648619216
 40
11.5
100
AcDbArc
 50
0.0
 51
180.0
  0
ARC
  5
433
100
AcDbEntity
  8
0
100
AcDbCircle
 62
7
  6
CONTINUOUS
 10
693.4543944852
 20
709.648619216
 40
6.5
100
AcDbArc
 50
157.380135052
 51
180.0
  0
ARC
  5
434
100
AcDbEntity
  8
0
100
AcDbCircle
 62
7
  6
CONTINUOUS
 10
693.4543944852
 20
709.648619216
 40
6.5
100
AcDbArc
 50
0.0
 51
22.619864948
  0
SPLINE
  5
435
100
AcDbEntity
  8
RUNDUNGEN
100
AcDbSpline
 62
7
  6
CONTINUOUS
 70
0
 71
3
 72
17
 73
13
 74
0
 42
0.0000001
 43
0.0000001
 44
0.0000000001
 40
0.0
 40
0.0
 40
0.0
 40
0.0
 40
0.2579285572
 40
0.3867649615
 40
0.5153217474
 40
0.6431621208
 40
0.7064585795
 40
0.7686133724
 40
0.8279441064
 40
0.8834277013
 40
0.9407542255
 40
1.0
 40
1.0
 40
1.0
 40
1.0
 10
417.9750815564
 20
93.4989779538
 30
0.0
 10
417.9750815461
 20
93.6056621294
 30
0.0
 10
417.9705383563
 20
93.7657271245
 30
0.0
 10
417.9521433329
 20
93.97814493
 30
0.0
 10
417.929979456
 20
94.1360204403
 30
0.0
 10
417.9015416808
 20
94.2654163315
 30
0.0
 10
417.8665083446
 20
94.3645638302
 30
0.0
 10
417.8317383079
 20
94.4323325259
 30
0.0
 10
417.7789727341
 20
94.4888754756
 30
0.0
 10
417.7013429128
 20
94.4943625948
 30
0.0
 10
417.6388278057
 20
94.4562903834
 30
0.0
 10
417.6033615859
 20
94.42376667
 30
0.0
 10
417.5863535011
 20
94.4061249844
 30
0.0
  0
SPLINE
  5
436
100
AcDbEntity
  8
RUNDUNGEN
100
AcDbSpline
 62
7
  6
CONTINUOUS
 70
0
 71
3
 72
17
 73
13
 74
0
 42
0.0000001
 43
0.0000001
 44
0.0000000001
 40
0.0
 40
0.0
 40
0.0
 40
0.0
 40
0.0592080877
 40
0.1167143071
 40
0.1725149602
 40
0.2316419881
 40
0.2937524523
 40
0.3570332612
 40
0.4848302657
 40
0.6133499979
 40
0.7421480754
 40
1.0
 40
1.0
 40
1.0
 40
1.0
 10
457.1202541258
 20
94.4061236785
 30
0.0
 10
457.1032572236
 20
94.4237542296
 30
0.0
 10
457.0676940169
 20
94.4561716094
 30
0.0
 10
457.005180321
 20
94.4949062551
 30
0.0
 10
456.9273699797
 20
94.4884531807
 30
0.0
 10
456.8748067684
 20
94.4319731521
 30
0.0
 10
456.8399363069
 20
94.3643228695
 30
0.0
 10
456.8050580661
 20
94.2651766219
 30
0.0
 10
456.7765751077
 20
94.1358363802
 30
0.0
 10
456.7544536461
 20
93.9780029591
 30
0.0
 10
456.7360623551
 20
93.7656511641
 30
0.0
 10
456.7315230717
 20
93.6056342196
 30
0.0
 10
456.7315248039
 20
93.4989825648
 30
0.0
  0
SPLINE
  5
437
100
AcDbEntity
  8
RUNDUNGEN
100
AcDbSpline
 62
7
  6
CONTINUOUS
 70
0
 71
3
 72
9
 73
5
 74
0
 42
0.0000001
 43
0.0000001
 44
0.0000000001
 40
0.0
 40
0.0
 40
0.0
 40
0.0
 40
0.2607867014
 40
1.0
 40
1.0
 40
1.0
 40
1.0
 10
417.5863535011
 20
94.4061249844
 30
0.0
 10
417.5780871695
 20
94.3975508432
 30
0.0
 10
417.544966773
 20
94.3664472203
 30
0.0
 10
417.4984920174
 20
94.3467346526
 30
0.0
 10
417.4647399952
 20
94.3474456836
 30
0.0
  0
SPLINE
  5
438
100
AcDbEntity
  8
BEZUGSACHSEN
100
AcDbSpline
 62
7
  6
CONTINUOUS
 70
0
 71
3
 72
37
 73
33
 74
0
 42
0.0000001
 43
0.0000001
 44
0.0000000001
 40
0.0
 40
0.0
 40
0.0
 40
0.0
 40
0.0692670408
 40
0.138054113
 40
0.2061716125
 40
0.2732964919
 40
0.3063167248
 40
0.3388215074
 40
0.3706217739
 40
0.4014145525
 40
0.4306915428
 40
0.4445167074
 40
0.4575989485
 40
0.4697591034
 40
0.4808327488
 40
0.4907981061
 40
0.4999999948
 40
0.5092018823
 40
0.5191672353
 40
0.5302408791
 40
0.5424010441
 40
0.5554832816
 40
0.5693084495
 40
0.5985854413
 40
0.6293782222
 40
0.6611784907
 40
0.6936832739
 40
0.7267035066
 40
0.7938283869
 40
0.8619458866
 40
0.9307329591
 40
1.0
 40
1.0
 40
1.0
 40
1.0
 10
416.7315248789
 20
94.3120794235
 30
0.0
 10
416.4770174568
 20
95.710364294
 30
0.0
 10
415.9550621767
 20
98.4946026612
 30
0.0
 10
415.1197703529
 20
102.6418311302
 30
0.0
 10
414.2204989304
 20
106.7307416849
 30
0.0
 10
413.3967504793
 20
110.0841584463
 30
0.0
 10
412.6742186558
 20
112.7084859316
 30
0.0
 10
412.0983906613
 20
114.6208713512
 30
0.0
 10
411.4774628153
 20
116.4712173085
 30
0.0
 10
410.8002239451
 20
118.2310643185
 30
0.0
 10
410.1656362615
 20
119.61041103
 30
0.0
 10
409.6001128164
 20
120.6158256417
 30
0.0
 10
409.1562635592
 20
121.2844940763
 30
0.0
 10
408.6819885931
 20
121.8615799675
 30
0.0
 10
408.1737455558
 20
122.3204231068
 30
0.0
 10
407.6265886803
 20
122.6287102053
 30
0.0
 10
407.042414397
 20
122.741503406
 30
0.0
 10
406.4582401814
 20
122.6287102961
 30
0.0
 10
405.9110834039
 20
122.3204234271
 30
0.0
 10
405.4028397152
 20
121.8615808446
 30
0.0
 10
404.928565122
 20
121.2844944819
 30
0.0
 10
404.4847153434
 20
120.6158261856
 30
0.0
 10
403.9191920072
 20
119.6104114568
 30
0.0
 10
403.2846041103
 20
118.2310647042
 30
0.0
 10
402.607365259
 20
116.4712175485
 30
0.0
 10
401.9864374327
 20
114.6208714835
 30
0.0
 10
401.4106094261
 20
112.7084860155
 30
0.0
 10
400.688077523
 20
110.0841585245
 30
0.0
 10
399.864329133
 20
106.7307417282
 30
0.0
 10
398.9650576681
 20
102.6418311558
 30
0.0
 10
398.1297658488
 20
98.494602673
 30
0.0
 10
397.6078105667
 20
95.7103642978
 30
0.0
 10
397.3533031438
 20
94.3120794235
 30
0.0
  0
SPLINE
  5
439
100
AcDbEntity
  8
BEZUGSACHSEN
100
AcDbSpline
 62
7
  6
CONTINUOUS
 70
0
 71
3
 72
37
 73
33
 74
0
 42
0.0000001
 43
0.0000001
 44
0.0000000001
 40
0.0
 40
0.0
 40
0.0
 40
0.0
 40
0.0692670408
 40
0.138054113
 40
0.2061716125
 40
0.2732964919
 40
0.3063167248
 40
0.3388215074
 40
0.3706217739
 40
0.4014145525
 40
0.4306915428
 40
0.4445167074
 40
0.4575989485
 40
0.4697591034
 40
0.4808327488
 40
0.4907981061
 40
0.4999999948
 40
0.5092018823
 40
0.5191672353
 40
0.5302408791
 40
0.5424010441
 40
0.5554832816
 40
0.5693084495
 40
0.5985854413
 40
0.6293782222
 40
0.6611784907
 40
0.6936832739
 40
0.7267035066
 40
0.7938283869
 40
0.8619458866
 40
0.9307329591
 40
1.0
 40
1.0
 40
1.0
 40
1.0
 10
477.3533031438
 20
94.3120794235
 30
0.0
 10
477.0987957217
 20
95.710364294
 30
0.0
 10
476.5768404417
 20
98.4946026612
 30
0.0
 10
475.7415486179
 20
102.6418311302
 30
0.0
 10
474.8422771954
 20
106.7307416849
 30
0.0
 10
474.0185287442
 20
110.0841584463
 30
0.0
 10
473.2959969207
 20
112.7084859316
 30
0.0
 10
472.7201689262
 20
114.6208713512
 30
0.0
 10
472.0992410802
 20
116.4712173085
 30
0.0
 10
471.42200221
 20
118.2310643185
 30
0.0
 10
470.7874145264
 20
119.61041103
 30
0.0
 10
470.2218910813
 20
120.6158256417
 30
0.0
 10
469.7780418241
 20
121.2844940763
 30
0.0
 10
469.303766858
 20
121.8615799675
 30
0.0
 10
468.7955238207
 20
122.3204231068
 30
0.0
 10
468.2483669452
 20
122.6287102053
 30
0.0
 10
467.6641926619
 20
122.741503406
 30
0.0
 10
467.0800184463
 20
122.6287102961
 30
0.0
 10
466.5328616688
 20
122.3204234271
 30
0.0
 10
466.0246179801
 20
121.8615808446
 30
0.0
 10
465.5503433869
 20
121.2844944819
 30
0.0
 10
465.1064936083
 20
120.6158261856
 30
0.0
 10
464.5409702721
 20
119.6104114568
 30
0.0
 10
463.9063823752
 20
118.2310647042
 30
0.0
 10
463.2291435239
 20
116.4712175485
 30
0.0
 10
462.6082156976
 20
114.6208714835
 30
0.0
 10
462.032387691
 20
112.7084860155
 30
0.0
 10
461.3098557879
 20
110.0841585245
 30
0.0
 10
460.4861073979
 20
106.7307417282
 30
0.0
 10
459.586835933
 20
102.6418311558
 30
0.0
 10
458.7515441137
 20
98.494602673
 30
0.0
 10
458.2295888316
 20
95.7103642978
 30
0.0
 10
457.9750814087
 20
94.3120794235
 30
0.0
  0
SPLINE
  5
43A
100
AcDbEntity
  8
RUNDUNGEN
100
AcDbSpline
 62
7
  6
CONTINUOUS
 70
0
 71
3
 72
9
 73
5
 74
0
 42
0.0000001
 43
0.0000001
 44
0.0000000001
 40
0.0
 40
0.0
 40
0.0
 40
0.0
 40
0.7391193099
 40
1.0
 40
1.0
 40
1.0
 40
1.0
 10
457.2418664281
 20
94.3474456333
 30
0.0
 10
457.2081193371
 20
94.3467347078
 30
0.0
 10
457.1616507305
 20
94.3664521291
 30
0.0
 10
457.12852328
 20
94.3975466099
 30
0.0
 10
457.1202541258
 20
94.4061236785
 30
0.0
  0
SPLINE
  5
43B
100
AcDbEntity
  8
RUNDUNGEN
100
AcDbSpline
 62
9
  6
CONTINUOUS
 70
0
 71
3
 72
9
 73
5
 74
0
 42
0.0000001
 43
0.0000001
 44
0.0000000001
 40
0.0
 40
0.0
 40
0.0
 40
0.0
 40
0.5267694066
 40
1.0
 40
1.0
 40
1.0
 40
1.0
 10
675.8942984535
 20
109.81779177
 30
0.0
 10
676.1083142786
 20
111.080470278
 30
0.0
 10
676.3943747465
 20
113.4999487046
 30
0.0
 10
676.4313445163
 20
115.9351485913
 30
0.0
 10
676.392707183
 20
117.0850227569
 30
0.0
  0
SPLINE
  5
43C
100
AcDbEntity
  8
RUNDUNGEN
100
AcDbSpline
 62
9
  6
CONTINUOUS
 70
0
 71
3
 72
8
 73
4
 74
0
 42
0.0000001
 43
0.0000001
 44
0.0000000001
 40
0.0
 40
0.0
 40
0.0
 40
0.0
 40
1.0
 40
1.0
 40
1.0
 40
1.0
 10
745.954408584
 20
118.3558387901
 30
0.0
 10
745.9543991955
 20
118.4149864235
 30
0.0
 10
745.9411885853
 20
118.4751143189
 30
0.0
 10
745.9179049801
 20
118.5294863371
 30
0.0
  0
SPLINE
  5
43D
100
AcDbEntity
  8
RUNDUNGEN
100
AcDbSpline
 62
9
  6
CONTINUOUS
 70
0
 71
3
 72
11
 73
7
 74
0
 42
0.0000001
 43
0.0000001
 44
0.0000000001
 40
0.0
 40
0.0
 40
0.0
 40
0.0
 40
0.2367068193
 40
0.4813719248
 40
0.7369324544
 40
1.0
 40
1.0
 40
1.0
 40
1.0
 10
745.9543944852
 20
115.8760375009
 30
0.0
 10
745.9543944876
 20
115.9926223843
 30
0.0
 10
745.9000424207
 20
116.2326744243
 30
0.0
 10
745.6732587943
 20
116.5286284018
 30
0.0
 10
745.3417723726
 20
116.7232207068
 30
0.0
 10
745.0839627808
 20
116.767972759
 30
0.0
 10
744.9543944852
 20
116.7679727476
 30
0.0
  0
SPLINE
  5
43E
100
AcDbEntity
  8
RUNDUNGEN
100
AcDbSpline
 62
7
  6
CONTINUOUS
 70
0
 71
3
 72
9
 73
5
 74
0
 42
0.0000001
 43
0.0000001
 44
0.0000000001
 40
0.0
 40
0.0
 40
0.0
 40
0.0
 40
0.1877064634
 40
1.0
 40
1.0
 40
1.0
 40
1.0
 10
675.9543944852
 20
122.0173978996
 30
0.0
 10
675.9543944852
 20
121.9993260927
 30
0.0
 10
675.9534627287
 20
121.9031510668
 30
0.0
 10
675.9513516755
 20
121.8059300694
 30
0.0
 10
675.9358892358
 20
121.7292687473
 30
0.0
  0
SPLINE
  5
43F
100
AcDbEntity
  8
RUNDUNGEN
100
AcDbSpline
 62
7
  6
CONTINUOUS
 70
0
 71
3
 72
11
 73
7
 74
0
 42
0.0000001
 43
0.0000001
 44
0.0000000001
 40
0.0
 40
0.0
 40
0.0
 40
0.0
 40
0.1499401626
 40
0.4010672104
 40
0.6913976704
 40
1.0
 40
1.0
 40
1.0
 40
1.0
 10
675.8942984535
 20
109.81779177
 30
0.0
 10
675.9130410132
 20
109.8184488089
 30
0.0
 10
675.9377482106
 20
109.7542839942
 30
0.0
 10
675.9460076335
 20
109.6785037708
 30
0.0
 10
675.953720471
 20
109.568666446
 30
0.0
 10
675.9543944852
 20
109.4946346451
 30
0.0
 10
675.9543944852
 20
109.4560355772
 30
0.0
  0
SPLINE
  5
440
100
AcDbEntity
  8
RUNDUNGEN
100
AcDbSpline
 62
7
  6
CONTINUOUS
 70
0
 71
3
 72
9
 73
5
 74
0
 42
0.0000001
 43
0.0000001
 44
0.0000000001
 40
0.0
 40
0.0
 40
0.0
 40
0.0
 40
0.6104918175
 40
1.0
 40
1.0
 40
1.0
 40
1.0
 10
674.9543944852
 20
109.8687242655
 30
0.0
 10
675.1452959956
 20
109.8524849739
 30
0.0
 10
675.4581804813
 20
109.8314964796
 30
0.0
 10
675.7721339353
 20
109.8135091726
 30
0.0
 10
675.8942984544
 20
109.8177917699
 30
0.0
  0
SPLINE
  5
441
100
AcDbEntity
  8
RUNDUNGEN
100
AcDbSpline
 62
7
  6
CONTINUOUS
 70
0
 71
3
 72
11
 73
7
 74
0
 42
0.0000001
 43
0.0000001
 44
0.0000000001
 40
0.0
 40
0.0
 40
0.0
 40
0.0
 40
0.2531297675
 40
0.5048183192
 40
0.7537965206
 40
1.0
 40
1.0
 40
1.0
 40
1.0
 10
674.9543944852
 20
120.9425062282
 30
0.0
 10
675.0686545584
 20
120.9431585768
 30
0.0
 10
675.2980935188
 20
120.9828520428
 30
0.0
 10
675.6012794889
 20
121.1506168885
 30
0.0
 10
675.8296382766
 20
121.407381198
 30
0.0
 10
675.9139167748
 20
121.6203270623
 30
0.0
 10
675.9358900712
 20
121.7292685993
 30
0.0
  0
SPLINE
  5
442
100
AcDbEntity
  8
RUNDUNGEN
100
AcDbSpline
 62
9
  6
CONTINUOUS
 70
0
 71
3
 72
9
 73
5
 74
0
 42
0.0000001
 43
0.0000001
 44
0.0000000001
 40
0.0
 40
0.0
 40
0.0
 40
0.0
 40
0.3501663124
 40
1.0
 40
1.0
 40
1.0
 40
1.0
 10
745.9179050167
 20
118.529478087
 30
0.0
 10
745.9147130891
 20
118.5118155257
 30
0.0
 10
745.902885139
 20
118.461830047
 30
0.0
 10
745.8800833275
 20
118.4148758024
 30
0.0
 10
745.8613572619
 20
118.3873291963
 30
0.0
  0
SPLINE
  5
443
100
AcDbEntity
  8
RUNDUNGEN
100
AcDbSpline
 62
9
  6
CONTINUOUS
 70
0
 71
3
 72
13
 73
9
 74
0
 42
0.0000001
 43
0.0000001
 44
0.0000000001
 40
0.0
 40
0.0
 40
0.0
 40
0.0
 40
0.0794249013
 40
0.1608091665
 40
0.2546124791
 40
0.3649142355
 40
0.6422680976
 40
1.0
 40
1.0
 40
1.0
 40
1.0
 10
745.8613572619
 20
118.3873291963
 30
0.0
 10
745.8334588663
 20
118.3462898167
 30
0.0
 10
745.761829078
 20
118.2746692417
 30
0.0
 10
745.6508737202
 20
118.1610318724
 30
0.0
 10
745.5389971412
 20
118.0215442336
 30
0.0
 10
745.3733181137
 20
117.7701076356
 30
0.0
 10
745.1657076406
 20
117.3515295126
 30
0.0
 10
745.0257937245
 20
116.9797659635
 30
0.0
 10
744.9543931496
 20
116.7679691038
 30
0.0
  0
SPLINE
  5
444
100
AcDbEntity
  8
RUNDUNGEN
100
AcDbSpline
 62
7
  6
CONTINUOUS
 70
0
 71
3
 72
9
 73
5
 74
0
 42
0.0000001
 43
0.0000001
 44
0.0000000001
 40
0.0
 40
0.0
 40
0.0
 40
0.0
 40
0.3046817004
 40
1.0
 40
1.0
 40
1.0
 40
1.0
 10
745.7299623231
 20
94.4061249844
 30
0.0
 10
745.7253476143
 20
94.3978344459
 30
0.0
 10
745.709829717
 20
94.3719181108
 30
0.0
 10
745.6813878004
 20
94.3466561186
 30
0.0
 10
745.6597487327
 20
94.3474456836
 30
0.0
  0
SPLINE
  5
445
100
AcDbEntity
  8
RUNDUNGEN
100
AcDbSpline
 62
9
  6
CONTINUOUS
 70
0
 71
3
 72
9
 73
5
 74
0
 42
0.0000001
 43
0.0000001
 44
0.0000000001
 40
0.0
 40
0.0
 40
0.0
 40
0.0
 40
0.2504428196
 40
1.0
 40
1.0
 40
1.0
 40
1.0
 10
744.9543944853
 20
102.153177639
 30
0.0
 10
745.0194903172
 20
101.5064814445
 30
0.0
 10
745.2790476668
 20
98.9242336901
 30
0.0
 10
745.5371943811
 20
96.3418441806
 30
0.0
 10
745.7299608673
 20
94.4061230997
 30
0.0
  0
SPLINE
  5
446
100
AcDbEntity
  8
BEZUGSACHSEN
100
AcDbSpline
 62
7
  6
CONTINUOUS
 70
0
 71
3
 72
33
 73
29
 74
0
 42
0.0000001
 43
0.0000001
 44
0.0000000001
 40
0.0
 40
0.0
 40
0.0
 40
0.0
 40
0.064270187
 40
0.1284015462
 40
0.1923400943
 40
0.2559945777
 40
0.2876710848
 40
0.3192040228
 40
0.3505433944
 40
0.3816107727
 40
0.4122796757
 40
0.4423480535
 40
0.4715460766
 40
0.4858432374
 40
0.4999999918
 40
0.5141567445
 40
0.5284539009
 40
0.5576519368
 40
0.5877203165
 40
0.6183892216
 40
0.649456602
 40
0.6807959752
 40
0.7123289137
 40
0.7440054209
 40
0.8076599051
 40
0.8715984534
 40
0.9357298128
 40
1.0
 40
1.0
 40
1.0
 40
1.0
 10
710.236426788
 20
94.3120794235
 30
0.0
 10
709.7947538284
 20
95.7130705692
 30
0.0
 10
708.8882437212
 20
98.5045193324
 30
0.0
 10
707.4397858642
 20
102.6556608872
 30
0.0
 10
705.8791618984
 20
106.7511155244
 30
0.0
 10
704.4523440756
 20
110.1017912987
 30
0.0
 10
703.2036296767
 20
112.7192561097
 30
0.0
 10
702.2036123045
 20
114.6356156475
 30
0.0
 10
701.1231849614
 20
116.4922223067
 30
0.0
 10
699.9409326842
 20
118.2628651752
 30
0.0
 10
698.6259161475
 20
119.9032078549
 30
0.0
 10
697.1397757694
 20
121.3333768447
 30
0.0
 10
695.6936849419
 20
122.236783429
 30
0.0
 10
694.4299426306
 20
122.6354366806
 30
0.0
 10
693.4543951398
 20
122.739486491
 30
0.0
 10
692.4788477612
 20
122.6354367339
 30
0.0
 10
691.2151051911
 20
122.2367838241
 30
0.0
 10
689.7690140044
 20
121.3333773037
 30
0.0
 10
688.2828730849
 20
119.9032083279
 30
0.0
 10
686.9678564157
 20
118.262865557
 30
0.0
 10
685.7856040864
 20
116.4922225632
 30
0.0
 10
684.7051767862
 20
114.6356157655
 30
0.0
 10
683.7051593911
 20
112.719256185
 30
0.0
 10
682.4564448699
 20
110.1017913968
 30
0.0
 10
681.0296271368
 20
106.7511155563
 30
0.0
 10
679.4690031053
 20
102.6556609168
 30
0.0
 10
678.0205452538
 20
98.5045193441
 30
0.0
 10
677.1140351433
 20
95.7130705729
 30
0.0
 10
676.6723621825
 20
94.3120794235
 30
0.0
  0
SPLINE
  5
447
100
AcDbEntity
  8
BEZUGSACHSEN
100
AcDbSpline
 62
7
  6
CONTINUOUS
 70
0
 71
3
 72
9
 73
5
 74
0
 42
0.0000001
 43
0.0000001
 44
0.0000000001
 40
0.0
 40
0.0
 40
0.0
 40
0.0
 40
0.2515959636
 40
1.0
 40
1.0
 40
1.0
 40
1.0
 10
676.6723621825
 20
94.3120794235
 30
0.0
 10
676.6131316073
 20
94.3241362258
 30
0.0
 10
676.3755242243
 20
94.3608209769
 30
0.0
 10
676.1305833273
 20
94.3479439079
 30
0.0
 10
675.9543944852
 20
94.3120794235
 30
0.0
  0
SPLINE
  5
448
100
AcDbEntity
  8
RUNDUNGEN
100
AcDbSpline
 62
9
  6
CONTINUOUS
 70
0
 71
3
 72
11
 73
7
 74
0
 42
0.0000001
 43
0.0000001
 44
0.0000000001
 40
0.0
 40
0.0
 40
0.0
 40
0.0
 40
0.1865232196
 40
0.4228620696
 40
0.6998826116
 40
1.0
 40
1.0
 40
1.0
 40
1.0
 10
744.9543944016
 20
116.7679709336
 30
0.0
 10
744.6238259017
 20
116.2993515268
 30
0.0
 10
744.0367608657
 20
115.1231404241
 30
0.0
 10
743.4790878094
 20
113.0320909454
 30
0.0
 10
743.327896007
 20
110.5180731498
 30
0.0
 10
743.5727035834
 20
108.7481301988
 30
0.0
 10
743.7780647526
 20
107.8485381695
 30
0.0
  0
SPLINE
  5
449
100
AcDbEntity
  8
RUNDUNGEN
100
AcDbSpline
 62
9
  6
CONTINUOUS
 70
0
 71
3
 72
8
 73
4
 74
0
 42
0.0000001
 43
0.0000001
 44
0.0000000001
 40
0.0
 40
0.0
 40
0.0
 40
0.0
 40
1.0
 40
1.0
 40
1.0
 40
1.0
 10
743.7780652251
 20
107.8485381695
 30
0.0
 10
744.1720018773
 20
105.9504629069
 30
0.0
 10
744.5640494239
 20
104.0519947768
 30
0.0
 10
744.9543944853
 20
102.1531776394
 30
0.0
  0
SPLINE
  5
44A
100
AcDbEntity
  8
RUNDUNGEN
100
AcDbSpline
 62
9
  6
CONTINUOUS
 70
0
 71
3
 72
18
 73
14
 74
0
 42
0.0000001
 43
0.0000001
 44
0.0000000001
 40
0.0
 40
0.0
 40
0.0
 40
0.0
 40
0.0253915704
 40
0.0500353651
 40
0.0778863045
 40
0.1114947589
 40
0.1520186692
 40
0.1998165704
 40
0.3167592659
 40
0.4601895718
 40
0.626133114
 40
0.8087095156
 40
1.0
 40
1.0
 40
1.0
 40
1.0
 10
745.9179070622
 20
118.5294782424
 30
0.0
 10
745.8313538339
 20
118.5899038122
 30
0.0
 10
745.6370847973
 20
118.6823906627
 30
0.0
 10
745.3031188454
 20
118.6770392414
 30
0.0
 10
744.9691887892
 20
118.530951492
 30
0.0
 10
744.6360432098
 20
118.2639471668
 30
0.0
 10
744.3018408544
 20
117.8802335654
 30
0.0
 10
743.8292848293
 20
117.1675908896
 30
0.0
 10
743.2968575717
 20
115.9939016316
 30
0.0
 10
742.8144798354
 20
114.2829012244
 30
0.0
 10
742.5435688146
 20
112.2485016862
 30
0.0
 10
742.560158203
 20
109.9975664535
 30
0.0
 10
742.7808793744
 20
108.4538494674
 30
0.0
 10
742.9413724213
 20
107.6749710383
 30
0.0
  0
SPLINE
  5
44B
100
AcDbEntity
  8
RUNDUNGEN
100
AcDbSpline
 62
7
  6
CONTINUOUS
 70
0
 71
3
 72
8
 73
4
 74
0
 42
0.0000001
 43
0.0000001
 44
0.0000000001
 40
0.0
 40
0.0
 40
0.0
 40
0.0
 40
1.0
 40
1.0
 40
1.0
 40
1.0
 10
745.6597487327
 20
94.3474456836
 30
0.0
 10
745.5182439947
 20
94.3526088354
 30
0.0
 10
745.3751802093
 20
94.3403236634
 30
0.0
 10
745.236426788
 20
94.3120794235
 30
0.0
  0
SPLINE
  5
44C
100
AcDbEntity
  8
BEZUGSACHSEN
100
AcDbSpline
 62
7
  6
CONTINUOUS
 70
0
 71
3
 72
33
 73
29
 74
0
 42
0.0000001
 43
0.0000001
 44
0.0000000001
 40
0.0
 40
0.0
 40
0.0
 40
0.0
 40
0.064270187
 40
0.1284015462
 40
0.1923400943
 40
0.2559945777
 40
0.2876710848
 40
0.3192040228
 40
0.3505433944
 40
0.3816107727
 40
0.4122796757
 40
0.4423480535
 40
0.4715460766
 40
0.4858432374
 40
0.4999999918
 40
0.5141567445
 40
0.5284539009
 40
0.5576519368
 40
0.5877203165
 40
0.6183892216
 40
0.649456602
 40
0.6807959752
 40
0.7123289137
 40
0.7440054209
 40
0.8076599051
 40
0.8715984534
 40
0.9357298128
 40
1.0
 40
1.0
 40
1.0
 40
1.0
 10
745.236426788
 20
94.3120794235
 30
0.0
 10
744.7947538284
 20
95.7130705692
 30
0.0
 10
743.8882437212
 20
98.5045193324
 30
0.0
 10
742.4397858642
 20
102.6556608872
 30
0.0
 10
740.8791618984
 20
106.7511155244
 30
0.0
 10
739.4523440756
 20
110.1017912987
 30
0.0
 10
738.2036296767
 20
112.7192561097
 30
0.0
 10
737.2036123045
 20
114.6356156475
 30
0.0
 10
736.1231849614
 20
116.4922223067
 30
0.0
 10
734.9409326842
 20
118.2628651752
 30
0.0
 10
733.6259161475
 20
119.9032078549
 30
0.0
 10
732.1397757694
 20
121.3333768447
 30
0.0
 10
730.6936849419
 20
122.236783429
 30
0.0
 10
729.4299426306
 20
122.6354366806
 30
0.0
 10
728.4543951398
 20
122.739486491
 30
0.0
 10
727.4788477612
 20
122.6354367339
 30
0.0
 10
726.2151051911
 20
122.2367838241
 30
0.0
 10
724.7690140044
 20
121.3333773037
 30
0.0
 10
723.2828730849
 20
119.9032083279
 30
0.0
 10
721.9678564157
 20
118.262865557
 30
0.0
 10
720.7856040864
 20
116.4922225632
 30
0.0
 10
719.7051767862
 20
114.6356157655
 30
0.0
 10
718.7051593911
 20
112.719256185
 30
0.0
 10
717.4564448699
 20
110.1017913968
 30
0.0
 10
716.0296271368
 20
106.7511155563
 30
0.0
 10
714.4690031053
 20
102.6556609168
 30
0.0
 10
713.0205452538
 20
98.5045193441
 30
0.0
 10
712.1140351433
 20
95.7130705729
 30
0.0
 10
711.6723621825
 20
94.3120794235
 30
0.0
  0
SPLINE
  5
44D
100
AcDbEntity
  8
RUNDUNGEN
100
AcDbSpline
 62
7
  6
CONTINUOUS
 70
0
 71
3
 72
21
 73
17
 74
0
 42
0.0000001
 43
0.0000001
 44
0.0000000001
 40
0.0
 40
0.0
 40
0.0
 40
0.0
 40
0.139419983
 40
0.278690699
 40
0.4175729133
 40
0.5555680239
 40
0.6238891331
 40
0.6913219774
 40
0.7570203031
 40
0.8188148484
 40
0.8464752501
 40
0.8701682681
 40
0.888930783
 40
0.9066975395
 40
0.9492131566
 40
1.0
 40
1.0
 40
1.0
 40
1.0
 10
745.9543945705
 20
93.4989779538
 30
0.0
 10
745.9543945675
 20
93.552333071
 30
0.0
 10
745.9534933906
 20
93.65898854
 30
0.0
 10
745.9491309113
 20
93.8187434675
 30
0.0
 10
745.9411476776
 20
93.9778128312
 30
0.0
 10
745.9305697727
 20
94.1095361172
 30
0.0
 10
745.9184057786
 20
94.2135935024
 30
0.0
 10
745.9069740243
 20
94.2898807388
 30
0.0
 10
745.8919704768
 20
94.3629232108
 30
0.0
 10
745.8755799663
 20
94.4203118915
 30
0.0
 10
745.856563059
 20
94.4593230675
 30
0.0
 10
745.8406559322
 20
94.481309975
 30
0.0
 10
745.8190986539
 20
94.4930436074
 30
0.0
 10
745.7876880339
 20
94.4864935806
 30
0.0
 10
745.7581706089
 20
94.4529233636
 30
0.0
 10
745.7394149208
 20
94.4231072829
 30
0.0
 10
745.7299623231
 20
94.4061249844
 30
0.0
  0
SPLINE
  5
44E
100
AcDbEntity
  8
RUNDUNGEN
100
AcDbSpline
 62
9
  6
CONTINUOUS
 70
0
 71
3
 72
11
 73
7
 74
0
 42
0.0000001
 43
0.0000001
 44
0.0000000001
 40
0.0
 40
0.0
 40
0.0
 40
0.0
 40
0.2210158225
 40
0.4600363668
 40
0.7223430225
 40
1.0
 40
1.0
 40
1.0
 40
1.0
 10
675.954387611
 20
97.2442918411
 30
0.0
 10
675.9538964914
 20
97.3468224192
 30
0.0
 10
675.8953432695
 20
97.5627213908
 30
0.0
 10
675.6643855607
 20
97.8185464695
 30
0.0
 10
675.3355493369
 20
97.9839787706
 30
0.0
 10
675.0832027156
 20
98.0216815166
 30
0.0
 10
674.9543944852
 20
98.0216815165
 30
0.0
  0
LINE
  5
44F
100
AcDbEntity
  8
RUNDUNGEN
100
AcDbLine
 62
9
  6
CONTINUOUS
 10
745.9392235368
 20
122.7909578747
 11
745.9385743803
 21
122.6651173996
  0
LINE
  5
450
100
AcDbEntity
  8
RUNDUNGEN
100
AcDbLine
 62
9
  6
CONTINUOUS
 10
745.9385743803
 20
122.6651173996
 11
745.937771681
 21
122.5089742048
  0
LINE
  5
451
100
AcDbEntity
  8
RUNDUNGEN
100
AcDbLine
 62
9
  6
CONTINUOUS
 10
745.937771681
 20
122.5089742048
 11
745.9179070622
 21
118.5294782424
  0
SPLINE
  5
452
100
AcDbEntity
  8
RUNDUNGEN
100
AcDbSpline
 62
9
  6
CONTINUOUS
 70
0
 71
3
 72
22
 73
18
 74
0
 42
0.0000001
 43
0.0000001
 44
0.0000000001
 40
0.0
 40
0.0
 40
0.0
 40
0.0
 40
0.0646740692
 40
0.1301702974
 40
0.1928470159
 40
0.2457998997
 40
0.2775068209
 40
0.3079397207
 40
0.3332254965
 40
0.3630306355
 40
0.4305762333
 40
0.5032286233
 40
0.5775085376
 40
0.6515263057
 40
0.7241873031
 40
0.8633560319
 40
1.0
 40
1.0
 40
1.0
 40
1.0
 10
675.3364576444
 20
97.1427192184
 30
0.0
 10
675.3723663839
 20
97.1427192213
 30
0.0
 10
675.4448179842
 20
97.1449675607
 30
0.0
 10
675.5508371921
 20
97.1531643914
 30
0.0
 10
675.6529652268
 20
97.1692436454
 30
0.0
 10
675.7258623191
 20
97.1833093668
 30
0.0
 10
675.7992996757
 20
97.2237555776
 30
0.0
 10
675.756204671
 20
97.2721804297
 30
0.0
 10
675.7175439099
 20
97.2940949278
 30
0.0
 10
675.6568722727
 20
97.3275221215
 30
0.0
 10
675.5721220076
 20
97.3676454491
 30
0.0
 10
675.4652793106
 20
97.4207685455
 30
0.0
 10
675.3576279896
 20
97.4795494639
 30
0.0
 10
675.253984568
 20
97.545581264
 30
0.0
 10
675.1288276829
 20
97.6432194593
 30
0.0
 10
674.9977723595
 20
97.7906956848
 30
0.0
 10
674.9544299929
 20
97.9458132102
 30
0.0
 10
674.9543944852
 20
98.0216815168
 30
0.0
  0
SPLINE
  5
453
100
AcDbEntity
  8
RUNDUNGEN
100
AcDbSpline
 62
9
  6
CONTINUOUS
 70
0
 71
3
 72
9
 73
5
 74
0
 42
0.0000001
 43
0.0000001
 44
0.0000000001
 40
0.0
 40
0.0
 40
0.0
 40
0.0
 40
0.5279437189
 40
1.0
 40
1.0
 40
1.0
 40
1.0
 10
674.9543944852
 20
109.8687242655
 30
0.0
 10
675.1736894136
 20
111.0469812747
 30
0.0
 10
675.4640620825
 20
113.3045348257
 30
0.0
 10
675.492417397
 20
115.5795190025
 30
0.0
 10
675.4470047552
 20
116.6501763174
 30
0.0
  0
SPLINE
  5
454
100
AcDbEntity
  8
RUNDUNGEN
100
AcDbSpline
 62
9
  6
CONTINUOUS
 70
0
 71
3
 72
9
 73
5
 74
0
 42
0.0000001
 43
0.0000001
 44
0.0000000001
 40
0.0
 40
0.0
 40
0.0
 40
0.0
 40
0.3378685391
 40
1.0
 40
1.0
 40
1.0
 40
1.0
 10
675.4470047552
 20
116.6501763174
 30
0.0
 10
675.4263725507
 20
117.136603103
 30
0.0
 10
675.3295954203
 20
118.5748234816
 30
0.0
 10
675.1289492406
 20
120.0044865366
 30
0.0
 10
674.9543944852
 20
120.9425062281
 30
0.0
  0
SPLINE
  5
455
100
AcDbEntity
  8
RUNDUNGEN
100
AcDbSpline
 62
9
  6
CONTINUOUS
 70
0
 71
3
 72
8
 73
4
 74
0
 42
0.0000001
 43
0.0000001
 44
0.0000000001
 40
0.0
 40
0.0
 40
0.0
 40
0.0
 40
1.0
 40
1.0
 40
1.0
 40
1.0
 10
713.6634226396
 20
132.1037599111
 30
0.0
 10
712.8103774979
 20
131.7591854174
 30
0.0
 10
711.874404046
 20
131.575686017
 30
0.0
 10
710.9543944852
 20
131.5756265778
 30
0.0
  0
SPLINE
  5
456
100
AcDbEntity
  8
RUNDUNGEN
100
AcDbSpline
 62
9
  6
CONTINUOUS
 70
0
 71
3
 72
9
 73
5
 74
0
 42
0.0000001
 43
0.0000001
 44
0.0000000001
 40
0.0
 40
0.0
 40
0.0
 40
0.0
 40
0.2316768472
 40
1.0
 40
1.0
 40
1.0
 40
1.0
 10
708.2454548487
 20
132.1039279614
 30
0.0
 10
708.2028461275
 20
131.9514291917
 30
0.0
 10
708.0124491156
 20
131.2950080123
 30
0.0
 10
707.8007459611
 20
130.6448604167
 30
0.0
 10
707.6290330853
 20
130.1486192199
 30
0.0
  0
SPLINE
  5
457
100
AcDbEntity
  8
RUNDUNGEN
100
AcDbSpline
 62
9
  6
CONTINUOUS
 70
0
 71
3
 72
9
 73
5
 74
0
 42
0.0000001
 43
0.0000001
 44
0.0000000001
 40
0.0
 40
0.0
 40
0.0
 40
0.0
 40
0.2316600111
 40
1.0
 40
1.0
 40
1.0
 40
1.0
 10
713.6634113148
 20
132.1037813651
 30
0.0
 10
713.7060111281
 20
131.9513049877
 30
0.0
 10
713.8964010456
 20
131.2949374087
 30
0.0
 10
714.1081047427
 20
130.6448479806
 30
0.0
 10
714.2797623844
 20
130.148619216
 30
0.0
  0
SPLINE
  5
458
100
AcDbEntity
  8
RUNDUNGEN
100
AcDbSpline
 62
9
  6
CONTINUOUS
 70
0
 71
3
 72
8
 73
4
 74
0
 42
0.0000001
 43
0.0000001
 44
0.0000000001
 40
0.0
 40
0.0
 40
0.0
 40
0.0
 40
1.0
 40
1.0
 40
1.0
 40
1.0
 10
710.9543944852
 20
131.5756265778
 30
0.0
 10
710.0343849254
 20
131.5756993754
 30
0.0
 10
709.0984099392
 20
131.7591816215
 30
0.0
 10
708.2453663308
 20
132.1037599111
 30
0.0
  0
SPLINE
  5
459
100
AcDbEntity
  8
RUNDUNGEN
100
AcDbSpline
 62
9
  6
CONTINUOUS
 70
0
 71
3
 72
22
 73
18
 74
0
 42
0.0000001
 43
0.0000001
 44
0.0000000001
 40
0.0
 40
0.0
 40
0.0
 40
0.0
 40
0.1785451559
 40
0.3541680803
 40
0.5225091413
 40
0.6784763651
 40
0.749497993
 40
0.8143944256
 40
0.8716735648
 40
0.9197367621
 40
0.9570173156
 40
0.9711409866
 40
0.9820097812
 40
0.989548622
 40
0.9939520326
 40
0.9962628805
 40
1.0
 40
1.0
 40
1.0
 40
1.0
 10
708.2453663308
 20
132.1037599111
 30
0.0
 10
707.6929809957
 20
132.3259177664
 30
0.0
 10
706.635926877
 20
132.863840513
 30
0.0
 10
705.1795375068
 20
133.8235840688
 30
0.0
 10
703.8616594041
 20
134.8469111576
 30
0.0
 10
702.8739640036
 20
135.7212650122
 30
0.0
 10
702.1734982413
 20
136.397244311
 30
0.0
 10
701.7224842263
 20
136.8573642329
 30
0.0
 10
701.3347610954
 20
137.2721714544
 30
0.0
 10
701.0170756934
 20
137.6258797155
 30
0.0
 10
700.7992607502
 20
137.8766328489
 30
0.0
 10
700.6606016634
 20
138.0303448702
 30
0.0
 10
700.5864814964
 20
138.111234356
 30
0.0
 10
700.5303183931
 20
138.1591321718
 30
0.0
 10
700.4921926757
 20
138.1941174329
 30
0.0
 10
700.4521649827
 20
138.183102826
 30
0.0
 10
700.454372678
 20
138.1575280316
 30
0.0
 10
700.4543944852
 20
138.1450660711
 30
0.0
  0
SPLINE
  5
45A
100
AcDbEntity
  8
RUNDUNGEN
100
AcDbSpline
 62
9
  6
CONTINUOUS
 70
0
 71
3
 72
9
 73
5
 74
0
 42
0.0000001
 43
0.0000001
 44
0.0000000001
 40
0.0
 40
0.0
 40
0.0
 40
0.0
 40
0.2311779012
 40
1.0
 40
1.0
 40
1.0
 40
1.0
 10
725.3931853788
 20
134.1468426436
 30
0.0
 10
725.3699773507
 20
134.1454731322
 30
0.0
 10
725.2697710139
 20
134.1363569825
 30
0.0
 10
725.1708235717
 20
134.1162791231
 30
0.0
 10
725.0958011179
 20
134.0975846153
 30
0.0
  0
SPLINE
  5
45B
100
AcDbEntity
  8
RUNDUNGEN
100
AcDbSpline
 62
9
  6
CONTINUOUS
 70
0
 71
3
 72
13
 73
9
 74
0
 42
0.0000001
 43
0.0000001
 44
0.0000000001
 40
0.0
 40
0.0
 40
0.0
 40
0.0
 40
0.0743335242
 40
0.1720638604
 40
0.2878019468
 40
0.4167551997
 40
0.6999531611
 40
1.0
 40
1.0
 40
1.0
 40
1.0
 10
725.0958011179
 20
134.0975846153
 30
0.0
 10
724.8184322764
 20
134.0284683212
 30
0.0
 10
724.2009410754
 20
133.7815137396
 30
0.0
 10
723.1938181835
 20
133.326140728
 30
0.0
 10
721.9958383488
 20
132.7782875208
 30
0.0
 10
720.1349019123
 20
131.9673043802
 30
0.0
 10
717.5783559309
 20
130.980259759
 30
0.0
 10
715.4118463639
 20
130.371596655
 30
0.0
 10
714.2797623785
 20
130.148619216
 30
0.0
  0
SPLINE
  5
45C
100
AcDbEntity
  8
RUNDUNGEN
100
AcDbSpline
 62
9
  6
CONTINUOUS
 70
0
 71
3
 72
11
 73
7
 74
0
 42
0.0000001
 43
0.0000001
 44
0.0000000001
 40
0.0
 40
0.0
 40
0.0
 40
0.0
 40
0.1908182098
 40
0.3152537024
 40
0.5691038115
 40
1.0
 40
1.0
 40
1.0
 40
1.0
 10
721.4543944852
 20
138.1450660711
 30
0.0
 10
721.4544169348
 20
138.1580166865
 30
0.0
 10
721.4562475766
 20
138.1865295627
 30
0.0
 10
721.4098474666
 20
138.1916028708
 30
0.0
 10
721.3692962005
 20
138.1504307633
 30
0.0
 10
721.3346797671
 20
138.1209684957
 30
0.0
 10
721.3141871882
 20
138.1001048005
 30
0.0
  0
SPLINE
  5
45D
100
AcDbEntity
  8
RUNDUNGEN
100
AcDbSpline
 62
9
  6
CONTINUOUS
 70
0
 71
3
 72
13
 73
9
 74
0
 42
0.0000001
 43
0.0000001
 44
0.0000000001
 40
0.0
 40
0.0
 40
0.0
 40
0.0
 40
0.055077453
 40
0.1439202213
 40
0.2581646426
 40
0.3901536515
 40
0.6857512151
 40
1.0
 40
1.0
 40
1.0
 40
1.0
 10
721.3141871882
 20
138.1001048005
 30
0.0
 10
721.1881786934
 20
137.9718143181
 30
0.0
 10
720.8849767912
 20
137.6121423023
 30
0.0
 10
720.3165627876
 20
136.9898292241
 30
0.0
 10
719.5515338311
 20
136.2072707817
 30
0.0
 10
718.2529821987
 20
135.0045579536
 30
0.0
 10
716.3504429677
 20
133.5018412137
 30
0.0
 10
714.6153202407
 20
132.4865973803
 30
0.0
 10
713.6634226396
 20
132.1037599111
 30
0.0
  0
SPLINE
  5
45E
100
AcDbEntity
  8
RUNDUNGEN
100
AcDbSpline
 62
9
  6
CONTINUOUS
 70
0
 71
3
 72
13
 73
9
 74
0
 42
0.0000001
 43
0.0000001
 44
0.0000000001
 40
0.0
 40
0.0
 40
0.0
 40
0.0
 40
0.3000415144
 40
0.5832389287
 40
0.7121927187
 40
0.8279322151
 40
0.9256652222
 40
1.0
 40
1.0
 40
1.0
 40
1.0
 10
707.629026592
 20
130.148619216
 30
0.0
 10
706.4969722766
 20
130.3715806171
 30
0.0
 10
704.3305097272
 20
130.9802448097
 30
0.0
 10
701.7740018054
 20
131.9672514867
 30
0.0
 10
699.9130799874
 20
132.7782305917
 30
0.0
 10
698.7150973616
 20
133.3260878888
 30
0.0
 10
697.7079628218
 20
133.7814582693
 30
0.0
 10
697.0904716181
 20
134.0284319413
 30
0.0
 10
696.8131040336
 20
134.0975611929
 30
0.0
  0
SPLINE
  5
45F
100
AcDbEntity
  8
RUNDUNGEN
100
AcDbSpline
 62
9
  6
CONTINUOUS
 70
0
 71
3
 72
9
 73
5
 74
0
 42
0.0000001
 43
0.0000001
 44
0.0000000001
 40
0.0
 40
0.0
 40
0.0
 40
0.0
 40
0.2695620969
 40
1.0
 40
1.0
 40
1.0
 40
1.0
 10
696.8131040336
 20
134.0975611929
 30
0.0
 10
696.7867933798
 20
134.1041186852
 30
0.0
 10
696.6888322114
 20
134.1268307535
 30
0.0
 10
696.5889515527
 20
134.1425158989
 30
0.0
 10
696.5156035916
 20
134.1468426436
 30
0.0
  0
ENDSEC
  0
SECTION
  2
OBJECTS
  0
DICTIONARY
  5
C
100
AcDbDictionary
280
0
281
1
  3
ACAD_GROUP
350
D
  3
ACAD_MLINESTYLE
350
17
  3
ACAD_LAYOUT
350
1A
  3
ACAD_PLOTSETTINGS
350
19
  3
ACAD_PLOTSTYLENAME
350
E
  0
DICTIONARY
  5
D
102
{ACAD_REACTORS
330
C
102
}
100
AcDbDictionary
280
0
281
1
  0
ACDBDICTIONARYWDFLT
  5
E
102
{ACAD_REACTORS
330
C
102
}
100
AcDbDictionary
281
1
  3
Normal
350
F
100
AcDbDictionaryWithDefault
340
F
  0
DICTIONARY
  5
17
102
{ACAD_REACTORS
330
C
102
}
100
AcDbDictionary
280
0
281
1
  3
Standard
350
18
  0
DICTIONARY
  5
19
102
{ACAD_REACTORS
330
C
102
}
100
AcDbDictionary
281
1
  0
DICTIONARY
  5
1A
102
{ACAD_REACTORS
330
C
102
}
100
AcDbDictionary
281
1
  3
Model
350
460
  3
Layout1
350
461
  0
ACDBPLACEHOLDER
  5
F
102
{ACAD_REACTORS
330
E
102
}
  0
MLINESTYLE
  5
18
102
{ACAD_REACTORS
330
17
102
}
100
AcDbMlineStyle
  2
STANDARD
 70
0
  3

 62
256
 51
90.0
 52
90.0
 71
2
 49
0.5
 62
256
  6
BYLAYER
 49
-0.5
 62
256
  6
BYLAYER
  0
LAYOUT
  5
460
102
{ACAD_REACTORS
330
1A
102
}
100
AcDbPlotSettings
  1

  2
none_device
  4
ISO_A0_(1189.00_x_841.00_MM)
  6

 40
0.0
 41
0.0
 42
0.0
 43
0.0
 44
1189.0
 45
841.0
 46
0.0
 47
0.0
 48
0.0
 49
0.0
140
0.0
141
0.0
142
1.0
143
1.0
 70
1024
 72
1
 73
0
 74
0
  7

 75
0
147
1.0
148
0.0
149
0.0
100
AcDbLayout
  1
Model
 70
0
 71
0
 10
0.0
 20
0.0
 11
1189.0
 21
841.0
 12
0.0
 22
0.0
 32
0.0
 14
0.0
 24
0.0
 34
0.0
 15
0.0
 25
0.0
 35
0.0
146
0.0
 13
0.0
 23
0.0
 33
0.0
 16
1.0
 26
0.0
 36
0.0
 17
0.0
 27
1.0
 37
0.0
 76
0
330
212
345
0
346
0
  0
LAYOUT
  5
461
102
{ACAD_REACTORS
330
1A
102
}
100
AcDbPlotSettings
  1

  2
none_device
  4
ISO_A0_(1189.00_x_841.00_MM)
  6

 40
0.0
 41
0.0
 42
0.0
 43
0.0
 44
1189.0
 45
841.0
 46
0.0
 47
0.0
 48
0.0
 49
0.0
140
0.0
141
0.0
142
1.0
143
1.0
 70
0
 72
1
 73
0
 74
0
  7

 75
0
147
1.0
148
0.0
149
0.0
100
AcDbLayout
  1
Layout1
 70
0
 71
1
 10
0.0
 20
0.0
 11
1189.0
 21
841.0
 12
0.0
 22
0.0
 32
0.0
 14
0.0
 24
0.0
 34
0.0
 15
0.0
 25
0.0
 35
0.0
146
0.0
 13
0.0
 23
0.0
 33
0.0
 16
1.0
 26
0.0
 36
0.0
 17
0.0
 27
1.0
 37
0.0
 76
0
330
213
345
0
346
0
  0
ENDSEC
  0
EOF
