999
DXF file: 001-m36286-p-1.dxf
999
Pro/ENGINEER 2011490 by Parametric Technology Corporation
  0
SECTION
  2
HEADER
  9
$ACADVER
  1
AC1015
  9
$DWGCODEPAGE
  3
ANSI_1252
  9
$EXTMAX
 10
1189.0
 20
841.0
 30
0.0
  9
$EXTMIN
 10
0.0
 20
0.0
 30
0.0
  9
$LIMMIN
 10
0.0
 20
0.0
  9
$LIMMAX
 10
1189.0
 20
841.0
  9
$VIEWCTR
 10
594.5
 20
420.5
  9
$VIEWSIZE
 40
841.0
  9
$CLAYER
  8
0
  9
$LTSCALE
 40
65.395
  9
$CELTYPE
  6
BYLAYER
  9
$DIMSCALE
 40
1.0
  9
$DIMASZ
 40
3.5
  9
$DIMEXO
 40
7.43125
  9
$DIMDLI
 40
45.182
  9
$DIMEXE
 40
21.402
  9
$DIMCEN
 40
10.701
  9
$DIMLFAC
 40
1.0
  9
$DIMBLK
  1
_FILLED
  9
$DIMTXT
 40
3.5
  9
$DIMTOL
 70
1
  9
$DIMLIM
 70
0
  9
$DIMTFAC
 40
1.0
  9
$DIMTP
 40
0.005
  9
$DIMTM
 40
0.005
  9
$PDMODE
 70
3
  9
$PDSIZE
 40
0.3125
  9
$HANDSEED
  5
462
  9
$TILEMODE
 70
1
  9
$MEASUREMENT
 70
1
  9
$INSUNITS
 70
4
  0
ENDSEC
  0
SECTION
  2
CLASSES
  0
CLASS
  1
ACDBDICTIONARYWDFLT
  2
AcDbDictionaryWithDefault
  3
AutoCAD 2000
 90
0
280
0
281
0
  0
CLASS
  1
ACDBPLACEHOLDER
  2
AcDbPlaceHolder
  3
AutoCAD 2000
 90
0
280
0
281
0
  0
CLASS
  1
LAYOUT
  2
AcDbLayout
  3
AutoCAD 2000
 90
0
280
0
281
0
  0
ENDSEC
  0
SECTION
  2
TABLES
  0
TABLE
  2
VPORT
  5
8
100
AcDbSymbolTable
 70
2
  0
VPORT
  5
1F4
100
AcDbSymbolTableRecord
100
AcDbViewportTableRecord
  2
*ACTIVE
 70
0
 10
0.0
 20
0.0
 11
1.0
 21
1.0
 12
594.5
 22
420.5
 13
0.0
 23
0.0
 14
1.0
 24
1.0
 15
0.0
 25
0.0
 16
0.0
 26
0.0
 36
1.0
 17
0.0
 27
0.0
 37
0.0
 40
841.0
 41
1.4137931034
 42
50.0
 43
0.0
 44
0.0
 50
0.0
 51
0.0
 71
0
 72
100
 73
1
 74
1
 75
0
 76
0
 77
0
 78
0
  0
ENDTAB
  0
TABLE
  2
LTYPE
  5
5
100
AcDbSymbolTable
 70
6
  0
LTYPE
  5
14
100
AcDbSymbolTableRecord
100
AcDbLinetypeTableRecord
  2
BYBLOCK
 70
0
  3

 72
65
 73
0
 40
0.0
  0
LTYPE
  5
15
100
AcDbSymbolTableRecord
100
AcDbLinetypeTableRecord
  2
BYLAYER
 70
0
  3

 72
65
 73
0
 40
0.0
  0
LTYPE
  5
16
100
AcDbSymbolTableRecord
100
AcDbLinetypeTableRecord
  2
CONTINUOUS
 70
64
  3
Solid line
 72
65
 73
0
 40
0.0
  0
LTYPE
  5
1F5
100
AcDbSymbolTableRecord
100
AcDbLinetypeTableRecord
  2
CENTER
 70
64
  3
____ _ ____ _ ____ _ ____ _ ____ _ ____ _ ____
 72
65
 73
4
 40
0.6
 49
0.375
 74
0
 49
-0.075
 74
0
 49
0.075
 74
0
 49
-0.075
 74
0
  0
LTYPE
  5
1F6
100
AcDbSymbolTableRecord
100
AcDbLinetypeTableRecord
  2
HIDDEN
 70
64
  3
- - - - - - - - - - - - - - - - - - - -
 72
65
 73
2
 40
0.2
 49
0.1
 74
0
 49
-0.1
 74
0
  0
LTYPE
  5
1F7
100
AcDbSymbolTableRecord
100
AcDbLinetypeTableRecord
  2
PHANTOM
 70
64
  3
_____ _ _ _____ _ _ _____ _ _ _____
 72
65
 73
6
 40
0.8
 49
0.45
 74
0
 49
-0.05
 74
0
 49
0.1
 74
0
 49
-0.05
 74
0
 49
0.1
 74
0
 49
-0.05
 74
0
  0
LTYPE
  5
1F8
100
AcDbSymbolTableRecord
100
AcDbLinetypeTableRecord
  2
DOT
 70
64
  3
. . . . . . . . . . . . . . . . . . . .
 72
65
 73
2
 40
0.2
 49
0.1
 74
0
 49
-0.1
 74
0
  0
LTYPE
  5
1F9
100
AcDbSymbolTableRecord
100
AcDbLinetypeTableRecord
  2
DASHED
 70
64
  3
- - - - - - - - - - - - - - - - - - - -
 72
65
 73
2
 40
0.2
 49
0.1
 74
0
 49
-0.1
 74
0
  0
ENDTAB
  0
TABLE
  2
LAYER
  5
2
100
AcDbSymbolTable
 70
36
  0
LAYER
  5
10
100
AcDbSymbolTableRecord
100
AcDbLayerTableRecord
  2
0
 70
0
 62
7
  6
CONTINUOUS
370
-3
390
F
  0
LAYER
  5
1FA
100
AcDbSymbolTableRecord
100
AcDbLayerTableRecord
  2
DEFAULT_1
 70
0
 62
7
  6
CENTER
370
-3
390
F
  0
LAYER
  5
1FB
100
AcDbSymbolTableRecord
100
AcDbLayerTableRecord
  2
DEFAULT_2
 70
0
 62
8
  6
HIDDEN
370
-3
390
F
  0
LAYER
  5
1FC
100
AcDbSymbolTableRecord
100
AcDbLayerTableRecord
  2
DEFAULT_3
 70
0
 62
7
  6
PHANTOM
370
-3
390
F
  0
LAYER
  5
1FD
100
AcDbSymbolTableRecord
100
AcDbLayerTableRecord
  2
AUSFORMSCHRAEGEN
 70
0
 62
7
  6
CONTINUOUS
370
-3
390
F
  0
LAYER
  5
1FE
100
AcDbSymbolTableRecord
100
AcDbLayerTableRecord
  2
BEZUGSACHSEN
 70
0
 62
7
  6
CONTINUOUS
370
-3
390
F
  0
LAYER
  5
1FF
100
AcDbSymbolTableRecord
100
AcDbLayerTableRecord
  2
BEZUGSEBENEN
 70
0
 62
7
  6
CONTINUOUS
370
-3
390
F
  0
LAYER
  5
200
100
AcDbSymbolTableRecord
100
AcDbLayerTableRecord
  2
BEZUGSPUNKTE
 70
0
 62
7
  6
CONTINUOUS
370
-3
390
F
  0
LAYER
  5
201
100
AcDbSymbolTableRecord
100
AcDbLayerTableRecord
  2
BG_STARTBEZUEGE
 70
0
 62
7
  6
CONTINUOUS
370
-3
390
F
  0
LAYER
  5
202
100
AcDbSymbolTableRecord
100
AcDbLayerTableRecord
  2
FASEN
 70
0
 62
7
  6
CONTINUOUS
370
-3
390
F
  0
LAYER
  5
203
100
AcDbSymbolTableRecord
100
AcDbLayerTableRecord
  2
FLAECHEN
 70
0
 62
7
  6
CONTINUOUS
370
-3
390
F
  0
LAYER
  5
204
100
AcDbSymbolTableRecord
100
AcDbLayerTableRecord
  2
FLAECHENVERBUND
 70
0
 62
7
  6
CONTINUOUS
370
-3
390
F
  0
LAYER
  5
205
100
AcDbSymbolTableRecord
100
AcDbLayerTableRecord
  2
GEWINDE
 70
0
 62
7
  6
CONTINUOUS
370
-3
390
F
  0
LAYER
  5
206
100
AcDbSymbolTableRecord
100
AcDbLayerTableRecord
  2
HILFEN
 70
0
 62
7
  6
CONTINUOUS
370
-3
390
F
  0
LAYER
  5
207
100
AcDbSymbolTableRecord
100
AcDbLayerTableRecord
  2
KONSTRUKTIONSELEMENTE
 70
0
 62
7
  6
CONTINUOUS
370
-3
390
F
  0
LAYER
  5
208
100
AcDbSymbolTableRecord
100
AcDbLayerTableRecord
  2
KURVEN
 70
0
 62
7
  6
CONTINUOUS
370
-3
390
F
  0
LAYER
  5
209
100
AcDbSymbolTableRecord
100
AcDbLayerTableRecord
  2
NORM
 70
0
 62
7
  6
CONTINUOUS
370
-3
390
F
  0
LAYER
  5
20A
100
AcDbSymbolTableRecord
100
AcDbLayerTableRecord
  2
PLATZIERUNG
 70
0
 62
7
  6
CONTINUOUS
370
-3
390
F
  0
LAYER
  5
20B
100
AcDbSymbolTableRecord
100
AcDbLayerTableRecord
  2
PLAZIERUNG
 70
0
 62
7
  6
CONTINUOUS
370
-3
390
F
  0
LAYER
  5
20C
100
AcDbSymbolTableRecord
100
AcDbLayerTableRecord
  2
RUNDUNGEN
 70
0
 62
7
  6
CONTINUOUS
370
-3
390
F
  0
LAYER
  5
20D
100
AcDbSymbolTableRecord
100
AcDbLayerTableRecord
  2
TEIL_STARTBEZUEGE
 70
0
 62
7
  6
CONTINUOUS
370
-3
390
F
  0
LAYER
  5
20E
100
AcDbSymbolTableRecord
100
AcDbLayerTableRecord
  2
T_STARTBEZUEGE
 70
0
 62
7
  6
CONTINUOUS
370
-3
390
F
  0
LAYER
  5
20F
100
AcDbSymbolTableRecord
100
AcDbLayerTableRecord
  2
ZEICHNUNGSBEMASSUNGEN
 70
0
 62
7
  6
CONTINUOUS
370
-3
390
F
  0
ENDTAB
  0
TABLE
  2
STYLE
  5
3
100
AcDbSymbolTable
 70
1
  0
STYLE
  5
11
100
AcDbSymbolTableRecord
100
AcDbTextStyleTableRecord
  2
STANDARD
 70
0
 40
0.0
 41
0.7
 50
0.0
 71
0
 42
0.2
  3
txt
  4

  0
STYLE
  5
210
100
AcDbSymbolTableRecord
100
AcDbTextStyleTableRecord
  2
TEXTSTYLE_1
 70
0
 40
0.0
 41
0.8
 50
0.0
 71
0
 42
0.2
  3
gdt
  4

  0
ENDTAB
  0
TABLE
  2
VIEW
  5
6
100
AcDbSymbolTable
 70
0
  0
ENDTAB
  0
TABLE
  2
UCS
  5
7
100
AcDbSymbolTable
 70
0
  0
ENDTAB
  0
TABLE
  2
APPID
  5
9
100
AcDbSymbolTable
 70
1
  0
APPID
  5
211
100
AcDbSymbolTableRecord
100
AcDbRegAppTableRecord
  2
ACAD
 70
0
  0
ENDTAB
  0
TABLE
  2
BLOCK_RECORD
  5
1
100
AcDbSymbolTable
 70
0
  0
BLOCK_RECORD
  5
212
100
AcDbSymbolTableRecord
100
AcDbBlockTableRecord
  2
*Model_Space
  0
BLOCK_RECORD
  5
213
100
AcDbSymbolTableRecord
100
AcDbBlockTableRecord
  2
*Paper_Space
  0
ENDTAB
  0
TABLE
  2
DIMSTYLE
  5
A
100
AcDbSymbolTable
 70
1
100
AcDbDimStyleTable
 71
0
  0
DIMSTYLE
105
214
100
AcDbSymbolTableRecord
100
AcDbDimStyleTableRecord
  2
STANDARD
 70
0
  3

  4

 40
1.0
 41
3.5
 42
0.0625
 43
0.38
 44
0.18
 45
0.0
 46
0.0
 47
0.005
 48
0.005
140
3.5
141
0.09
142
0.0
143
25.4
144
1.0
145
0.0
146
1.0
147
0.09
 71
1.0
 72
0.0
 73
0
 74
0
 75
0
 76
0
 77
1
 78
8
170
0
171
2
172
0
173
0
174
0
175
0
176
0
177
0
178
5
270
2
271
3
272
3
273
2
274
2
275
0
280
0
281
0
282
0
283
1
284
8
285
0
286
0
287
3
288
0
340
11
  0
ENDTAB
  0
ENDSEC
  0
SECTION
  2
BLOCKS
  0
BLOCK
  5
20
100
AcDbEntity
  8
0
100
AcDbBlockBegin
  2
*Model_Space
 70
0
 10
0.0
 20
0.0
 30
0.0
  3
*Model_Space
  1

  0
ENDBLK
  5
21
100
AcDbEntity
  8
0
100
AcDbBlockEnd
  0
BLOCK
  5
1C
100
AcDbEntity
  8
0
100
AcDbBlockBegin
  2
*Paper_Space
 70
0
 10
0.0
 20
0.0
 30
0.0
  3
*Paper_Space
  1

  0
ENDBLK
  5
1D
100
AcDbEntity
  8
0
100
AcDbBlockEnd
  0
ENDSEC
  0
SECTION
  2
ENTITIES
  0
LINE
  5
215
100
AcDbEntity
  8
0
100
AcDbLine
 62
7
  6
CONTINUOUS
 10
0.0
 20
0.0
 11
0.0
 21
841.0
  0
LINE
  5
216
100
AcDbEntity
  8
0
100
AcDbLine
 62
7
  6
CONTINUOUS
 10
0.0
 20
0.0
 11
1189.0
 21
0.0
  0
LINE
  5
217
100
AcDbEntity
  8
0
100
AcDbLine
 62
7
  6
CONTINUOUS
 10
0.0
 20
841.0
 11
1189.0
 21
841.0
  0
LINE
  5
218
100
AcDbEntity
  8
0
100
AcDbLine
 62
7
  6
CONTINUOUS
 10
1189.0
 20
0.0
 11
1189.0
 21
841.0
  0
LINE
  5
219
100
AcDbEntity
  8
0
100
AcDbLine
 62
7
  6
CONTINUOUS
 10
415.8148416054
 20
65.9457242973
 11
436.8148416054
 21
65.9457242973
  0
LINE
  5
21A
100
AcDbEntity
  8
0
100
AcDbLine
 62
7
  6
CONTINUOUS
 10
414.3148416054
 20
67.4457242973
 11
438.3148416054
 21
67.4457242973
  0
LINE
  5
21B
100
AcDbEntity
  8
0
100
AcDbLine
 62
7
  6
CONTINUOUS
 10
466.3148416054
 20
101.9457242973
 11
386.3148416054
 21
101.9457242973
  0
LINE
  5
21C
100
AcDbEntity
  8
RUNDUNGEN
100
AcDbLine
 62
7
  6
CONTINUOUS
 10
416.8148416054
 20
105.1457242973
 11
435.8148416054
 21
105.1457242973
  0
LINE
  5
21D
100
AcDbEntity
  8
0
100
AcDbLine
 62
7
  6
CONTINUOUS
 10
424.6731750082
 20
110.1557242973
 11
425.2565084111
 21
110.3046604628
  0
LINE
  5
21E
100
AcDbEntity
  8
0
100
AcDbLine
 62
7
  6
CONTINUOUS
 10
435.4115076363
 20
122.9172136361
 11
434.7448416054
 21
122.7470008905
  0
LINE
  5
21F
100
AcDbEntity
  8
0
100
AcDbLine
 62
7
  6
CONTINUOUS
 10
427.4115085899
 20
122.9172136361
 11
426.7448416054
 21
122.7470008905
  0
LINE
  5
220
100
AcDbEntity
  8
0
100
AcDbLine
 62
7
  6
CONTINUOUS
 10
425.2565084111
 20
111.0493413163
 11
424.5273416054
 21
110.9004051639
  0
LINE
  5
221
100
AcDbEntity
  8
0
100
AcDbLine
 62
7
  6
CONTINUOUS
 10
423.0690083068
 20
116.2621073825
 11
423.7981750082
 21
116.411043535
  0
LINE
  5
222
100
AcDbEntity
  8
0
100
AcDbLine
 62
7
  6
CONTINUOUS
 10
434.7448416054
 20
121.7257242973
 11
435.5781755745
 21
121.8959370578
  0
LINE
  5
223
100
AcDbEntity
  8
0
100
AcDbLine
 62
7
  6
CONTINUOUS
 10
426.7448416054
 20
121.7257242973
 11
427.5781746208
 21
121.8959370578
  0
LINE
  5
224
100
AcDbEntity
  8
0
100
AcDbLine
 62
7
  6
CONTINUOUS
 10
423.9440082025
 20
117.1557242973
 11
422.9231749039
 21
117.0067881448
  0
LINE
  5
225
100
AcDbEntity
  8
0
100
AcDbLine
 62
7
  6
CONTINUOUS
 10
423.5065082025
 20
110.1557242973
 11
424.6731750082
 21
110.1557242973
  0
LINE
  5
226
100
AcDbEntity
  8
0
100
AcDbLine
 62
7
  6
CONTINUOUS
 10
424.5273416054
 20
110.9004051639
 11
423.6523416054
 21
110.9004051639
  0
LINE
  5
227
100
AcDbEntity
  8
0
100
AcDbLine
 62
7
  6
CONTINUOUS
 10
422.1940082547
 20
111.7940221829
 11
421.4648416054
 21
111.7940221829
  0
LINE
  5
228
100
AcDbEntity
  8
0
100
AcDbLine
 62
7
  6
CONTINUOUS
 10
423.7981750082
 20
113.4323200686
 11
424.3815082025
 21
113.4323200686
  0
LINE
  5
229
100
AcDbEntity
  8
0
100
AcDbLine
 62
7
  6
CONTINUOUS
 10
424.3815082025
 20
114.0280646784
 11
423.7981750082
 21
114.0280646784
  0
LINE
  5
22A
100
AcDbEntity
  8
0
100
AcDbLine
 62
7
  6
CONTINUOUS
 10
427.8815084111
 20
114.3259369833
 11
429.0481752169
 21
114.3259369833
  0
LINE
  5
22B
100
AcDbEntity
  8
0
100
AcDbLine
 62
7
  6
CONTINUOUS
 10
429.7773416054
 20
114.3259369833
 11
431.3815079939
 21
114.3259369833
  0
LINE
  5
22C
100
AcDbEntity
  8
0
100
AcDbLine
 62
7
  6
CONTINUOUS
 10
431.3815079939
 20
114.9216815931
 11
429.7773416054
 21
114.9216815931
  0
LINE
  5
22D
100
AcDbEntity
  8
0
100
AcDbLine
 62
7
  6
CONTINUOUS
 10
429.0481752169
 20
114.9216815931
 11
427.8815084111
 21
114.9216815931
  0
LINE
  5
22E
100
AcDbEntity
  8
0
100
AcDbLine
 62
7
  6
CONTINUOUS
 10
421.6106749431
 20
115.5174266202
 11
422.3398416054
 21
115.5174266202
  0
LINE
  5
22F
100
AcDbEntity
  8
0
100
AcDbLine
 62
7
  6
CONTINUOUS
 10
429.7773416054
 20
116.11317123
 11
429.0481752169
 21
116.11317123
  0
LINE
  5
230
100
AcDbEntity
  8
0
100
AcDbLine
 62
7
  6
CONTINUOUS
 10
423.7981750082
 20
116.411043535
 11
424.3815082025
 21
116.411043535
  0
LINE
  5
231
100
AcDbEntity
  8
0
100
AcDbLine
 62
7
  6
CONTINUOUS
 10
424.2356750082
 20
117.1557242973
 11
423.9440082025
 21
117.1557242973
  0
LINE
  5
232
100
AcDbEntity
  8
0
100
AcDbLine
 62
7
  6
CONTINUOUS
 10
415.7448416054
 20
121.7257242973
 11
416.7448416054
 21
121.7257242973
  0
LINE
  5
233
100
AcDbEntity
  8
0
100
AcDbLine
 62
7
  6
CONTINUOUS
 10
420.9115081131
 20
121.7257242973
 11
422.0781750977
 21
121.7257242973
  0
LINE
  5
234
100
AcDbEntity
  8
0
100
AcDbLine
 62
7
  6
CONTINUOUS
 10
426.0781746208
 20
121.7257242973
 11
426.7448416054
 21
121.7257242973
  0
LINE
  5
235
100
AcDbEntity
  8
0
100
AcDbLine
 62
7
  6
CONTINUOUS
 10
430.7448416054
 20
121.7257242973
 11
434.7448416054
 21
121.7257242973
  0
LINE
  5
236
100
AcDbEntity
  8
0
100
AcDbLine
 62
7
  6
CONTINUOUS
 10
434.7448416054
 20
122.7470008905
 11
431.7448416054
 21
122.7470008905
  0
LINE
  5
237
100
AcDbEntity
  8
0
100
AcDbLine
 62
7
  6
CONTINUOUS
 10
426.7448416054
 20
122.7470008905
 11
426.0781746208
 21
122.7470008905
  0
LINE
  5
238
100
AcDbEntity
  8
0
100
AcDbLine
 62
7
  6
CONTINUOUS
 10
416.7448416054
 20
125.3001924331
 11
419.5781748592
 21
125.3001924331
  0
LINE
  5
239
100
AcDbEntity
  8
0
100
AcDbLine
 62
7
  6
CONTINUOUS
 10
419.9115081131
 20
126.3214689071
 11
416.7448416054
 21
126.3214689071
  0
LINE
  5
23A
100
AcDbEntity
  8
0
100
AcDbLine
 62
7
  6
CONTINUOUS
 10
431.7448416054
 20
128.7044478233
 11
434.7448416054
 21
128.7044478233
  0
LINE
  5
23B
100
AcDbEntity
  8
0
100
AcDbLine
 62
7
  6
CONTINUOUS
 10
416.7448416054
 20
128.8746605689
 11
419.9115081131
 21
128.8746605689
  0
LINE
  5
23C
100
AcDbEntity
  8
0
100
AcDbLine
 62
7
  6
CONTINUOUS
 10
434.7448416054
 20
129.7257242973
 11
430.7448416054
 21
129.7257242973
  0
LINE
  5
23D
100
AcDbEntity
  8
0
100
AcDbLine
 62
7
  6
CONTINUOUS
 10
429.4115085899
 20
129.7257242973
 11
428.4115085899
 21
129.7257242973
  0
LINE
  5
23E
100
AcDbEntity
  8
0
100
AcDbLine
 62
7
  6
CONTINUOUS
 10
424.4115085899
 20
129.7257242973
 11
423.4115081131
 21
129.7257242973
  0
LINE
  5
23F
100
AcDbEntity
  8
0
100
AcDbLine
 62
7
  6
CONTINUOUS
 10
419.7448416054
 20
129.7257242973
 11
415.7448416054
 21
129.7257242973
  0
LINE
  5
240
100
AcDbEntity
  8
0
100
AcDbLine
 62
7
  6
CONTINUOUS
 10
425.2565084111
 20
117.0067881448
 11
424.2356750082
 21
117.1557242973
  0
LINE
  5
241
100
AcDbEntity
  8
0
100
AcDbLine
 62
7
  6
CONTINUOUS
 10
430.2148416054
 20
110.3046604628
 11
431.0898416054
 21
110.1557242973
  0
LINE
  5
242
100
AcDbEntity
  8
0
100
AcDbLine
 62
7
  6
CONTINUOUS
 10
424.3815082025
 20
113.4323200686
 11
425.2565084111
 21
113.2833839161
  0
LINE
  5
243
100
AcDbEntity
  8
0
100
AcDbLine
 62
7
  6
CONTINUOUS
 10
423.6523416054
 20
110.9004051639
 11
422.9231749039
 21
111.0493413163
  0
LINE
  5
244
100
AcDbEntity
  8
0
100
AcDbLine
 62
7
  6
CONTINUOUS
 10
431.0898416054
 20
110.7514689592
 11
430.3606752169
 21
110.9004051639
  0
LINE
  5
245
100
AcDbEntity
  8
0
100
AcDbLine
 62
7
  6
CONTINUOUS
 10
424.3815082025
 20
116.411043535
 11
425.1106747996
 21
116.2621073825
  0
LINE
  5
246
100
AcDbEntity
  8
0
100
AcDbLine
 62
7
  6
CONTINUOUS
 10
425.2448416054
 20
121.8959370578
 11
426.0781746208
 21
121.7257242973
  0
LINE
  5
247
100
AcDbEntity
  8
0
100
AcDbLine
 62
7
  6
CONTINUOUS
 10
422.9231749039
 20
110.3046604628
 11
423.5065082025
 21
110.1557242973
  0
LINE
  5
248
100
AcDbEntity
  8
0
100
AcDbLine
 62
7
  6
CONTINUOUS
 10
426.0781746208
 20
122.7470008905
 11
425.4115085899
 21
122.9172136361
  0
LINE
  5
249
100
AcDbEntity
  8
0
100
AcDbLine
 62
7
  6
CONTINUOUS
 10
429.7773416054
 20
110.4535966282
 11
430.2148416054
 21
110.3046604628
  0
LINE
  5
24A
100
AcDbEntity
  8
RUNDUNGEN
100
AcDbLine
 62
7
  6
CONTINUOUS
 10
435.8148416054
 20
145.6457242973
 11
416.8148416054
 21
145.6457242973
  0
LINE
  5
24B
100
AcDbEntity
  8
0
100
AcDbLine
 62
7
  6
CONTINUOUS
 10
420.5781750977
 20
129.5555115516
 11
419.7448416054
 21
129.7257242973
  0
LINE
  5
24C
100
AcDbEntity
  8
0
100
AcDbLine
 62
7
  6
CONTINUOUS
 10
435.5781755745
 20
129.5555115516
 11
434.7448416054
 21
129.7257242973
  0
LINE
  5
24D
100
AcDbEntity
  8
0
100
AcDbLine
 62
7
  6
CONTINUOUS
 10
434.7448416054
 20
128.7044478233
 11
435.4115076363
 21
128.5342350776
  0
LINE
  5
24E
100
AcDbEntity
  8
0
100
AcDbLine
 62
7
  6
CONTINUOUS
 10
419.9115081131
 20
128.8746605689
 11
420.4115081131
 21
128.7044478233
  0
LINE
  5
24F
100
AcDbEntity
  8
0
100
AcDbLine
 62
7
  6
CONTINUOUS
 10
426.2773416054
 20
113.4323200686
 11
425.5481747996
 21
113.7301923735
  0
LINE
  5
250
100
AcDbEntity
  8
0
100
AcDbLine
 62
7
  6
CONTINUOUS
 10
422.3398416054
 20
110.6025328068
 11
422.9231749039
 21
110.3046604628
  0
LINE
  5
251
100
AcDbEntity
  8
0
100
AcDbLine
 62
7
  6
CONTINUOUS
 10
422.9231749039
 20
111.0493413163
 11
422.6315083068
 21
111.1982774688
  0
LINE
  5
252
100
AcDbEntity
  8
0
100
AcDbLine
 62
7
  6
CONTINUOUS
 10
425.8398416054
 20
116.7089158399
 11
425.2565084111
 21
117.0067881448
  0
LINE
  5
253
100
AcDbEntity
  8
0
100
AcDbLine
 62
7
  6
CONTINUOUS
 10
424.5781746208
 20
122.2363625939
 11
425.2448416054
 21
121.8959370578
  0
LINE
  5
254
100
AcDbEntity
  8
0
100
AcDbLine
 62
7
  6
CONTINUOUS
 10
414.3148416054
 20
67.4457242973
 11
415.8148416054
 21
65.9457242973
  0
LINE
  5
255
100
AcDbEntity
  8
FASEN
100
AcDbLine
 62
7
  6
CONTINUOUS
 10
461.2339457579
 20
153.9609165442
 11
391.3957374528
 21
153.9609165442
  0
LINE
  5
256
100
AcDbEntity
  8
FASEN
100
AcDbLine
 62
7
  6
CONTINUOUS
 10
460.0602975802
 20
154.9457242973
 11
392.5693856305
 21
154.9457242973
  0
LINE
  5
257
100
AcDbEntity
  8
RUNDUNGEN
100
AcDbLine
 62
7
  6
CONTINUOUS
 10
402.3605102952
 20
164.9457242973
 11
450.2691770726
 21
164.9457242973
  0
LINE
  5
258
100
AcDbEntity
  8
0
100
AcDbLine
 62
7
  6
CONTINUOUS
 10
436.2448416054
 20
129.2150860603
 11
435.5781755745
 21
129.5555115516
  0
LINE
  5
259
100
AcDbEntity
  8
0
100
AcDbLine
 62
7
  6
CONTINUOUS
 10
421.9023416054
 20
110.9004051639
 11
422.3398416054
 21
110.6025328068
  0
LINE
  5
25A
100
AcDbEntity
  8
0
100
AcDbLine
 62
7
  6
CONTINUOUS
 10
425.2565084111
 20
113.2833839161
 11
425.6940084111
 21
112.9855116112
  0
LINE
  5
25B
100
AcDbEntity
  8
0
100
AcDbLine
 62
7
  6
CONTINUOUS
 10
429.3398416054
 20
110.7514689592
 11
429.7773416054
 21
110.4535966282
  0
LINE
  5
25C
100
AcDbEntity
  8
0
100
AcDbLine
 62
7
  6
CONTINUOUS
 10
430.3606752169
 20
110.9004051639
 11
429.9231752169
 21
111.1982774688
  0
LINE
  5
25D
100
AcDbEntity
  8
0
100
AcDbLine
 62
7
  6
CONTINUOUS
 10
425.1106747996
 20
116.2621073825
 11
425.5481747996
 21
115.9642350776
  0
LINE
  5
25E
100
AcDbEntity
  8
0
100
AcDbLine
 62
7
  6
CONTINUOUS
 10
425.4115085899
 20
122.9172136361
 11
424.9115085899
 21
123.2576392467
  0
LINE
  5
25F
100
AcDbEntity
  8
0
100
AcDbLine
 62
7
  6
CONTINUOUS
 10
411.322363593
 20
189.9457242973
 11
441.3073196177
 21
189.9457242973
  0
LINE
  5
260
100
AcDbEntity
  8
0
100
AcDbLine
 62
7
  6
CONTINUOUS
 10
435.4115076363
 20
128.5342350776
 11
435.9115076363
 21
128.1938095863
  0
LINE
  5
261
100
AcDbEntity
  8
0
100
AcDbLine
 62
7
  6
CONTINUOUS
 10
421.2448416054
 20
129.0448733146
 11
420.5781750977
 21
129.5555115516
  0
LINE
  5
262
100
AcDbEntity
  8
0
100
AcDbLine
 62
7
  6
CONTINUOUS
 10
422.6315083068
 20
111.1982774688
 11
422.3398416054
 21
111.496149878
  0
LINE
  5
263
100
AcDbEntity
  8
0
100
AcDbLine
 62
7
  6
CONTINUOUS
 10
426.4231747996
 20
116.11317123
 11
425.8398416054
 21
116.7089158399
  0
LINE
  5
264
100
AcDbEntity
  8
0
100
AcDbLine
 62
7
  6
CONTINUOUS
 10
423.9115085899
 20
122.9172136361
 11
424.5781746208
 21
122.2363625939
  0
LINE
  5
265
100
AcDbEntity
  8
0
100
AcDbLine
 62
7
  6
CONTINUOUS
 10
420.4115081131
 20
128.7044478233
 11
420.7448416054
 21
128.3640223319
  0
LINE
  5
266
100
AcDbEntity
  8
0
100
AcDbLine
 62
7
  6
CONTINUOUS
 10
436.9115076363
 20
128.5342350776
 11
436.2448416054
 21
129.2150860603
  0
LINE
  5
267
100
AcDbEntity
  8
0
100
AcDbLine
 62
7
  6
CONTINUOUS
 10
438.8148416054
 20
586.4873914606
 11
426.5807990205
 21
577.6332242973
  0
LINE
  5
268
100
AcDbEntity
  8
0
100
AcDbLine
 62
7
  6
CONTINUOUS
 10
423.9212248694
 20
576.0707242973
 11
413.8148416054
 21
568.779058624
  0
LINE
  5
269
100
AcDbEntity
  8
0
100
AcDbLine
 62
7
  6
CONTINUOUS
 10
428.7084583413
 20
576.0707242973
 11
438.8148416054
 21
583.3623899705
  0
LINE
  5
26A
100
AcDbEntity
  8
0
100
AcDbLine
 62
7
  6
CONTINUOUS
 10
413.8148416054
 20
565.654058624
 11
426.5807990205
 21
574.5082242973
  0
LINE
  5
26B
100
AcDbEntity
  8
FASEN
100
AcDbLine
 62
7
  6
CONTINUOUS
 10
460.0602975802
 20
154.9457242973
 11
461.2339457579
 21
153.9609165443
  0
LINE
  5
26C
100
AcDbEntity
  8
0
100
AcDbLine
 62
7
  6
CONTINUOUS
 10
421.7448416054
 20
128.3640223319
 11
421.2448416054
 21
129.0448733146
  0
LINE
  5
26D
100
AcDbEntity
  8
0
100
AcDbLine
 62
7
  6
CONTINUOUS
 10
421.6106749431
 20
111.3472136212
 11
421.9023416054
 21
110.9004051639
  0
LINE
  5
26E
100
AcDbEntity
  8
0
100
AcDbLine
 62
7
  6
CONTINUOUS
 10
426.5690084111
 20
112.9855116112
 11
426.2773416054
 21
113.4323200686
  0
LINE
  5
26F
100
AcDbEntity
  8
0
100
AcDbLine
 62
7
  6
CONTINUOUS
 10
425.5481747996
 20
115.9642350776
 11
425.8398416054
 21
115.5174266202
  0
LINE
  5
270
100
AcDbEntity
  8
0
100
AcDbLine
 62
7
  6
CONTINUOUS
 10
434.5595229637
 20
545.8623929507
 11
432.9637784731
 21
545.3415556438
  0
LINE
  5
271
100
AcDbEntity
  8
0
100
AcDbLine
 62
7
  6
CONTINUOUS
 10
432.9637784731
 20
542.2165556438
 11
434.5595229637
 21
542.7373929507
  0
LINE
  5
272
100
AcDbEntity
  8
0
100
AcDbLine
 62
7
  6
CONTINUOUS
 10
432.4318621528
 20
259.4040496833
 11
430.3042028319
 21
258.8832242973
  0
LINE
  5
273
100
AcDbEntity
  8
0
100
AcDbLine
 62
7
  6
CONTINUOUS
 10
430.3042028319
 20
255.7582242973
 11
432.9637784731
 21
256.2790496833
  0
LINE
  5
274
100
AcDbEntity
  8
0
100
AcDbLine
 62
7
  6
CONTINUOUS
 10
422.3254796338
 20
255.7582242973
 11
430.3042028319
 21
255.7582242973
  0
LINE
  5
275
100
AcDbEntity
  8
0
100
AcDbLine
 62
7
  6
CONTINUOUS
 10
430.3042028319
 20
258.8832242973
 11
422.3254796338
 21
258.8832242973
  0
LINE
  5
276
100
AcDbEntity
  8
0
100
AcDbLine
 62
7
  6
CONTINUOUS
 10
419.6659054827
 20
256.2790496833
 11
422.3254796338
 21
255.7582242973
  0
LINE
  5
277
100
AcDbEntity
  8
0
100
AcDbLine
 62
7
  6
CONTINUOUS
 10
422.3254796338
 20
258.8832242973
 11
420.1978203129
 21
259.4040496833
  0
LINE
  5
278
100
AcDbEntity
  8
0
100
AcDbLine
 62
7
  6
CONTINUOUS
 10
424.9115085899
 20
123.2576392467
 11
424.5781746208
 21
123.7682774837
  0
LINE
  5
279
100
AcDbEntity
  8
0
100
AcDbLine
 62
7
  6
CONTINUOUS
 10
435.9115076363
 20
128.1938095863
 11
436.2448416054
 21
127.6831708724
  0
LINE
  5
27A
100
AcDbEntity
  8
0
100
AcDbLine
 62
7
  6
CONTINUOUS
 10
434.5595229637
 20
542.7373929507
 11
436.6871822845
 21
544.2998929507
  0
LINE
  5
27B
100
AcDbEntity
  8
0
100
AcDbLine
 62
7
  6
CONTINUOUS
 10
417.0063309591
 20
273.4665496833
 11
435.6233526241
 21
273.4665496833
  0
LINE
  5
27C
100
AcDbEntity
  8
0
100
AcDbLine
 62
7
  6
CONTINUOUS
 10
438.8148416054
 20
276.5915496833
 11
413.8148416054
 21
276.5915496833
  0
LINE
  5
27D
100
AcDbEntity
  8
0
100
AcDbLine
 62
7
  6
CONTINUOUS
 10
422.3254796338
 20
280.7582242973
 11
438.8148416054
 21
280.7582242973
  0
LINE
  5
27E
100
AcDbEntity
  8
0
100
AcDbLine
 62
7
  6
CONTINUOUS
 10
438.8148416054
 20
283.8832242973
 11
422.3254796338
 21
283.8832242973
  0
LINE
  5
27F
100
AcDbEntity
  8
0
100
AcDbLine
 62
7
  6
CONTINUOUS
 10
419.6659054827
 20
281.2790496833
 11
422.3254796338
 21
280.7582242973
  0
LINE
  5
280
100
AcDbEntity
  8
0
100
AcDbLine
 62
7
  6
CONTINUOUS
 10
417.5382457894
 20
257.3207242973
 11
419.6659054827
 21
256.2790496833
  0
LINE
  5
281
100
AcDbEntity
  8
0
100
AcDbLine
 62
7
  6
CONTINUOUS
 10
420.1978203129
 20
259.4040496833
 11
418.6020758223
 21
260.4457242973
  0
LINE
  5
282
100
AcDbEntity
  8
0
100
AcDbLine
 62
7
  6
CONTINUOUS
 10
422.3398416054
 20
111.496149878
 11
422.1940082547
 21
111.7940221829
  0
LINE
  5
283
100
AcDbEntity
  8
0
100
AcDbLine
 62
7
  6
CONTINUOUS
 10
425.6940084111
 20
112.9855116112
 11
425.9856747996
 21
112.3897667927
  0
LINE
  5
284
100
AcDbEntity
  8
0
100
AcDbLine
 62
7
  6
CONTINUOUS
 10
429.0481752169
 20
111.3472136212
 11
429.3398416054
 21
110.7514689592
  0
LINE
  5
285
100
AcDbEntity
  8
0
100
AcDbLine
 62
7
  6
CONTINUOUS
 10
423.5781750977
 20
123.598064738
 11
423.9115085899
 21
122.9172136361
  0
LINE
  5
286
100
AcDbEntity
  8
0
100
AcDbLine
 62
7
  6
CONTINUOUS
 10
436.6871822845
 20
544.2998929507
 11
438.2829267752
 21
546.3832242973
  0
LINE
  5
287
100
AcDbEntity
  8
0
100
AcDbLine
 62
7
  6
CONTINUOUS
 10
435.6233526241
 20
546.9040556438
 11
434.5595229637
 21
545.8623929507
  0
LINE
  5
288
100
AcDbEntity
  8
0
100
AcDbLine
 62
7
  6
CONTINUOUS
 10
420.1978203129
 20
295.8623989112
 11
422.3254796338
 21
296.3832242973
  0
LINE
  5
289
100
AcDbEntity
  8
0
100
AcDbLine
 62
7
  6
CONTINUOUS
 10
422.3254796338
 20
299.5082242973
 11
419.6659054827
 21
298.9873989112
  0
LINE
  5
28A
100
AcDbEntity
  8
0
100
AcDbLine
 62
7
  6
CONTINUOUS
 10
422.3254796338
 20
296.3832242973
 11
438.8148416054
 21
296.3832242973
  0
LINE
  5
28B
100
AcDbEntity
  8
0
100
AcDbLine
 62
7
  6
CONTINUOUS
 10
438.8148416054
 20
299.5082242973
 11
422.3254796338
 21
299.5082242973
  0
LINE
  5
28C
100
AcDbEntity
  8
0
100
AcDbLine
 62
7
  6
CONTINUOUS
 10
430.8361176621
 20
304.1957242973
 11
432.9637784731
 21
304.1957242973
  0
LINE
  5
28D
100
AcDbEntity
  8
0
100
AcDbLine
 62
7
  6
CONTINUOUS
 10
422.3254796338
 20
283.8832242973
 11
420.1978203129
 21
284.4040496833
  0
LINE
  5
28E
100
AcDbEntity
  8
0
100
AcDbLine
 62
7
  6
CONTINUOUS
 10
417.5382457894
 20
282.3207242973
 11
419.6659054827
 21
281.2790496833
  0
LINE
  5
28F
100
AcDbEntity
  8
0
100
AcDbLine
 62
7
  6
CONTINUOUS
 10
420.1978203129
 20
284.4040496833
 11
418.6020758223
 21
285.4457242973
  0
LINE
  5
290
100
AcDbEntity
  8
0
100
AcDbLine
 62
7
  6
CONTINUOUS
 10
415.4105862823
 20
259.4040496833
 11
417.5382457894
 21
257.3207242973
  0
LINE
  5
291
100
AcDbEntity
  8
0
100
AcDbLine
 62
7
  6
CONTINUOUS
 10
437.2448416054
 20
127.8533840949
 11
436.9115076363
 21
128.5342350776
  0
LINE
  5
292
100
AcDbEntity
  8
0
100
AcDbLine
 62
7
  6
CONTINUOUS
 10
422.0781750977
 20
121.7257242973
 11
420.5781750977
 21
125.6406179244
  0
LINE
  5
293
100
AcDbEntity
  8
0
100
AcDbLine
 62
7
  6
CONTINUOUS
 10
419.5781748592
 20
125.3001924331
 11
420.9115081131
 21
121.7257242973
  0
LINE
  5
294
100
AcDbEntity
  8
0
100
AcDbLine
 62
7
  6
CONTINUOUS
 10
421.4648416054
 20
111.7940221829
 11
421.6106749431
 21
111.3472136212
  0
LINE
  5
295
100
AcDbEntity
  8
0
100
AcDbLine
 62
7
  6
CONTINUOUS
 10
420.7448416054
 20
128.3640223319
 11
420.9115081131
 21
127.8533840949
  0
LINE
  5
296
100
AcDbEntity
  8
0
100
AcDbLine
 62
7
  6
CONTINUOUS
 10
421.9115081131
 20
127.8533840949
 11
421.7448416054
 21
128.3640223319
  0
LINE
  5
297
100
AcDbEntity
  8
0
100
AcDbLine
 62
7
  6
CONTINUOUS
 10
432.9637784731
 20
307.3207242973
 11
431.3680324923
 21
307.3207242973
  0
LINE
  5
298
100
AcDbEntity
  8
0
100
AcDbLine
 62
7
  6
CONTINUOUS
 10
413.8148416054
 20
320.3415496833
 11
424.9850545299
 21
320.3415496833
  0
LINE
  5
299
100
AcDbEntity
  8
0
100
AcDbLine
 62
7
  6
CONTINUOUS
 10
428.1765435111
 20
320.3415496833
 11
436.1552674543
 21
320.3415496833
  0
LINE
  5
29A
100
AcDbEntity
  8
0
100
AcDbLine
 62
7
  6
CONTINUOUS
 10
438.8148416054
 20
323.4665496833
 11
413.8148416054
 21
323.4665496833
  0
LINE
  5
29B
100
AcDbEntity
  8
0
100
AcDbLine
 62
7
  6
CONTINUOUS
 10
429.2403731715
 20
304.7165496833
 11
430.8361176621
 21
304.1957242973
  0
LINE
  5
29C
100
AcDbEntity
  8
0
100
AcDbLine
 62
7
  6
CONTINUOUS
 10
431.3680324923
 20
307.3207242973
 11
429.7722880017
 21
307.8415496833
  0
LINE
  5
29D
100
AcDbEntity
  8
0
100
AcDbLine
 62
7
  6
CONTINUOUS
 10
427.1127138507
 20
306.2790496833
 11
429.2403731715
 21
304.7165496833
  0
LINE
  5
29E
100
AcDbEntity
  8
0
100
AcDbLine
 62
7
  6
CONTINUOUS
 10
415.4105862823
 20
284.4040496833
 11
417.5382457894
 21
282.3207242973
  0
LINE
  5
29F
100
AcDbEntity
  8
0
100
AcDbLine
 62
7
  6
CONTINUOUS
 10
418.6020758223
 20
260.4457242973
 11
417.5382457894
 21
262.0082242973
  0
LINE
  5
2A0
100
AcDbEntity
  8
0
100
AcDbLine
 62
7
  6
CONTINUOUS
 10
418.6020758223
 20
285.4457242973
 11
417.5382457894
 21
287.0082242973
  0
LINE
  5
2A1
100
AcDbEntity
  8
0
100
AcDbLine
 62
7
  6
CONTINUOUS
 10
414.3467564821
 20
261.4873989112
 11
415.4105862823
 21
259.4040496833
  0
LINE
  5
2A2
100
AcDbEntity
  8
0
100
AcDbLine
 62
7
  6
CONTINUOUS
 10
429.9231752169
 20
111.1982774688
 11
429.7773416054
 21
111.6450860305
  0
LINE
  5
2A3
100
AcDbEntity
  8
0
100
AcDbLine
 62
7
  6
CONTINUOUS
 10
426.7148416054
 20
112.3897667927
 11
426.5690084111
 21
112.9855116112
  0
LINE
  5
2A4
100
AcDbEntity
  8
0
100
AcDbLine
 62
7
  6
CONTINUOUS
 10
426.5690084111
 20
115.5174266202
 11
426.4231747996
 21
116.11317123
  0
LINE
  5
2A5
100
AcDbEntity
  8
0
100
AcDbLine
 62
7
  6
CONTINUOUS
 10
424.5781746208
 20
123.7682774837
 11
424.4115085899
 21
124.4491284663
  0
LINE
  5
2A6
100
AcDbEntity
  8
0
100
AcDbLine
 62
7
  6
CONTINUOUS
 10
436.1552674543
 20
548.4665556438
 11
435.6233526241
 21
546.9040556438
  0
LINE
  5
2A7
100
AcDbEntity
  8
0
100
AcDbLine
 62
7
  6
CONTINUOUS
 10
429.7722880017
 20
307.8415496833
 11
428.7084583413
 21
308.8832242973
  0
LINE
  5
2A8
100
AcDbEntity
  8
0
100
AcDbLine
 62
7
  6
CONTINUOUS
 10
414.3467564821
 20
286.4873989112
 11
415.4105862823
 21
284.4040496833
  0
LINE
  5
2A9
100
AcDbEntity
  8
0
100
AcDbLine
 62
7
  6
CONTINUOUS
 10
436.2448416054
 20
127.6831708724
 11
436.4115076363
 21
127.0023198898
  0
LINE
  5
2AA
100
AcDbEntity
  8
0
100
AcDbLine
 62
7
  6
CONTINUOUS
 10
423.4115081131
 20
124.4491284663
 11
423.5781750977
 21
123.598064738
  0
LINE
  5
2AB
100
AcDbEntity
  8
0
100
AcDbLine
 62
7
  6
CONTINUOUS
 10
386.3148416054
 20
125.1091845048
 11
386.3148416054
 21
101.9457242973
  0
LINE
  5
2AC
100
AcDbEntity
  8
BEZUGSACHSEN
100
AcDbLine
 62
7
  6
CONTINUOUS
 10
394.3148416054
 20
160.3124166445
 11
394.3148416054
 21
154.9457242973
  0
LINE
  5
2AD
100
AcDbEntity
  8
RUNDUNGEN
100
AcDbLine
 62
7
  6
CONTINUOUS
 10
394.3148416054
 20
154.9457242973
 11
394.3148416054
 21
160.3124166445
  0
LINE
  5
2AE
100
AcDbEntity
  8
0
100
AcDbLine
 62
7
  6
CONTINUOUS
 10
405.6930633405
 20
125.1091845048
 11
405.6930633405
 21
101.9457242973
  0
LINE
  5
2AF
100
AcDbEntity
  8
RUNDUNGEN
100
AcDbLine
 62
7
  6
CONTINUOUS
 10
406.9366198703
 20
138.6457242973
 11
406.9366198703
 21
132.9502827206
  0
LINE
  5
2B0
100
AcDbEntity
  8
RUNDUNGEN
100
AcDbLine
 62
7
  6
CONTINUOUS
 10
406.936620018
 20
124.2960830351
 11
406.9366198703
 21
101.9457242973
  0
LINE
  5
2B1
100
AcDbEntity
  8
0
100
AcDbLine
 62
7
  6
CONTINUOUS
 10
438.2829267752
 20
546.3832242973
 11
438.8148416054
 21
548.9873929507
  0
LINE
  5
2B2
100
AcDbEntity
  8
0
100
AcDbLine
 62
7
  6
CONTINUOUS
 10
432.9637784731
 20
369.8207242973
 11
435.0914377939
 21
370.3415496833
  0
LINE
  5
2B3
100
AcDbEntity
  8
0
100
AcDbLine
 62
7
  6
CONTINUOUS
 10
421.7935648035
 20
369.2998989112
 11
423.9212248694
 21
369.8207242973
  0
LINE
  5
2B4
100
AcDbEntity
  8
0
100
AcDbLine
 62
7
  6
CONTINUOUS
 10
428.7084583413
 20
352.6332242973
 11
430.8361176621
 21
352.6332242973
  0
LINE
  5
2B5
100
AcDbEntity
  8
0
100
AcDbLine
 62
7
  6
CONTINUOUS
 10
413.8148416054
 20
353.6748989112
 11
415.9425011125
 21
353.6748989112
  0
LINE
  5
2B6
100
AcDbEntity
  8
0
100
AcDbLine
 62
7
  6
CONTINUOUS
 10
419.1339906525
 20
358.3623989112
 11
428.7084583413
 21
358.3623989112
  0
LINE
  5
2B7
100
AcDbEntity
  8
0
100
AcDbLine
 62
7
  6
CONTINUOUS
 10
430.8361176621
 20
358.3623989112
 11
435.0914377939
 21
358.3623989112
  0
LINE
  5
2B8
100
AcDbEntity
  8
0
100
AcDbLine
 62
7
  6
CONTINUOUS
 10
435.0914377939
 20
360.9665496833
 11
430.8361176621
 21
360.9665496833
  0
LINE
  5
2B9
100
AcDbEntity
  8
0
100
AcDbLine
 62
7
  6
CONTINUOUS
 10
428.7084583413
 20
360.9665496833
 11
418.0701606196
 21
360.9665496833
  0
LINE
  5
2BA
100
AcDbEntity
  8
0
100
AcDbLine
 62
7
  6
CONTINUOUS
 10
430.8361176621
 20
365.1332242973
 11
428.7084583413
 21
365.1332242973
  0
LINE
  5
2BB
100
AcDbEntity
  8
0
100
AcDbLine
 62
7
  6
CONTINUOUS
 10
419.6659054827
 20
369.2998989112
 11
421.7935648035
 21
369.2998989112
  0
LINE
  5
2BC
100
AcDbEntity
  8
0
100
AcDbLine
 62
7
  6
CONTINUOUS
 10
431.8999473226
 20
369.8207242973
 11
432.9637784731
 21
369.8207242973
  0
LINE
  5
2BD
100
AcDbEntity
  8
0
100
AcDbLine
 62
7
  6
CONTINUOUS
 10
418.0701606196
 20
369.8207242973
 11
419.6659054827
 21
369.2998989112
  0
LINE
  5
2BE
100
AcDbEntity
  8
0
100
AcDbLine
 62
7
  6
CONTINUOUS
 10
419.6659054827
 20
371.9040496833
 11
418.6020758223
 21
372.4248989112
  0
LINE
  5
2BF
100
AcDbEntity
  8
0
100
AcDbLine
 62
7
  6
CONTINUOUS
 10
416.4744161289
 20
370.8623989112
 11
418.0701606196
 21
369.8207242973
  0
LINE
  5
2C0
100
AcDbEntity
  8
0
100
AcDbLine
 62
7
  6
CONTINUOUS
 10
415.4105862823
 20
372.4248989112
 11
416.4744161289
 21
370.8623989112
  0
LINE
  5
2C1
100
AcDbEntity
  8
0
100
AcDbLine
 62
7
  6
CONTINUOUS
 10
426.0488841903
 20
308.3623989112
 11
427.1127138507
 21
306.2790496833
  0
LINE
  5
2C2
100
AcDbEntity
  8
0
100
AcDbLine
 62
7
  6
CONTINUOUS
 10
428.7084583413
 20
308.8832242973
 11
428.1765435111
 21
310.4457242973
  0
LINE
  5
2C3
100
AcDbEntity
  8
0
100
AcDbLine
 62
7
  6
CONTINUOUS
 10
417.5382457894
 20
262.0082242973
 11
417.0063309591
 21
264.0915496833
  0
LINE
  5
2C4
100
AcDbEntity
  8
0
100
AcDbLine
 62
7
  6
CONTINUOUS
 10
417.5382457894
 20
287.0082242973
 11
417.0063309591
 21
289.0915496833
  0
LINE
  5
2C5
100
AcDbEntity
  8
0
100
AcDbLine
 62
7
  6
CONTINUOUS
 10
413.8148416054
 20
264.0915496833
 11
414.3467564821
 21
261.4873989112
  0
LINE
  5
2C6
100
AcDbEntity
  8
0
100
AcDbLine
 62
7
  6
CONTINUOUS
 10
413.8148416054
 20
289.0915496833
 11
414.3467564821
 21
286.4873989112
  0
LINE
  5
2C7
100
AcDbEntity
  8
0
100
AcDbLine
 62
7
  6
CONTINUOUS
 10
437.4115076363
 20
127.0023198898
 11
437.2448416054
 21
127.8533840949
  0
LINE
  5
2C8
100
AcDbEntity
  8
BEZUGSACHSEN
100
AcDbLine
 62
7
  6
CONTINUOUS
 10
408.8148416054
 20
189.9457242973
 11
408.8148416054
 21
713.9457242973
  0
LINE
  5
2C9
100
AcDbEntity
  8
0
100
AcDbLine
 62
7
  6
CONTINUOUS
 10
413.8148416054
 20
602.1123907156
 11
413.8148416054
 21
598.9873907156
  0
LINE
  5
2CA
100
AcDbEntity
  8
0
100
AcDbLine
 62
7
  6
CONTINUOUS
 10
413.8148416054
 20
586.4873914606
 11
413.8148416054
 21
583.3623899705
  0
LINE
  5
2CB
100
AcDbEntity
  8
0
100
AcDbLine
 62
7
  6
CONTINUOUS
 10
413.8148416054
 20
568.779058624
 11
413.8148416054
 21
565.654058624
  0
LINE
  5
2CC
100
AcDbEntity
  8
0
100
AcDbLine
 62
7
  6
CONTINUOUS
 10
413.8148416054
 20
561.4873899705
 11
413.8148416054
 21
558.3623929507
  0
LINE
  5
2CD
100
AcDbEntity
  8
0
100
AcDbLine
 62
7
  6
CONTINUOUS
 10
413.8148416054
 20
458.8832242973
 11
413.8148416054
 21
454.7165616042
  0
LINE
  5
2CE
100
AcDbEntity
  8
0
100
AcDbLine
 62
7
  6
CONTINUOUS
 10
413.8148416054
 20
446.3832242973
 11
413.8148416054
 21
442.2165616042
  0
LINE
  5
2CF
100
AcDbEntity
  8
0
100
AcDbLine
 62
7
  6
CONTINUOUS
 10
413.8148416054
 20
433.8832242973
 11
413.8148416054
 21
415.1332242973
  0
LINE
  5
2D0
100
AcDbEntity
  8
0
100
AcDbLine
 62
7
  6
CONTINUOUS
 10
413.8148416054
 20
410.9665616042
 11
413.8148416054
 21
392.2165496833
  0
LINE
  5
2D1
100
AcDbEntity
  8
0
100
AcDbLine
 62
7
  6
CONTINUOUS
 10
413.8148416054
 20
380.7582242973
 11
413.8148416054
 21
376.5915496833
  0
LINE
  5
2D2
100
AcDbEntity
  8
0
100
AcDbLine
 62
7
  6
CONTINUOUS
 10
413.8148416054
 20
323.4665496833
 11
413.8148416054
 21
320.3415496833
  0
LINE
  5
2D3
100
AcDbEntity
  8
0
100
AcDbLine
 62
7
  6
CONTINUOUS
 10
413.8148416054
 20
307.3207242973
 11
413.8148416054
 21
303.6748989112
  0
LINE
  5
2D4
100
AcDbEntity
  8
0
100
AcDbLine
 62
7
  6
CONTINUOUS
 10
413.8148416054
 20
291.1748989112
 11
413.8148416054
 21
289.0915496833
  0
LINE
  5
2D5
100
AcDbEntity
  8
0
100
AcDbLine
 62
7
  6
CONTINUOUS
 10
413.8148416054
 20
276.5915496833
 11
413.8148416054
 21
264.0915496833
  0
LINE
  5
2D6
100
AcDbEntity
  8
RUNDUNGEN
100
AcDbLine
 62
7
  6
CONTINUOUS
 10
413.8148416054
 20
142.6457242973
 11
413.8148416054
 21
108.1457242973
  0
LINE
  5
2D7
100
AcDbEntity
  8
BEZUGSACHSEN
100
AcDbLine
 62
7
  6
CONTINUOUS
 10
414.3148416054
 20
67.4457242973
 11
414.3148416054
 21
101.9457242973
  0
LINE
  5
2D8
100
AcDbEntity
  8
0
100
AcDbLine
 62
7
  6
CONTINUOUS
 10
415.7448416054
 20
129.7257242973
 11
415.7448416054
 21
121.7257242973
  0
LINE
  5
2D9
100
AcDbEntity
  8
0
100
AcDbLine
 62
7
  6
CONTINUOUS
 10
416.4744161289
 20
377.1123989112
 11
416.4744161289
 21
380.2373989112
  0
LINE
  5
2DA
100
AcDbEntity
  8
0
100
AcDbLine
 62
7
  6
CONTINUOUS
 10
416.7448416054
 20
121.7257242973
 11
416.7448416054
 21
125.3001924331
  0
LINE
  5
2DB
100
AcDbEntity
  8
0
100
AcDbLine
 62
7
  6
CONTINUOUS
 10
416.7448416054
 20
126.3214689071
 11
416.7448416054
 21
128.8746605689
  0
LINE
  5
2DC
100
AcDbEntity
  8
0
100
AcDbLine
 62
7
  6
CONTINUOUS
 10
417.0063309591
 20
264.0915496833
 11
417.0063309591
 21
273.4665496833
  0
LINE
  5
2DD
100
AcDbEntity
  8
0
100
AcDbLine
 62
7
  6
CONTINUOUS
 10
417.0063309591
 20
289.0915496833
 11
417.0063309591
 21
291.1748989112
  0
LINE
  5
2DE
100
AcDbEntity
  8
0
100
AcDbLine
 62
7
  6
CONTINUOUS
 10
417.0063309591
 20
392.2165496833
 11
417.0063309591
 21
407.8415496833
  0
LINE
  5
2DF
100
AcDbEntity
  8
0
100
AcDbLine
 62
7
  6
CONTINUOUS
 10
417.0063309591
 20
415.1332242973
 11
417.0063309591
 21
430.7582242973
  0
LINE
  5
2E0
100
AcDbEntity
  8
0
100
AcDbLine
 62
7
  6
CONTINUOUS
 10
419.6659054827
 20
385.4457242973
 11
419.6659054827
 21
388.0498989112
  0
LINE
  5
2E1
100
AcDbEntity
  8
0
100
AcDbLine
 62
7
  6
CONTINUOUS
 10
420.9115081131
 20
127.8533840949
 11
420.9115081131
 21
127.3427453811
  0
LINE
  5
2E2
100
AcDbEntity
  8
0
100
AcDbLine
 62
7
  6
CONTINUOUS
 10
421.9115081131
 20
127.1725326354
 11
421.9115081131
 21
127.8533840949
  0
LINE
  5
2E3
100
AcDbEntity
  8
0
100
AcDbLine
 62
7
  6
CONTINUOUS
 10
423.4115081131
 20
129.7257242973
 11
423.4115081131
 21
124.4491284663
  0
LINE
  5
2E4
100
AcDbEntity
  8
0
100
AcDbLine
 62
7
  6
CONTINUOUS
 10
423.7981750082
 20
114.0280646784
 11
423.7981750082
 21
113.4323200686
  0
LINE
  5
2E5
100
AcDbEntity
  8
0
100
AcDbLine
 62
7
  6
CONTINUOUS
 10
424.4115085899
 20
124.4491284663
 11
424.4115085899
 21
129.7257242973
  0
LINE
  5
2E6
100
AcDbEntity
  8
0
100
AcDbLine
 62
7
  6
CONTINUOUS
 10
424.9850545299
 20
558.3623929507
 11
424.9850545299
 21
548.9873929507
  0
LINE
  5
2E7
100
AcDbEntity
  8
0
100
AcDbLine
 62
7
  6
CONTINUOUS
 10
424.9850545299
 20
320.3415496833
 11
424.9850545299
 21
311.4873989112
  0
LINE
  5
2E8
100
AcDbEntity
  8
0
100
AcDbLine
 62
7
  6
CONTINUOUS
 10
425.5169693601
 20
379.7165496833
 11
425.5169693601
 21
377.6332242973
  0
LINE
  5
2E9
100
AcDbEntity
  8
0
100
AcDbLine
 62
7
  6
CONTINUOUS
 10
425.8398416054
 20
115.5174266202
 11
425.8398416054
 21
115.2195538981
  0
LINE
  5
2EA
100
AcDbEntity
  8
0
100
AcDbLine
 62
7
  6
CONTINUOUS
 10
425.9856747996
 20
112.3897667927
 11
425.9856747996
 21
111.7940221829
  0
LINE
  5
2EB
100
AcDbEntity
  8
0
100
AcDbLine
 62
7
  6
CONTINUOUS
 10
426.5690084111
 20
115.2195538981
 11
426.5690084111
 21
115.5174266202
  0
LINE
  5
2EC
100
AcDbEntity
  8
0
100
AcDbLine
 62
7
  6
CONTINUOUS
 10
426.7148416054
 20
111.7940221829
 11
426.7148416054
 21
112.3897667927
  0
LINE
  5
2ED
100
AcDbEntity
  8
0
100
AcDbLine
 62
7
  6
CONTINUOUS
 10
427.6446286809
 20
377.6332242973
 11
427.6446286809
 21
379.7165496833
  0
LINE
  5
2EE
100
AcDbEntity
  8
0
100
AcDbLine
 62
7
  6
CONTINUOUS
 10
427.8815084111
 20
114.9216815931
 11
427.8815084111
 21
114.3259369833
  0
LINE
  5
2EF
100
AcDbEntity
  8
0
100
AcDbLine
 62
7
  6
CONTINUOUS
 10
428.1765435111
 20
310.4457242973
 11
428.1765435111
 21
320.3415496833
  0
LINE
  5
2F0
100
AcDbEntity
  8
0
100
AcDbLine
 62
7
  6
CONTINUOUS
 10
428.1765435111
 20
548.4665556438
 11
428.1765435111
 21
558.3623929507
  0
LINE
  5
2F1
100
AcDbEntity
  8
0
100
AcDbLine
 62
7
  6
CONTINUOUS
 10
428.4115085899
 20
129.7257242973
 11
428.4115085899
 21
124.4491284663
  0
LINE
  5
2F2
100
AcDbEntity
  8
0
100
AcDbLine
 62
7
  6
CONTINUOUS
 10
428.7084583413
 20
365.1332242973
 11
428.7084583413
 21
360.9665496833
  0
LINE
  5
2F3
100
AcDbEntity
  8
0
100
AcDbLine
 62
7
  6
CONTINUOUS
 10
428.7084583413
 20
358.3623989112
 11
428.7084583413
 21
352.6332242973
  0
LINE
  5
2F4
100
AcDbEntity
  8
0
100
AcDbLine
 62
7
  6
CONTINUOUS
 10
429.0481752169
 20
116.11317123
 11
429.0481752169
 21
114.9216815931
  0
LINE
  5
2F5
100
AcDbEntity
  8
0
100
AcDbLine
 62
7
  6
CONTINUOUS
 10
429.0481752169
 20
114.3259369833
 11
429.0481752169
 21
111.3472136212
  0
LINE
  5
2F6
100
AcDbEntity
  8
0
100
AcDbLine
 62
7
  6
CONTINUOUS
 10
414.3467564821
 20
356.7998989112
 11
413.8148416054
 21
353.6748989112
  0
LINE
  5
2F7
100
AcDbEntity
  8
0
100
AcDbLine
 62
7
  6
CONTINUOUS
 10
425.5169693601
 20
377.6332242973
 11
424.9850545299
 21
374.5082242973
  0
LINE
  5
2F8
100
AcDbEntity
  8
0
100
AcDbLine
 62
7
  6
CONTINUOUS
 10
416.4744161289
 20
380.2373989112
 11
417.0063309591
 21
382.8415496833
  0
LINE
  5
2F9
100
AcDbEntity
  8
0
100
AcDbLine
 62
7
  6
CONTINUOUS
 10
415.9425011125
 20
353.6748989112
 11
416.4744161289
 21
356.2790496833
  0
LINE
  5
2FA
100
AcDbEntity
  8
0
100
AcDbLine
 62
7
  6
CONTINUOUS
 10
414.3467564821
 20
382.8415496833
 11
413.8148416054
 21
380.7582242973
  0
LINE
  5
2FB
100
AcDbEntity
  8
0
100
AcDbLine
 62
7
  6
CONTINUOUS
 10
414.8786713589
 20
358.3623989112
 11
414.3467564821
 21
356.7998989112
  0
LINE
  5
2FC
100
AcDbEntity
  8
0
100
AcDbLine
 62
7
  6
CONTINUOUS
 10
415.4105862823
 20
384.9248989112
 11
414.3467564821
 21
382.8415496833
  0
LINE
  5
2FD
100
AcDbEntity
  8
0
100
AcDbLine
 62
7
  6
CONTINUOUS
 10
417.0063309591
 20
382.8415496833
 11
417.5382457894
 21
383.8832242973
  0
LINE
  5
2FE
100
AcDbEntity
  8
0
100
AcDbLine
 62
7
  6
CONTINUOUS
 10
416.4744161289
 20
386.4873989112
 11
415.4105862823
 21
384.9248989112
  0
LINE
  5
2FF
100
AcDbEntity
  8
0
100
AcDbLine
 62
7
  6
CONTINUOUS
 10
417.5382457894
 20
383.8832242973
 11
418.6020758223
 21
384.9248989112
  0
LINE
  5
300
100
AcDbEntity
  8
0
100
AcDbLine
 62
7
  6
CONTINUOUS
 10
418.0701606196
 20
387.5290496833
 11
416.4744161289
 21
386.4873989112
  0
LINE
  5
301
100
AcDbEntity
  8
0
100
AcDbLine
 62
7
  6
CONTINUOUS
 10
418.6020758223
 20
384.9248989112
 11
419.6659054827
 21
385.4457242973
  0
LINE
  5
302
100
AcDbEntity
  8
0
100
AcDbLine
 62
7
  6
CONTINUOUS
 10
419.6659054827
 20
388.0498989112
 11
418.0701606196
 21
387.5290496833
  0
LINE
  5
303
100
AcDbEntity
  8
0
100
AcDbLine
 62
7
  6
CONTINUOUS
 10
421.7935648035
 20
371.9040496833
 11
419.6659054827
 21
371.9040496833
  0
LINE
  5
304
100
AcDbEntity
  8
0
100
AcDbLine
 62
7
  6
CONTINUOUS
 10
432.9637784731
 20
372.4248989112
 11
431.8999473226
 21
372.4248989112
  0
LINE
  5
305
100
AcDbEntity
  8
0
100
AcDbLine
 62
7
  6
CONTINUOUS
 10
427.6446286809
 20
379.7165496833
 11
425.5169693601
 21
379.7165496833
  0
LINE
  5
306
100
AcDbEntity
  8
0
100
AcDbLine
 62
7
  6
CONTINUOUS
 10
408.3148416054
 20
390.4457242973
 11
408.8148416054
 21
390.4457242973
  0
LINE
  5
307
100
AcDbEntity
  8
0
100
AcDbLine
 62
7
  6
CONTINUOUS
 10
443.8148416054
 20
390.4457242973
 11
444.3148416054
 21
390.4457242973
  0
LINE
  5
308
100
AcDbEntity
  8
0
100
AcDbLine
 62
7
  6
CONTINUOUS
 10
413.8148416054
 20
392.2165496833
 11
417.0063309591
 21
392.2165496833
  0
LINE
  5
309
100
AcDbEntity
  8
0
100
AcDbLine
 62
7
  6
CONTINUOUS
 10
429.7722880017
 20
370.3415496833
 11
431.8999473226
 21
369.8207242973
  0
LINE
  5
30A
100
AcDbEntity
  8
0
100
AcDbLine
 62
7
  6
CONTINUOUS
 10
435.0914377939
 20
387.0082242973
 11
432.9637784731
 21
387.5290496833
  0
LINE
  5
30B
100
AcDbEntity
  8
0
100
AcDbLine
 62
7
  6
CONTINUOUS
 10
431.8999473226
 20
372.4248989112
 11
429.7722880017
 21
373.4665496833
  0
LINE
  5
30C
100
AcDbEntity
  8
0
100
AcDbLine
 62
7
  6
CONTINUOUS
 10
428.1765435111
 20
371.3832242973
 11
429.7722880017
 21
370.3415496833
  0
LINE
  5
30D
100
AcDbEntity
  8
0
100
AcDbLine
 62
7
  6
CONTINUOUS
 10
432.9637784731
 20
384.9248989112
 11
434.5595229637
 21
383.8832242973
  0
LINE
  5
30E
100
AcDbEntity
  8
0
100
AcDbLine
 62
7
  6
CONTINUOUS
 10
418.6020758223
 20
372.4248989112
 11
417.5382457894
 21
373.4665496833
  0
LINE
  5
30F
100
AcDbEntity
  8
0
100
AcDbLine
 62
7
  6
CONTINUOUS
 10
429.7722880017
 20
373.4665496833
 11
428.7084583413
 21
374.5082242973
  0
LINE
  5
310
100
AcDbEntity
  8
0
100
AcDbLine
 62
7
  6
CONTINUOUS
 10
426.5807990205
 20
373.4665496833
 11
428.1765435111
 21
371.3832242973
  0
LINE
  5
311
100
AcDbEntity
  8
0
100
AcDbLine
 62
7
  6
CONTINUOUS
 10
414.3467564821
 20
374.5082242973
 11
415.4105862823
 21
372.4248989112
  0
LINE
  5
312
100
AcDbEntity
  8
0
100
AcDbLine
 62
7
  6
CONTINUOUS
 10
417.5382457894
 20
373.4665496833
 11
417.0063309591
 21
374.5082242973
  0
LINE
  5
313
100
AcDbEntity
  8
0
100
AcDbLine
 62
7
  6
CONTINUOUS
 10
428.7084583413
 20
374.5082242973
 11
427.6446286809
 21
377.6332242973
  0
LINE
  5
314
100
AcDbEntity
  8
0
100
AcDbLine
 62
7
  6
CONTINUOUS
 10
413.8148416054
 20
376.5915496833
 11
414.3467564821
 21
374.5082242973
  0
LINE
  5
315
100
AcDbEntity
  8
0
100
AcDbLine
 62
7
  6
CONTINUOUS
 10
417.0063309591
 20
374.5082242973
 11
416.4744161289
 21
377.1123989112
  0
LINE
  5
316
100
AcDbEntity
  8
BEZUGSACHSEN
100
AcDbLine
 62
7
  6
CONTINUOUS
 10
461.2339457579
 20
153.9609165442
 11
466.3148416054
 21
125.1457242973
  0
LINE
  5
317
100
AcDbEntity
  8
FASEN
100
AcDbLine
 62
7
  6
CONTINUOUS
 10
466.3148415608
 20
125.1457245499
 11
461.2339457579
 21
153.9609165442
  0
LINE
  5
318
100
AcDbEntity
  8
0
100
AcDbLine
 62
7
  6
CONTINUOUS
 10
429.4115085899
 20
124.4491284663
 11
429.4115085899
 21
129.7257242973
  0
LINE
  5
319
100
AcDbEntity
  8
0
100
AcDbLine
 62
7
  6
CONTINUOUS
 10
429.7773416054
 20
111.6450860305
 11
429.7773416054
 21
114.3259369833
  0
LINE
  5
31A
100
AcDbEntity
  8
0
100
AcDbLine
 62
7
  6
CONTINUOUS
 10
429.7773416054
 20
114.9216815931
 11
429.7773416054
 21
116.11317123
  0
LINE
  5
31B
100
AcDbEntity
  8
0
100
AcDbLine
 62
7
  6
CONTINUOUS
 10
430.7448416054
 20
129.7257242973
 11
430.7448416054
 21
121.7257242973
  0
LINE
  5
31C
100
AcDbEntity
  8
0
100
AcDbLine
 62
7
  6
CONTINUOUS
 10
430.8361176621
 20
352.6332242973
 11
430.8361176621
 21
358.3623989112
  0
LINE
  5
31D
100
AcDbEntity
  8
0
100
AcDbLine
 62
7
  6
CONTINUOUS
 10
430.8361176621
 20
360.9665496833
 11
430.8361176621
 21
365.1332242973
  0
LINE
  5
31E
100
AcDbEntity
  8
0
100
AcDbLine
 62
7
  6
CONTINUOUS
 10
431.0898416054
 20
110.1557242973
 11
431.0898416054
 21
110.7514689592
  0
LINE
  5
31F
100
AcDbEntity
  8
0
100
AcDbLine
 62
7
  6
CONTINUOUS
 10
431.3815079939
 20
114.3259369833
 11
431.3815079939
 21
114.9216815931
  0
LINE
  5
320
100
AcDbEntity
  8
0
100
AcDbLine
 62
7
  6
CONTINUOUS
 10
431.7448416054
 20
122.7470008905
 11
431.7448416054
 21
128.7044478233
  0
LINE
  5
321
100
AcDbEntity
  8
0
100
AcDbLine
 62
7
  6
CONTINUOUS
 10
432.9637784731
 20
387.5290496833
 11
432.9637784731
 21
384.9248989112
  0
LINE
  5
322
100
AcDbEntity
  8
0
100
AcDbLine
 62
7
  6
CONTINUOUS
 10
435.0914377939
 20
358.3623989112
 11
435.0914377939
 21
360.9665496833
  0
LINE
  5
323
100
AcDbEntity
  8
0
100
AcDbLine
 62
7
  6
CONTINUOUS
 10
435.6233526241
 20
273.4665496833
 11
435.6233526241
 21
264.0915496833
  0
LINE
  5
324
100
AcDbEntity
  8
0
100
AcDbLine
 62
7
  6
CONTINUOUS
 10
436.1552674543
 20
610.4457242973
 11
436.1552674543
 21
602.1123907156
  0
LINE
  5
325
100
AcDbEntity
  8
0
100
AcDbLine
 62
7
  6
CONTINUOUS
 10
436.1552674543
 20
598.9873907156
 11
436.1552674543
 21
590.6540571339
  0
LINE
  5
326
100
AcDbEntity
  8
0
100
AcDbLine
 62
7
  6
CONTINUOUS
 10
436.1552674543
 20
558.3623929507
 11
436.1552674543
 21
548.4665556438
  0
LINE
  5
327
100
AcDbEntity
  8
0
100
AcDbLine
 62
7
  6
CONTINUOUS
 10
436.1552674543
 20
379.7165496833
 11
436.1552674543
 21
377.6332242973
  0
LINE
  5
328
100
AcDbEntity
  8
0
100
AcDbLine
 62
7
  6
CONTINUOUS
 10
436.1552674543
 20
320.3415496833
 11
436.1552674543
 21
310.4457242973
  0
LINE
  5
329
100
AcDbEntity
  8
0
100
AcDbLine
 62
7
  6
CONTINUOUS
 10
436.4115076363
 20
127.0023198898
 11
436.4115076363
 21
124.4491284663
  0
LINE
  5
32A
100
AcDbEntity
  8
0
100
AcDbLine
 62
7
  6
CONTINUOUS
 10
437.4115076363
 20
124.4491284663
 11
437.4115076363
 21
127.0023198898
  0
LINE
  5
32B
100
AcDbEntity
  8
BEZUGSACHSEN
100
AcDbLine
 62
7
  6
CONTINUOUS
 10
438.3148416054
 20
67.4457242973
 11
438.3148416054
 21
101.9457242973
  0
LINE
  5
32C
100
AcDbEntity
  8
RUNDUNGEN
100
AcDbLine
 62
7
  6
CONTINUOUS
 10
438.8148416054
 20
108.1457242973
 11
438.8148416054
 21
142.6457242973
  0
LINE
  5
32D
100
AcDbEntity
  8
0
100
AcDbLine
 62
7
  6
CONTINUOUS
 10
438.8148416054
 20
264.0915496833
 11
438.8148416054
 21
276.5915496833
  0
LINE
  5
32E
100
AcDbEntity
  8
0
100
AcDbLine
 62
7
  6
CONTINUOUS
 10
438.8148416054
 20
280.7582242973
 11
438.8148416054
 21
283.8832242973
  0
LINE
  5
32F
100
AcDbEntity
  8
0
100
AcDbLine
 62
7
  6
CONTINUOUS
 10
438.8148416054
 20
296.3832242973
 11
438.8148416054
 21
299.5082242973
  0
LINE
  5
330
100
AcDbEntity
  8
0
100
AcDbLine
 62
7
  6
CONTINUOUS
 10
438.8148416054
 20
310.9665496833
 11
438.8148416054
 21
323.4665496833
  0
LINE
  5
331
100
AcDbEntity
  8
0
100
AcDbLine
 62
7
  6
CONTINUOUS
 10
438.8148416054
 20
378.1540496833
 11
438.8148416054
 21
379.1957242973
  0
LINE
  5
332
100
AcDbEntity
  8
0
100
AcDbLine
 62
7
  6
CONTINUOUS
 10
438.8148416054
 20
407.8415496833
 11
438.8148416054
 21
410.9665616042
  0
LINE
  5
333
100
AcDbEntity
  8
0
100
AcDbLine
 62
7
  6
CONTINUOUS
 10
438.8148416054
 20
430.7582242973
 11
438.8148416054
 21
433.8832242973
  0
LINE
  5
334
100
AcDbEntity
  8
0
100
AcDbLine
 62
7
  6
CONTINUOUS
 10
438.8148416054
 20
438.0498869903
 11
438.8148416054
 21
441.1748869903
  0
LINE
  5
335
100
AcDbEntity
  8
0
100
AcDbLine
 62
7
  6
CONTINUOUS
 10
438.8148416054
 20
448.4665616042
 11
438.8148416054
 21
452.6332242973
  0
LINE
  5
336
100
AcDbEntity
  8
0
100
AcDbLine
 62
7
  6
CONTINUOUS
 10
438.8148416054
 20
459.9248869903
 11
438.8148416054
 21
463.0498869903
  0
LINE
  5
337
100
AcDbEntity
  8
0
100
AcDbLine
 62
7
  6
CONTINUOUS
 10
438.8148416054
 20
548.9873929507
 11
438.8148416054
 21
561.4873899705
  0
LINE
  5
338
100
AcDbEntity
  8
0
100
AcDbLine
 62
7
  6
CONTINUOUS
 10
438.8148416054
 20
565.654058624
 11
438.8148416054
 21
568.779058624
  0
LINE
  5
339
100
AcDbEntity
  8
0
100
AcDbLine
 62
7
  6
CONTINUOUS
 10
438.8148416054
 20
583.3623899705
 11
438.8148416054
 21
586.4873914606
  0
LINE
  5
33A
100
AcDbEntity
  8
0
100
AcDbLine
 62
7
  6
CONTINUOUS
 10
438.8148416054
 20
590.6540571339
 11
438.8148416054
 21
610.4457242973
  0
LINE
  5
33B
100
AcDbEntity
  8
BEZUGSACHSEN
100
AcDbLine
 62
7
  6
CONTINUOUS
 10
443.8148416054
 20
189.9457242973
 11
443.8148416054
 21
713.9457242973
  0
LINE
  5
33C
100
AcDbEntity
  8
RUNDUNGEN
100
AcDbLine
 62
7
  6
CONTINUOUS
 10
445.6930633405
 20
101.9457242973
 11
445.6930632655
 21
124.2960876461
  0
LINE
  5
33D
100
AcDbEntity
  8
RUNDUNGEN
100
AcDbLine
 62
7
  6
CONTINUOUS
 10
445.6930633405
 20
132.950282688
 11
445.6930633405
 21
138.6457242973
  0
LINE
  5
33E
100
AcDbEntity
  8
0
100
AcDbLine
 62
7
  6
CONTINUOUS
 10
446.9366198703
 20
125.1091845048
 11
446.9366198703
 21
101.9457242973
  0
LINE
  5
33F
100
AcDbEntity
  8
0
100
AcDbLine
 62
7
  6
CONTINUOUS
 10
438.2829267752
 20
374.5082242973
 11
438.8148416054
 21
378.1540496833
  0
LINE
  5
340
100
AcDbEntity
  8
BEZUGSACHSEN
100
AcDbLine
 62
7
  6
CONTINUOUS
 10
391.3957374528
 20
153.9609165442
 11
386.3148416054
 21
125.1457242973
  0
LINE
  5
341
100
AcDbEntity
  8
FASEN
100
AcDbLine
 62
7
  6
CONTINUOUS
 10
386.3148416054
 20
125.1457242973
 11
391.3957374528
 21
153.9609165442
  0
LINE
  5
342
100
AcDbEntity
  8
0
100
AcDbLine
 62
7
  6
CONTINUOUS
 10
414.3467564821
 20
293.7790496833
 11
413.8148416054
 21
291.1748989112
  0
LINE
  5
343
100
AcDbEntity
  8
0
100
AcDbLine
 62
7
  6
CONTINUOUS
 10
436.1552674543
 20
377.6332242973
 11
435.6233526241
 21
375.0290496833
  0
LINE
  5
344
100
AcDbEntity
  8
0
100
AcDbLine
 62
7
  6
CONTINUOUS
 10
417.0063309591
 20
291.1748989112
 11
417.5382457894
 21
293.2582242973
  0
LINE
  5
345
100
AcDbEntity
  8
0
100
AcDbLine
 62
7
  6
CONTINUOUS
 10
425.5169693601
 20
370.8623989112
 11
426.5807990205
 21
373.4665496833
  0
LINE
  5
346
100
AcDbEntity
  8
0
100
AcDbLine
 62
7
  6
CONTINUOUS
 10
437.2190971147
 20
372.4248989112
 11
438.2829267752
 21
374.5082242973
  0
LINE
  5
347
100
AcDbEntity
  8
0
100
AcDbLine
 62
7
  6
CONTINUOUS
 10
424.9850545299
 20
374.5082242973
 11
423.9212248694
 21
372.9457242973
  0
LINE
  5
348
100
AcDbEntity
  8
0
100
AcDbLine
 62
7
  6
CONTINUOUS
 10
415.9425011125
 20
359.9248989112
 11
414.8786713589
 21
358.3623989112
  0
LINE
  5
349
100
AcDbEntity
  8
0
100
AcDbLine
 62
7
  6
CONTINUOUS
 10
416.4744161289
 20
356.2790496833
 11
417.5382457894
 21
357.8415496833
  0
LINE
  5
34A
100
AcDbEntity
  8
0
100
AcDbLine
 62
7
  6
CONTINUOUS
 10
435.6233526241
 20
375.0290496833
 11
434.5595229637
 21
373.4665496833
  0
LINE
  5
34B
100
AcDbEntity
  8
0
100
AcDbLine
 62
7
  6
CONTINUOUS
 10
435.0914377939
 20
370.3415496833
 11
437.2190971147
 21
372.4248989112
  0
LINE
  5
34C
100
AcDbEntity
  8
0
100
AcDbLine
 62
7
  6
CONTINUOUS
 10
423.9212248694
 20
369.8207242973
 11
425.5169693601
 21
370.8623989112
  0
LINE
  5
34D
100
AcDbEntity
  8
0
100
AcDbLine
 62
7
  6
CONTINUOUS
 10
434.5595229637
 20
373.4665496833
 11
432.9637784731
 21
372.4248989112
  0
LINE
  5
34E
100
AcDbEntity
  8
0
100
AcDbLine
 62
7
  6
CONTINUOUS
 10
423.9212248694
 20
372.9457242973
 11
421.7935648035
 21
371.9040496833
  0
LINE
  5
34F
100
AcDbEntity
  8
0
100
AcDbLine
 62
7
  6
CONTINUOUS
 10
418.0701606196
 20
360.9665496833
 11
415.9425011125
 21
359.9248989112
  0
LINE
  5
350
100
AcDbEntity
  8
0
100
AcDbLine
 62
7
  6
CONTINUOUS
 10
417.0063309591
 20
407.8415496833
 11
438.8148416054
 21
407.8415496833
  0
LINE
  5
351
100
AcDbEntity
  8
0
100
AcDbLine
 62
7
  6
CONTINUOUS
 10
438.8148416054
 20
410.9665616042
 11
413.8148416054
 21
410.9665616042
  0
LINE
  5
352
100
AcDbEntity
  8
0
100
AcDbLine
 62
7
  6
CONTINUOUS
 10
437.2190971147
 20
384.9248989112
 11
435.0914377939
 21
387.0082242973
  0
LINE
  5
353
100
AcDbEntity
  8
0
100
AcDbLine
 62
7
  6
CONTINUOUS
 10
434.5595229637
 20
383.8832242973
 11
435.6233526241
 21
382.3207242973
  0
LINE
  5
354
100
AcDbEntity
  8
0
100
AcDbLine
 62
7
  6
CONTINUOUS
 10
438.2829267752
 20
382.8415496833
 11
437.2190971147
 21
384.9248989112
  0
LINE
  5
355
100
AcDbEntity
  8
0
100
AcDbLine
 62
7
  6
CONTINUOUS
 10
435.6233526241
 20
382.3207242973
 11
436.1552674543
 21
379.7165496833
  0
LINE
  5
356
100
AcDbEntity
  8
0
100
AcDbLine
 62
7
  6
CONTINUOUS
 10
438.8148416054
 20
379.1957242973
 11
438.2829267752
 21
382.8415496833
  0
LINE
  5
357
100
AcDbEntity
  8
BEZUGSACHSEN
100
AcDbLine
 62
7
  6
CONTINUOUS
 10
458.3148416054
 20
160.3124166445
 11
458.3148416054
 21
154.9457242973
  0
LINE
  5
358
100
AcDbEntity
  8
RUNDUNGEN
100
AcDbLine
 62
7
  6
CONTINUOUS
 10
458.3148416054
 20
154.9457242973
 11
458.3148416054
 21
160.3124166445
  0
LINE
  5
359
100
AcDbEntity
  8
0
100
AcDbLine
 62
7
  6
CONTINUOUS
 10
466.3148416054
 20
125.1091845048
 11
466.3148416054
 21
101.9457242973
  0
LINE
  5
35A
100
AcDbEntity
  8
0
100
AcDbLine
 62
7
  6
CONTINUOUS
 10
438.2829267752
 20
308.3623989112
 11
438.8148416054
 21
310.9665496833
  0
LINE
  5
35B
100
AcDbEntity
  8
0
100
AcDbLine
 62
7
  6
CONTINUOUS
 10
438.2829267752
 20
261.4873989112
 11
438.8148416054
 21
264.0915496833
  0
LINE
  5
35C
100
AcDbEntity
  8
0
100
AcDbLine
 62
7
  6
CONTINUOUS
 10
435.6233526241
 20
264.0915496833
 11
435.0914377939
 21
262.0082242973
  0
LINE
  5
35D
100
AcDbEntity
  8
0
100
AcDbLine
 62
7
  6
CONTINUOUS
 10
436.1552674543
 20
310.4457242973
 11
435.6233526241
 21
308.8832242973
  0
LINE
  5
35E
100
AcDbEntity
  8
0
100
AcDbLine
 62
7
  6
CONTINUOUS
 10
415.4105862823
 20
295.8623989112
 11
414.3467564821
 21
293.7790496833
  0
LINE
  5
35F
100
AcDbEntity
  8
0
100
AcDbLine
 62
7
  6
CONTINUOUS
 10
417.5382457894
 20
357.8415496833
 11
419.1339906525
 21
358.3623989112
  0
LINE
  5
360
100
AcDbEntity
  8
0
100
AcDbLine
 62
7
  6
CONTINUOUS
 10
413.8148416054
 20
415.1332242973
 11
417.0063309591
 21
415.1332242973
  0
LINE
  5
361
100
AcDbEntity
  8
0
100
AcDbLine
 62
7
  6
CONTINUOUS
 10
417.0063309591
 20
430.7582242973
 11
438.8148416054
 21
430.7582242973
  0
LINE
  5
362
100
AcDbEntity
  8
0
100
AcDbLine
 62
7
  6
CONTINUOUS
 10
438.8148416054
 20
433.8832242973
 11
413.8148416054
 21
433.8832242973
  0
LINE
  5
363
100
AcDbEntity
  8
0
100
AcDbLine
 62
7
  6
CONTINUOUS
 10
424.9850545299
 20
548.9873929507
 11
425.5169693601
 21
546.3832242973
  0
LINE
  5
364
100
AcDbEntity
  8
0
100
AcDbLine
 62
7
  6
CONTINUOUS
 10
429.2448416054
 20
123.598064738
 11
429.4115085899
 21
124.4491284663
  0
LINE
  5
365
100
AcDbEntity
  8
0
100
AcDbLine
 62
7
  6
CONTINUOUS
 10
437.2448416054
 20
123.598064738
 11
437.4115076363
 21
124.4491284663
  0
LINE
  5
366
100
AcDbEntity
  8
0
100
AcDbLine
 62
7
  6
CONTINUOUS
 10
421.7565082807
 20
116.11317123
 11
421.6106749431
 21
115.5174266202
  0
LINE
  5
367
100
AcDbEntity
  8
0
100
AcDbLine
 62
7
  6
CONTINUOUS
 10
428.4115085899
 20
124.4491284663
 11
428.2448416054
 21
123.7682774837
  0
LINE
  5
368
100
AcDbEntity
  8
0
100
AcDbLine
 62
7
  6
CONTINUOUS
 10
426.4231747996
 20
114.6238092882
 11
426.5690084111
 21
115.2195538981
  0
LINE
  5
369
100
AcDbEntity
  8
0
100
AcDbLine
 62
7
  6
CONTINUOUS
 10
417.5382457894
 20
293.2582242973
 11
418.6020758223
 21
294.8207242973
  0
LINE
  5
36A
100
AcDbEntity
  8
0
100
AcDbLine
 62
7
  6
CONTINUOUS
 10
436.6871822845
 20
306.2790496833
 11
438.2829267752
 21
308.3623989112
  0
LINE
  5
36B
100
AcDbEntity
  8
0
100
AcDbLine
 62
7
  6
CONTINUOUS
 10
417.5382457894
 20
297.9457242973
 11
415.4105862823
 21
295.8623989112
  0
LINE
  5
36C
100
AcDbEntity
  8
0
100
AcDbLine
 62
7
  6
CONTINUOUS
 10
435.6233526241
 20
308.8832242973
 11
434.5595229637
 21
307.8415496833
  0
LINE
  5
36D
100
AcDbEntity
  8
0
100
AcDbLine
 62
7
  6
CONTINUOUS
 10
419.6659054827
 20
444.2998869903
 11
438.8148416054
 21
448.4665616042
  0
LINE
  5
36E
100
AcDbEntity
  8
0
100
AcDbLine
 62
7
  6
CONTINUOUS
 10
434.0276081335
 20
450.5498869903
 11
413.8148416054
 21
446.3832242973
  0
LINE
  5
36F
100
AcDbEntity
  8
0
100
AcDbLine
 62
7
  6
CONTINUOUS
 10
419.6659054827
 20
456.7998869903
 11
438.8148416054
 21
459.9248869903
  0
LINE
  5
370
100
AcDbEntity
  8
0
100
AcDbLine
 62
7
  6
CONTINUOUS
 10
438.8148416054
 20
441.1748869903
 11
419.6659054827
 21
444.2998869903
  0
LINE
  5
371
100
AcDbEntity
  8
0
100
AcDbLine
 62
7
  6
CONTINUOUS
 10
413.8148416054
 20
442.2165616042
 11
438.8148416054
 21
438.0498869903
  0
LINE
  5
372
100
AcDbEntity
  8
0
100
AcDbLine
 62
7
  6
CONTINUOUS
 10
413.8148416054
 20
454.7165616042
 11
434.0276081335
 21
450.5498869903
  0
LINE
  5
373
100
AcDbEntity
  8
0
100
AcDbLine
 62
7
  6
CONTINUOUS
 10
438.8148416054
 20
452.6332242973
 11
419.6659054827
 21
456.7998869903
  0
LINE
  5
374
100
AcDbEntity
  8
0
100
AcDbLine
 62
7
  6
CONTINUOUS
 10
428.7084583413
 20
546.9040556438
 11
428.1765435111
 21
548.4665556438
  0
LINE
  5
375
100
AcDbEntity
  8
0
100
AcDbLine
 62
7
  6
CONTINUOUS
 10
436.4115076363
 20
124.4491284663
 11
436.2448416054
 21
123.7682774837
  0
LINE
  5
376
100
AcDbEntity
  8
0
100
AcDbLine
 62
7
  6
CONTINUOUS
 10
420.9115081131
 20
127.3427453811
 11
420.7448416054
 21
126.8321071441
  0
LINE
  5
377
100
AcDbEntity
  8
0
100
AcDbLine
 62
7
  6
CONTINUOUS
 10
421.7448416054
 20
126.6618943984
 11
421.9115081131
 21
127.1725326354
  0
LINE
  5
378
100
AcDbEntity
  8
0
100
AcDbLine
 62
7
  6
CONTINUOUS
 10
426.5690084111
 20
111.3472136212
 11
426.7148416054
 21
111.7940221829
  0
LINE
  5
379
100
AcDbEntity
  8
0
100
AcDbLine
 62
7
  6
CONTINUOUS
 10
437.2190971147
 20
259.4040496833
 11
438.2829267752
 21
261.4873989112
  0
LINE
  5
37A
100
AcDbEntity
  8
0
100
AcDbLine
 62
7
  6
CONTINUOUS
 10
435.0914377939
 20
262.0082242973
 11
434.0276081335
 21
260.4457242973
  0
LINE
  5
37B
100
AcDbEntity
  8
0
100
AcDbLine
 62
7
  6
CONTINUOUS
 10
434.5595229637
 20
304.7165496833
 11
436.6871822845
 21
306.2790496833
  0
LINE
  5
37C
100
AcDbEntity
  8
0
100
AcDbLine
 62
7
  6
CONTINUOUS
 10
418.6020758223
 20
294.8207242973
 11
420.1978203129
 21
295.8623989112
  0
LINE
  5
37D
100
AcDbEntity
  8
0
100
AcDbLine
 62
7
  6
CONTINUOUS
 10
419.6659054827
 20
298.9873989112
 11
417.5382457894
 21
297.9457242973
  0
LINE
  5
37E
100
AcDbEntity
  8
0
100
AcDbLine
 62
7
  6
CONTINUOUS
 10
413.8148416054
 20
303.6748989112
 11
426.0488841903
 21
308.3623989112
  0
LINE
  5
37F
100
AcDbEntity
  8
0
100
AcDbLine
 62
7
  6
CONTINUOUS
 10
424.9850545299
 20
311.4873989112
 11
413.8148416054
 21
307.3207242973
  0
LINE
  5
380
100
AcDbEntity
  8
0
100
AcDbLine
 62
7
  6
CONTINUOUS
 10
434.5595229637
 20
307.8415496833
 11
432.9637784731
 21
307.3207242973
  0
LINE
  5
381
100
AcDbEntity
  8
0
100
AcDbLine
 62
7
  6
CONTINUOUS
 10
432.9637784731
 20
304.1957242973
 11
434.5595229637
 21
304.7165496833
  0
LINE
  5
382
100
AcDbEntity
  8
0
100
AcDbLine
 62
7
  6
CONTINUOUS
 10
438.8148416054
 20
463.0498869903
 11
413.8148416054
 21
458.8832242973
  0
LINE
  5
383
100
AcDbEntity
  8
0
100
AcDbLine
 62
7
  6
CONTINUOUS
 10
435.0914377939
 20
257.3207242973
 11
437.2190971147
 21
259.4040496833
  0
LINE
  5
384
100
AcDbEntity
  8
0
100
AcDbLine
 62
7
  6
CONTINUOUS
 10
425.5169693601
 20
546.3832242973
 11
427.1127138507
 21
544.2998929507
  0
LINE
  5
385
100
AcDbEntity
  8
0
100
AcDbLine
 62
7
  6
CONTINUOUS
 10
428.9115085899
 20
122.9172136361
 11
429.2448416054
 21
123.598064738
  0
LINE
  5
386
100
AcDbEntity
  8
0
100
AcDbLine
 62
7
  6
CONTINUOUS
 10
425.8398416054
 20
115.2195538981
 11
425.5481747996
 21
114.6238092882
  0
LINE
  5
387
100
AcDbEntity
  8
0
100
AcDbLine
 62
7
  6
CONTINUOUS
 10
425.9856747996
 20
111.7940221829
 11
425.8398416054
 21
111.496149878
  0
LINE
  5
388
100
AcDbEntity
  8
0
100
AcDbLine
 62
7
  6
CONTINUOUS
 10
436.9115076363
 20
122.9172136361
 11
437.2448416054
 21
123.598064738
  0
LINE
  5
389
100
AcDbEntity
  8
0
100
AcDbLine
 62
7
  6
CONTINUOUS
 10
434.0276081335
 20
260.4457242973
 11
432.4318621528
 21
259.4040496833
  0
LINE
  5
38A
100
AcDbEntity
  8
0
100
AcDbLine
 62
7
  6
CONTINUOUS
 10
432.9637784731
 20
256.2790496833
 11
435.0914377939
 21
257.3207242973
  0
LINE
  5
38B
100
AcDbEntity
  8
0
100
AcDbLine
 62
7
  6
CONTINUOUS
 10
427.1127138507
 20
544.2998929507
 11
429.2403731715
 21
542.7373929507
  0
LINE
  5
38C
100
AcDbEntity
  8
0
100
AcDbLine
 62
7
  6
CONTINUOUS
 10
429.7722880017
 20
545.8623929507
 11
428.7084583413
 21
546.9040556438
  0
LINE
  5
38D
100
AcDbEntity
  8
0
100
AcDbLine
 62
7
  6
CONTINUOUS
 10
422.3398416054
 20
115.5174266202
 11
422.6315083068
 21
115.9642350776
  0
LINE
  5
38E
100
AcDbEntity
  8
0
100
AcDbLine
 62
7
  6
CONTINUOUS
 10
428.2448416054
 20
123.7682774837
 11
427.9115085899
 21
123.2576392467
  0
LINE
  5
38F
100
AcDbEntity
  8
0
100
AcDbLine
 62
7
  6
CONTINUOUS
 10
426.1315084111
 20
114.1770008309
 11
426.4231747996
 21
114.6238092882
  0
LINE
  5
390
100
AcDbEntity
  8
0
100
AcDbLine
 62
7
  6
CONTINUOUS
 10
426.2773416054
 20
110.9004051639
 11
426.5690084111
 21
111.3472136212
  0
LINE
  5
391
100
AcDbEntity
  8
0
100
AcDbLine
 62
7
  6
CONTINUOUS
 10
436.2448416054
 20
123.7682774837
 11
435.9115076363
 21
123.2576392467
  0
LINE
  5
392
100
AcDbEntity
  8
0
100
AcDbLine
 62
7
  6
CONTINUOUS
 10
421.2448416054
 20
125.9810434158
 11
421.7448416054
 21
126.6618943984
  0
LINE
  5
393
100
AcDbEntity
  8
0
100
AcDbLine
 62
7
  6
CONTINUOUS
 10
430.8361176621
 20
542.2165556438
 11
432.9637784731
 21
542.2165556438
  0
LINE
  5
394
100
AcDbEntity
  8
0
100
AcDbLine
 62
7
  6
CONTINUOUS
 10
429.2403731715
 20
542.7373929507
 11
430.8361176621
 21
542.2165556438
  0
LINE
  5
395
100
AcDbEntity
  8
0
100
AcDbLine
 62
7
  6
CONTINUOUS
 10
431.3680324923
 20
545.3415556438
 11
429.7722880017
 21
545.8623929507
  0
LINE
  5
396
100
AcDbEntity
  8
0
100
AcDbLine
 62
7
  6
CONTINUOUS
 10
426.5807990205
 20
577.6332242973
 11
413.8148416054
 21
586.4873914606
  0
LINE
  5
397
100
AcDbEntity
  8
0
100
AcDbLine
 62
7
  6
CONTINUOUS
 10
413.8148416054
 20
583.3623899705
 11
423.9212248694
 21
576.0707242973
  0
LINE
  5
398
100
AcDbEntity
  8
0
100
AcDbLine
 62
7
  6
CONTINUOUS
 10
438.8148416054
 20
568.779058624
 11
428.7084583413
 21
576.0707242973
  0
LINE
  5
399
100
AcDbEntity
  8
0
100
AcDbLine
 62
7
  6
CONTINUOUS
 10
426.5807990205
 20
574.5082242973
 11
438.8148416054
 21
565.654058624
  0
LINE
  5
39A
100
AcDbEntity
  8
FASEN
100
AcDbLine
 62
7
  6
CONTINUOUS
 10
392.5693856305
 20
154.9457242973
 11
391.3957374529
 21
153.9609165443
  0
LINE
  5
39B
100
AcDbEntity
  8
0
100
AcDbLine
 62
7
  6
CONTINUOUS
 10
432.9637784731
 20
545.3415556438
 11
431.3680324923
 21
545.3415556438
  0
LINE
  5
39C
100
AcDbEntity
  8
0
100
AcDbLine
 62
7
  6
CONTINUOUS
 10
413.8148416054
 20
558.3623929507
 11
424.9850545299
 21
558.3623929507
  0
LINE
  5
39D
100
AcDbEntity
  8
0
100
AcDbLine
 62
7
  6
CONTINUOUS
 10
428.1765435111
 20
558.3623929507
 11
436.1552674543
 21
558.3623929507
  0
LINE
  5
39E
100
AcDbEntity
  8
0
100
AcDbLine
 62
7
  6
CONTINUOUS
 10
438.8148416054
 20
561.4873899705
 11
413.8148416054
 21
561.4873899705
  0
LINE
  5
39F
100
AcDbEntity
  8
0
100
AcDbLine
 62
7
  6
CONTINUOUS
 10
420.7448416054
 20
126.8321071441
 11
420.4115081131
 21
126.4916816528
  0
LINE
  5
3A0
100
AcDbEntity
  8
0
100
AcDbLine
 62
7
  6
CONTINUOUS
 10
422.3398416054
 20
116.7089158399
 11
421.7565082807
 21
116.11317123
  0
LINE
  5
3A1
100
AcDbEntity
  8
0
100
AcDbLine
 62
7
  6
CONTINUOUS
 10
428.2448416054
 20
122.2363625939
 11
428.9115085899
 21
122.9172136361
  0
LINE
  5
3A2
100
AcDbEntity
  8
0
100
AcDbLine
 62
7
  6
CONTINUOUS
 10
425.5481747996
 20
114.6238092882
 11
425.2565084111
 21
114.3259369833
  0
LINE
  5
3A3
100
AcDbEntity
  8
0
100
AcDbLine
 62
7
  6
CONTINUOUS
 10
436.2448416054
 20
122.2363625939
 11
436.9115076363
 21
122.9172136361
  0
LINE
  5
3A4
100
AcDbEntity
  8
0
100
AcDbLine
 62
7
  6
CONTINUOUS
 10
425.8398416054
 20
111.496149878
 11
425.5481747996
 21
111.1982774688
  0
LINE
  5
3A5
100
AcDbEntity
  8
0
100
AcDbLine
 62
7
  6
CONTINUOUS
 10
425.5481747996
 20
113.7301923735
 11
426.1315084111
 21
114.1770008309
  0
LINE
  5
3A6
100
AcDbEntity
  8
0
100
AcDbLine
 62
7
  6
CONTINUOUS
 10
436.1552674543
 20
590.6540571339
 11
438.8148416054
 21
590.6540571339
  0
LINE
  5
3A7
100
AcDbEntity
  8
0
100
AcDbLine
 62
7
  6
CONTINUOUS
 10
413.8148416054
 20
598.9873907156
 11
436.1552674543
 21
598.9873907156
  0
LINE
  5
3A8
100
AcDbEntity
  8
0
100
AcDbLine
 62
7
  6
CONTINUOUS
 10
436.1552674543
 20
602.1123907156
 11
413.8148416054
 21
602.1123907156
  0
LINE
  5
3A9
100
AcDbEntity
  8
0
100
AcDbLine
 62
7
  6
CONTINUOUS
 10
438.8148416054
 20
610.4457242973
 11
436.1552674543
 21
610.4457242973
  0
LINE
  5
3AA
100
AcDbEntity
  8
0
100
AcDbLine
 62
7
  6
CONTINUOUS
 10
438.3148416054
 20
67.4457242973
 11
436.8148416054
 21
65.9457242973
  0
LINE
  5
3AB
100
AcDbEntity
  8
0
100
AcDbLine
 62
7
  6
CONTINUOUS
 10
427.9115085899
 20
123.2576392467
 11
427.4115085899
 21
122.9172136361
  0
LINE
  5
3AC
100
AcDbEntity
  8
0
100
AcDbLine
 62
7
  6
CONTINUOUS
 10
422.6315083068
 20
115.9642350776
 11
423.0690083068
 21
116.2621073825
  0
LINE
  5
3AD
100
AcDbEntity
  8
0
100
AcDbLine
 62
7
  6
CONTINUOUS
 10
435.9115076363
 20
123.2576392467
 11
435.4115076363
 21
122.9172136361
  0
LINE
  5
3AE
100
AcDbEntity
  8
0
100
AcDbLine
 62
7
  6
CONTINUOUS
 10
425.8398416054
 20
110.6025328068
 11
426.2773416054
 21
110.9004051639
  0
LINE
  5
3AF
100
AcDbEntity
  8
0
100
AcDbLine
 62
7
  6
CONTINUOUS
 10
420.5781750977
 20
125.6406179244
 11
421.2448416054
 21
125.9810434158
  0
LINE
  5
3B0
100
AcDbEntity
  8
0
100
AcDbLine
 62
7
  6
CONTINUOUS
 10
427.5781746208
 20
121.8959370578
 11
428.2448416054
 21
122.2363625939
  0
LINE
  5
3B1
100
AcDbEntity
  8
0
100
AcDbLine
 62
7
  6
CONTINUOUS
 10
422.9231749039
 20
117.0067881448
 11
422.3398416054
 21
116.7089158399
  0
LINE
  5
3B2
100
AcDbEntity
  8
0
100
AcDbLine
 62
7
  6
CONTINUOUS
 10
435.5781755745
 20
121.8959370578
 11
436.2448416054
 21
122.2363625939
  0
LINE
  5
3B3
100
AcDbEntity
  8
0
100
AcDbLine
 62
7
  6
CONTINUOUS
 10
425.5481747996
 20
111.1982774688
 11
425.2565084111
 21
111.0493413163
  0
LINE
  5
3B4
100
AcDbEntity
  8
0
100
AcDbLine
 62
7
  6
CONTINUOUS
 10
425.2565084111
 20
110.3046604628
 11
425.8398416054
 21
110.6025328068
  0
LINE
  5
3B5
100
AcDbEntity
  8
0
100
AcDbLine
 62
7
  6
CONTINUOUS
 10
420.4115081131
 20
126.4916816528
 11
419.9115081131
 21
126.3214689071
  0
LINE
  5
3B6
100
AcDbEntity
  8
0
100
AcDbLine
 62
7
  6
CONTINUOUS
 10
425.2565084111
 20
114.3259369833
 11
424.3815082025
 21
114.0280646784
  0
LINE
  5
3B7
100
AcDbEntity
  8
0
100
AcDbLine
 62
7
  6
CONTINUOUS
 10
408.8148416054
 20
713.9457242973
 11
443.8148416054
 21
713.9457242973
  0
LINE
  5
3B8
100
AcDbEntity
  8
0
100
AcDbLine
 62
7
  6
CONTINUOUS
 10
721.4543944852
 20
65.9457242973
 11
700.4543944852
 21
65.9457242973
  0
LINE
  5
3B9
100
AcDbEntity
  8
0
100
AcDbLine
 62
7
  6
CONTINUOUS
 10
698.9543944852
 20
67.4457242973
 11
722.9543944852
 21
67.4457242973
  0
LINE
  5
3BA
100
AcDbEntity
  8
0
100
AcDbLine
 62
7
  6
CONTINUOUS
 10
745.9543944852
 20
101.9457242973
 11
675.9543944852
 21
101.9457242973
  0
LINE
  5
3BB
100
AcDbEntity
  8
RUNDUNGEN
100
AcDbLine
 62
7
  6
CONTINUOUS
 10
675.9543944852
 20
127.9398242973
 11
673.4543944852
 21
127.9398242973
  0
LINE
  5
3BC
100
AcDbEntity
  8
RUNDUNGEN
100
AcDbLine
 62
9
  6
CONTINUOUS
 10
672.4543944852
 20
131.9398242973
 11
675.9543944852
 21
131.9398242973
  0
LINE
  5
3BD
100
AcDbEntity
  8
RUNDUNGEN
100
AcDbLine
 62
9
  6
CONTINUOUS
 10
742.9413724226
 20
138.4720761198
 11
743.778048455
 21
138.6457242972
  0
LINE
  5
3BE
100
AcDbEntity
  8
RUNDUNGEN
100
AcDbLine
 62
9
  6
CONTINUOUS
 10
745.9543944852
 20
132.9502827204
 11
744.9543944853
 21
132.9502827202
  0
LINE
  5
3BF
100
AcDbEntity
  8
RUNDUNGEN
100
AcDbLine
 62
9
  6
CONTINUOUS
 10
745.9543944852
 20
138.6457242973
 11
743.7780652251
 21
138.6456432508
  0
LINE
  5
3C0
100
AcDbEntity
  8
RUNDUNGEN
100
AcDbLine
 62
9
  6
CONTINUOUS
 10
672.4543944852
 20
140.1457242973
 11
675.9543944852
 21
140.1457242973
  0
LINE
  5
3C1
100
AcDbEntity
  8
0
100
AcDbLine
 62
7
  6
CONTINUOUS
 10
674.9543944852
 20
152.1457242973
 11
673.4543944852
 21
152.1457242973
  0
LINE
  5
3C2
100
AcDbEntity
  8
RUNDUNGEN
100
AcDbLine
 62
7
  6
CONTINUOUS
 10
697.495300385
 20
165.0830488091
 11
696.7776669074
 21
164.9586479198
  0
LINE
  5
3C3
100
AcDbEntity
  8
RUNDUNGEN
100
AcDbLine
 62
7
  6
CONTINUOUS
 10
696.7776669074
 20
164.9586479198
 11
696.484044509
 21
164.9458190678
  0
LINE
  5
3C4
100
AcDbEntity
  8
FASEN
100
AcDbLine
 62
7
  6
CONTINUOUS
 10
745.8734986378
 20
153.9609165442
 11
676.0352903327
 21
153.9609165442
  0
LINE
  5
3C5
100
AcDbEntity
  8
FASEN
100
AcDbLine
 62
7
  6
CONTINUOUS
 10
744.6998504601
 20
154.9457242973
 11
677.2089385103
 21
154.9457242973
  0
LINE
  5
3C6
100
AcDbEntity
  8
RUNDUNGEN
100
AcDbLine
 62
9
  6
CONTINUOUS
 10
707.629026592
 20
160.9457242973
 11
678.9543944852
 21
160.9457242973
  0
LINE
  5
3C7
100
AcDbEntity
  8
RUNDUNGEN
100
AcDbLine
 62
9
  6
CONTINUOUS
 10
742.9543944852
 20
160.9457242973
 11
714.2799177518
 21
160.945774579
  0
LINE
  5
3C8
100
AcDbEntity
  8
RUNDUNGEN
100
AcDbLine
 62
7
  6
CONTINUOUS
 10
682.9562567106
 20
164.9457242973
 11
696.4840445314
 21
164.9458187273
  0
LINE
  5
3C9
100
AcDbEntity
  8
RUNDUNGEN
100
AcDbLine
 62
7
  6
CONTINUOUS
 10
725.4245280225
 20
164.9458205642
 11
738.9543944852
 21
164.9457242973
  0
LINE
  5
3CA
100
AcDbEntity
  8
RUNDUNGEN
100
AcDbLine
 62
7
  6
CONTINUOUS
 10
725.4245280225
 20
164.9458205642
 11
725.1299531903
 21
164.9587423013
  0
LWPOLYLINE
  5
3CB
100
AcDbEntity
  8
RUNDUNGEN
100
AcDbPolyline
 62
7
  6
CONTINUOUS
 90
4
 70
0
 10
725.1311184171
 20
164.9586482092
 10
724.4154451855
 20
165.0825228468
 10
723.7339568641
 20
165.3338399579
 10
723.1091525051
 20
165.7043170744
  0
LINE
  5
3CC
100
AcDbEntity
  8
0
100
AcDbLine
 62
7
  6
CONTINUOUS
 10
698.9543944852
 20
67.4457242973
 11
700.4543944852
 21
65.9457242973
  0
LWPOLYLINE
  5
3CD
100
AcDbEntity
  8
RUNDUNGEN
100
AcDbPolyline
 62
7
  6
CONTINUOUS
 90
3
 70
0
 10
675.9044002474
 20
128.2068243097
 10
675.9035490077
 20
128.2076227688
 10
675.9057417141
 20
128.2045104525
  0
LWPOLYLINE
  5
3CE
100
AcDbEntity
  8
RUNDUNGEN
100
AcDbPolyline
 62
7
  6
CONTINUOUS
 90
8
 70
0
 10
675.9091307167
 20
128.2021453169
 10
675.9048083805
 20
128.2064075163
 10
675.9032629326
 20
128.2079857578
 10
675.9106711627
 20
128.1975992591
 10
675.923415637
 20
128.1749887341
 10
675.9381032771
 20
128.1388824943
 10
675.9494986553
 20
128.0936597944
 10
675.9543934055
 20
128.0413969435
  0
LINE
  5
3CF
100
AcDbEntity
  8
FASEN
100
AcDbLine
 62
7
  6
CONTINUOUS
 10
744.6998504601
 20
154.9457242973
 11
745.8734986378
 21
153.9609165442
  0
LINE
  5
3D0
100
AcDbEntity
  8
RUNDUNGEN
100
AcDbLine
 62
7
  6
CONTINUOUS
 10
723.1091525051
 20
165.7043170744
 11
722.5580508864
 21
166.1855265919
  0
LINE
  5
3D1
100
AcDbEntity
  8
RUNDUNGEN
100
AcDbLine
 62
7
  6
CONTINUOUS
 10
722.5613705666
 20
166.182047677
 11
722.1065043519
 21
166.7550583878
  0
LINE
  5
3D2
100
AcDbEntity
  8
RUNDUNGEN
100
AcDbLine
 62
7
  6
CONTINUOUS
 10
722.1095840755
 20
166.7503581152
 11
721.7667489953
 21
167.3940430126
  0
LWPOLYLINE
  5
3D3
100
AcDbEntity
  8
RUNDUNGEN
100
AcDbPolyline
 62
7
  6
CONTINUOUS
 90
3
 70
0
 10
721.7662097818
 20
167.3953259672
 10
721.549915115
 20
168.0742100061
 10
721.458748337
 20
168.7558233255
  0
LINE
  5
3D4
100
AcDbEntity
  8
RUNDUNGEN
100
AcDbLine
 62
7
  6
CONTINUOUS
 10
672.4543944852
 20
128.9398242973
 11
672.4543944852
 21
151.1457242973
  0
LINE
  5
3D5
100
AcDbEntity
  8
RUNDUNGEN
100
AcDbLine
 62
9
  6
CONTINUOUS
 10
673.4543944852
 20
127.9398242973
 11
673.4543944852
 21
152.1457242973
  0
LINE
  5
3D6
100
AcDbEntity
  8
RUNDUNGEN
100
AcDbLine
 62
9
  6
CONTINUOUS
 10
674.9543944852
 20
128.8187865981
 11
674.9543944852
 21
140.6658293468
  0
LINE
  5
3D7
100
AcDbEntity
  8
RUNDUNGEN
100
AcDbLine
 62
9
  6
CONTINUOUS
 10
674.9543944852
 20
151.7396113094
 11
674.9543944852
 21
152.1457242973
  0
LINE
  5
3D8
100
AcDbEntity
  8
0
100
AcDbLine
 62
7
  6
CONTINUOUS
 10
675.9543944852
 20
125.1091845048
 11
675.9543944852
 21
101.9457242973
  0
LINE
  5
3D9
100
AcDbEntity
  8
RUNDUNGEN
100
AcDbLine
 62
7
  6
CONTINUOUS
 10
675.9543944852
 20
125.1091845048
 11
675.9543944852
 21
140.2531406585
  0
LINE
  5
3DA
100
AcDbEntity
  8
RUNDUNGEN
100
AcDbLine
 62
7
  6
CONTINUOUS
 10
675.9543944852
 20
152.8145029809
 11
675.9543944852
 21
153.5028850439
  0
LINE
  5
3DB
100
AcDbEntity
  8
0
100
AcDbLine
 62
7
  6
CONTINUOUS
 10
676.6723621825
 20
125.1091845048
 11
676.6723621825
 21
101.9457242973
  0
LINE
  5
3DC
100
AcDbEntity
  8
BEZUGSACHSEN
100
AcDbLine
 62
7
  6
CONTINUOUS
 10
678.9543944852
 20
160.9457242973
 11
678.9543944852
 21
154.9457242973
  0
LINE
  5
3DD
100
AcDbEntity
  8
0
100
AcDbLine
 62
7
  6
CONTINUOUS
 10
687.4543944852
 20
213.4457242973
 11
687.4543944852
 21
390.4457242973
  0
LINE
  5
3DE
100
AcDbEntity
  8
0
100
AcDbLine
 62
7
  6
CONTINUOUS
 10
687.4543944852
 20
392.9457242973
 11
687.4543944852
 21
690.4457242973
  0
LINE
  5
3DF
100
AcDbEntity
  8
0
100
AcDbLine
 62
7
  6
CONTINUOUS
 10
683.837435371
 20
378.9741955702
 11
683.5002459188
 21
379.2102981665
  0
LINE
  5
3E0
100
AcDbEntity
  8
0
100
AcDbLine
 62
7
  6
CONTINUOUS
 10
698.9543944852
 20
101.9457242973
 11
698.9543944852
 21
67.4457242973
  0
LINE
  5
3E1
100
AcDbEntity
  8
BEZUGSACHSEN
100
AcDbLine
 62
7
  6
CONTINUOUS
 10
698.9543944852
 20
67.4457242973
 11
698.9543944852
 21
101.9457242973
  0
LINE
  5
3E2
100
AcDbEntity
  8
0
100
AcDbLine
 62
7
  6
CONTINUOUS
 10
699.4543944852
 20
213.4457242973
 11
699.4543944852
 21
390.4457242973
  0
LINE
  5
3E3
100
AcDbEntity
  8
0
100
AcDbLine
 62
7
  6
CONTINUOUS
 10
699.4543944852
 20
392.9457242973
 11
699.4543944852
 21
690.4457242973
  0
LINE
  5
3E4
100
AcDbEntity
  8
0
100
AcDbLine
 62
7
  6
CONTINUOUS
 10
700.4543944852
 20
208.763334876
 11
700.4543944852
 21
209.4457242973
  0
LINE
  5
3E5
100
AcDbEntity
  8
0
100
AcDbLine
 62
7
  6
CONTINUOUS
 10
710.236426788
 20
125.1091845048
 11
710.236426788
 21
101.9457242973
  0
LINE
  5
3E6
100
AcDbEntity
  8
0
100
AcDbLine
 62
7
  6
CONTINUOUS
 10
711.6723621825
 20
125.1091845048
 11
711.6723621825
 21
101.9457242973
  0
LINE
  5
3E7
100
AcDbEntity
  8
RUNDUNGEN
100
AcDbLine
 62
7
  6
CONTINUOUS
 10
700.4537256843
 20
168.8690557878
 11
700.4501706901
 21
168.758625607
  0
LINE
  5
3E8
100
AcDbEntity
  8
0
100
AcDbLine
 62
7
  6
CONTINUOUS
 10
686.9543944852
 20
390.4457242973
 11
699.9543944852
 21
390.4457242973
  0
LINE
  5
3E9
100
AcDbEntity
  8
BEZUGSACHSEN
100
AcDbLine
 62
7
  6
CONTINUOUS
 10
745.8734986378
 20
153.9609165442
 11
745.9443593476
 21
153.5590454889
  0
LINE
  5
3EA
100
AcDbEntity
  8
RUNDUNGEN
100
AcDbLine
 62
7
  6
CONTINUOUS
 10
721.458748337
 20
168.7558233255
 11
721.4550844469
 21
168.867910231
  0
LINE
  5
3EB
100
AcDbEntity
  8
RUNDUNGEN
100
AcDbLine
 62
7
  6
CONTINUOUS
 10
721.4543944852
 20
208.763334876
 11
721.4543944852
 21
209.4457242973
  0
LINE
  5
3EC
100
AcDbEntity
  8
0
100
AcDbLine
 62
7
  6
CONTINUOUS
 10
721.4543944852
 20
208.763334876
 11
721.4543944852
 21
209.4457242973
  0
LINE
  5
3ED
100
AcDbEntity
  8
BEZUGSACHSEN
100
AcDbLine
 62
7
  6
CONTINUOUS
 10
722.4543944852
 20
213.4457242973
 11
722.4543944852
 21
690.4457242973
  0
LINE
  5
3EE
100
AcDbEntity
  8
0
100
AcDbLine
 62
7
  6
CONTINUOUS
 10
722.9543944852
 20
101.9457242973
 11
722.9543944852
 21
67.4457242973
  0
LINE
  5
3EF
100
AcDbEntity
  8
BEZUGSACHSEN
100
AcDbLine
 62
7
  6
CONTINUOUS
 10
722.9543944852
 20
67.4457242973
 11
722.9543944852
 21
101.9457242973
  0
LWPOLYLINE
  5
3F0
100
AcDbEntity
  8
RUNDUNGEN
100
AcDbPolyline
 62
7
  6
CONTINUOUS
 90
3
 70
0
 10
700.4501706901
 20
168.758625607
 10
700.3594814874
 20
168.0769423936
 10
700.1420287927
 20
167.3940163937
  0
LINE
  5
3F1
100
AcDbEntity
  8
BEZUGSACHSEN
100
AcDbLine
 62
7
  6
CONTINUOUS
 10
676.0352903327
 20
153.9609165442
 11
675.9498617199
 21
153.4764268056
  0
LINE
  5
3F2
100
AcDbEntity
  8
0
100
AcDbLine
 62
7
  6
CONTINUOUS
 10
687.4543944852
 20
392.9457242973
 11
699.4543944852
 21
392.9457242973
  0
LINE
  5
3F3
100
AcDbEntity
  8
BEZUGSACHSEN
100
AcDbLine
 62
7
  6
CONTINUOUS
 10
734.4543944852
 20
213.4457242973
 11
734.4543944852
 21
690.4457242973
  0
LINE
  5
3F4
100
AcDbEntity
  8
BEZUGSACHSEN
100
AcDbLine
 62
7
  6
CONTINUOUS
 10
742.9543944852
 20
160.9457242973
 11
742.9543944852
 21
154.9457242973
  0
LINE
  5
3F5
100
AcDbEntity
  8
RUNDUNGEN
100
AcDbLine
 62
9
  6
CONTINUOUS
 10
744.9543944016
 20
147.5650760149
 11
744.9543944853
 21
132.9502827206
  0
LINE
  5
3F6
100
AcDbEntity
  8
0
100
AcDbLine
 62
7
  6
CONTINUOUS
 10
745.236426788
 20
125.1091845048
 11
745.236426788
 21
101.9457242973
  0
LINE
  5
3F7
100
AcDbEntity
  8
RUNDUNGEN
100
AcDbLine
 62
7
  6
CONTINUOUS
 10
745.9543944852
 20
153.4156242349
 11
745.9543944852
 21
101.9457242973
  0
LINE
  5
3F8
100
AcDbEntity
  8
RUNDUNGEN
100
AcDbLine
 62
7
  6
CONTINUOUS
 10
700.1425707619
 20
167.3953058819
 11
699.7991923085
 21
166.7503389511
  0
LINE
  5
3F9
100
AcDbEntity
  8
RUNDUNGEN
100
AcDbLine
 62
7
  6
CONTINUOUS
 10
699.8022745093
 20
166.7550429511
 11
699.3474052064
 21
166.1820338934
  0
LWPOLYLINE
  5
3FA
100
AcDbEntity
  8
RUNDUNGEN
100
AcDbPolyline
 62
7
  6
CONTINUOUS
 90
4
 70
0
 10
699.3507274347
 20
166.1855154485
 10
698.8019277517
 20
165.7059755745
 10
698.1769813191
 20
165.3348637809
 10
697.495300385
 20
165.0830488091
  0
LINE
  5
3FB
100
AcDbEntity
  8
FASEN
100
AcDbLine
 62
7
  6
CONTINUOUS
 10
677.2089385103
 20
154.9457242973
 11
676.0352903327
 21
153.9609165442
  0
LINE
  5
3FC
100
AcDbEntity
  8
0
100
AcDbLine
 62
7
  6
CONTINUOUS
 10
722.9543944852
 20
67.4457242973
 11
721.4543944852
 21
65.9457242973
  0
ARC
  5
3FD
100
AcDbEntity
  8
0
100
AcDbCircle
 62
7
  6
CONTINUOUS
 10
426.3148416054
 20
181.9457242973
 40
38.0
100
AcDbArc
 50
117.4620898047
 51
211.0027191339
  0
ARC
  5
3FE
100
AcDbEntity
  8
0
100
AcDbCircle
 62
7
  6
CONTINUOUS
 10
426.3148416054
 20
181.9457242973
 40
38.0
100
AcDbArc
 50
328.9972808661
 51
62.5379101953
  0
ARC
  5
3FF
100
AcDbEntity
  8
0
100
AcDbCircle
 62
7
  6
CONTINUOUS
 10
426.3148416054
 20
181.9457242973
 40
17.0
100
AcDbArc
 50
151.9147789602
 51
28.0852210398
  0
ARC
  5
400
100
AcDbEntity
  8
RUNDUNGEN
100
AcDbCircle
 62
7
  6
CONTINUOUS
 10
435.6930633405
 20
138.6457242973
 40
10.0
100
AcDbArc
 50
359.9996364635
 51
63.117477922
  0
ARC
  5
401
100
AcDbEntity
  8
RUNDUNGEN
100
AcDbCircle
 62
7
  6
CONTINUOUS
 10
416.9366198703
 20
138.6457242973
 40
10.0
100
AcDbArc
 50
116.882563935
 51
180.0
  0
ARC
  5
402
100
AcDbEntity
  8
0
100
AcDbCircle
 62
7
  6
CONTINUOUS
 10
437.8148416054
 20
390.4457242973
 40
6.5
100
AcDbArc
 50
0.0
 51
22.619864948
  0
ARC
  5
403
100
AcDbEntity
  8
0
100
AcDbCircle
 62
7
  6
CONTINUOUS
 10
414.8148416054
 20
390.4457242973
 40
6.5
100
AcDbArc
 50
157.380135052
 51
180.0
  0
ARC
  5
404
100
AcDbEntity
  8
RUNDUNGEN
100
AcDbCircle
 62
7
  6
CONTINUOUS
 10
406.3157538985
 20
119.8177417572
 40
5.3279555067
100
AcDbArc
 50
88.8113555043
 51
96.7116298099
  0
ARC
  5
405
100
AcDbEntity
  8
RUNDUNGEN
100
AcDbCircle
 62
7
  6
CONTINUOUS
 10
446.3139297454
 20
119.8177427447
 40
5.3279544754
100
AcDbArc
 50
83.288373575
 51
91.1886479262
  0
ARC
  5
406
100
AcDbEntity
  8
RUNDUNGEN
100
AcDbCircle
 62
7
  6
CONTINUOUS
 10
390.3148616714
 20
160.3124477329
 40
3.9999901228
100
AcDbArc
 50
359.9995546887
 51
31.0024854851
  0
ARC
  5
407
100
AcDbEntity
  8
RUNDUNGEN
100
AcDbCircle
 62
7
  6
CONTINUOUS
 10
462.3148215349
 20
160.3124477411
 40
3.9999901205
100
AcDbArc
 50
148.997514583
 51
180.000445429
  0
ARC
  5
408
100
AcDbEntity
  8
RUNDUNGEN
100
AcDbCircle
 62
7
  6
CONTINUOUS
 10
416.8148416054
 20
108.1457242973
 40
3.0
100
AcDbArc
 50
179.999999937
 51
270.000000058
  0
ARC
  5
409
100
AcDbEntity
  8
RUNDUNGEN
100
AcDbCircle
 62
7
  6
CONTINUOUS
 10
435.8148416054
 20
108.1457242973
 40
3.0
100
AcDbArc
 50
269.999999937
 51
0.000000058
  0
ARC
  5
40A
100
AcDbEntity
  8
RUNDUNGEN
100
AcDbCircle
 62
7
  6
CONTINUOUS
 10
435.8148416054
 20
142.6457242973
 40
3.0
100
AcDbArc
 50
359.999999937
 51
90.000000058
  0
ARC
  5
40B
100
AcDbEntity
  8
RUNDUNGEN
100
AcDbCircle
 62
7
  6
CONTINUOUS
 10
416.8148416054
 20
142.6457242973
 40
3.0
100
AcDbArc
 50
89.999999937
 51
180.000000058
  0
ARC
  5
40C
100
AcDbEntity
  8
RUNDUNGEN
100
AcDbCircle
 62
9
  6
CONTINUOUS
 10
-2681.5752373779
 20
-566.9574052065
 40
3496.4188484669
100
AcDbArc
 50
11.4168695084
 51
11.639764335
  0
ARC
  5
40D
100
AcDbEntity
  8
RUNDUNGEN
100
AcDbCircle
 62
9
  6
CONTINUOUS
 10
639.9146742976
 20
146.6386604623
 40
36.4992204616
100
AcDbArc
 50
1.9523491391
 51
9.2829798343
  0
ARC
  5
40E
100
AcDbEntity
  8
0
100
AcDbCircle
 62
7
  6
CONTINUOUS
 10
666.9543944852
 20
390.4457242973
 40
20.0
100
AcDbArc
 50
325.821615884
 51
360.0
  0
ARC
  5
40F
100
AcDbEntity
  8
0
100
AcDbCircle
 62
7
  6
CONTINUOUS
 10
667.4543944852
 20
390.4457242973
 40
20.0
100
AcDbArc
 50
325.0
 51
360.0
  0
ARC
  5
410
100
AcDbEntity
  8
RUNDUNGEN
100
AcDbCircle
 62
7
  6
CONTINUOUS
 10
682.9543944852
 20
160.9457242973
 40
4.0
100
AcDbArc
 50
90.0
 51
180.0
  0
ARC
  5
411
100
AcDbEntity
  8
RUNDUNGEN
100
AcDbCircle
 62
7
  6
CONTINUOUS
 10
673.4543944852
 20
128.9398242973
 40
1.0
100
AcDbArc
 50
180.0
 51
270.0
  0
ARC
  5
412
100
AcDbEntity
  8
RUNDUNGEN
100
AcDbCircle
 62
7
  6
CONTINUOUS
 10
673.4543944852
 20
151.1457242973
 40
1.0
100
AcDbArc
 50
90.0
 51
180.0
  0
ARC
  5
413
100
AcDbEntity
  8
RUNDUNGEN
100
AcDbCircle
 62
7
  6
CONTINUOUS
 10
674.9543944852
 20
153.1457242973
 40
1.0
100
AcDbArc
 50
270.0
 51
360.0
  0
ARC
  5
414
100
AcDbEntity
  8
BEZUGSACHSEN
100
AcDbCircle
 62
7
  6
CONTINUOUS
 10
710.9543944852
 20
213.4457242973
 40
23.5
100
AcDbArc
 50
296.5484671838
 51
360.0
  0
ARC
  5
415
100
AcDbEntity
  8
BEZUGSACHSEN
100
AcDbCircle
 62
7
  6
CONTINUOUS
 10
710.9543944852
 20
213.4457242973
 40
23.5
100
AcDbArc
 50
180.0
 51
243.4515328162
  0
ARC
  5
416
100
AcDbEntity
  8
BEZUGSACHSEN
100
AcDbCircle
 62
7
  6
CONTINUOUS
 10
710.9543944852
 20
213.4457242973
 40
11.5
100
AcDbArc
 50
339.1281624373
 51
360.0
  0
ARC
  5
417
100
AcDbEntity
  8
BEZUGSACHSEN
100
AcDbCircle
 62
7
  6
CONTINUOUS
 10
710.9543944852
 20
213.4457242973
 40
11.5
100
AcDbArc
 50
180.0
 51
200.8718375627
  0
ARC
  5
418
100
AcDbEntity
  8
0
100
AcDbCircle
 62
7
  6
CONTINUOUS
 10
710.9543944852
 20
209.4457242973
 40
10.5
100
AcDbArc
 50
0.0
 51
180.0
  0
ARC
  5
419
100
AcDbEntity
  8
RUNDUNGEN
100
AcDbCircle
 62
9
  6
CONTINUOUS
 10
710.9567996723
 20
169.3721101614
 40
9.0596938362
100
AcDbArc
 50
248.4497994781
 51
269.9847889925
  0
ARC
  5
41A
100
AcDbEntity
  8
RUNDUNGEN
100
AcDbCircle
 62
9
  6
CONTINUOUS
 10
710.9520969362
 20
169.3716924107
 40
9.0592760576
100
AcDbArc
 50
270.0145309472
 51
291.5515686107
  0
ARC
  5
41B
100
AcDbEntity
  8
BEZUGSACHSEN
100
AcDbCircle
 62
7
  6
CONTINUOUS
 10
710.9532076356
 20
118.0505115485
 40
7.0952129754
100
AcDbArc
 50
84.1826411245
 51
95.8173184871
  0
ARC
  5
41C
100
AcDbEntity
  8
0
100
AcDbCircle
 62
7
  6
CONTINUOUS
 10
693.4543944852
 20
390.4457242973
 40
6.5
100
AcDbArc
 50
157.380135052
 51
180.0
  0
ARC
  5
41D
100
AcDbEntity
  8
0
100
AcDbCircle
 62
7
  6
CONTINUOUS
 10
693.4543944852
 20
390.4457242973
 40
6.5
100
AcDbArc
 50
0.0
 51
22.619864948
  0
ARC
  5
41E
100
AcDbEntity
  8
RUNDUNGEN
100
AcDbCircle
 62
7
  6
CONTINUOUS
 10
725.4665778906
 20
168.9463175195
 40
4.0121464541
100
AcDbArc
 50
181.1197381188
 51
191.3164896551
  0
ARC
  5
41F
100
AcDbEntity
  8
RUNDUNGEN
100
AcDbCircle
 62
7
  6
CONTINUOUS
 10
696.4425021443
 20
168.9465949664
 40
4.0119576761
100
AcDbArc
 50
348.6819509932
 51
358.8925785446
  0
ARC
  5
420
100
AcDbEntity
  8
RUNDUNGEN
100
AcDbCircle
 62
7
  6
CONTINUOUS
 10
738.9543944852
 20
160.9457242973
 40
4.0
100
AcDbArc
 50
0.0
 51
90.0
  0
ARC
  5
421
100
AcDbEntity
  8
RUNDUNGEN
100
AcDbCircle
 62
7
  6
CONTINUOUS
 10
696.4563807118
 20
168.9413496455
 40
3.9973203183
100
AcDbArc
 50
277.2191825989
 51
348.7166320983
  0
ARC
  5
422
100
AcDbEntity
  8
RUNDUNGEN
100
AcDbCircle
 62
7
  6
CONTINUOUS
 10
725.4521880023
 20
168.9408719243
 40
3.9969685424
100
AcDbArc
 50
191.2804230005
 51
262.5662401696
  0
ARC
  5
423
100
AcDbEntity
  8
RUNDUNGEN
100
AcDbCircle
 62
7
  6
CONTINUOUS
 10
725.4546666662
 20
168.9308058224
 40
3.9851085284
100
AcDbArc
 50
262.5123724808
 51
269.1228980018
  0
ARC
  5
424
100
AcDbEntity
  8
RUNDUNGEN
100
AcDbCircle
 62
7
  6
CONTINUOUS
 10
696.4543101047
 20
168.9290289773
 40
3.9833300565
100
AcDbArc
 50
270.8749498309
 51
277.270791751
  0
ARC
  5
425
100
AcDbEntity
  8
RUNDUNGEN
100
AcDbCircle
 62
7
  6
CONTINUOUS
 10
725.4550285531
 20
168.9159316956
 40
3.9726100408
100
AcDbArc
 50
262.4790773858
 51
269.1079863598
  0
ARC
  5
426
100
AcDbEntity
  8
RUNDUNGEN
100
AcDbCircle
 62
7
  6
CONTINUOUS
 10
696.4535934387
 20
168.9147555728
 40
3.9712920248
100
AcDbArc
 50
270.8946872791
 51
277.3072932239
  0
ARC
  5
427
100
AcDbEntity
  8
RUNDUNGEN
100
AcDbCircle
 62
7
  6
CONTINUOUS
 10
696.5132568826
 20
168.9425041005
 40
3.9410370848
100
AcDbArc
 50
357.4035868071
 51
358.9139971219
  0
ARC
  5
428
100
AcDbEntity
  8
RUNDUNGEN
100
AcDbCircle
 62
7
  6
CONTINUOUS
 10
725.3720467938
 20
168.9419911586
 40
3.9175496476
100
AcDbArc
 50
180.4175324996
 51
181.0834931257
  0
ARC
  5
429
100
AcDbEntity
  8
RUNDUNGEN
100
AcDbCircle
 62
7
  6
CONTINUOUS
 10
696.5371224582
 20
168.9422752926
 40
3.917272341
100
AcDbArc
 50
358.929000525
 51
359.5782675107
  0
ARC
  5
42A
100
AcDbEntity
  8
RUNDUNGEN
100
AcDbCircle
 62
7
  6
CONTINUOUS
 10
725.4523934949
 20
168.8613001982
 40
3.9155764378
100
AcDbArc
 50
269.1405880474
 51
269.592247399
  0
ARC
  5
42B
100
AcDbEntity
  8
RUNDUNGEN
100
AcDbCircle
 62
7
  6
CONTINUOUS
 10
696.4564836724
 20
168.8612418788
 40
3.9155178364
100
AcDbArc
 50
270.4033011921
 51
270.8582946311
  0
ARC
  5
42C
100
AcDbEntity
  8
RUNDUNGEN
100
AcDbCircle
 62
7
  6
CONTINUOUS
 10
725.3596045042
 20
168.9418918569
 40
3.9051069647
100
AcDbArc
 50
179.9959022674
 51
180.4174058949
  0
ARC
  5
42D
100
AcDbEntity
  8
RUNDUNGEN
100
AcDbCircle
 62
7
  6
CONTINUOUS
 10
696.5493790632
 20
168.9421771648
 40
3.9050153458
100
AcDbArc
 50
359.5783835657
 51
359.9999117842
  0
ARC
  5
42E
100
AcDbEntity
  8
RUNDUNGEN
100
AcDbCircle
 62
9
  6
CONTINUOUS
 10
725.4561369851
 20
163.8699077554
 40
1.0758832468
100
AcDbArc
 50
92.5561969451
 51
93.3543812668
  0
ARC
  5
42F
100
AcDbEntity
  8
RUNDUNGEN
100
AcDbCircle
 62
9
  6
CONTINUOUS
 10
696.4548036511
 20
163.9135359979
 40
1.0322039332
100
AcDbArc
 50
86.6231502848
 51
89.0970438204
  0
ARC
  5
430
100
AcDbEntity
  8
RUNDUNGEN
100
AcDbCircle
 62
7
  6
CONTINUOUS
 10
744.9543944852
 20
153.4146233459
 40
1.0
100
AcDbArc
 50
0.000000072
 51
9.999735895
  0
ARC
  5
431
100
AcDbEntity
  8
RUNDUNGEN
100
AcDbCircle
 62
9
  6
CONTINUOUS
 10
725.4527610973
 20
163.9542068447
 40
0.991517552
100
AcDbArc
 50
90.0256729027
 51
92.5785686499
  0
ARC
  5
432
100
AcDbEntity
  8
RUNDUNGEN
100
AcDbCircle
 62
9
  6
CONTINUOUS
 10
696.4564221928
 20
163.9924562686
 40
0.9532680299
100
AcDbArc
 50
89.1195616182
 51
89.9969974001
  0
ARC
  5
433
100
AcDbEntity
  8
BEZUGSACHSEN
100
AcDbCircle
 62
7
  6
CONTINUOUS
 10
710.9543944852
 20
690.4457242973
 40
23.5
100
AcDbArc
 50
0.0
 51
180.0
  0
ARC
  5
434
100
AcDbEntity
  8
BEZUGSACHSEN
100
AcDbCircle
 62
7
  6
CONTINUOUS
 10
710.9543944852
 20
690.4457242973
 40
11.5
100
AcDbArc
 50
0.0
 51
180.0
  0
SPLINE
  5
435
100
AcDbEntity
  8
RUNDUNGEN
100
AcDbSpline
 62
7
  6
CONTINUOUS
 70
0
 71
3
 72
17
 73
13
 74
0
 42
0.0000001
 43
0.0000001
 44
0.0000000001
 40
0.0
 40
0.0
 40
0.0
 40
0.0
 40
0.2579285572
 40
0.3867649615
 40
0.5153217474
 40
0.6431621208
 40
0.7064585795
 40
0.7686133724
 40
0.8279441064
 40
0.8834277013
 40
0.9407542255
 40
1.0
 40
1.0
 40
1.0
 40
1.0
 10
406.936620018
 20
124.2960830351
 30
0.0
 10
406.9366200076
 20
124.4027672107
 30
0.0
 10
406.9320768179
 20
124.5628322058
 30
0.0
 10
406.9136817944
 20
124.7752500113
 30
0.0
 10
406.8915179175
 20
124.9331255215
 30
0.0
 10
406.8630801423
 20
125.0625214128
 30
0.0
 10
406.8280468061
 20
125.1616689115
 30
0.0
 10
406.7932767694
 20
125.2294376071
 30
0.0
 10
406.7405111957
 20
125.2859805569
 30
0.0
 10
406.6628813743
 20
125.2914676761
 30
0.0
 10
406.6003662673
 20
125.2533954647
 30
0.0
 10
406.5649000474
 20
125.2208717513
 30
0.0
 10
406.5478919626
 20
125.2032300657
 30
0.0
  0
SPLINE
  5
436
100
AcDbEntity
  8
RUNDUNGEN
100
AcDbSpline
 62
7
  6
CONTINUOUS
 70
0
 71
3
 72
17
 73
13
 74
0
 42
0.0000001
 43
0.0000001
 44
0.0000000001
 40
0.0
 40
0.0
 40
0.0
 40
0.0
 40
0.0592080877
 40
0.1167143071
 40
0.1725149602
 40
0.2316419881
 40
0.2937524523
 40
0.3570332612
 40
0.4848302657
 40
0.6133499979
 40
0.7421480754
 40
1.0
 40
1.0
 40
1.0
 40
1.0
 10
446.0817925874
 20
125.2032287597
 30
0.0
 10
446.0647956851
 20
125.2208593109
 30
0.0
 10
446.0292324784
 20
125.2532766907
 30
0.0
 10
445.9667187826
 20
125.2920113364
 30
0.0
 10
445.8889084412
 20
125.285558262
 30
0.0
 10
445.83634523
 20
125.2290782334
 30
0.0
 10
445.8014747685
 20
125.1614279508
 30
0.0
 10
445.7665965276
 20
125.0622817032
 30
0.0
 10
445.7381135692
 20
124.9329414614
 30
0.0
 10
445.7159921077
 20
124.7751080404
 30
0.0
 10
445.6976008167
 20
124.5627562454
 30
0.0
 10
445.6930615332
 20
124.4027393009
 30
0.0
 10
445.6930632655
 20
124.2960876461
 30
0.0
  0
SPLINE
  5
437
100
AcDbEntity
  8
RUNDUNGEN
100
AcDbSpline
 62
7
  6
CONTINUOUS
 70
0
 71
3
 72
9
 73
5
 74
0
 42
0.0000001
 43
0.0000001
 44
0.0000000001
 40
0.0
 40
0.0
 40
0.0
 40
0.0
 40
0.2607867014
 40
1.0
 40
1.0
 40
1.0
 40
1.0
 10
406.5478919626
 20
125.2032300657
 30
0.0
 10
406.5396256311
 20
125.1946559245
 30
0.0
 10
406.5065052345
 20
125.1635523016
 30
0.0
 10
406.460030479
 20
125.1438397339
 30
0.0
 10
406.4262784567
 20
125.1445507648
 30
0.0
  0
SPLINE
  5
438
100
AcDbEntity
  8
BEZUGSACHSEN
100
AcDbSpline
 62
7
  6
CONTINUOUS
 70
0
 71
3
 72
37
 73
33
 74
0
 42
0.0000001
 43
0.0000001
 44
0.0000000001
 40
0.0
 40
0.0
 40
0.0
 40
0.0
 40
0.0692670408
 40
0.138054113
 40
0.2061716125
 40
0.2732964919
 40
0.3063167248
 40
0.3388215074
 40
0.3706217739
 40
0.4014145525
 40
0.4306915428
 40
0.4445167074
 40
0.4575989485
 40
0.4697591034
 40
0.4808327488
 40
0.4907981061
 40
0.4999999948
 40
0.5092018823
 40
0.5191672353
 40
0.5302408791
 40
0.5424010441
 40
0.5554832816
 40
0.5693084495
 40
0.5985854413
 40
0.6293782222
 40
0.6611784907
 40
0.6936832739
 40
0.7267035066
 40
0.7938283869
 40
0.8619458866
 40
0.9307329591
 40
1.0
 40
1.0
 40
1.0
 40
1.0
 10
405.6930633405
 20
125.1091845048
 30
0.0
 10
405.4385559183
 20
126.5074693753
 30
0.0
 10
404.9166006383
 20
129.2917077424
 30
0.0
 10
404.0813088145
 20
133.4389362114
 30
0.0
 10
403.182037392
 20
137.5278467662
 30
0.0
 10
402.3582889409
 20
140.8812635276
 30
0.0
 10
401.6357571173
 20
143.5055910129
 30
0.0
 10
401.0599291228
 20
145.4179764325
 30
0.0
 10
400.4390012768
 20
147.2683223898
 30
0.0
 10
399.7617624066
 20
149.0281693998
 30
0.0
 10
399.127174723
 20
150.4075161113
 30
0.0
 10
398.5616512779
 20
151.4129307229
 30
0.0
 10
398.1178020208
 20
152.0815991576
 30
0.0
 10
397.6435270546
 20
152.6586850488
 30
0.0
 10
397.1352840173
 20
153.1175281881
 30
0.0
 10
396.5881271418
 20
153.4258152865
 30
0.0
 10
396.0039528585
 20
153.5386084873
 30
0.0
 10
395.419778643
 20
153.4258153774
 30
0.0
 10
394.8726218654
 20
153.1175285083
 30
0.0
 10
394.3643781767
 20
152.6586859259
 30
0.0
 10
393.8901035835
 20
152.0815995632
 30
0.0
 10
393.446253805
 20
151.4129312668
 30
0.0
 10
392.8807304687
 20
150.4075165381
 30
0.0
 10
392.2461425719
 20
149.0281697855
 30
0.0
 10
391.5689037206
 20
147.2683226297
 30
0.0
 10
390.9479758943
 20
145.4179765648
 30
0.0
 10
390.3721478876
 20
143.5055910968
 30
0.0
 10
389.6496159846
 20
140.8812636058
 30
0.0
 10
388.8258675945
 20
137.5278468095
 30
0.0
 10
387.9265961296
 20
133.438936237
 30
0.0
 10
387.0913043103
 20
129.2917077543
 30
0.0
 10
386.5693490282
 20
126.5074693791
 30
0.0
 10
386.3148416054
 20
125.1091845048
 30
0.0
  0
SPLINE
  5
439
100
AcDbEntity
  8
BEZUGSACHSEN
100
AcDbSpline
 62
7
  6
CONTINUOUS
 70
0
 71
3
 72
37
 73
33
 74
0
 42
0.0000001
 43
0.0000001
 44
0.0000000001
 40
0.0
 40
0.0
 40
0.0
 40
0.0
 40
0.0692670408
 40
0.138054113
 40
0.2061716125
 40
0.2732964919
 40
0.3063167248
 40
0.3388215074
 40
0.3706217739
 40
0.4014145525
 40
0.4306915428
 40
0.4445167074
 40
0.4575989485
 40
0.4697591034
 40
0.4808327488
 40
0.4907981061
 40
0.4999999948
 40
0.5092018823
 40
0.5191672353
 40
0.5302408791
 40
0.5424010441
 40
0.5554832816
 40
0.5693084495
 40
0.5985854413
 40
0.6293782222
 40
0.6611784907
 40
0.6936832739
 40
0.7267035066
 40
0.7938283869
 40
0.8619458866
 40
0.9307329591
 40
1.0
 40
1.0
 40
1.0
 40
1.0
 10
466.3148416054
 20
125.1091845048
 30
0.0
 10
466.0603341832
 20
126.5074693753
 30
0.0
 10
465.5383789032
 20
129.2917077424
 30
0.0
 10
464.7030870794
 20
133.4389362114
 30
0.0
 10
463.8038156569
 20
137.5278467662
 30
0.0
 10
462.9800672058
 20
140.8812635276
 30
0.0
 10
462.2575353823
 20
143.5055910129
 30
0.0
 10
461.6817073877
 20
145.4179764325
 30
0.0
 10
461.0607795418
 20
147.2683223898
 30
0.0
 10
460.3835406715
 20
149.0281693998
 30
0.0
 10
459.7489529879
 20
150.4075161113
 30
0.0
 10
459.1834295428
 20
151.4129307229
 30
0.0
 10
458.7395802857
 20
152.0815991576
 30
0.0
 10
458.2653053195
 20
152.6586850488
 30
0.0
 10
457.7570622822
 20
153.1175281881
 30
0.0
 10
457.2099054067
 20
153.4258152865
 30
0.0
 10
456.6257311234
 20
153.5386084873
 30
0.0
 10
456.0415569079
 20
153.4258153774
 30
0.0
 10
455.4944001303
 20
153.1175285083
 30
0.0
 10
454.9861564416
 20
152.6586859259
 30
0.0
 10
454.5118818484
 20
152.0815995632
 30
0.0
 10
454.0680320699
 20
151.4129312668
 30
0.0
 10
453.5025087336
 20
150.4075165381
 30
0.0
 10
452.8679208368
 20
149.0281697855
 30
0.0
 10
452.1906819855
 20
147.2683226297
 30
0.0
 10
451.5697541592
 20
145.4179765648
 30
0.0
 10
450.9939261525
 20
143.5055910968
 30
0.0
 10
450.2713942495
 20
140.8812636058
 30
0.0
 10
449.4476458594
 20
137.5278468095
 30
0.0
 10
448.5483743946
 20
133.438936237
 30
0.0
 10
447.7130825752
 20
129.2917077543
 30
0.0
 10
447.1911272931
 20
126.5074693791
 30
0.0
 10
446.9366198703
 20
125.1091845048
 30
0.0
  0
SPLINE
  5
43A
100
AcDbEntity
  8
RUNDUNGEN
100
AcDbSpline
 62
7
  6
CONTINUOUS
 70
0
 71
3
 72
9
 73
5
 74
0
 42
0.0000001
 43
0.0000001
 44
0.0000000001
 40
0.0
 40
0.0
 40
0.0
 40
0.0
 40
0.7391193099
 40
1.0
 40
1.0
 40
1.0
 40
1.0
 10
446.2034048896
 20
125.1445507146
 30
0.0
 10
446.1696577986
 20
125.1438397891
 30
0.0
 10
446.123189192
 20
125.1635572103
 30
0.0
 10
446.0900617416
 20
125.1946516912
 30
0.0
 10
446.0817925874
 20
125.2032287597
 30
0.0
  0
SPLINE
  5
43B
100
AcDbEntity
  8
RUNDUNGEN
100
AcDbSpline
 62
9
  6
CONTINUOUS
 70
0
 71
3
 72
9
 73
5
 74
0
 42
0.0000001
 43
0.0000001
 44
0.0000000001
 40
0.0
 40
0.0
 40
0.0
 40
0.0
 40
0.5267694066
 40
1.0
 40
1.0
 40
1.0
 40
1.0
 10
675.8942984535
 20
140.6148968513
 30
0.0
 10
676.1083142786
 20
141.8775753593
 30
0.0
 10
676.3943747465
 20
144.2970537858
 30
0.0
 10
676.4313445163
 20
146.7322536726
 30
0.0
 10
676.392707183
 20
147.8821278381
 30
0.0
  0
SPLINE
  5
43C
100
AcDbEntity
  8
RUNDUNGEN
100
AcDbSpline
 62
9
  6
CONTINUOUS
 70
0
 71
3
 72
8
 73
4
 74
0
 42
0.0000001
 43
0.0000001
 44
0.0000000001
 40
0.0
 40
0.0
 40
0.0
 40
0.0
 40
1.0
 40
1.0
 40
1.0
 40
1.0
 10
745.954408584
 20
149.1529438714
 30
0.0
 10
745.9543991955
 20
149.2120915048
 30
0.0
 10
745.9411885853
 20
149.2722194002
 30
0.0
 10
745.9179049801
 20
149.3265914184
 30
0.0
  0
SPLINE
  5
43D
100
AcDbEntity
  8
RUNDUNGEN
100
AcDbSpline
 62
9
  6
CONTINUOUS
 70
0
 71
3
 72
11
 73
7
 74
0
 42
0.0000001
 43
0.0000001
 44
0.0000000001
 40
0.0
 40
0.0
 40
0.0
 40
0.0
 40
0.2367068193
 40
0.4813719248
 40
0.7369324544
 40
1.0
 40
1.0
 40
1.0
 40
1.0
 10
745.9543944852
 20
146.6731425821
 30
0.0
 10
745.9543944876
 20
146.7897274656
 30
0.0
 10
745.9000424207
 20
147.0297795056
 30
0.0
 10
745.6732587943
 20
147.325733483
 30
0.0
 10
745.3417723726
 20
147.5203257881
 30
0.0
 10
745.0839627808
 20
147.5650778403
 30
0.0
 10
744.9543944852
 20
147.5650778289
 30
0.0
  0
SPLINE
  5
43E
100
AcDbEntity
  8
RUNDUNGEN
100
AcDbSpline
 62
7
  6
CONTINUOUS
 70
0
 71
3
 72
9
 73
5
 74
0
 42
0.0000001
 43
0.0000001
 44
0.0000000001
 40
0.0
 40
0.0
 40
0.0
 40
0.0
 40
0.1877064634
 40
1.0
 40
1.0
 40
1.0
 40
1.0
 10
675.9543944852
 20
152.8145029809
 30
0.0
 10
675.9543944852
 20
152.7964311739
 30
0.0
 10
675.9534627287
 20
152.7002561481
 30
0.0
 10
675.9513516755
 20
152.6030351506
 30
0.0
 10
675.9358892358
 20
152.5263738285
 30
0.0
  0
SPLINE
  5
43F
100
AcDbEntity
  8
RUNDUNGEN
100
AcDbSpline
 62
7
  6
CONTINUOUS
 70
0
 71
3
 72
11
 73
7
 74
0
 42
0.0000001
 43
0.0000001
 44
0.0000000001
 40
0.0
 40
0.0
 40
0.0
 40
0.0
 40
0.1499401626
 40
0.4010672104
 40
0.6913976704
 40
1.0
 40
1.0
 40
1.0
 40
1.0
 10
675.8942984535
 20
140.6148968513
 30
0.0
 10
675.9130410132
 20
140.6155538901
 30
0.0
 10
675.9377482106
 20
140.5513890755
 30
0.0
 10
675.9460076335
 20
140.4756088521
 30
0.0
 10
675.953720471
 20
140.3657715272
 30
0.0
 10
675.9543944852
 20
140.2917397264
 30
0.0
 10
675.9543944852
 20
140.2531406585
 30
0.0
  0
SPLINE
  5
440
100
AcDbEntity
  8
RUNDUNGEN
100
AcDbSpline
 62
7
  6
CONTINUOUS
 70
0
 71
3
 72
9
 73
5
 74
0
 42
0.0000001
 43
0.0000001
 44
0.0000000001
 40
0.0
 40
0.0
 40
0.0
 40
0.0
 40
0.6104918175
 40
1.0
 40
1.0
 40
1.0
 40
1.0
 10
674.9543944852
 20
140.6658293468
 30
0.0
 10
675.1452959956
 20
140.6495900551
 30
0.0
 10
675.4581804813
 20
140.6286015608
 30
0.0
 10
675.7721339353
 20
140.6106142538
 30
0.0
 10
675.8942984544
 20
140.6148968511
 30
0.0
  0
SPLINE
  5
441
100
AcDbEntity
  8
RUNDUNGEN
100
AcDbSpline
 62
7
  6
CONTINUOUS
 70
0
 71
3
 72
11
 73
7
 74
0
 42
0.0000001
 43
0.0000001
 44
0.0000000001
 40
0.0
 40
0.0
 40
0.0
 40
0.0
 40
0.2531297675
 40
0.5048183192
 40
0.7537965206
 40
1.0
 40
1.0
 40
1.0
 40
1.0
 10
674.9543944852
 20
151.7396113094
 30
0.0
 10
675.0686545584
 20
151.7402636581
 30
0.0
 10
675.2980935188
 20
151.7799571241
 30
0.0
 10
675.6012794889
 20
151.9477219697
 30
0.0
 10
675.8296382766
 20
152.2044862793
 30
0.0
 10
675.9139167748
 20
152.4174321435
 30
0.0
 10
675.9358900712
 20
152.5263736806
 30
0.0
  0
SPLINE
  5
442
100
AcDbEntity
  8
RUNDUNGEN
100
AcDbSpline
 62
9
  6
CONTINUOUS
 70
0
 71
3
 72
9
 73
5
 74
0
 42
0.0000001
 43
0.0000001
 44
0.0000000001
 40
0.0
 40
0.0
 40
0.0
 40
0.0
 40
0.3501663124
 40
1.0
 40
1.0
 40
1.0
 40
1.0
 10
745.9179050167
 20
149.3265831683
 30
0.0
 10
745.9147130891
 20
149.308920607
 30
0.0
 10
745.902885139
 20
149.2589351283
 30
0.0
 10
745.8800833275
 20
149.2119808836
 30
0.0
 10
745.8613572619
 20
149.1844342775
 30
0.0
  0
SPLINE
  5
443
100
AcDbEntity
  8
RUNDUNGEN
100
AcDbSpline
 62
9
  6
CONTINUOUS
 70
0
 71
3
 72
13
 73
9
 74
0
 42
0.0000001
 43
0.0000001
 44
0.0000000001
 40
0.0
 40
0.0
 40
0.0
 40
0.0
 40
0.0794249013
 40
0.1608091665
 40
0.2546124791
 40
0.3649142355
 40
0.6422680976
 40
1.0
 40
1.0
 40
1.0
 40
1.0
 10
745.8613572619
 20
149.1844342775
 30
0.0
 10
745.8334588663
 20
149.1433948979
 30
0.0
 10
745.761829078
 20
149.071774323
 30
0.0
 10
745.6508737202
 20
148.9581369536
 30
0.0
 10
745.5389971412
 20
148.8186493149
 30
0.0
 10
745.3733181137
 20
148.5672127169
 30
0.0
 10
745.1657076406
 20
148.1486345939
 30
0.0
 10
745.0257937245
 20
147.7768710448
 30
0.0
 10
744.9543931496
 20
147.5650741851
 30
0.0
  0
SPLINE
  5
444
100
AcDbEntity
  8
RUNDUNGEN
100
AcDbSpline
 62
7
  6
CONTINUOUS
 70
0
 71
3
 72
9
 73
5
 74
0
 42
0.0000001
 43
0.0000001
 44
0.0000000001
 40
0.0
 40
0.0
 40
0.0
 40
0.0
 40
0.3046817004
 40
1.0
 40
1.0
 40
1.0
 40
1.0
 10
745.7299623231
 20
125.2032300657
 30
0.0
 10
745.7253476143
 20
125.1949395272
 30
0.0
 10
745.709829717
 20
125.169023192
 30
0.0
 10
745.6813878004
 20
125.1437611998
 30
0.0
 10
745.6597487327
 20
125.1445507648
 30
0.0
  0
SPLINE
  5
445
100
AcDbEntity
  8
RUNDUNGEN
100
AcDbSpline
 62
9
  6
CONTINUOUS
 70
0
 71
3
 72
9
 73
5
 74
0
 42
0.0000001
 43
0.0000001
 44
0.0000000001
 40
0.0
 40
0.0
 40
0.0
 40
0.0
 40
0.2504428196
 40
1.0
 40
1.0
 40
1.0
 40
1.0
 10
744.9543944853
 20
132.9502827202
 30
0.0
 10
745.0194903172
 20
132.3035865257
 30
0.0
 10
745.2790476668
 20
129.7213387713
 30
0.0
 10
745.5371943811
 20
127.1389492619
 30
0.0
 10
745.7299608673
 20
125.203228181
 30
0.0
  0
SPLINE
  5
446
100
AcDbEntity
  8
BEZUGSACHSEN
100
AcDbSpline
 62
7
  6
CONTINUOUS
 70
0
 71
3
 72
33
 73
29
 74
0
 42
0.0000001
 43
0.0000001
 44
0.0000000001
 40
0.0
 40
0.0
 40
0.0
 40
0.0
 40
0.064270187
 40
0.1284015462
 40
0.1923400943
 40
0.2559945777
 40
0.2876710848
 40
0.3192040228
 40
0.3505433944
 40
0.3816107727
 40
0.4122796757
 40
0.4423480535
 40
0.4715460766
 40
0.4858432374
 40
0.4999999918
 40
0.5141567445
 40
0.5284539009
 40
0.5576519368
 40
0.5877203165
 40
0.6183892216
 40
0.649456602
 40
0.6807959752
 40
0.7123289137
 40
0.7440054209
 40
0.8076599051
 40
0.8715984534
 40
0.9357298128
 40
1.0
 40
1.0
 40
1.0
 40
1.0
 10
710.236426788
 20
125.1091845048
 30
0.0
 10
709.7947538284
 20
126.5101756504
 30
0.0
 10
708.8882437212
 20
129.3016244137
 30
0.0
 10
707.4397858642
 20
133.4527659684
 30
0.0
 10
705.8791618984
 20
137.5482206057
 30
0.0
 10
704.4523440756
 20
140.8988963799
 30
0.0
 10
703.2036296767
 20
143.516361191
 30
0.0
 10
702.2036123045
 20
145.4327207288
 30
0.0
 10
701.1231849614
 20
147.2893273879
 30
0.0
 10
699.9409326842
 20
149.0599702564
 30
0.0
 10
698.6259161475
 20
150.7003129362
 30
0.0
 10
697.1397757694
 20
152.1304819259
 30
0.0
 10
695.6936849419
 20
153.0338885103
 30
0.0
 10
694.4299426306
 20
153.4325417619
 30
0.0
 10
693.4543951398
 20
153.5365915723
 30
0.0
 10
692.4788477612
 20
153.4325418151
 30
0.0
 10
691.2151051911
 20
153.0338889054
 30
0.0
 10
689.7690140044
 20
152.130482385
 30
0.0
 10
688.2828730849
 20
150.7003134092
 30
0.0
 10
686.9678564157
 20
149.0599706383
 30
0.0
 10
685.7856040864
 20
147.2893276445
 30
0.0
 10
684.7051767862
 20
145.4327208468
 30
0.0
 10
683.7051593911
 20
143.5163612662
 30
0.0
 10
682.4564448699
 20
140.898896478
 30
0.0
 10
681.0296271368
 20
137.5482206376
 30
0.0
 10
679.4690031053
 20
133.452765998
 30
0.0
 10
678.0205452538
 20
129.3016244253
 30
0.0
 10
677.1140351433
 20
126.5101756542
 30
0.0
 10
676.6723621825
 20
125.1091845048
 30
0.0
  0
SPLINE
  5
447
100
AcDbEntity
  8
BEZUGSACHSEN
100
AcDbSpline
 62
7
  6
CONTINUOUS
 70
0
 71
3
 72
9
 73
5
 74
0
 42
0.0000001
 43
0.0000001
 44
0.0000000001
 40
0.0
 40
0.0
 40
0.0
 40
0.0
 40
0.2515959636
 40
1.0
 40
1.0
 40
1.0
 40
1.0
 10
676.6723621825
 20
125.1091845048
 30
0.0
 10
676.6131316073
 20
125.1212413071
 30
0.0
 10
676.3755242243
 20
125.1579260582
 30
0.0
 10
676.1305833273
 20
125.1450489892
 30
0.0
 10
675.9543944852
 20
125.1091845048
 30
0.0
  0
SPLINE
  5
448
100
AcDbEntity
  8
RUNDUNGEN
100
AcDbSpline
 62
9
  6
CONTINUOUS
 70
0
 71
3
 72
11
 73
7
 74
0
 42
0.0000001
 43
0.0000001
 44
0.0000000001
 40
0.0
 40
0.0
 40
0.0
 40
0.0
 40
0.1865232196
 40
0.4228620696
 40
0.6998826116
 40
1.0
 40
1.0
 40
1.0
 40
1.0
 10
744.9543944016
 20
147.5650760149
 30
0.0
 10
744.6238259017
 20
147.096456608
 30
0.0
 10
744.0367608657
 20
145.9202455053
 30
0.0
 10
743.4790878094
 20
143.8291960267
 30
0.0
 10
743.327896007
 20
141.3151782311
 30
0.0
 10
743.5727035834
 20
139.54523528
 30
0.0
 10
743.7780647526
 20
138.6456432507
 30
0.0
  0
SPLINE
  5
449
100
AcDbEntity
  8
RUNDUNGEN
100
AcDbSpline
 62
9
  6
CONTINUOUS
 70
0
 71
3
 72
8
 73
4
 74
0
 42
0.0000001
 43
0.0000001
 44
0.0000000001
 40
0.0
 40
0.0
 40
0.0
 40
0.0
 40
1.0
 40
1.0
 40
1.0
 40
1.0
 10
743.7780652251
 20
138.6456432508
 30
0.0
 10
744.1720018773
 20
136.7475679881
 30
0.0
 10
744.5640494239
 20
134.8490998581
 30
0.0
 10
744.9543944853
 20
132.9502827206
 30
0.0
  0
SPLINE
  5
44A
100
AcDbEntity
  8
RUNDUNGEN
100
AcDbSpline
 62
9
  6
CONTINUOUS
 70
0
 71
3
 72
18
 73
14
 74
0
 42
0.0000001
 43
0.0000001
 44
0.0000000001
 40
0.0
 40
0.0
 40
0.0
 40
0.0
 40
0.0253915704
 40
0.0500353651
 40
0.0778863045
 40
0.1114947589
 40
0.1520186692
 40
0.1998165704
 40
0.3167592659
 40
0.4601895718
 40
0.626133114
 40
0.8087095156
 40
1.0
 40
1.0
 40
1.0
 40
1.0
 10
745.9179070622
 20
149.3265833237
 30
0.0
 10
745.8313538339
 20
149.3870088934
 30
0.0
 10
745.6370847973
 20
149.479495744
 30
0.0
 10
745.3031188454
 20
149.4741443227
 30
0.0
 10
744.9691887892
 20
149.3280565733
 30
0.0
 10
744.6360432098
 20
149.061052248
 30
0.0
 10
744.3018408544
 20
148.6773386466
 30
0.0
 10
743.8292848293
 20
147.9646959709
 30
0.0
 10
743.2968575717
 20
146.7910067129
 30
0.0
 10
742.8144798354
 20
145.0800063056
 30
0.0
 10
742.5435688146
 20
143.0456067675
 30
0.0
 10
742.560158203
 20
140.7946715347
 30
0.0
 10
742.7808793744
 20
139.2509545487
 30
0.0
 10
742.9413724213
 20
138.4720761196
 30
0.0
  0
SPLINE
  5
44B
100
AcDbEntity
  8
RUNDUNGEN
100
AcDbSpline
 62
7
  6
CONTINUOUS
 70
0
 71
3
 72
8
 73
4
 74
0
 42
0.0000001
 43
0.0000001
 44
0.0000000001
 40
0.0
 40
0.0
 40
0.0
 40
0.0
 40
1.0
 40
1.0
 40
1.0
 40
1.0
 10
745.6597487327
 20
125.1445507648
 30
0.0
 10
745.5182439947
 20
125.1497139167
 30
0.0
 10
745.3751802093
 20
125.1374287446
 30
0.0
 10
745.236426788
 20
125.1091845048
 30
0.0
  0
SPLINE
  5
44C
100
AcDbEntity
  8
BEZUGSACHSEN
100
AcDbSpline
 62
7
  6
CONTINUOUS
 70
0
 71
3
 72
33
 73
29
 74
0
 42
0.0000001
 43
0.0000001
 44
0.0000000001
 40
0.0
 40
0.0
 40
0.0
 40
0.0
 40
0.064270187
 40
0.1284015462
 40
0.1923400943
 40
0.2559945777
 40
0.2876710848
 40
0.3192040228
 40
0.3505433944
 40
0.3816107727
 40
0.4122796757
 40
0.4423480535
 40
0.4715460766
 40
0.4858432374
 40
0.4999999918
 40
0.5141567445
 40
0.5284539009
 40
0.5576519368
 40
0.5877203165
 40
0.6183892216
 40
0.649456602
 40
0.6807959752
 40
0.7123289137
 40
0.7440054209
 40
0.8076599051
 40
0.8715984534
 40
0.9357298128
 40
1.0
 40
1.0
 40
1.0
 40
1.0
 10
745.236426788
 20
125.1091845048
 30
0.0
 10
744.7947538284
 20
126.5101756504
 30
0.0
 10
743.8882437212
 20
129.3016244137
 30
0.0
 10
742.4397858642
 20
133.4527659684
 30
0.0
 10
740.8791618984
 20
137.5482206057
 30
0.0
 10
739.4523440756
 20
140.8988963799
 30
0.0
 10
738.2036296767
 20
143.516361191
 30
0.0
 10
737.2036123045
 20
145.4327207288
 30
0.0
 10
736.1231849614
 20
147.2893273879
 30
0.0
 10
734.9409326842
 20
149.0599702564
 30
0.0
 10
733.6259161475
 20
150.7003129362
 30
0.0
 10
732.1397757694
 20
152.1304819259
 30
0.0
 10
730.6936849419
 20
153.0338885103
 30
0.0
 10
729.4299426306
 20
153.4325417619
 30
0.0
 10
728.4543951398
 20
153.5365915723
 30
0.0
 10
727.4788477612
 20
153.4325418151
 30
0.0
 10
726.2151051911
 20
153.0338889054
 30
0.0
 10
724.7690140044
 20
152.130482385
 30
0.0
 10
723.2828730849
 20
150.7003134092
 30
0.0
 10
721.9678564157
 20
149.0599706383
 30
0.0
 10
720.7856040864
 20
147.2893276445
 30
0.0
 10
719.7051767862
 20
145.4327208468
 30
0.0
 10
718.7051593911
 20
143.5163612662
 30
0.0
 10
717.4564448699
 20
140.898896478
 30
0.0
 10
716.0296271368
 20
137.5482206376
 30
0.0
 10
714.4690031053
 20
133.452765998
 30
0.0
 10
713.0205452538
 20
129.3016244253
 30
0.0
 10
712.1140351433
 20
126.5101756542
 30
0.0
 10
711.6723621825
 20
125.1091845048
 30
0.0
  0
SPLINE
  5
44D
100
AcDbEntity
  8
RUNDUNGEN
100
AcDbSpline
 62
7
  6
CONTINUOUS
 70
0
 71
3
 72
21
 73
17
 74
0
 42
0.0000001
 43
0.0000001
 44
0.0000000001
 40
0.0
 40
0.0
 40
0.0
 40
0.0
 40
0.139419983
 40
0.278690699
 40
0.4175729133
 40
0.5555680239
 40
0.6238891331
 40
0.6913219774
 40
0.7570203031
 40
0.8188148484
 40
0.8464752501
 40
0.8701682681
 40
0.888930783
 40
0.9066975395
 40
0.9492131566
 40
1.0
 40
1.0
 40
1.0
 40
1.0
 10
745.9543945705
 20
124.2960830351
 30
0.0
 10
745.9543945675
 20
124.3494381522
 30
0.0
 10
745.9534933906
 20
124.4560936213
 30
0.0
 10
745.9491309113
 20
124.6158485488
 30
0.0
 10
745.9411476776
 20
124.7749179125
 30
0.0
 10
745.9305697727
 20
124.9066411984
 30
0.0
 10
745.9184057786
 20
125.0106985837
 30
0.0
 10
745.9069740243
 20
125.0869858201
 30
0.0
 10
745.8919704768
 20
125.1600282921
 30
0.0
 10
745.8755799663
 20
125.2174169727
 30
0.0
 10
745.856563059
 20
125.2564281488
 30
0.0
 10
745.8406559322
 20
125.2784150562
 30
0.0
 10
745.8190986539
 20
125.2901486886
 30
0.0
 10
745.7876880339
 20
125.2835986619
 30
0.0
 10
745.7581706089
 20
125.2500284449
 30
0.0
 10
745.7394149208
 20
125.2202123641
 30
0.0
 10
745.7299623231
 20
125.2032300657
 30
0.0
  0
SPLINE
  5
44E
100
AcDbEntity
  8
RUNDUNGEN
100
AcDbSpline
 62
9
  6
CONTINUOUS
 70
0
 71
3
 72
11
 73
7
 74
0
 42
0.0000001
 43
0.0000001
 44
0.0000000001
 40
0.0
 40
0.0
 40
0.0
 40
0.0
 40
0.2210158225
 40
0.4600363668
 40
0.7223430225
 40
1.0
 40
1.0
 40
1.0
 40
1.0
 10
675.954387611
 20
128.0413969224
 30
0.0
 10
675.9538964914
 20
128.1439275004
 30
0.0
 10
675.8953432695
 20
128.3598264721
 30
0.0
 10
675.6643855607
 20
128.6156515507
 30
0.0
 10
675.3355493369
 20
128.7810838518
 30
0.0
 10
675.0832027156
 20
128.8187865978
 30
0.0
 10
674.9543944852
 20
128.8187865978
 30
0.0
  0
LINE
  5
44F
100
AcDbEntity
  8
RUNDUNGEN
100
AcDbLine
 62
9
  6
CONTINUOUS
 10
745.9392235368
 20
153.588062956
 11
745.9385743803
 21
153.4622224809
  0
LINE
  5
450
100
AcDbEntity
  8
RUNDUNGEN
100
AcDbLine
 62
9
  6
CONTINUOUS
 10
745.9385743803
 20
153.4622224809
 11
745.937771681
 21
153.306079286
  0
LINE
  5
451
100
AcDbEntity
  8
RUNDUNGEN
100
AcDbLine
 62
9
  6
CONTINUOUS
 10
745.937771681
 20
153.306079286
 11
745.9179070622
 21
149.3265833237
  0
SPLINE
  5
452
100
AcDbEntity
  8
RUNDUNGEN
100
AcDbSpline
 62
9
  6
CONTINUOUS
 70
0
 71
3
 72
22
 73
18
 74
0
 42
0.0000001
 43
0.0000001
 44
0.0000000001
 40
0.0
 40
0.0
 40
0.0
 40
0.0
 40
0.0646740692
 40
0.1301702974
 40
0.1928470159
 40
0.2457998997
 40
0.2775068209
 40
0.3079397207
 40
0.3332254965
 40
0.3630306355
 40
0.4305762333
 40
0.5032286233
 40
0.5775085376
 40
0.6515263057
 40
0.7241873031
 40
0.8633560319
 40
1.0
 40
1.0
 40
1.0
 40
1.0
 10
675.3364576444
 20
127.9398242997
 30
0.0
 10
675.3723663839
 20
127.9398243025
 30
0.0
 10
675.4448179842
 20
127.9420726419
 30
0.0
 10
675.5508371921
 20
127.9502694727
 30
0.0
 10
675.6529652268
 20
127.9663487267
 30
0.0
 10
675.7258623191
 20
127.980414448
 30
0.0
 10
675.7992996757
 20
128.0208606589
 30
0.0
 10
675.756204671
 20
128.069285511
 30
0.0
 10
675.7175439099
 20
128.0912000091
 30
0.0
 10
675.6568722727
 20
128.1246272027
 30
0.0
 10
675.5721220076
 20
128.1647505303
 30
0.0
 10
675.4652793106
 20
128.2178736268
 30
0.0
 10
675.3576279896
 20
128.2766545451
 30
0.0
 10
675.253984568
 20
128.3426863453
 30
0.0
 10
675.1288276829
 20
128.4403245406
 30
0.0
 10
674.9977723595
 20
128.5878007661
 30
0.0
 10
674.9544299929
 20
128.7429182914
 30
0.0
 10
674.9543944852
 20
128.8187865981
 30
0.0
  0
SPLINE
  5
453
100
AcDbEntity
  8
RUNDUNGEN
100
AcDbSpline
 62
9
  6
CONTINUOUS
 70
0
 71
3
 72
9
 73
5
 74
0
 42
0.0000001
 43
0.0000001
 44
0.0000000001
 40
0.0
 40
0.0
 40
0.0
 40
0.0
 40
0.5279437189
 40
1.0
 40
1.0
 40
1.0
 40
1.0
 10
674.9543944852
 20
140.6658293468
 30
0.0
 10
675.1736894136
 20
141.844086356
 30
0.0
 10
675.4640620825
 20
144.101639907
 30
0.0
 10
675.492417397
 20
146.3766240838
 30
0.0
 10
675.4470047552
 20
147.4472813987
 30
0.0
  0
SPLINE
  5
454
100
AcDbEntity
  8
RUNDUNGEN
100
AcDbSpline
 62
9
  6
CONTINUOUS
 70
0
 71
3
 72
9
 73
5
 74
0
 42
0.0000001
 43
0.0000001
 44
0.0000000001
 40
0.0
 40
0.0
 40
0.0
 40
0.0
 40
0.3378685391
 40
1.0
 40
1.0
 40
1.0
 40
1.0
 10
675.4470047552
 20
147.4472813987
 30
0.0
 10
675.4263725507
 20
147.9337081842
 30
0.0
 10
675.3295954203
 20
149.3719285629
 30
0.0
 10
675.1289492406
 20
150.8015916178
 30
0.0
 10
674.9543944852
 20
151.7396113094
 30
0.0
  0
SPLINE
  5
455
100
AcDbEntity
  8
RUNDUNGEN
100
AcDbSpline
 62
9
  6
CONTINUOUS
 70
0
 71
3
 72
8
 73
4
 74
0
 42
0.0000001
 43
0.0000001
 44
0.0000000001
 40
0.0
 40
0.0
 40
0.0
 40
0.0
 40
1.0
 40
1.0
 40
1.0
 40
1.0
 10
713.6634226396
 20
162.9008649923
 30
0.0
 10
712.8103774979
 20
162.5562904987
 30
0.0
 10
711.874404046
 20
162.3727910983
 30
0.0
 10
710.9543944852
 20
162.372731659
 30
0.0
  0
SPLINE
  5
456
100
AcDbEntity
  8
RUNDUNGEN
100
AcDbSpline
 62
9
  6
CONTINUOUS
 70
0
 71
3
 72
9
 73
5
 74
0
 42
0.0000001
 43
0.0000001
 44
0.0000000001
 40
0.0
 40
0.0
 40
0.0
 40
0.0
 40
0.2316768472
 40
1.0
 40
1.0
 40
1.0
 40
1.0
 10
708.2454548487
 20
162.9010330426
 30
0.0
 10
708.2028461275
 20
162.748534273
 30
0.0
 10
708.0124491156
 20
162.0921130936
 30
0.0
 10
707.8007459611
 20
161.441965498
 30
0.0
 10
707.6290330853
 20
160.9457243011
 30
0.0
  0
SPLINE
  5
457
100
AcDbEntity
  8
RUNDUNGEN
100
AcDbSpline
 62
9
  6
CONTINUOUS
 70
0
 71
3
 72
9
 73
5
 74
0
 42
0.0000001
 43
0.0000001
 44
0.0000000001
 40
0.0
 40
0.0
 40
0.0
 40
0.0
 40
0.2316600111
 40
1.0
 40
1.0
 40
1.0
 40
1.0
 10
713.6634113148
 20
162.9008864463
 30
0.0
 10
713.7060111281
 20
162.7484100689
 30
0.0
 10
713.8964010456
 20
162.09204249
 30
0.0
 10
714.1081047427
 20
161.4419530619
 30
0.0
 10
714.2797623844
 20
160.9457242973
 30
0.0
  0
SPLINE
  5
458
100
AcDbEntity
  8
RUNDUNGEN
100
AcDbSpline
 62
9
  6
CONTINUOUS
 70
0
 71
3
 72
8
 73
4
 74
0
 42
0.0000001
 43
0.0000001
 44
0.0000000001
 40
0.0
 40
0.0
 40
0.0
 40
0.0
 40
1.0
 40
1.0
 40
1.0
 40
1.0
 10
710.9543944852
 20
162.372731659
 30
0.0
 10
710.0343849254
 20
162.3728044567
 30
0.0
 10
709.0984099392
 20
162.5562867028
 30
0.0
 10
708.2453663308
 20
162.9008649923
 30
0.0
  0
SPLINE
  5
459
100
AcDbEntity
  8
RUNDUNGEN
100
AcDbSpline
 62
9
  6
CONTINUOUS
 70
0
 71
3
 72
22
 73
18
 74
0
 42
0.0000001
 43
0.0000001
 44
0.0000000001
 40
0.0
 40
0.0
 40
0.0
 40
0.0
 40
0.1785451559
 40
0.3541680803
 40
0.5225091413
 40
0.6784763651
 40
0.749497993
 40
0.8143944256
 40
0.8716735648
 40
0.9197367621
 40
0.9570173156
 40
0.9711409866
 40
0.9820097812
 40
0.989548622
 40
0.9939520326
 40
0.9962628805
 40
1.0
 40
1.0
 40
1.0
 40
1.0
 10
708.2453663308
 20
162.9008649923
 30
0.0
 10
707.6929809957
 20
163.1230228477
 30
0.0
 10
706.635926877
 20
163.6609455942
 30
0.0
 10
705.1795375068
 20
164.62068915
 30
0.0
 10
703.8616594041
 20
165.6440162389
 30
0.0
 10
702.8739640036
 20
166.5183700934
 30
0.0
 10
702.1734982413
 20
167.1943493923
 30
0.0
 10
701.7224842263
 20
167.6544693142
 30
0.0
 10
701.3347610954
 20
168.0692765356
 30
0.0
 10
701.0170756934
 20
168.4229847968
 30
0.0
 10
700.7992607502
 20
168.6737379301
 30
0.0
 10
700.6606016634
 20
168.8274499515
 30
0.0
 10
700.5864814964
 20
168.9083394372
 30
0.0
 10
700.5303183931
 20
168.956237253
 30
0.0
 10
700.4921926757
 20
168.9912225141
 30
0.0
 10
700.4521649827
 20
168.9802079073
 30
0.0
 10
700.454372678
 20
168.9546331129
 30
0.0
 10
700.4543944852
 20
168.9421711524
 30
0.0
  0
SPLINE
  5
45A
100
AcDbEntity
  8
RUNDUNGEN
100
AcDbSpline
 62
9
  6
CONTINUOUS
 70
0
 71
3
 72
9
 73
5
 74
0
 42
0.0000001
 43
0.0000001
 44
0.0000000001
 40
0.0
 40
0.0
 40
0.0
 40
0.0
 40
0.2311779012
 40
1.0
 40
1.0
 40
1.0
 40
1.0
 10
725.3931853788
 20
164.9439477248
 30
0.0
 10
725.3699773507
 20
164.9425782135
 30
0.0
 10
725.2697710139
 20
164.9334620638
 30
0.0
 10
725.1708235717
 20
164.9133842044
 30
0.0
 10
725.0958011179
 20
164.8946896966
 30
0.0
  0
SPLINE
  5
45B
100
AcDbEntity
  8
RUNDUNGEN
100
AcDbSpline
 62
9
  6
CONTINUOUS
 70
0
 71
3
 72
13
 73
9
 74
0
 42
0.0000001
 43
0.0000001
 44
0.0000000001
 40
0.0
 40
0.0
 40
0.0
 40
0.0
 40
0.0743335242
 40
0.1720638604
 40
0.2878019468
 40
0.4167551997
 40
0.6999531611
 40
1.0
 40
1.0
 40
1.0
 40
1.0
 10
725.0958011179
 20
164.8946896966
 30
0.0
 10
724.8184322764
 20
164.8255734025
 30
0.0
 10
724.2009410754
 20
164.5786188209
 30
0.0
 10
723.1938181835
 20
164.1232458092
 30
0.0
 10
721.9958383488
 20
163.5753926021
 30
0.0
 10
720.1349019123
 20
162.7644094615
 30
0.0
 10
717.5783559309
 20
161.7773648403
 30
0.0
 10
715.4118463639
 20
161.1687017363
 30
0.0
 10
714.2797623785
 20
160.9457242973
 30
0.0
  0
SPLINE
  5
45C
100
AcDbEntity
  8
RUNDUNGEN
100
AcDbSpline
 62
9
  6
CONTINUOUS
 70
0
 71
3
 72
11
 73
7
 74
0
 42
0.0000001
 43
0.0000001
 44
0.0000000001
 40
0.0
 40
0.0
 40
0.0
 40
0.0
 40
0.1908182098
 40
0.3152537024
 40
0.5691038115
 40
1.0
 40
1.0
 40
1.0
 40
1.0
 10
721.4543944852
 20
168.9421711524
 30
0.0
 10
721.4544169348
 20
168.9551217677
 30
0.0
 10
721.4562475766
 20
168.983634644
 30
0.0
 10
721.4098474666
 20
168.988707952
 30
0.0
 10
721.3692962005
 20
168.9475358446
 30
0.0
 10
721.3346797671
 20
168.9180735769
 30
0.0
 10
721.3141871882
 20
168.8972098818
 30
0.0
  0
SPLINE
  5
45D
100
AcDbEntity
  8
RUNDUNGEN
100
AcDbSpline
 62
9
  6
CONTINUOUS
 70
0
 71
3
 72
13
 73
9
 74
0
 42
0.0000001
 43
0.0000001
 44
0.0000000001
 40
0.0
 40
0.0
 40
0.0
 40
0.0
 40
0.055077453
 40
0.1439202213
 40
0.2581646426
 40
0.3901536515
 40
0.6857512151
 40
1.0
 40
1.0
 40
1.0
 40
1.0
 10
721.3141871882
 20
168.8972098818
 30
0.0
 10
721.1881786934
 20
168.7689193994
 30
0.0
 10
720.8849767912
 20
168.4092473836
 30
0.0
 10
720.3165627876
 20
167.7869343054
 30
0.0
 10
719.5515338311
 20
167.004375863
 30
0.0
 10
718.2529821987
 20
165.8016630349
 30
0.0
 10
716.3504429677
 20
164.298946295
 30
0.0
 10
714.6153202407
 20
163.2837024615
 30
0.0
 10
713.6634226396
 20
162.9008649923
 30
0.0
  0
SPLINE
  5
45E
100
AcDbEntity
  8
RUNDUNGEN
100
AcDbSpline
 62
9
  6
CONTINUOUS
 70
0
 71
3
 72
13
 73
9
 74
0
 42
0.0000001
 43
0.0000001
 44
0.0000000001
 40
0.0
 40
0.0
 40
0.0
 40
0.0
 40
0.3000415144
 40
0.5832389287
 40
0.7121927187
 40
0.8279322151
 40
0.9256652222
 40
1.0
 40
1.0
 40
1.0
 40
1.0
 10
707.629026592
 20
160.9457242973
 30
0.0
 10
706.4969722766
 20
161.1686856984
 30
0.0
 10
704.3305097272
 20
161.7773498909
 30
0.0
 10
701.7740018054
 20
162.7643565679
 30
0.0
 10
699.9130799874
 20
163.575335673
 30
0.0
 10
698.7150973616
 20
164.12319297
 30
0.0
 10
697.7079628218
 20
164.5785633505
 30
0.0
 10
697.0904716181
 20
164.8255370225
 30
0.0
 10
696.8131040336
 20
164.8946662742
 30
0.0
  0
SPLINE
  5
45F
100
AcDbEntity
  8
RUNDUNGEN
100
AcDbSpline
 62
9
  6
CONTINUOUS
 70
0
 71
3
 72
9
 73
5
 74
0
 42
0.0000001
 43
0.0000001
 44
0.0000000001
 40
0.0
 40
0.0
 40
0.0
 40
0.0
 40
0.2695620969
 40
1.0
 40
1.0
 40
1.0
 40
1.0
 10
696.8131040336
 20
164.8946662742
 30
0.0
 10
696.7867933798
 20
164.9012237665
 30
0.0
 10
696.6888322114
 20
164.9239358348
 30
0.0
 10
696.5889515527
 20
164.9396209802
 30
0.0
 10
696.5156035916
 20
164.9439477248
 30
0.0
  0
ENDSEC
  0
SECTION
  2
OBJECTS
  0
DICTIONARY
  5
C
100
AcDbDictionary
280
0
281
1
  3
ACAD_GROUP
350
D
  3
ACAD_MLINESTYLE
350
17
  3
ACAD_LAYOUT
350
1A
  3
ACAD_PLOTSETTINGS
350
19
  3
ACAD_PLOTSTYLENAME
350
E
  0
DICTIONARY
  5
D
102
{ACAD_REACTORS
330
C
102
}
100
AcDbDictionary
280
0
281
1
  0
ACDBDICTIONARYWDFLT
  5
E
102
{ACAD_REACTORS
330
C
102
}
100
AcDbDictionary
281
1
  3
Normal
350
F
100
AcDbDictionaryWithDefault
340
F
  0
DICTIONARY
  5
17
102
{ACAD_REACTORS
330
C
102
}
100
AcDbDictionary
280
0
281
1
  3
Standard
350
18
  0
DICTIONARY
  5
19
102
{ACAD_REACTORS
330
C
102
}
100
AcDbDictionary
281
1
  0
DICTIONARY
  5
1A
102
{ACAD_REACTORS
330
C
102
}
100
AcDbDictionary
281
1
  3
Model
350
460
  3
Layout1
350
461
  0
ACDBPLACEHOLDER
  5
F
102
{ACAD_REACTORS
330
E
102
}
  0
MLINESTYLE
  5
18
102
{ACAD_REACTORS
330
17
102
}
100
AcDbMlineStyle
  2
STANDARD
 70
0
  3

 62
256
 51
90.0
 52
90.0
 71
2
 49
0.5
 62
256
  6
BYLAYER
 49
-0.5
 62
256
  6
BYLAYER
  0
LAYOUT
  5
460
102
{ACAD_REACTORS
330
1A
102
}
100
AcDbPlotSettings
  1

  2
none_device
  4
ISO_A0_(1189.00_x_841.00_MM)
  6

 40
0.0
 41
0.0
 42
0.0
 43
0.0
 44
1189.0
 45
841.0
 46
0.0
 47
0.0
 48
0.0
 49
0.0
140
0.0
141
0.0
142
1.0
143
1.0
 70
1024
 72
1
 73
0
 74
0
  7

 75
0
147
1.0
148
0.0
149
0.0
100
AcDbLayout
  1
Model
 70
0
 71
0
 10
0.0
 20
0.0
 11
1189.0
 21
841.0
 12
0.0
 22
0.0
 32
0.0
 14
0.0
 24
0.0
 34
0.0
 15
0.0
 25
0.0
 35
0.0
146
0.0
 13
0.0
 23
0.0
 33
0.0
 16
1.0
 26
0.0
 36
0.0
 17
0.0
 27
1.0
 37
0.0
 76
0
330
212
345
0
346
0
  0
LAYOUT
  5
461
102
{ACAD_REACTORS
330
1A
102
}
100
AcDbPlotSettings
  1

  2
none_device
  4
ISO_A0_(1189.00_x_841.00_MM)
  6

 40
0.0
 41
0.0
 42
0.0
 43
0.0
 44
1189.0
 45
841.0
 46
0.0
 47
0.0
 48
0.0
 49
0.0
140
0.0
141
0.0
142
1.0
143
1.0
 70
0
 72
1
 73
0
 74
0
  7

 75
0
147
1.0
148
0.0
149
0.0
100
AcDbLayout
  1
Layout1
 70
0
 71
1
 10
0.0
 20
0.0
 11
1189.0
 21
841.0
 12
0.0
 22
0.0
 32
0.0
 14
0.0
 24
0.0
 34
0.0
 15
0.0
 25
0.0
 35
0.0
146
0.0
 13
0.0
 23
0.0
 33
0.0
 16
1.0
 26
0.0
 36
0.0
 17
0.0
 27
1.0
 37
0.0
 76
0
330
213
345
0
346
0
  0
ENDSEC
  0
EOF
