999
DXF file: 001-m36305-p-1.dxf
999
Pro/ENGINEER 2011490 by Parametric Technology Corporation
  0
SECTION
  2
HEADER
  9
$ACADVER
  1
AC1015
  9
$DWGCODEPAGE
  3
ANSI_1252
  9
$EXTMAX
 10
1189.0
 20
841.0
 30
0.0
  9
$EXTMIN
 10
0.0
 20
0.0
 30
0.0
  9
$LIMMIN
 10
0.0
 20
0.0
  9
$LIMMAX
 10
1189.0
 20
841.0
  9
$VIEWCTR
 10
594.5
 20
420.5
  9
$VIEWSIZE
 40
841.0
  9
$CLAYER
  8
0
  9
$LTSCALE
 40
65.395
  9
$CELTYPE
  6
BYLAYER
  9
$DIMSCALE
 40
1.0
  9
$DIMASZ
 40
3.5
  9
$DIMEXO
 40
7.43125
  9
$DIMDLI
 40
45.182
  9
$DIMEXE
 40
21.402
  9
$DIMCEN
 40
10.701
  9
$DIMLFAC
 40
1.0
  9
$DIMBLK
  1
_FILLED
  9
$DIMTXT
 40
3.5
  9
$DIMTOL
 70
1
  9
$DIMLIM
 70
0
  9
$DIMTFAC
 40
1.0
  9
$DIMTP
 40
0.005
  9
$DIMTM
 40
0.005
  9
$PDMODE
 70
3
  9
$PDSIZE
 40
0.3125
  9
$HANDSEED
  5
40C
  9
$TILEMODE
 70
1
  9
$MEASUREMENT
 70
1
  9
$INSUNITS
 70
4
  0
ENDSEC
  0
SECTION
  2
CLASSES
  0
CLASS
  1
ACDBDICTIONARYWDFLT
  2
AcDbDictionaryWithDefault
  3
AutoCAD 2000
 90
0
280
0
281
0
  0
CLASS
  1
ACDBPLACEHOLDER
  2
AcDbPlaceHolder
  3
AutoCAD 2000
 90
0
280
0
281
0
  0
CLASS
  1
LAYOUT
  2
AcDbLayout
  3
AutoCAD 2000
 90
0
280
0
281
0
  0
ENDSEC
  0
SECTION
  2
TABLES
  0
TABLE
  2
VPORT
  5
8
100
AcDbSymbolTable
 70
2
  0
VPORT
  5
1F4
100
AcDbSymbolTableRecord
100
AcDbViewportTableRecord
  2
*ACTIVE
 70
0
 10
0.0
 20
0.0
 11
1.0
 21
1.0
 12
594.5
 22
420.5
 13
0.0
 23
0.0
 14
1.0
 24
1.0
 15
0.0
 25
0.0
 16
0.0
 26
0.0
 36
1.0
 17
0.0
 27
0.0
 37
0.0
 40
841.0
 41
1.4137931034
 42
50.0
 43
0.0
 44
0.0
 50
0.0
 51
0.0
 71
0
 72
100
 73
1
 74
1
 75
0
 76
0
 77
0
 78
0
  0
ENDTAB
  0
TABLE
  2
LTYPE
  5
5
100
AcDbSymbolTable
 70
6
  0
LTYPE
  5
14
100
AcDbSymbolTableRecord
100
AcDbLinetypeTableRecord
  2
BYBLOCK
 70
0
  3

 72
65
 73
0
 40
0.0
  0
LTYPE
  5
15
100
AcDbSymbolTableRecord
100
AcDbLinetypeTableRecord
  2
BYLAYER
 70
0
  3

 72
65
 73
0
 40
0.0
  0
LTYPE
  5
16
100
AcDbSymbolTableRecord
100
AcDbLinetypeTableRecord
  2
CONTINUOUS
 70
64
  3
Solid line
 72
65
 73
0
 40
0.0
  0
LTYPE
  5
1F5
100
AcDbSymbolTableRecord
100
AcDbLinetypeTableRecord
  2
CENTER
 70
64
  3
____ _ ____ _ ____ _ ____ _ ____ _ ____ _ ____
 72
65
 73
4
 40
0.6
 49
0.375
 74
0
 49
-0.075
 74
0
 49
0.075
 74
0
 49
-0.075
 74
0
  0
LTYPE
  5
1F6
100
AcDbSymbolTableRecord
100
AcDbLinetypeTableRecord
  2
HIDDEN
 70
64
  3
- - - - - - - - - - - - - - - - - - - -
 72
65
 73
2
 40
0.2
 49
0.1
 74
0
 49
-0.1
 74
0
  0
LTYPE
  5
1F7
100
AcDbSymbolTableRecord
100
AcDbLinetypeTableRecord
  2
PHANTOM
 70
64
  3
_____ _ _ _____ _ _ _____ _ _ _____
 72
65
 73
6
 40
0.8
 49
0.45
 74
0
 49
-0.05
 74
0
 49
0.1
 74
0
 49
-0.05
 74
0
 49
0.1
 74
0
 49
-0.05
 74
0
  0
LTYPE
  5
1F8
100
AcDbSymbolTableRecord
100
AcDbLinetypeTableRecord
  2
DOT
 70
64
  3
. . . . . . . . . . . . . . . . . . . .
 72
65
 73
2
 40
0.2
 49
0.1
 74
0
 49
-0.1
 74
0
  0
LTYPE
  5
1F9
100
AcDbSymbolTableRecord
100
AcDbLinetypeTableRecord
  2
DASHED
 70
64
  3
- - - - - - - - - - - - - - - - - - - -
 72
65
 73
2
 40
0.2
 49
0.1
 74
0
 49
-0.1
 74
0
  0
ENDTAB
  0
TABLE
  2
LAYER
  5
2
100
AcDbSymbolTable
 70
36
  0
LAYER
  5
10
100
AcDbSymbolTableRecord
100
AcDbLayerTableRecord
  2
0
 70
0
 62
7
  6
CONTINUOUS
370
-3
390
F
  0
LAYER
  5
1FA
100
AcDbSymbolTableRecord
100
AcDbLayerTableRecord
  2
DEFAULT_1
 70
0
 62
7
  6
CENTER
370
-3
390
F
  0
LAYER
  5
1FB
100
AcDbSymbolTableRecord
100
AcDbLayerTableRecord
  2
DEFAULT_2
 70
0
 62
8
  6
HIDDEN
370
-3
390
F
  0
LAYER
  5
1FC
100
AcDbSymbolTableRecord
100
AcDbLayerTableRecord
  2
DEFAULT_3
 70
0
 62
7
  6
PHANTOM
370
-3
390
F
  0
LAYER
  5
1FD
100
AcDbSymbolTableRecord
100
AcDbLayerTableRecord
  2
AUSFORMSCHRAEGEN
 70
0
 62
7
  6
CONTINUOUS
370
-3
390
F
  0
LAYER
  5
1FE
100
AcDbSymbolTableRecord
100
AcDbLayerTableRecord
  2
BEZUGSACHSEN
 70
0
 62
7
  6
CONTINUOUS
370
-3
390
F
  0
LAYER
  5
1FF
100
AcDbSymbolTableRecord
100
AcDbLayerTableRecord
  2
BEZUGSEBENEN
 70
0
 62
7
  6
CONTINUOUS
370
-3
390
F
  0
LAYER
  5
200
100
AcDbSymbolTableRecord
100
AcDbLayerTableRecord
  2
BEZUGSPUNKTE
 70
0
 62
7
  6
CONTINUOUS
370
-3
390
F
  0
LAYER
  5
201
100
AcDbSymbolTableRecord
100
AcDbLayerTableRecord
  2
BG_STARTBEZUEGE
 70
0
 62
7
  6
CONTINUOUS
370
-3
390
F
  0
LAYER
  5
202
100
AcDbSymbolTableRecord
100
AcDbLayerTableRecord
  2
FASEN
 70
0
 62
7
  6
CONTINUOUS
370
-3
390
F
  0
LAYER
  5
203
100
AcDbSymbolTableRecord
100
AcDbLayerTableRecord
  2
FLAECHEN
 70
0
 62
7
  6
CONTINUOUS
370
-3
390
F
  0
LAYER
  5
204
100
AcDbSymbolTableRecord
100
AcDbLayerTableRecord
  2
FLAECHENVERBUND
 70
0
 62
7
  6
CONTINUOUS
370
-3
390
F
  0
LAYER
  5
205
100
AcDbSymbolTableRecord
100
AcDbLayerTableRecord
  2
GEWINDE
 70
0
 62
7
  6
CONTINUOUS
370
-3
390
F
  0
LAYER
  5
206
100
AcDbSymbolTableRecord
100
AcDbLayerTableRecord
  2
HILFEN
 70
0
 62
7
  6
CONTINUOUS
370
-3
390
F
  0
LAYER
  5
207
100
AcDbSymbolTableRecord
100
AcDbLayerTableRecord
  2
KONSTRUKTIONSELEMENTE
 70
0
 62
7
  6
CONTINUOUS
370
-3
390
F
  0
LAYER
  5
208
100
AcDbSymbolTableRecord
100
AcDbLayerTableRecord
  2
KURVEN
 70
0
 62
7
  6
CONTINUOUS
370
-3
390
F
  0
LAYER
  5
209
100
AcDbSymbolTableRecord
100
AcDbLayerTableRecord
  2
NORM
 70
0
 62
7
  6
CONTINUOUS
370
-3
390
F
  0
LAYER
  5
20A
100
AcDbSymbolTableRecord
100
AcDbLayerTableRecord
  2
PLATZIERUNG
 70
0
 62
7
  6
CONTINUOUS
370
-3
390
F
  0
LAYER
  5
20B
100
AcDbSymbolTableRecord
100
AcDbLayerTableRecord
  2
PLAZIERUNG
 70
0
 62
7
  6
CONTINUOUS
370
-3
390
F
  0
LAYER
  5
20C
100
AcDbSymbolTableRecord
100
AcDbLayerTableRecord
  2
RUNDUNGEN
 70
0
 62
7
  6
CONTINUOUS
370
-3
390
F
  0
LAYER
  5
20D
100
AcDbSymbolTableRecord
100
AcDbLayerTableRecord
  2
TEIL_STARTBEZUEGE
 70
0
 62
7
  6
CONTINUOUS
370
-3
390
F
  0
LAYER
  5
20E
100
AcDbSymbolTableRecord
100
AcDbLayerTableRecord
  2
T_STARTBEZUEGE
 70
0
 62
7
  6
CONTINUOUS
370
-3
390
F
  0
LAYER
  5
20F
100
AcDbSymbolTableRecord
100
AcDbLayerTableRecord
  2
ZEICHNUNGSBEMASSUNGEN
 70
0
 62
7
  6
CONTINUOUS
370
-3
390
F
  0
ENDTAB
  0
TABLE
  2
STYLE
  5
3
100
AcDbSymbolTable
 70
1
  0
STYLE
  5
11
100
AcDbSymbolTableRecord
100
AcDbTextStyleTableRecord
  2
STANDARD
 70
0
 40
0.0
 41
0.7
 50
0.0
 71
0
 42
0.2
  3
txt
  4

  0
STYLE
  5
210
100
AcDbSymbolTableRecord
100
AcDbTextStyleTableRecord
  2
TEXTSTYLE_1
 70
0
 40
0.0
 41
0.8
 50
0.0
 71
0
 42
0.2
  3
gdt
  4

  0
ENDTAB
  0
TABLE
  2
VIEW
  5
6
100
AcDbSymbolTable
 70
0
  0
ENDTAB
  0
TABLE
  2
UCS
  5
7
100
AcDbSymbolTable
 70
0
  0
ENDTAB
  0
TABLE
  2
APPID
  5
9
100
AcDbSymbolTable
 70
1
  0
APPID
  5
211
100
AcDbSymbolTableRecord
100
AcDbRegAppTableRecord
  2
ACAD
 70
0
  0
ENDTAB
  0
TABLE
  2
BLOCK_RECORD
  5
1
100
AcDbSymbolTable
 70
0
  0
BLOCK_RECORD
  5
212
100
AcDbSymbolTableRecord
100
AcDbBlockTableRecord
  2
*Model_Space
  0
BLOCK_RECORD
  5
213
100
AcDbSymbolTableRecord
100
AcDbBlockTableRecord
  2
*Paper_Space
  0
ENDTAB
  0
TABLE
  2
DIMSTYLE
  5
A
100
AcDbSymbolTable
 70
1
100
AcDbDimStyleTable
 71
0
  0
DIMSTYLE
105
214
100
AcDbSymbolTableRecord
100
AcDbDimStyleTableRecord
  2
STANDARD
 70
0
  3

  4

 40
1.0
 41
3.5
 42
0.0625
 43
0.38
 44
0.18
 45
0.0
 46
0.0
 47
0.005
 48
0.005
140
3.5
141
0.09
142
0.0
143
25.4
144
1.0
145
0.0
146
1.0
147
0.09
 71
1.0
 72
0.0
 73
0
 74
0
 75
0
 76
0
 77
1
 78
8
170
0
171
2
172
0
173
0
174
0
175
0
176
0
177
0
178
5
270
2
271
3
272
3
273
2
274
2
275
0
280
0
281
0
282
0
283
1
284
8
285
0
286
0
287
3
288
0
340
11
  0
ENDTAB
  0
ENDSEC
  0
SECTION
  2
BLOCKS
  0
BLOCK
  5
20
100
AcDbEntity
  8
0
100
AcDbBlockBegin
  2
*Model_Space
 70
0
 10
0.0
 20
0.0
 30
0.0
  3
*Model_Space
  1

  0
ENDBLK
  5
21
100
AcDbEntity
  8
0
100
AcDbBlockEnd
  0
BLOCK
  5
1C
100
AcDbEntity
  8
0
100
AcDbBlockBegin
  2
*Paper_Space
 70
0
 10
0.0
 20
0.0
 30
0.0
  3
*Paper_Space
  1

  0
ENDBLK
  5
1D
100
AcDbEntity
  8
0
100
AcDbBlockEnd
  0
ENDSEC
  0
SECTION
  2
ENTITIES
  0
LINE
  5
215
100
AcDbEntity
  8
0
100
AcDbLine
 62
7
  6
CONTINUOUS
 10
0.0
 20
0.0
 11
0.0
 21
841.0
  0
LINE
  5
216
100
AcDbEntity
  8
0
100
AcDbLine
 62
7
  6
CONTINUOUS
 10
0.0
 20
0.0
 11
1189.0
 21
0.0
  0
LINE
  5
217
100
AcDbEntity
  8
0
100
AcDbLine
 62
7
  6
CONTINUOUS
 10
0.0
 20
841.0
 11
1189.0
 21
841.0
  0
LINE
  5
218
100
AcDbEntity
  8
0
100
AcDbLine
 62
7
  6
CONTINUOUS
 10
1189.0
 20
0.0
 11
1189.0
 21
841.0
  0
LINE
  5
219
100
AcDbEntity
  8
BEZUGSACHSEN
100
AcDbLine
 62
7
  6
CONTINUOUS
 10
451.0170489386
 20
20.9080300914
 11
468.0166320632
 21
20.9080300914
  0
LINE
  5
21A
100
AcDbEntity
  8
BEZUGSACHSEN
100
AcDbLine
 62
7
  6
CONTINUOUS
 10
449.5168405009
 20
22.4080300914
 11
469.5168405009
 21
22.4080300914
  0
LINE
  5
21B
100
AcDbEntity
  8
0
100
AcDbLine
 62
7
  6
CONTINUOUS
 10
490.5168405009
 20
54.9080300914
 11
428.5168405009
 21
54.9080300914
  0
LINE
  5
21C
100
AcDbEntity
  8
RUNDUNGEN
100
AcDbLine
 62
7
  6
CONTINUOUS
 10
468.0168405009
 20
56.6080300914
 11
451.0168405009
 21
56.6080300914
  0
LINE
  5
21D
100
AcDbEntity
  8
KONSTRUKTIONSELEMENTE
100
AcDbLine
 62
7
  6
CONTINUOUS
 10
454.4168405009
 20
57.6080300914
 11
459.8168405009
 21
57.6080300914
  0
LINE
  5
21E
100
AcDbEntity
  8
KONSTRUKTIONSELEMENTE
100
AcDbLine
 62
7
  6
CONTINUOUS
 10
459.8168405009
 20
58.5654769199
 11
455.6168405367
 21
58.5654769199
  0
LINE
  5
21F
100
AcDbEntity
  8
KONSTRUKTIONSELEMENTE
100
AcDbLine
 62
7
  6
CONTINUOUS
 10
456.0668405367
 20
65.4590940581
 11
456.8168405724
 21
65.650583397
  0
LINE
  5
220
100
AcDbEntity
  8
0
100
AcDbLine
 62
7
  6
CONTINUOUS
 10
466.3668400241
 20
70.7316470955
 11
465.8668405009
 21
70.6039875363
  0
LINE
  5
221
100
AcDbEntity
  8
0
100
AcDbLine
 62
7
  6
CONTINUOUS
 10
460.3668407393
 20
70.7316470955
 11
459.8668405009
 21
70.6039875363
  0
LINE
  5
222
100
AcDbEntity
  8
0
100
AcDbLine
 62
7
  6
CONTINUOUS
 10
465.8668405009
 20
69.8380300914
 11
466.4918409778
 21
69.9656896618
  0
LINE
  5
223
100
AcDbEntity
  8
0
100
AcDbLine
 62
7
  6
CONTINUOUS
 10
459.8668405009
 20
69.8380300914
 11
460.4918402625
 21
69.9656896618
  0
LINE
  5
224
100
AcDbEntity
  8
KONSTRUKTIONSELEMENTE
100
AcDbLine
 62
7
  6
CONTINUOUS
 10
456.9668404294
 20
66.6080300914
 11
455.9168404652
 21
66.4165407525
  0
LINE
  5
225
100
AcDbEntity
  8
KONSTRUKTIONSELEMENTE
100
AcDbLine
 62
7
  6
CONTINUOUS
 10
461.016840644
 20
62.9697321163
 11
462.216840787
 21
62.9697321163
  0
LINE
  5
226
100
AcDbEntity
  8
KONSTRUKTIONSELEMENTE
100
AcDbLine
 62
7
  6
CONTINUOUS
 10
462.9668405009
 20
62.9697321163
 11
464.6168402148
 21
62.9697321163
  0
LINE
  5
227
100
AcDbEntity
  8
KONSTRUKTIONSELEMENTE
100
AcDbLine
 62
7
  6
CONTINUOUS
 10
464.6168402148
 20
63.7356894718
 11
462.9668405009
 21
63.7356894718
  0
LINE
  5
228
100
AcDbEntity
  8
KONSTRUKTIONSELEMENTE
100
AcDbLine
 62
7
  6
CONTINUOUS
 10
462.216840787
 20
63.7356894718
 11
461.016840644
 21
63.7356894718
  0
LINE
  5
229
100
AcDbEntity
  8
KONSTRUKTIONSELEMENTE
100
AcDbLine
 62
7
  6
CONTINUOUS
 10
454.5668405054
 20
64.5016473638
 11
455.3168405009
 21
64.5016473638
  0
LINE
  5
22A
100
AcDbEntity
  8
KONSTRUKTIONSELEMENTE
100
AcDbLine
 62
7
  6
CONTINUOUS
 10
462.9668405009
 20
65.2676047193
 11
462.216840787
 21
65.2676047193
  0
LINE
  5
22B
100
AcDbEntity
  8
KONSTRUKTIONSELEMENTE
100
AcDbLine
 62
7
  6
CONTINUOUS
 10
456.8168405724
 20
65.650583397
 11
457.4168404294
 21
65.650583397
  0
LINE
  5
22C
100
AcDbEntity
  8
KONSTRUKTIONSELEMENTE
100
AcDbLine
 62
7
  6
CONTINUOUS
 10
457.5668405009
 20
66.6080300914
 11
456.9668404294
 21
66.6080300914
  0
LINE
  5
22D
100
AcDbEntity
  8
0
100
AcDbLine
 62
7
  6
CONTINUOUS
 10
451.6168405009
 20
69.8380300914
 11
452.3668405009
 21
69.8380300914
  0
LINE
  5
22E
100
AcDbEntity
  8
0
100
AcDbLine
 62
7
  6
CONTINUOUS
 10
455.4918403817
 20
69.8380300914
 11
456.3668406201
 21
69.8380300914
  0
LINE
  5
22F
100
AcDbEntity
  8
0
100
AcDbLine
 62
7
  6
CONTINUOUS
 10
459.3668402625
 20
69.8380300914
 11
459.8668405009
 21
69.8380300914
  0
LINE
  5
230
100
AcDbEntity
  8
0
100
AcDbLine
 62
7
  6
CONTINUOUS
 10
462.8668405009
 20
69.8380300914
 11
465.8668405009
 21
69.8380300914
  0
LINE
  5
231
100
AcDbEntity
  8
0
100
AcDbLine
 62
7
  6
CONTINUOUS
 10
465.8668405009
 20
70.6039875363
 11
463.6168405009
 21
70.6039875363
  0
LINE
  5
232
100
AcDbEntity
  8
0
100
AcDbLine
 62
7
  6
CONTINUOUS
 10
459.8668405009
 20
70.6039875363
 11
459.3668402625
 21
70.6039875363
  0
LINE
  5
233
100
AcDbEntity
  8
0
100
AcDbLine
 62
7
  6
CONTINUOUS
 10
452.3668405009
 20
72.5188811933
 11
454.4918404413
 21
72.5188811933
  0
LINE
  5
234
100
AcDbEntity
  8
0
100
AcDbLine
 62
7
  6
CONTINUOUS
 10
454.7418403817
 20
73.2848385488
 11
452.3668405009
 21
73.2848385488
  0
LINE
  5
235
100
AcDbEntity
  8
0
100
AcDbLine
 62
7
  6
CONTINUOUS
 10
463.6168405009
 20
75.0720727359
 11
465.8668405009
 21
75.0720727359
  0
LINE
  5
236
100
AcDbEntity
  8
0
100
AcDbLine
 62
7
  6
CONTINUOUS
 10
452.3668405009
 20
75.1997322951
 11
454.7418403817
 21
75.1997322951
  0
LINE
  5
237
100
AcDbEntity
  8
0
100
AcDbLine
 62
7
  6
CONTINUOUS
 10
465.8668405009
 20
75.8380300914
 11
462.8668405009
 21
75.8380300914
  0
LINE
  5
238
100
AcDbEntity
  8
0
100
AcDbLine
 62
7
  6
CONTINUOUS
 10
461.8668407393
 20
75.8380300914
 11
461.1168407393
 21
75.8380300914
  0
LINE
  5
239
100
AcDbEntity
  8
0
100
AcDbLine
 62
7
  6
CONTINUOUS
 10
458.1168407393
 20
75.8380300914
 11
457.3668403817
 21
75.8380300914
  0
LINE
  5
23A
100
AcDbEntity
  8
0
100
AcDbLine
 62
7
  6
CONTINUOUS
 10
454.6168405009
 20
75.8380300914
 11
451.6168405009
 21
75.8380300914
  0
LINE
  5
23B
100
AcDbEntity
  8
RUNDUNGEN
100
AcDbLine
 62
7
  6
CONTINUOUS
 10
451.0168405009
 20
86.6080300914
 11
468.0168405009
 21
86.6080300914
  0
LINE
  5
23C
100
AcDbEntity
  8
FASEN
100
AcDbLine
 62
7
  6
CONTINUOUS
 10
486.8465604991
 20
94.9232223384
 11
432.1871205027
 21
94.9232223384
  0
LINE
  5
23D
100
AcDbEntity
  8
FASEN
100
AcDbLine
 62
7
  6
CONTINUOUS
 10
485.6729123214
 20
95.9080300914
 11
433.3607686804
 21
95.9080300914
  0
LINE
  5
23E
100
AcDbEntity
  8
0
100
AcDbLine
 62
7
  6
CONTINUOUS
 10
458.7418405009
 20
69.9656896618
 11
459.3668402625
 21
69.8380300914
  0
LINE
  5
23F
100
AcDbEntity
  8
0
100
AcDbLine
 62
7
  6
CONTINUOUS
 10
455.2418406201
 20
75.7103705321
 11
454.6168405009
 21
75.8380300914
  0
LINE
  5
240
100
AcDbEntity
  8
0
100
AcDbLine
 62
7
  6
CONTINUOUS
 10
466.4918409778
 20
75.7103705321
 11
465.8668405009
 21
75.8380300914
  0
LINE
  5
241
100
AcDbEntity
  8
KONSTRUKTIONSELEMENTE
100
AcDbLine
 62
7
  6
CONTINUOUS
 10
463.4168405009
 20
57.799519447
 11
464.3168405009
 21
57.6080300914
  0
LINE
  5
242
100
AcDbEntity
  8
KONSTRUKTIONSELEMENTE
100
AcDbLine
 62
7
  6
CONTINUOUS
 10
458.4668405009
 20
66.4165407525
 11
457.5668405009
 21
66.6080300914
  0
LINE
  5
243
100
AcDbEntity
  8
KONSTRUKTIONSELEMENTE
100
AcDbLine
 62
7
  6
CONTINUOUS
 10
464.3168405009
 20
58.3739875139
 11
463.566840787
 21
58.5654769199
  0
LINE
  5
244
100
AcDbEntity
  8
KONSTRUKTIONSELEMENTE
100
AcDbLine
 62
7
  6
CONTINUOUS
 10
457.4168404294
 20
65.650583397
 11
458.1668403579
 21
65.4590940581
  0
LINE
  5
245
100
AcDbEntity
  8
0
100
AcDbLine
 62
7
  6
CONTINUOUS
 10
459.3668402625
 20
70.6039875363
 11
458.8668407393
 21
70.7316470955
  0
LINE
  5
246
100
AcDbEntity
  8
0
100
AcDbLine
 62
7
  6
CONTINUOUS
 10
465.8668405009
 20
75.0720727359
 11
466.3668400241
 21
74.9444131766
  0
LINE
  5
247
100
AcDbEntity
  8
RUNDUNGEN
100
AcDbLine
 62
7
  6
CONTINUOUS
 10
440.3336294369
 20
106.9080300914
 11
478.7000633144
 21
106.9080300914
  0
LINE
  5
248
100
AcDbEntity
  8
0
100
AcDbLine
 62
7
  6
CONTINUOUS
 10
443.5168405009
 20
122.9080300914
 11
475.5168405009
 21
122.9080300914
  0
LINE
  5
249
100
AcDbEntity
  8
0
100
AcDbLine
 62
7
  6
CONTINUOUS
 10
454.7418403817
 20
75.1997322951
 11
455.1168403817
 21
75.0720727359
  0
LINE
  5
24A
100
AcDbEntity
  8
KONSTRUKTIONSELEMENTE
100
AcDbLine
 62
7
  6
CONTINUOUS
 10
462.9668405009
 20
57.9910088027
 11
463.4168405009
 21
57.799519447
  0
LINE
  5
24B
100
AcDbEntity
  8
0
100
AcDbLine
 62
7
  6
CONTINUOUS
 10
458.2418402625
 20
70.2210088138
 11
458.7418405009
 21
69.9656896618
  0
LINE
  5
24C
100
AcDbEntity
  8
0
100
AcDbLine
 62
7
  6
CONTINUOUS
 10
466.9918405009
 20
75.4550514136
 11
466.4918409778
 21
75.7103705321
  0
LINE
  5
24D
100
AcDbEntity
  8
KONSTRUKTIONSELEMENTE
100
AcDbLine
 62
7
  6
CONTINUOUS
 10
459.0668403579
 20
66.0335620748
 11
458.4668405009
 21
66.4165407525
  0
LINE
  5
24E
100
AcDbEntity
  8
0
100
AcDbLine
 62
7
  6
CONTINUOUS
 10
458.8668407393
 20
70.7316470955
 11
458.4918407393
 21
70.9869663035
  0
LINE
  5
24F
100
AcDbEntity
  8
0
100
AcDbLine
 62
7
  6
CONTINUOUS
 10
466.3668400241
 20
74.9444131766
 11
466.7418400241
 21
74.6890940581
  0
LINE
  5
250
100
AcDbEntity
  8
0
100
AcDbLine
 62
7
  6
CONTINUOUS
 10
455.7418405009
 20
75.3273918544
 11
455.2418406201
 21
75.7103705321
  0
LINE
  5
251
100
AcDbEntity
  8
KONSTRUKTIONSELEMENTE
100
AcDbLine
 62
7
  6
CONTINUOUS
 10
462.5168405009
 20
58.3739875139
 11
462.9668405009
 21
57.9910088027
  0
LINE
  5
252
100
AcDbEntity
  8
KONSTRUKTIONSELEMENTE
100
AcDbLine
 62
7
  6
CONTINUOUS
 10
463.566840787
 20
58.5654769199
 11
463.116840787
 21
58.9484555976
  0
LINE
  5
253
100
AcDbEntity
  8
KONSTRUKTIONSELEMENTE
100
AcDbLine
 62
7
  6
CONTINUOUS
 10
458.1668403579
 20
65.4590940581
 11
458.6168403579
 21
65.0761153804
  0
LINE
  5
254
100
AcDbEntity
  8
BEZUGSACHSEN
100
AcDbLine
 62
7
  6
CONTINUOUS
 10
451.0168405009
 20
20.9080300914
 11
449.5168405009
 21
22.4080300914
  0
LINE
  5
255
100
AcDbEntity
  8
0
100
AcDbLine
 62
7
  6
CONTINUOUS
 10
464.989964362
 20
222.3663793193
 11
462.8623050411
 21
221.8455300914
  0
LINE
  5
256
100
AcDbEntity
  8
0
100
AcDbLine
 62
7
  6
CONTINUOUS
 10
462.8623050411
 20
218.7205300914
 11
465.5218806823
 21
219.2413793193
  0
LINE
  5
257
100
AcDbEntity
  8
0
100
AcDbLine
 62
7
  6
CONTINUOUS
 10
454.8835818429
 20
218.7205300914
 11
462.8623050411
 21
218.7205300914
  0
LINE
  5
258
100
AcDbEntity
  8
0
100
AcDbLine
 62
7
  6
CONTINUOUS
 10
462.8623050411
 20
221.8455300914
 11
454.8835818429
 21
221.8455300914
  0
LINE
  5
259
100
AcDbEntity
  8
0
100
AcDbLine
 62
7
  6
CONTINUOUS
 10
449.5644331683
 20
236.4288793193
 11
468.1814548333
 21
236.4288793193
  0
LINE
  5
25A
100
AcDbEntity
  8
0
100
AcDbLine
 62
7
  6
CONTINUOUS
 10
471.3729438146
 20
239.5538793193
 11
446.3729438146
 21
239.5538793193
  0
LINE
  5
25B
100
AcDbEntity
  8
0
100
AcDbLine
 62
7
  6
CONTINUOUS
 10
454.8835818429
 20
243.7205300914
 11
471.3729438146
 21
243.7205300914
  0
LINE
  5
25C
100
AcDbEntity
  8
0
100
AcDbLine
 62
7
  6
CONTINUOUS
 10
471.3729438146
 20
246.8455300914
 11
454.8835818429
 21
246.8455300914
  0
LINE
  5
25D
100
AcDbEntity
  8
0
100
AcDbLine
 62
7
  6
CONTINUOUS
 10
452.2240076919
 20
219.2413793193
 11
454.8835818429
 21
218.7205300914
  0
LINE
  5
25E
100
AcDbEntity
  8
0
100
AcDbLine
 62
7
  6
CONTINUOUS
 10
452.2240076919
 20
244.2413793193
 11
454.8835818429
 21
243.7205300914
  0
LINE
  5
25F
100
AcDbEntity
  8
0
100
AcDbLine
 62
7
  6
CONTINUOUS
 10
454.8835818429
 20
221.8455300914
 11
452.7559225221
 21
222.3663793193
  0
LINE
  5
260
100
AcDbEntity
  8
FASEN
100
AcDbLine
 62
7
  6
CONTINUOUS
 10
485.6729123213
 20
95.9080300915
 11
486.846560499
 21
94.9232223385
  0
LINE
  5
261
100
AcDbEntity
  8
0
100
AcDbLine
 62
7
  6
CONTINUOUS
 10
457.7418407393
 20
70.7316470955
 11
458.2418402625
 21
70.2210088138
  0
LINE
  5
262
100
AcDbEntity
  8
0
100
AcDbLine
 62
7
  6
CONTINUOUS
 10
455.1168403817
 20
75.0720727359
 11
455.3668405009
 21
74.8167536174
  0
LINE
  5
263
100
AcDbEntity
  8
0
100
AcDbLine
 62
7
  6
CONTINUOUS
 10
467.4918400241
 20
74.9444131766
 11
466.9918405009
 21
75.4550514136
  0
LINE
  5
264
100
AcDbEntity
  8
0
100
AcDbLine
 62
7
  6
CONTINUOUS
 10
452.7559225221
 20
258.8246808635
 11
454.8835818429
 21
259.3455300914
  0
LINE
  5
265
100
AcDbEntity
  8
0
100
AcDbLine
 62
7
  6
CONTINUOUS
 10
454.8835818429
 20
262.4705300914
 11
452.2240076919
 21
261.9496808635
  0
LINE
  5
266
100
AcDbEntity
  8
0
100
AcDbLine
 62
7
  6
CONTINUOUS
 10
454.8835818429
 20
259.3455300914
 11
471.3729438146
 21
259.3455300914
  0
LINE
  5
267
100
AcDbEntity
  8
0
100
AcDbLine
 62
7
  6
CONTINUOUS
 10
471.3729438146
 20
262.4705300914
 11
454.8835818429
 21
262.4705300914
  0
LINE
  5
268
100
AcDbEntity
  8
0
100
AcDbLine
 62
7
  6
CONTINUOUS
 10
463.3942198713
 20
267.1580300914
 11
465.5218806823
 21
267.1580300914
  0
LINE
  5
269
100
AcDbEntity
  8
0
100
AcDbLine
 62
7
  6
CONTINUOUS
 10
465.5218806823
 20
270.2830300914
 11
463.9261347015
 21
270.2830300914
  0
LINE
  5
26A
100
AcDbEntity
  8
0
100
AcDbLine
 62
7
  6
CONTINUOUS
 10
446.3729438146
 20
283.3038793193
 11
457.543156739
 21
283.3038793193
  0
LINE
  5
26B
100
AcDbEntity
  8
0
100
AcDbLine
 62
7
  6
CONTINUOUS
 10
460.7346457203
 20
283.3038793193
 11
468.7133696635
 21
283.3038793193
  0
LINE
  5
26C
100
AcDbEntity
  8
0
100
AcDbLine
 62
7
  6
CONTINUOUS
 10
471.3729438146
 20
286.4288793193
 11
446.3729438146
 21
286.4288793193
  0
LINE
  5
26D
100
AcDbEntity
  8
0
100
AcDbLine
 62
7
  6
CONTINUOUS
 10
454.8835818429
 20
246.8455300914
 11
452.7559225221
 21
247.3663793193
  0
LINE
  5
26E
100
AcDbEntity
  8
0
100
AcDbLine
 62
7
  6
CONTINUOUS
 10
461.7984753807
 20
267.6788793193
 11
463.3942198713
 21
267.1580300914
  0
LINE
  5
26F
100
AcDbEntity
  8
0
100
AcDbLine
 62
7
  6
CONTINUOUS
 10
463.9261347015
 20
270.2830300914
 11
462.3303902109
 21
270.8038793193
  0
LINE
  5
270
100
AcDbEntity
  8
0
100
AcDbLine
 62
7
  6
CONTINUOUS
 10
450.0963479985
 20
220.2830300914
 11
452.2240076919
 21
219.2413793193
  0
LINE
  5
271
100
AcDbEntity
  8
0
100
AcDbLine
 62
7
  6
CONTINUOUS
 10
450.0963479985
 20
245.2830300914
 11
452.2240076919
 21
244.2413793193
  0
LINE
  5
272
100
AcDbEntity
  8
0
100
AcDbLine
 62
7
  6
CONTINUOUS
 10
452.7559225221
 20
222.3663793193
 11
451.1601780315
 21
223.4080300914
  0
LINE
  5
273
100
AcDbEntity
  8
KONSTRUKTIONSELEMENTE
100
AcDbLine
 62
7
  6
CONTINUOUS
 10
459.666840644
 20
65.2676047193
 11
459.0668403579
 21
66.0335620748
  0
LINE
  5
274
100
AcDbEntity
  8
0
100
AcDbLine
 62
7
  6
CONTINUOUS
 10
456.1168405009
 20
74.8167536174
 11
455.7418405009
 21
75.3273918544
  0
LINE
  5
275
100
AcDbEntity
  8
0
100
AcDbLine
 62
7
  6
CONTINUOUS
 10
452.7559225221
 20
247.3663793193
 11
451.1601780315
 21
248.4080300914
  0
LINE
  5
276
100
AcDbEntity
  8
0
100
AcDbLine
 62
7
  6
CONTINUOUS
 10
447.9686884915
 20
222.3663793193
 11
450.0963479985
 21
220.2830300914
  0
LINE
  5
277
100
AcDbEntity
  8
0
100
AcDbLine
 62
7
  6
CONTINUOUS
 10
458.4918407393
 20
70.9869663035
 11
458.2418402625
 21
71.3699449812
  0
LINE
  5
278
100
AcDbEntity
  8
0
100
AcDbLine
 62
7
  6
CONTINUOUS
 10
466.7418400241
 20
74.6890940581
 11
466.9918405009
 21
74.3061150228
  0
LINE
  5
279
100
AcDbEntity
  8
0
100
AcDbLine
 62
7
  6
CONTINUOUS
 10
459.6708160599
 20
269.2413793193
 11
461.7984753807
 21
267.6788793193
  0
LINE
  5
27A
100
AcDbEntity
  8
0
100
AcDbLine
 62
7
  6
CONTINUOUS
 10
447.9686884915
 20
247.3663793193
 11
450.0963479985
 21
245.2830300914
  0
LINE
  5
27B
100
AcDbEntity
  8
0
100
AcDbLine
 62
7
  6
CONTINUOUS
 10
462.3303902109
 20
270.8038793193
 11
461.2665605505
 21
271.8455300914
  0
LINE
  5
27C
100
AcDbEntity
  8
KONSTRUKTIONSELEMENTE
100
AcDbLine
 62
7
  6
CONTINUOUS
 10
458.6168403579
 20
65.0761153804
 11
458.9168405009
 21
64.5016473638
  0
LINE
  5
27D
100
AcDbEntity
  8
0
100
AcDbLine
 62
7
  6
CONTINUOUS
 10
457.4918406201
 20
71.242285422
 11
457.7418407393
 21
70.7316470955
  0
LINE
  5
27E
100
AcDbEntity
  8
0
100
AcDbLine
 62
7
  6
CONTINUOUS
 10
461.2665605505
 20
390.5955300914
 11
463.3942198713
 21
390.5955300914
  0
LINE
  5
27F
100
AcDbEntity
  8
0
100
AcDbLine
 62
7
  6
CONTINUOUS
 10
446.3729438146
 20
391.6371808635
 11
448.5006033217
 21
391.6371808635
  0
LINE
  5
280
100
AcDbEntity
  8
0
100
AcDbLine
 62
7
  6
CONTINUOUS
 10
451.6920928617
 20
396.3246808635
 11
461.2665605505
 21
396.3246808635
  0
LINE
  5
281
100
AcDbEntity
  8
0
100
AcDbLine
 62
7
  6
CONTINUOUS
 10
463.3942198713
 20
396.3246808635
 11
467.6495400031
 21
396.3246808635
  0
LINE
  5
282
100
AcDbEntity
  8
0
100
AcDbLine
 62
7
  6
CONTINUOUS
 10
467.6495400031
 20
398.9288793193
 11
463.3942198713
 21
398.9288793193
  0
LINE
  5
283
100
AcDbEntity
  8
0
100
AcDbLine
 62
7
  6
CONTINUOUS
 10
461.2665605505
 20
398.9288793193
 11
450.6282628288
 21
398.9288793193
  0
LINE
  5
284
100
AcDbEntity
  8
0
100
AcDbLine
 62
7
  6
CONTINUOUS
 10
451.1601780315
 20
223.4080300914
 11
450.0963479985
 21
224.9705300914
  0
LINE
  5
285
100
AcDbEntity
  8
0
100
AcDbLine
 62
7
  6
CONTINUOUS
 10
451.1601780315
 20
248.4080300914
 11
450.0963479985
 21
249.9705300914
  0
LINE
  5
286
100
AcDbEntity
  8
0
100
AcDbLine
 62
7
  6
CONTINUOUS
 10
467.7418405009
 20
74.4337749396
 11
467.4918400241
 21
74.9444131766
  0
LINE
  5
287
100
AcDbEntity
  8
KONSTRUKTIONSELEMENTE
100
AcDbLine
 62
7
  6
CONTINUOUS
 10
462.216840787
 20
59.1399449365
 11
462.5168405009
 21
58.3739875139
  0
LINE
  5
288
100
AcDbEntity
  8
0
100
AcDbLine
 62
7
  6
CONTINUOUS
 10
456.3668406201
 20
69.8380300914
 11
455.2418406201
 21
72.7742003118
  0
LINE
  5
289
100
AcDbEntity
  8
0
100
AcDbLine
 62
7
  6
CONTINUOUS
 10
454.4918404413
 20
72.5188811933
 11
455.4918403817
 21
69.8380300914
  0
LINE
  5
28A
100
AcDbEntity
  8
0
100
AcDbLine
 62
7
  6
CONTINUOUS
 10
471.3729438146
 20
799.4496972548
 11
459.1389012297
 21
790.5955300914
  0
LINE
  5
28B
100
AcDbEntity
  8
0
100
AcDbLine
 62
7
  6
CONTINUOUS
 10
456.4793270786
 20
789.0330300914
 11
446.3729438146
 21
781.7413644181
  0
LINE
  5
28C
100
AcDbEntity
  8
0
100
AcDbLine
 62
7
  6
CONTINUOUS
 10
461.2665605505
 20
789.0330300914
 11
471.3729438146
 21
796.3246957646
  0
LINE
  5
28D
100
AcDbEntity
  8
0
100
AcDbLine
 62
7
  6
CONTINUOUS
 10
446.3729438146
 20
778.6163644181
 11
459.1389012297
 21
787.4705300914
  0
LINE
  5
28E
100
AcDbEntity
  8
0
100
AcDbLine
 62
7
  6
CONTINUOUS
 10
467.1176251729
 20
758.8246987449
 11
465.5218806823
 21
758.3038614379
  0
LINE
  5
28F
100
AcDbEntity
  8
0
100
AcDbLine
 62
7
  6
CONTINUOUS
 10
465.5218806823
 20
755.1788614379
 11
467.1176251729
 21
755.6996987449
  0
LINE
  5
290
100
AcDbEntity
  8
0
100
AcDbLine
 62
7
  6
CONTINUOUS
 10
465.5218806823
 20
407.2621808635
 11
467.6495400031
 21
407.7830300914
  0
LINE
  5
291
100
AcDbEntity
  8
0
100
AcDbLine
 62
7
  6
CONTINUOUS
 10
463.3942198713
 20
403.0955300914
 11
461.2665605505
 21
403.0955300914
  0
LINE
  5
292
100
AcDbEntity
  8
0
100
AcDbLine
 62
7
  6
CONTINUOUS
 10
446.3729438146
 20
407.2621808635
 11
449.0325183381
 21
407.2621808635
  0
LINE
  5
293
100
AcDbEntity
  8
0
100
AcDbLine
 62
7
  6
CONTINUOUS
 10
464.4580495317
 20
407.2621808635
 11
465.5218806823
 21
407.2621808635
  0
LINE
  5
294
100
AcDbEntity
  8
0
100
AcDbLine
 62
7
  6
CONTINUOUS
 10
465.5218806823
 20
410.3871808635
 11
464.4580495317
 21
410.3871808635
  0
LINE
  5
295
100
AcDbEntity
  8
0
100
AcDbLine
 62
7
  6
CONTINUOUS
 10
449.0325183381
 20
426.0122047053
 11
446.3729438146
 21
426.0122047053
  0
LINE
  5
296
100
AcDbEntity
  8
0
100
AcDbLine
 62
7
  6
CONTINUOUS
 10
446.3729438146
 20
430.1788554774
 11
449.5644331683
 21
430.1788554774
  0
LINE
  5
297
100
AcDbEntity
  8
0
100
AcDbLine
 62
7
  6
CONTINUOUS
 10
462.3303902109
 20
407.7830300914
 11
464.4580495317
 21
407.2621808635
  0
LINE
  5
298
100
AcDbEntity
  8
0
100
AcDbLine
 62
7
  6
CONTINUOUS
 10
467.6495400031
 20
424.9705300914
 11
465.5218806823
 21
425.4913554774
  0
LINE
  5
299
100
AcDbEntity
  8
0
100
AcDbLine
 62
7
  6
CONTINUOUS
 10
464.4580495317
 20
410.3871808635
 11
462.3303902109
 21
411.4288793193
  0
LINE
  5
29A
100
AcDbEntity
  8
0
100
AcDbLine
 62
7
  6
CONTINUOUS
 10
460.7346457203
 20
408.8246808635
 11
462.3303902109
 21
407.7830300914
  0
LINE
  5
29B
100
AcDbEntity
  8
0
100
AcDbLine
 62
7
  6
CONTINUOUS
 10
446.9048586913
 20
224.4496808635
 11
447.9686884915
 21
222.3663793193
  0
LINE
  5
29C
100
AcDbEntity
  8
0
100
AcDbLine
 62
7
  6
CONTINUOUS
 10
446.9048586913
 20
249.4496808635
 11
447.9686884915
 21
247.3663793193
  0
LINE
  5
29D
100
AcDbEntity
  8
0
100
AcDbLine
 62
7
  6
CONTINUOUS
 10
455.3668405009
 20
74.8167536174
 11
455.4918403817
 21
74.4337749396
  0
LINE
  5
29E
100
AcDbEntity
  8
0
100
AcDbLine
 62
7
  6
CONTINUOUS
 10
456.2418403817
 20
74.4337749396
 11
456.1168405009
 21
74.8167536174
  0
LINE
  5
29F
100
AcDbEntity
  8
0
100
AcDbLine
 62
7
  6
CONTINUOUS
 10
468.1814548333
 20
759.8663614379
 11
467.1176251729
 21
758.8246987449
  0
LINE
  5
2A0
100
AcDbEntity
  8
0
100
AcDbLine
 62
7
  6
CONTINUOUS
 10
467.1176251729
 20
755.6996987449
 11
469.2452844937
 21
757.2621987449
  0
LINE
  5
2A1
100
AcDbEntity
  8
0
100
AcDbLine
 62
7
  6
CONTINUOUS
 10
449.5644331683
 20
445.8038554774
 11
471.3729438146
 21
445.8038554774
  0
LINE
  5
2A2
100
AcDbEntity
  8
0
100
AcDbLine
 62
7
  6
CONTINUOUS
 10
471.3729438146
 20
448.9288554774
 11
446.3729438146
 21
448.9288554774
  0
LINE
  5
2A3
100
AcDbEntity
  8
0
100
AcDbLine
 62
7
  6
CONTINUOUS
 10
446.3729438146
 20
453.0955300914
 11
449.5644331683
 21
453.0955300914
  0
LINE
  5
2A4
100
AcDbEntity
  8
0
100
AcDbLine
 62
7
  6
CONTINUOUS
 10
449.5644331683
 20
468.7205300914
 11
471.3729438146
 21
468.7205300914
  0
LINE
  5
2A5
100
AcDbEntity
  8
0
100
AcDbLine
 62
7
  6
CONTINUOUS
 10
471.3729438146
 20
471.8455300914
 11
446.3729438146
 21
471.8455300914
  0
LINE
  5
2A6
100
AcDbEntity
  8
0
100
AcDbLine
 62
7
  6
CONTINUOUS
 10
465.5218806823
 20
422.8871808635
 11
467.1176251729
 21
421.8455300914
  0
LINE
  5
2A7
100
AcDbEntity
  8
0
100
AcDbLine
 62
7
  6
CONTINUOUS
 10
469.7771993239
 20
422.8871808635
 11
467.6495400031
 21
424.9705300914
  0
LINE
  5
2A8
100
AcDbEntity
  8
0
100
AcDbLine
 62
7
  6
CONTINUOUS
 10
462.3303902109
 20
411.4288793193
 11
449.0325183381
 21
426.0122047053
  0
LINE
  5
2A9
100
AcDbEntity
  8
0
100
AcDbLine
 62
7
  6
CONTINUOUS
 10
449.0325183381
 20
421.8455300914
 11
460.7346457203
 21
408.8246808635
  0
LINE
  5
2AA
100
AcDbEntity
  8
0
100
AcDbLine
 62
7
  6
CONTINUOUS
 10
458.6069863995
 20
271.3246808635
 11
459.6708160599
 21
269.2413793193
  0
LINE
  5
2AB
100
AcDbEntity
  8
KONSTRUKTIONSELEMENTE
100
AcDbLine
 62
7
  6
CONTINUOUS
 10
463.116840787
 20
58.9484555976
 11
462.9668405009
 21
59.5229237484
  0
LINE
  5
2AC
100
AcDbEntity
  8
0
100
AcDbLine
 62
7
  6
CONTINUOUS
 10
458.2418402625
 20
71.3699449812
 11
458.1168407393
 21
71.8805832182
  0
LINE
  5
2AD
100
AcDbEntity
  8
0
100
AcDbLine
 62
7
  6
CONTINUOUS
 10
466.9918405009
 20
74.3061150228
 11
467.1168400241
 21
73.7954767858
  0
LINE
  5
2AE
100
AcDbEntity
  8
0
100
AcDbLine
 62
7
  6
CONTINUOUS
 10
469.2452844937
 20
757.2621987449
 11
470.8410289844
 21
759.3455300914
  0
LINE
  5
2AF
100
AcDbEntity
  8
0
100
AcDbLine
 62
7
  6
CONTINUOUS
 10
452.2240076919
 20
482.2622047053
 11
471.3729438146
 21
486.4288554774
  0
LINE
  5
2B0
100
AcDbEntity
  8
0
100
AcDbLine
 62
7
  6
CONTINUOUS
 10
466.5857103427
 20
488.5122047053
 11
446.3729438146
 21
484.3455300914
  0
LINE
  5
2B1
100
AcDbEntity
  8
0
100
AcDbLine
 62
7
  6
CONTINUOUS
 10
471.3729438146
 20
501.0122047053
 11
446.3729438146
 21
496.8455300914
  0
LINE
  5
2B2
100
AcDbEntity
  8
0
100
AcDbLine
 62
7
  6
CONTINUOUS
 10
452.2240076919
 20
494.7622047053
 11
471.3729438146
 21
497.8872047053
  0
LINE
  5
2B3
100
AcDbEntity
  8
0
100
AcDbLine
 62
7
  6
CONTINUOUS
 10
471.3729438146
 20
479.1372047053
 11
452.2240076919
 21
482.2622047053
  0
LINE
  5
2B4
100
AcDbEntity
  8
0
100
AcDbLine
 62
7
  6
CONTINUOUS
 10
446.3729438146
 20
480.1788554774
 11
471.3729438146
 21
476.0122047053
  0
LINE
  5
2B5
100
AcDbEntity
  8
0
100
AcDbLine
 62
7
  6
CONTINUOUS
 10
446.3729438146
 20
492.6788554774
 11
466.5857103427
 21
488.5122047053
  0
LINE
  5
2B6
100
AcDbEntity
  8
0
100
AcDbLine
 62
7
  6
CONTINUOUS
 10
471.3729438146
 20
490.5955300914
 11
452.2240076919
 21
494.7622047053
  0
LINE
  5
2B7
100
AcDbEntity
  8
0
100
AcDbLine
 62
7
  6
CONTINUOUS
 10
467.1176251729
 20
421.8455300914
 11
468.1814548333
 21
420.2830300914
  0
LINE
  5
2B8
100
AcDbEntity
  8
0
100
AcDbLine
 62
7
  6
CONTINUOUS
 10
461.2665605505
 20
271.8455300914
 11
460.7346457203
 21
273.4080300914
  0
LINE
  5
2B9
100
AcDbEntity
  8
0
100
AcDbLine
 62
7
  6
CONTINUOUS
 10
450.0963479985
 20
224.9705300914
 11
449.5644331683
 21
227.0538793193
  0
LINE
  5
2BA
100
AcDbEntity
  8
0
100
AcDbLine
 62
7
  6
CONTINUOUS
 10
450.0963479985
 20
249.9705300914
 11
449.5644331683
 21
252.0538793193
  0
LINE
  5
2BB
100
AcDbEntity
  8
0
100
AcDbLine
 62
7
  6
CONTINUOUS
 10
446.3729438146
 20
227.0538793193
 11
446.9048586913
 21
224.4496808635
  0
LINE
  5
2BC
100
AcDbEntity
  8
0
100
AcDbLine
 62
7
  6
CONTINUOUS
 10
446.3729438146
 20
252.0538793193
 11
446.9048586913
 21
249.4496808635
  0
LINE
  5
2BD
100
AcDbEntity
  8
0
100
AcDbLine
 62
7
  6
CONTINUOUS
 10
457.3668403817
 20
71.8805832182
 11
457.4918406201
 21
71.242285422
  0
LINE
  5
2BE
100
AcDbEntity
  8
KONSTRUKTIONSELEMENTE
100
AcDbLine
 62
7
  6
CONTINUOUS
 10
459.8168405009
 20
64.5016473638
 11
459.666840644
 21
65.2676047193
  0
LINE
  5
2BF
100
AcDbEntity
  8
0
100
AcDbLine
 62
7
  6
CONTINUOUS
 10
467.8668400241
 20
73.7954767858
 11
467.7418405009
 21
74.4337749396
  0
LINE
  5
2C0
100
AcDbEntity
  8
0
100
AcDbLine
 62
7
  6
CONTINUOUS
 10
468.7133696635
 20
761.4288614379
 11
468.1814548333
 21
759.8663614379
  0
LINE
  5
2C1
100
AcDbEntity
  8
0
100
AcDbLine
 62
7
  6
CONTINUOUS
 10
470.8410289844
 20
420.8038793193
 11
469.7771993239
 21
422.8871808635
  0
LINE
  5
2C2
100
AcDbEntity
  8
BEZUGSACHSEN
100
AcDbLine
 62
7
  6
CONTINUOUS
 10
486.8465604991
 20
94.9232223384
 11
490.5168405009
 21
74.1080300914
  0
LINE
  5
2C3
100
AcDbEntity
  8
FASEN
100
AcDbLine
 62
7
  6
CONTINUOUS
 10
490.5168402819
 20
74.1080313336
 11
486.8465604991
 21
94.9232223384
  0
LINE
  5
2C4
100
AcDbEntity
  8
0
100
AcDbLine
 62
7
  6
CONTINUOUS
 10
428.5168405009
 20
73.9519793695
 11
428.5168405009
 21
54.9080300914
  0
LINE
  5
2C5
100
AcDbEntity
  8
BEZUGSACHSEN
100
AcDbLine
 62
7
  6
CONTINUOUS
 10
428.5168405009
 20
73.9519793695
 11
428.5168405009
 21
74.1080307125
  0
LINE
  5
2C6
100
AcDbEntity
  8
BEZUGSACHSEN
100
AcDbLine
 62
7
  6
CONTINUOUS
 10
433.5168405009
 20
96.8312204706
 11
433.5168405009
 21
95.9080300914
  0
LINE
  5
2C7
100
AcDbEntity
  8
RUNDUNGEN
100
AcDbLine
 62
7
  6
CONTINUOUS
 10
433.5168405009
 20
95.9080300914
 11
433.5168405009
 21
96.8312204706
  0
LINE
  5
2C8
100
AcDbEntity
  8
BEZUGSACHSEN
100
AcDbLine
 62
7
  6
CONTINUOUS
 10
442.0168405009
 20
122.9080587024
 11
442.0168405009
 21
1146.9080014804
  0
LINE
  5
2C9
100
AcDbEntity
  8
0
100
AcDbLine
 62
7
  6
CONTINUOUS
 10
442.8854432928
 20
73.9519793695
 11
442.8854432928
 21
54.9080300914
  0
LINE
  5
2CA
100
AcDbEntity
  8
RUNDUNGEN
100
AcDbLine
 62
7
  6
CONTINUOUS
 10
445.1482377091
 20
73.2061637996
 11
445.1482377091
 21
54.9080300914
  0
LINE
  5
2CB
100
AcDbEntity
  8
0
100
AcDbLine
 62
7
  6
CONTINUOUS
 10
446.3729438146
 20
815.0746965097
 11
446.3729438146
 21
811.9496965097
  0
LINE
  5
2CC
100
AcDbEntity
  8
0
100
AcDbLine
 62
7
  6
CONTINUOUS
 10
446.3729438146
 20
799.4496972548
 11
446.3729438146
 21
796.3246957646
  0
LINE
  5
2CD
100
AcDbEntity
  8
0
100
AcDbLine
 62
7
  6
CONTINUOUS
 10
446.3729438146
 20
781.7413644181
 11
446.3729438146
 21
778.6163644181
  0
LINE
  5
2CE
100
AcDbEntity
  8
0
100
AcDbLine
 62
7
  6
CONTINUOUS
 10
446.3729438146
 20
774.4496957646
 11
446.3729438146
 21
771.3246987449
  0
LINE
  5
2CF
100
AcDbEntity
  8
0
100
AcDbLine
 62
7
  6
CONTINUOUS
 10
446.3729438146
 20
496.8455300914
 11
446.3729438146
 21
492.6788554774
  0
LINE
  5
2D0
100
AcDbEntity
  8
0
100
AcDbLine
 62
7
  6
CONTINUOUS
 10
446.3729438146
 20
484.3455300914
 11
446.3729438146
 21
480.1788554774
  0
LINE
  5
2D1
100
AcDbEntity
  8
0
100
AcDbLine
 62
7
  6
CONTINUOUS
 10
446.3729438146
 20
471.8455300914
 11
446.3729438146
 21
453.0955300914
  0
LINE
  5
2D2
100
AcDbEntity
  8
0
100
AcDbLine
 62
7
  6
CONTINUOUS
 10
446.3729438146
 20
448.9288554774
 11
446.3729438146
 21
430.1788554774
  0
LINE
  5
2D3
100
AcDbEntity
  8
0
100
AcDbLine
 62
7
  6
CONTINUOUS
 10
446.3729438146
 20
426.0122047053
 11
446.3729438146
 21
407.2621808635
  0
LINE
  5
2D4
100
AcDbEntity
  8
0
100
AcDbLine
 62
7
  6
CONTINUOUS
 10
446.3729438146
 20
286.4288793193
 11
446.3729438146
 21
283.3038793193
  0
LINE
  5
2D5
100
AcDbEntity
  8
0
100
AcDbLine
 62
7
  6
CONTINUOUS
 10
446.3729438146
 20
270.2830300914
 11
446.3729438146
 21
266.6371808635
  0
LINE
  5
2D6
100
AcDbEntity
  8
0
100
AcDbLine
 62
7
  6
CONTINUOUS
 10
446.3729438146
 20
254.1371808635
 11
446.3729438146
 21
252.0538793193
  0
LINE
  5
2D7
100
AcDbEntity
  8
0
100
AcDbLine
 62
7
  6
CONTINUOUS
 10
446.3729438146
 20
239.5538793193
 11
446.3729438146
 21
227.0538793193
  0
LINE
  5
2D8
100
AcDbEntity
  8
RUNDUNGEN
100
AcDbLine
 62
7
  6
CONTINUOUS
 10
449.0168405009
 20
58.6080300914
 11
449.0168405009
 21
84.6080300914
  0
LINE
  5
2D9
100
AcDbEntity
  8
0
100
AcDbLine
 62
7
  6
CONTINUOUS
 10
449.0325183381
 20
407.2621808635
 11
449.0325183381
 21
421.8455300914
  0
LINE
  5
2DA
100
AcDbEntity
  8
BEZUGSACHSEN
100
AcDbLine
 62
7
  6
CONTINUOUS
 10
449.5168405009
 20
22.4080300914
 11
449.5168405009
 21
54.9080300914
  0
LINE
  5
2DB
100
AcDbEntity
  8
0
100
AcDbLine
 62
7
  6
CONTINUOUS
 10
449.5644331683
 20
227.0538793193
 11
449.5644331683
 21
236.4288793193
  0
LINE
  5
2DC
100
AcDbEntity
  8
0
100
AcDbLine
 62
7
  6
CONTINUOUS
 10
449.5644331683
 20
252.0538793193
 11
449.5644331683
 21
254.1371808635
  0
LINE
  5
2DD
100
AcDbEntity
  8
0
100
AcDbLine
 62
7
  6
CONTINUOUS
 10
449.5644331683
 20
430.1788554774
 11
449.5644331683
 21
445.8038554774
  0
LINE
  5
2DE
100
AcDbEntity
  8
0
100
AcDbLine
 62
7
  6
CONTINUOUS
 10
449.5644331683
 20
453.0955300914
 11
449.5644331683
 21
468.7205300914
  0
LINE
  5
2DF
100
AcDbEntity
  8
0
100
AcDbLine
 62
7
  6
CONTINUOUS
 10
451.6168405009
 20
75.8380300914
 11
451.6168405009
 21
69.8380300914
  0
LINE
  5
2E0
100
AcDbEntity
  8
0
100
AcDbLine
 62
7
  6
CONTINUOUS
 10
452.3668405009
 20
69.8380300914
 11
452.3668405009
 21
72.5188811933
  0
LINE
  5
2E1
100
AcDbEntity
  8
0
100
AcDbLine
 62
7
  6
CONTINUOUS
 10
452.3668405009
 20
73.2848385488
 11
452.3668405009
 21
75.1997322951
  0
LINE
  5
2E2
100
AcDbEntity
  8
KONSTRUKTIONSELEMENTE
100
AcDbLine
 62
7
  6
CONTINUOUS
 10
454.4168405009
 20
58.5654769199
 11
454.4168405009
 21
57.6080300914
  0
LINE
  5
2E3
100
AcDbEntity
  8
0
100
AcDbLine
 62
7
  6
CONTINUOUS
 10
455.4918403817
 20
74.4337749396
 11
455.4918403817
 21
74.0507959043
  0
LINE
  5
2E4
100
AcDbEntity
  8
0
100
AcDbLine
 62
7
  6
CONTINUOUS
 10
456.2418403817
 20
73.923136345
 11
456.2418403817
 21
74.4337749396
  0
LINE
  5
2E5
100
AcDbEntity
  8
0
100
AcDbLine
 62
7
  6
CONTINUOUS
 10
457.3668403817
 20
75.8380300914
 11
457.3668403817
 21
71.8805832182
  0
LINE
  5
2E6
100
AcDbEntity
  8
0
100
AcDbLine
 62
7
  6
CONTINUOUS
 10
457.543156739
 20
771.3246987449
 11
457.543156739
 21
761.9496987449
  0
LINE
  5
2E7
100
AcDbEntity
  8
0
100
AcDbLine
 62
7
  6
CONTINUOUS
 10
457.543156739
 20
283.3038793193
 11
457.543156739
 21
274.4496808635
  0
LINE
  5
2E8
100
AcDbEntity
  8
0
100
AcDbLine
 62
7
  6
CONTINUOUS
 10
458.1168407393
 20
71.8805832182
 11
458.1168407393
 21
75.8380300914
  0
LINE
  5
2E9
100
AcDbEntity
  8
KONSTRUKTIONSELEMENTE
100
AcDbLine
 62
7
  6
CONTINUOUS
 10
458.9168405009
 20
64.5016473638
 11
458.9168405009
 21
64.1186681496
  0
LINE
  5
2EA
100
AcDbEntity
  8
KONSTRUKTIONSELEMENTE
100
AcDbLine
 62
7
  6
CONTINUOUS
 10
459.8168405009
 20
57.6080300914
 11
459.8168405009
 21
58.5654769199
  0
LINE
  5
2EB
100
AcDbEntity
  8
KONSTRUKTIONSELEMENTE
100
AcDbLine
 62
7
  6
CONTINUOUS
 10
459.8168405009
 20
64.1186681496
 11
459.8168405009
 21
64.5016473638
  0
LINE
  5
2EC
100
AcDbEntity
  8
0
100
AcDbLine
 62
7
  6
CONTINUOUS
 10
460.7346457203
 20
273.4080300914
 11
460.7346457203
 21
283.3038793193
  0
LINE
  5
2ED
100
AcDbEntity
  8
0
100
AcDbLine
 62
7
  6
CONTINUOUS
 10
460.7346457203
 20
761.4288614379
 11
460.7346457203
 21
771.3246987449
  0
LINE
  5
2EE
100
AcDbEntity
  8
KONSTRUKTIONSELEMENTE
100
AcDbLine
 62
7
  6
CONTINUOUS
 10
461.016840644
 20
63.7356894718
 11
461.016840644
 21
62.9697321163
  0
LINE
  5
2EF
100
AcDbEntity
  8
0
100
AcDbLine
 62
7
  6
CONTINUOUS
 10
461.1168407393
 20
75.8380300914
 11
461.1168407393
 21
71.8805832182
  0
LINE
  5
2F0
100
AcDbEntity
  8
0
100
AcDbLine
 62
7
  6
CONTINUOUS
 10
461.2665605505
 20
403.0955300914
 11
461.2665605505
 21
398.9288793193
  0
LINE
  5
2F1
100
AcDbEntity
  8
0
100
AcDbLine
 62
7
  6
CONTINUOUS
 10
461.2665605505
 20
396.3246808635
 11
461.2665605505
 21
390.5955300914
  0
LINE
  5
2F2
100
AcDbEntity
  8
0
100
AcDbLine
 62
7
  6
CONTINUOUS
 10
461.8668407393
 20
71.8805832182
 11
461.8668407393
 21
75.8380300914
  0
LINE
  5
2F3
100
AcDbEntity
  8
KONSTRUKTIONSELEMENTE
100
AcDbLine
 62
7
  6
CONTINUOUS
 10
462.216840787
 20
65.2676047193
 11
462.216840787
 21
63.7356894718
  0
LINE
  5
2F4
100
AcDbEntity
  8
KONSTRUKTIONSELEMENTE
100
AcDbLine
 62
7
  6
CONTINUOUS
 10
462.216840787
 20
62.9697321163
 11
462.216840787
 21
59.1399449365
  0
LINE
  5
2F5
100
AcDbEntity
  8
0
100
AcDbLine
 62
7
  6
CONTINUOUS
 10
462.8668405009
 20
75.8380300914
 11
462.8668405009
 21
69.8380300914
  0
LINE
  5
2F6
100
AcDbEntity
  8
KONSTRUKTIONSELEMENTE
100
AcDbLine
 62
7
  6
CONTINUOUS
 10
462.9668405009
 20
59.5229237484
 11
462.9668405009
 21
62.9697321163
  0
LINE
  5
2F7
100
AcDbEntity
  8
KONSTRUKTIONSELEMENTE
100
AcDbLine
 62
7
  6
CONTINUOUS
 10
462.9668405009
 20
63.7356894718
 11
462.9668405009
 21
65.2676047193
  0
LINE
  5
2F8
100
AcDbEntity
  8
0
100
AcDbLine
 62
7
  6
CONTINUOUS
 10
463.3942198713
 20
390.5955300914
 11
463.3942198713
 21
396.3246808635
  0
LINE
  5
2F9
100
AcDbEntity
  8
0
100
AcDbLine
 62
7
  6
CONTINUOUS
 10
463.3942198713
 20
398.9288793193
 11
463.3942198713
 21
403.0955300914
  0
LINE
  5
2FA
100
AcDbEntity
  8
0
100
AcDbLine
 62
7
  6
CONTINUOUS
 10
463.6168405009
 20
70.6039875363
 11
463.6168405009
 21
75.0720727359
  0
LINE
  5
2FB
100
AcDbEntity
  8
KONSTRUKTIONSELEMENTE
100
AcDbLine
 62
7
  6
CONTINUOUS
 10
464.3168405009
 20
57.6080300914
 11
464.3168405009
 21
58.3739875139
  0
LINE
  5
2FC
100
AcDbEntity
  8
0
100
AcDbLine
 62
7
  6
CONTINUOUS
 10
470.8410289844
 20
759.3455300914
 11
471.3729438146
 21
761.9496987449
  0
LINE
  5
2FD
100
AcDbEntity
  8
0
100
AcDbLine
 62
7
  6
CONTINUOUS
 10
468.1814548333
 20
420.2830300914
 11
468.7133696635
 21
417.6788793193
  0
LINE
  5
2FE
100
AcDbEntity
  8
0
100
AcDbLine
 62
7
  6
CONTINUOUS
 10
471.3729438146
 20
417.1580300914
 11
470.8410289844
 21
420.8038793193
  0
LINE
  5
2FF
100
AcDbEntity
  8
KONSTRUKTIONSELEMENTE
100
AcDbLine
 62
7
  6
CONTINUOUS
 10
464.6168402148
 20
62.9697321163
 11
464.6168402148
 21
63.7356894718
  0
LINE
  5
300
100
AcDbEntity
  8
0
100
AcDbLine
 62
7
  6
CONTINUOUS
 10
465.5218806823
 20
425.4913554774
 11
465.5218806823
 21
422.8871808635
  0
LINE
  5
301
100
AcDbEntity
  8
0
100
AcDbLine
 62
7
  6
CONTINUOUS
 10
467.1168400241
 20
73.7954767858
 11
467.1168400241
 21
71.8805832182
  0
LINE
  5
302
100
AcDbEntity
  8
0
100
AcDbLine
 62
7
  6
CONTINUOUS
 10
467.6495400031
 20
396.3246808635
 11
467.6495400031
 21
398.9288793193
  0
LINE
  5
303
100
AcDbEntity
  8
0
100
AcDbLine
 62
7
  6
CONTINUOUS
 10
467.8668400241
 20
71.8805832182
 11
467.8668400241
 21
73.7954767858
  0
LINE
  5
304
100
AcDbEntity
  8
0
100
AcDbLine
 62
7
  6
CONTINUOUS
 10
468.1814548333
 20
236.4288793193
 11
468.1814548333
 21
227.0538793193
  0
LINE
  5
305
100
AcDbEntity
  8
0
100
AcDbLine
 62
7
  6
CONTINUOUS
 10
468.7133696635
 20
823.4080300914
 11
468.7133696635
 21
815.0746965097
  0
LINE
  5
306
100
AcDbEntity
  8
0
100
AcDbLine
 62
7
  6
CONTINUOUS
 10
468.7133696635
 20
811.9496965097
 11
468.7133696635
 21
803.616362928
  0
LINE
  5
307
100
AcDbEntity
  8
0
100
AcDbLine
 62
7
  6
CONTINUOUS
 10
468.7133696635
 20
771.3246987449
 11
468.7133696635
 21
761.4288614379
  0
LINE
  5
308
100
AcDbEntity
  8
0
100
AcDbLine
 62
7
  6
CONTINUOUS
 10
468.7133696635
 20
417.6788793193
 11
468.7133696635
 21
415.5955300914
  0
LINE
  5
309
100
AcDbEntity
  8
0
100
AcDbLine
 62
7
  6
CONTINUOUS
 10
468.7133696635
 20
283.3038793193
 11
468.7133696635
 21
273.4080300914
  0
LINE
  5
30A
100
AcDbEntity
  8
BEZUGSACHSEN
100
AcDbLine
 62
7
  6
CONTINUOUS
 10
469.5168405009
 20
22.4080300914
 11
469.5168405009
 21
54.9080300914
  0
LINE
  5
30B
100
AcDbEntity
  8
RUNDUNGEN
100
AcDbLine
 62
7
  6
CONTINUOUS
 10
470.0168405009
 20
84.6080300914
 11
470.0168405009
 21
58.6080300914
  0
LINE
  5
30C
100
AcDbEntity
  8
0
100
AcDbLine
 62
7
  6
CONTINUOUS
 10
471.3729438146
 20
227.0538793193
 11
471.3729438146
 21
239.5538793193
  0
LINE
  5
30D
100
AcDbEntity
  8
0
100
AcDbLine
 62
7
  6
CONTINUOUS
 10
471.3729438146
 20
243.7205300914
 11
471.3729438146
 21
246.8455300914
  0
LINE
  5
30E
100
AcDbEntity
  8
0
100
AcDbLine
 62
7
  6
CONTINUOUS
 10
471.3729438146
 20
259.3455300914
 11
471.3729438146
 21
262.4705300914
  0
LINE
  5
30F
100
AcDbEntity
  8
0
100
AcDbLine
 62
7
  6
CONTINUOUS
 10
471.3729438146
 20
273.9288793193
 11
471.3729438146
 21
286.4288793193
  0
LINE
  5
310
100
AcDbEntity
  8
0
100
AcDbLine
 62
7
  6
CONTINUOUS
 10
471.3729438146
 20
415.0746808635
 11
471.3729438146
 21
417.1580300914
  0
LINE
  5
311
100
AcDbEntity
  8
0
100
AcDbLine
 62
7
  6
CONTINUOUS
 10
471.3729438146
 20
445.8038554774
 11
471.3729438146
 21
448.9288554774
  0
LINE
  5
312
100
AcDbEntity
  8
0
100
AcDbLine
 62
7
  6
CONTINUOUS
 10
471.3729438146
 20
468.7205300914
 11
471.3729438146
 21
471.8455300914
  0
LINE
  5
313
100
AcDbEntity
  8
0
100
AcDbLine
 62
7
  6
CONTINUOUS
 10
471.3729438146
 20
476.0122047053
 11
471.3729438146
 21
479.1372047053
  0
LINE
  5
314
100
AcDbEntity
  8
0
100
AcDbLine
 62
7
  6
CONTINUOUS
 10
471.3729438146
 20
486.4288554774
 11
471.3729438146
 21
490.5955300914
  0
LINE
  5
315
100
AcDbEntity
  8
0
100
AcDbLine
 62
7
  6
CONTINUOUS
 10
471.3729438146
 20
497.8872047053
 11
471.3729438146
 21
501.0122047053
  0
LINE
  5
316
100
AcDbEntity
  8
0
100
AcDbLine
 62
7
  6
CONTINUOUS
 10
471.3729438146
 20
761.9496987449
 11
471.3729438146
 21
774.4496957646
  0
LINE
  5
317
100
AcDbEntity
  8
0
100
AcDbLine
 62
7
  6
CONTINUOUS
 10
471.3729438146
 20
778.6163644181
 11
471.3729438146
 21
781.7413644181
  0
LINE
  5
318
100
AcDbEntity
  8
0
100
AcDbLine
 62
7
  6
CONTINUOUS
 10
471.3729438146
 20
796.3246957646
 11
471.3729438146
 21
799.4496972548
  0
LINE
  5
319
100
AcDbEntity
  8
0
100
AcDbLine
 62
7
  6
CONTINUOUS
 10
471.3729438146
 20
803.616362928
 11
471.3729438146
 21
823.4080300914
  0
LINE
  5
31A
100
AcDbEntity
  8
RUNDUNGEN
100
AcDbLine
 62
7
  6
CONTINUOUS
 10
473.8854432928
 20
54.9080300914
 11
473.8854432928
 21
73.2061638049
  0
LINE
  5
31B
100
AcDbEntity
  8
0
100
AcDbLine
 62
7
  6
CONTINUOUS
 10
476.1482377091
 20
73.9519793695
 11
476.1482377091
 21
54.9080300914
  0
LINE
  5
31C
100
AcDbEntity
  8
BEZUGSACHSEN
100
AcDbLine
 62
7
  6
CONTINUOUS
 10
477.0168405009
 20
122.9080587024
 11
477.0168405009
 21
1146.9080014804
  0
LINE
  5
31D
100
AcDbEntity
  8
BEZUGSACHSEN
100
AcDbLine
 62
7
  6
CONTINUOUS
 10
485.5168405009
 20
96.8312204706
 11
485.5168405009
 21
95.9080300914
  0
LINE
  5
31E
100
AcDbEntity
  8
RUNDUNGEN
100
AcDbLine
 62
7
  6
CONTINUOUS
 10
485.5168405009
 20
95.9080300914
 11
485.5168405009
 21
96.8312204706
  0
LINE
  5
31F
100
AcDbEntity
  8
0
100
AcDbLine
 62
7
  6
CONTINUOUS
 10
490.5168405009
 20
73.9519793695
 11
490.5168405009
 21
54.9080300914
  0
LINE
  5
320
100
AcDbEntity
  8
BEZUGSACHSEN
100
AcDbLine
 62
7
  6
CONTINUOUS
 10
490.5168405009
 20
74.1080307124
 11
490.5168405009
 21
73.9519793695
  0
LINE
  5
321
100
AcDbEntity
  8
0
100
AcDbLine
 62
7
  6
CONTINUOUS
 10
446.9048586913
 20
394.7621808635
 11
446.3729438146
 21
391.6371808635
  0
LINE
  5
322
100
AcDbEntity
  8
0
100
AcDbLine
 62
7
  6
CONTINUOUS
 10
470.8410289844
 20
411.9496808635
 11
471.3729438146
 21
415.0746808635
  0
LINE
  5
323
100
AcDbEntity
  8
0
100
AcDbLine
 62
7
  6
CONTINUOUS
 10
448.5006033217
 20
391.6371808635
 11
449.0325183381
 21
394.2413793193
  0
LINE
  5
324
100
AcDbEntity
  8
0
100
AcDbLine
 62
7
  6
CONTINUOUS
 10
457.543156739
 20
761.9496987449
 11
458.0750715693
 21
759.3455300914
  0
LINE
  5
325
100
AcDbEntity
  8
BEZUGSACHSEN
100
AcDbLine
 62
7
  6
CONTINUOUS
 10
432.1871205027
 20
94.9232223384
 11
428.5168405009
 21
74.1080300914
  0
LINE
  5
326
100
AcDbEntity
  8
FASEN
100
AcDbLine
 62
7
  6
CONTINUOUS
 10
428.5168405009
 20
74.1080300914
 11
432.1871205027
 21
94.9232223384
  0
LINE
  5
327
100
AcDbEntity
  8
0
100
AcDbLine
 62
7
  6
CONTINUOUS
 10
468.7133696635
 20
415.5955300914
 11
468.1814548333
 21
412.9913793193
  0
LINE
  5
328
100
AcDbEntity
  8
0
100
AcDbLine
 62
7
  6
CONTINUOUS
 10
446.9048586913
 20
256.7413793193
 11
446.3729438146
 21
254.1371808635
  0
LINE
  5
329
100
AcDbEntity
  8
0
100
AcDbLine
 62
7
  6
CONTINUOUS
 10
470.8410289844
 20
271.3246808635
 11
471.3729438146
 21
273.9288793193
  0
LINE
  5
32A
100
AcDbEntity
  8
0
100
AcDbLine
 62
7
  6
CONTINUOUS
 10
449.5644331683
 20
254.1371808635
 11
450.0963479985
 21
256.2205300914
  0
LINE
  5
32B
100
AcDbEntity
  8
0
100
AcDbLine
 62
7
  6
CONTINUOUS
 10
447.4367735681
 20
396.3246808635
 11
446.9048586913
 21
394.7621808635
  0
LINE
  5
32C
100
AcDbEntity
  8
0
100
AcDbLine
 62
7
  6
CONTINUOUS
 10
461.2665605505
 20
759.8663614379
 11
460.7346457203
 21
761.4288614379
  0
LINE
  5
32D
100
AcDbEntity
  8
KONSTRUKTIONSELEMENTE
100
AcDbLine
 62
7
  6
CONTINUOUS
 10
454.7168405099
 20
65.2676047193
 11
454.5668405054
 21
64.5016473638
  0
LINE
  5
32E
100
AcDbEntity
  8
KONSTRUKTIONSELEMENTE
100
AcDbLine
 62
7
  6
CONTINUOUS
 10
459.666840644
 20
63.3527107941
 11
459.8168405009
 21
64.1186681496
  0
LINE
  5
32F
100
AcDbEntity
  8
0
100
AcDbLine
 62
7
  6
CONTINUOUS
 10
461.7418405009
 20
71.242285422
 11
461.8668407393
 21
71.8805832182
  0
LINE
  5
330
100
AcDbEntity
  8
0
100
AcDbLine
 62
7
  6
CONTINUOUS
 10
467.7418405009
 20
71.242285422
 11
467.8668400241
 21
71.8805832182
  0
LINE
  5
331
100
AcDbEntity
  8
0
100
AcDbLine
 62
7
  6
CONTINUOUS
 10
470.8410289844
 20
224.4496808635
 11
471.3729438146
 21
227.0538793193
  0
LINE
  5
332
100
AcDbEntity
  8
0
100
AcDbLine
 62
7
  6
CONTINUOUS
 10
468.1814548333
 20
227.0538793193
 11
467.6495400031
 21
224.9705300914
  0
LINE
  5
333
100
AcDbEntity
  8
0
100
AcDbLine
 62
7
  6
CONTINUOUS
 10
468.7133696635
 20
273.4080300914
 11
468.1814548333
 21
271.8455300914
  0
LINE
  5
334
100
AcDbEntity
  8
0
100
AcDbLine
 62
7
  6
CONTINUOUS
 10
469.7771993239
 20
409.8663793193
 11
470.8410289844
 21
411.9496808635
  0
LINE
  5
335
100
AcDbEntity
  8
0
100
AcDbLine
 62
7
  6
CONTINUOUS
 10
448.5006033217
 20
397.8871808635
 11
447.4367735681
 21
396.3246808635
  0
LINE
  5
336
100
AcDbEntity
  8
0
100
AcDbLine
 62
7
  6
CONTINUOUS
 10
449.0325183381
 20
394.2413793193
 11
450.0963479985
 21
395.8038793193
  0
LINE
  5
337
100
AcDbEntity
  8
0
100
AcDbLine
 62
7
  6
CONTINUOUS
 10
468.1814548333
 20
412.9913793193
 11
467.1176251729
 21
411.4288793193
  0
LINE
  5
338
100
AcDbEntity
  8
0
100
AcDbLine
 62
7
  6
CONTINUOUS
 10
441.5168405009
 20
673.4080300914
 11
442.0168405009
 21
673.4080300914
  0
LINE
  5
339
100
AcDbEntity
  8
0
100
AcDbLine
 62
7
  6
CONTINUOUS
 10
477.0168405009
 20
673.4080300914
 11
477.5168405009
 21
673.4080300914
  0
LINE
  5
33A
100
AcDbEntity
  8
0
100
AcDbLine
 62
7
  6
CONTINUOUS
 10
458.0750715693
 20
759.3455300914
 11
459.6708160599
 21
757.2621987449
  0
LINE
  5
33B
100
AcDbEntity
  8
0
100
AcDbLine
 62
7
  6
CONTINUOUS
 10
461.1168407393
 20
71.8805832182
 11
460.9918405009
 21
71.3699449812
  0
LINE
  5
33C
100
AcDbEntity
  8
0
100
AcDbLine
 62
7
  6
CONTINUOUS
 10
467.1168400241
 20
71.8805832182
 11
466.9918405009
 21
71.3699449812
  0
LINE
  5
33D
100
AcDbEntity
  8
0
100
AcDbLine
 62
7
  6
CONTINUOUS
 10
455.4918403817
 20
74.0507959043
 11
455.3668405009
 21
73.6678172265
  0
LINE
  5
33E
100
AcDbEntity
  8
0
100
AcDbLine
 62
7
  6
CONTINUOUS
 10
456.1168405009
 20
73.5401576673
 11
456.2418403817
 21
73.923136345
  0
LINE
  5
33F
100
AcDbEntity
  8
0
100
AcDbLine
 62
7
  6
CONTINUOUS
 10
447.9686884915
 20
258.8246808635
 11
446.9048586913
 21
256.7413793193
  0
LINE
  5
340
100
AcDbEntity
  8
0
100
AcDbLine
 62
7
  6
CONTINUOUS
 10
467.6495400031
 20
407.7830300914
 11
469.7771993239
 21
409.8663793193
  0
LINE
  5
341
100
AcDbEntity
  8
0
100
AcDbLine
 62
7
  6
CONTINUOUS
 10
467.1176251729
 20
411.4288793193
 11
465.5218806823
 21
410.3871808635
  0
LINE
  5
342
100
AcDbEntity
  8
0
100
AcDbLine
 62
7
  6
CONTINUOUS
 10
459.6708160599
 20
757.2621987449
 11
461.7984753807
 21
755.6996987449
  0
LINE
  5
343
100
AcDbEntity
  8
0
100
AcDbLine
 62
7
  6
CONTINUOUS
 10
462.3303902109
 20
758.8246987449
 11
461.2665605505
 21
759.8663614379
  0
LINE
  5
344
100
AcDbEntity
  8
KONSTRUKTIONSELEMENTE
100
AcDbLine
 62
7
  6
CONTINUOUS
 10
458.9168405009
 20
64.1186681496
 11
458.6168403579
 21
63.3527107941
  0
LINE
  5
345
100
AcDbEntity
  8
0
100
AcDbLine
 62
7
  6
CONTINUOUS
 10
469.7771993239
 20
222.3663793193
 11
470.8410289844
 21
224.4496808635
  0
LINE
  5
346
100
AcDbEntity
  8
0
100
AcDbLine
 62
7
  6
CONTINUOUS
 10
450.0963479985
 20
256.2205300914
 11
451.1601780315
 21
257.7830300914
  0
LINE
  5
347
100
AcDbEntity
  8
0
100
AcDbLine
 62
7
  6
CONTINUOUS
 10
450.6282628288
 20
398.9288793193
 11
448.5006033217
 21
397.8871808635
  0
LINE
  5
348
100
AcDbEntity
  8
0
100
AcDbLine
 62
7
  6
CONTINUOUS
 10
450.0963479985
 20
395.8038793193
 11
451.6920928617
 21
396.3246808635
  0
LINE
  5
349
100
AcDbEntity
  8
0
100
AcDbLine
 62
7
  6
CONTINUOUS
 10
463.3942198713
 20
755.1788614379
 11
465.5218806823
 21
755.1788614379
  0
LINE
  5
34A
100
AcDbEntity
  8
0
100
AcDbLine
 62
7
  6
CONTINUOUS
 10
465.5218806823
 20
758.3038614379
 11
463.9261347015
 21
758.3038614379
  0
LINE
  5
34B
100
AcDbEntity
  8
0
100
AcDbLine
 62
7
  6
CONTINUOUS
 10
446.3729438146
 20
771.3246987449
 11
457.543156739
 21
771.3246987449
  0
LINE
  5
34C
100
AcDbEntity
  8
0
100
AcDbLine
 62
7
  6
CONTINUOUS
 10
460.7346457203
 20
771.3246987449
 11
468.7133696635
 21
771.3246987449
  0
LINE
  5
34D
100
AcDbEntity
  8
0
100
AcDbLine
 62
7
  6
CONTINUOUS
 10
471.3729438146
 20
774.4496957646
 11
446.3729438146
 21
774.4496957646
  0
LINE
  5
34E
100
AcDbEntity
  8
0
100
AcDbLine
 62
7
  6
CONTINUOUS
 10
461.7984753807
 20
755.6996987449
 11
463.3942198713
 21
755.1788614379
  0
LINE
  5
34F
100
AcDbEntity
  8
0
100
AcDbLine
 62
7
  6
CONTINUOUS
 10
463.9261347015
 20
758.3038614379
 11
462.3303902109
 21
758.8246987449
  0
LINE
  5
350
100
AcDbEntity
  8
0
100
AcDbLine
 62
7
  6
CONTINUOUS
 10
459.1389012297
 20
790.5955300914
 11
446.3729438146
 21
799.4496972548
  0
LINE
  5
351
100
AcDbEntity
  8
0
100
AcDbLine
 62
7
  6
CONTINUOUS
 10
446.3729438146
 20
796.3246957646
 11
456.4793270786
 21
789.0330300914
  0
LINE
  5
352
100
AcDbEntity
  8
0
100
AcDbLine
 62
7
  6
CONTINUOUS
 10
471.3729438146
 20
781.7413644181
 11
461.2665605505
 21
789.0330300914
  0
LINE
  5
353
100
AcDbEntity
  8
0
100
AcDbLine
 62
7
  6
CONTINUOUS
 10
459.1389012297
 20
787.4705300914
 11
471.3729438146
 21
778.6163644181
  0
LINE
  5
354
100
AcDbEntity
  8
0
100
AcDbLine
 62
7
  6
CONTINUOUS
 10
461.4918407393
 20
70.7316470955
 11
461.7418405009
 21
71.242285422
  0
LINE
  5
355
100
AcDbEntity
  8
0
100
AcDbLine
 62
7
  6
CONTINUOUS
 10
467.6495400031
 20
224.9705300914
 11
466.5857103427
 21
223.4080300914
  0
LINE
  5
356
100
AcDbEntity
  8
0
100
AcDbLine
 62
7
  6
CONTINUOUS
 10
469.2452844937
 20
269.2413793193
 11
470.8410289844
 21
271.3246808635
  0
LINE
  5
357
100
AcDbEntity
  8
0
100
AcDbLine
 62
7
  6
CONTINUOUS
 10
450.0963479985
 20
260.9080300914
 11
447.9686884915
 21
258.8246808635
  0
LINE
  5
358
100
AcDbEntity
  8
0
100
AcDbLine
 62
7
  6
CONTINUOUS
 10
468.1814548333
 20
271.8455300914
 11
467.1176251729
 21
270.8038793193
  0
LINE
  5
359
100
AcDbEntity
  8
0
100
AcDbLine
 62
7
  6
CONTINUOUS
 10
468.7133696635
 20
803.616362928
 11
471.3729438146
 21
803.616362928
  0
LINE
  5
35A
100
AcDbEntity
  8
0
100
AcDbLine
 62
7
  6
CONTINUOUS
 10
446.3729438146
 20
811.9496965097
 11
468.7133696635
 21
811.9496965097
  0
LINE
  5
35B
100
AcDbEntity
  8
0
100
AcDbLine
 62
7
  6
CONTINUOUS
 10
467.4918400241
 20
70.7316470955
 11
467.7418405009
 21
71.242285422
  0
LINE
  5
35C
100
AcDbEntity
  8
KONSTRUKTIONSELEMENTE
100
AcDbLine
 62
7
  6
CONTINUOUS
 10
455.3168405009
 20
64.5016473638
 11
455.6168405367
 21
65.0761153804
  0
LINE
  5
35D
100
AcDbEntity
  8
KONSTRUKTIONSELEMENTE
100
AcDbLine
 62
7
  6
CONTINUOUS
 10
459.3668405009
 20
62.7782427775
 11
459.666840644
 21
63.3527107941
  0
LINE
  5
35E
100
AcDbEntity
  8
0
100
AcDbLine
 62
7
  6
CONTINUOUS
 10
467.6495400031
 20
220.2830300914
 11
469.7771993239
 21
222.3663793193
  0
LINE
  5
35F
100
AcDbEntity
  8
0
100
AcDbLine
 62
7
  6
CONTINUOUS
 10
467.1176251729
 20
267.6788793193
 11
469.2452844937
 21
269.2413793193
  0
LINE
  5
360
100
AcDbEntity
  8
0
100
AcDbLine
 62
7
  6
CONTINUOUS
 10
468.7133696635
 20
815.0746965097
 11
446.3729438146
 21
815.0746965097
  0
LINE
  5
361
100
AcDbEntity
  8
0
100
AcDbLine
 62
7
  6
CONTINUOUS
 10
471.3729438146
 20
823.4080300914
 11
468.7133696635
 21
823.4080300914
  0
LINE
  5
362
100
AcDbEntity
  8
0
100
AcDbLine
 62
7
  6
CONTINUOUS
 10
460.9918405009
 20
71.3699449812
 11
460.7418407393
 21
70.9869663035
  0
LINE
  5
363
100
AcDbEntity
  8
0
100
AcDbLine
 62
7
  6
CONTINUOUS
 10
466.9918405009
 20
71.3699449812
 11
466.7418400241
 21
70.9869663035
  0
LINE
  5
364
100
AcDbEntity
  8
0
100
AcDbLine
 62
7
  6
CONTINUOUS
 10
455.7418405009
 20
73.0295194303
 11
456.1168405009
 21
73.5401576673
  0
LINE
  5
365
100
AcDbEntity
  8
0
100
AcDbLine
 62
7
  6
CONTINUOUS
 10
451.1601780315
 20
257.7830300914
 11
452.7559225221
 21
258.8246808635
  0
LINE
  5
366
100
AcDbEntity
  8
0
100
AcDbLine
 62
7
  6
CONTINUOUS
 10
466.5857103427
 20
223.4080300914
 11
464.989964362
 21
222.3663793193
  0
LINE
  5
367
100
AcDbEntity
  8
0
100
AcDbLine
 62
7
  6
CONTINUOUS
 10
452.2240076919
 20
261.9496808635
 11
450.0963479985
 21
260.9080300914
  0
LINE
  5
368
100
AcDbEntity
  8
0
100
AcDbLine
 62
7
  6
CONTINUOUS
 10
446.3729438146
 20
266.6371808635
 11
458.6069863995
 21
271.3246808635
  0
LINE
  5
369
100
AcDbEntity
  8
0
100
AcDbLine
 62
7
  6
CONTINUOUS
 10
457.543156739
 20
274.4496808635
 11
446.3729438146
 21
270.2830300914
  0
LINE
  5
36A
100
AcDbEntity
  8
0
100
AcDbLine
 62
7
  6
CONTINUOUS
 10
467.1176251729
 20
270.8038793193
 11
465.5218806823
 21
270.2830300914
  0
LINE
  5
36B
100
AcDbEntity
  8
0
100
AcDbLine
 62
7
  6
CONTINUOUS
 10
465.5218806823
 20
267.1580300914
 11
467.1176251729
 21
267.6788793193
  0
LINE
  5
36C
100
AcDbEntity
  8
KONSTRUKTIONSELEMENTE
100
AcDbLine
 62
7
  6
CONTINUOUS
 10
455.3168405009
 20
66.0335620748
 11
454.7168405099
 21
65.2676047193
  0
LINE
  5
36D
100
AcDbEntity
  8
KONSTRUKTIONSELEMENTE
100
AcDbLine
 62
7
  6
CONTINUOUS
 10
458.6168403579
 20
63.3527107941
 11
454.4168405009
 21
58.5654769199
  0
LINE
  5
36E
100
AcDbEntity
  8
0
100
AcDbLine
 62
7
  6
CONTINUOUS
 10
465.5218806823
 20
219.2413793193
 11
467.6495400031
 21
220.2830300914
  0
LINE
  5
36F
100
AcDbEntity
  8
KONSTRUKTIONSELEMENTE
100
AcDbLine
 62
7
  6
CONTINUOUS
 10
455.6168405367
 20
58.5654769199
 11
459.3668405009
 21
62.7782427775
  0
LINE
  5
370
100
AcDbEntity
  8
0
100
AcDbLine
 62
7
  6
CONTINUOUS
 10
455.3668405009
 20
73.6678172265
 11
455.1168403817
 21
73.412498108
  0
LINE
  5
371
100
AcDbEntity
  8
0
100
AcDbLine
 62
7
  6
CONTINUOUS
 10
460.9918405009
 20
70.2210088138
 11
461.4918407393
 21
70.7316470955
  0
LINE
  5
372
100
AcDbEntity
  8
0
100
AcDbLine
 62
7
  6
CONTINUOUS
 10
466.9918405009
 20
70.2210088138
 11
467.4918400241
 21
70.7316470955
  0
LINE
  5
373
100
AcDbEntity
  8
FASEN
100
AcDbLine
 62
7
  6
CONTINUOUS
 10
433.3607686805
 20
95.9080300915
 11
432.1871205029
 21
94.9232223385
  0
LINE
  5
374
100
AcDbEntity
  8
BEZUGSACHSEN
100
AcDbLine
 62
7
  6
CONTINUOUS
 10
468.0168405009
 20
20.9080300914
 11
469.5168405009
 21
22.4080300914
  0
LINE
  5
375
100
AcDbEntity
  8
KONSTRUKTIONSELEMENTE
100
AcDbLine
 62
7
  6
CONTINUOUS
 10
455.6168405367
 20
65.0761153804
 11
456.0668405367
 21
65.4590940581
  0
LINE
  5
376
100
AcDbEntity
  8
0
100
AcDbLine
 62
7
  6
CONTINUOUS
 10
460.7418407393
 20
70.9869663035
 11
460.3668407393
 21
70.7316470955
  0
LINE
  5
377
100
AcDbEntity
  8
0
100
AcDbLine
 62
7
  6
CONTINUOUS
 10
466.7418400241
 20
70.9869663035
 11
466.3668400241
 21
70.7316470955
  0
LINE
  5
378
100
AcDbEntity
  8
KONSTRUKTIONSELEMENTE
100
AcDbLine
 62
7
  6
CONTINUOUS
 10
455.9168404652
 20
66.4165407525
 11
455.3168405009
 21
66.0335620748
  0
LINE
  5
379
100
AcDbEntity
  8
0
100
AcDbLine
 62
7
  6
CONTINUOUS
 10
455.2418406201
 20
72.7742003118
 11
455.7418405009
 21
73.0295194303
  0
LINE
  5
37A
100
AcDbEntity
  8
0
100
AcDbLine
 62
7
  6
CONTINUOUS
 10
460.4918402625
 20
69.9656896618
 11
460.9918405009
 21
70.2210088138
  0
LINE
  5
37B
100
AcDbEntity
  8
0
100
AcDbLine
 62
7
  6
CONTINUOUS
 10
466.4918409778
 20
69.9656896618
 11
466.9918405009
 21
70.2210088138
  0
LINE
  5
37C
100
AcDbEntity
  8
0
100
AcDbLine
 62
7
  6
CONTINUOUS
 10
455.1168403817
 20
73.412498108
 11
454.7418403817
 21
73.2848385488
  0
LINE
  5
37D
100
AcDbEntity
  8
0
100
AcDbLine
 62
7
  6
CONTINUOUS
 10
442.0168405009
 20
1146.9080300914
 11
477.0168405009
 21
1146.9080300914
  0
LINE
  5
37E
100
AcDbEntity
  8
BEZUGSACHSEN
100
AcDbLine
 62
7
  6
CONTINUOUS
 10
702.2049349449
 20
20.9080300914
 11
719.2038667826
 21
20.9080300914
  0
LINE
  5
37F
100
AcDbEntity
  8
BEZUGSACHSEN
100
AcDbLine
 62
7
  6
CONTINUOUS
 10
700.7044008637
 20
22.4080300914
 11
720.7044008637
 21
22.4080300914
  0
LINE
  5
380
100
AcDbEntity
  8
0
100
AcDbLine
 62
7
  6
CONTINUOUS
 10
738.2044008637
 20
54.9080300914
 11
683.2044008637
 21
54.9080300914
  0
LINE
  5
381
100
AcDbEntity
  8
RUNDUNGEN
100
AcDbLine
 62
9
  6
CONTINUOUS
 10
736.4200570795
 20
81.4343819138
 11
737.2384579463
 21
81.6010924655
  0
LINE
  5
382
100
AcDbEntity
  8
0
100
AcDbLine
 62
7
  6
CONTINUOUS
 10
682.2044008637
 20
76.0080300914
 11
681.2044008637
 21
76.0080300914
  0
LINE
  5
383
100
AcDbEntity
  8
RUNDUNGEN
100
AcDbLine
 62
7
  6
CONTINUOUS
 10
681.2044008637
 20
76.0080300914
 11
683.2044008637
 21
76.0080300914
  0
LINE
  5
384
100
AcDbEntity
  8
RUNDUNGEN
100
AcDbLine
 62
9
  6
CONTINUOUS
 10
683.2044008637
 20
79.0080300914
 11
680.2044008637
 21
79.0080300914
  0
LINE
  5
385
100
AcDbEntity
  8
0
100
AcDbLine
 62
7
  6
CONTINUOUS
 10
682.3742142909
 20
94.0080300914
 11
681.2044008637
 21
94.0080300914
  0
LINE
  5
386
100
AcDbEntity
  8
FASEN
100
AcDbLine
 62
7
  6
CONTINUOUS
 10
738.034120862
 20
94.9232223384
 11
683.3746808655
 21
94.9232223384
  0
LINE
  5
387
100
AcDbEntity
  8
FASEN
100
AcDbLine
 62
7
  6
CONTINUOUS
 10
736.8601661305
 20
95.9080300914
 11
684.5486355969
 21
95.9080300914
  0
LINE
  5
388
100
AcDbEntity
  8
RUNDUNGEN
100
AcDbLine
 62
9
  6
CONTINUOUS
 10
682.320933063
 20
85.007581722
 11
680.2044008637
 21
85.0080300914
  0
LINE
  5
389
100
AcDbEntity
  8
RUNDUNGEN
100
AcDbLine
 62
9
  6
CONTINUOUS
 10
682.3210168762
 20
85.0080300902
 11
683.249862355
 21
84.8343819134
  0
LINE
  5
38A
100
AcDbEntity
  8
RUNDUNGEN
100
AcDbLine
 62
7
  6
CONTINUOUS
 10
698.6701774492
 20
106.986284015
 11
698.1322444886
 21
106.9104269892
  0
LINE
  5
38B
100
AcDbEntity
  8
RUNDUNGEN
100
AcDbLine
 62
7
  6
CONTINUOUS
 10
698.1396739781
 20
106.9107542794
 11
698.0305613988
 21
106.9080072559
  0
LINE
  5
38C
100
AcDbEntity
  8
RUNDUNGEN
100
AcDbLine
 62
9
  6
CONTINUOUS
 10
700.806635395
 20
103.9088736528
 11
684.7044008637
 21
103.9080300914
  0
LINE
  5
38D
100
AcDbEntity
  8
RUNDUNGEN
100
AcDbLine
 62
7
  6
CONTINUOUS
 10
698.030561032
 20
106.9080692512
 11
687.7044008637
 21
106.9080300914
  0
LINE
  5
38E
100
AcDbEntity
  8
RUNDUNGEN
100
AcDbLine
 62
7
  6
CONTINUOUS
 10
723.3775175348
 20
106.9080300914
 11
733.7031798039
 21
106.9080300914
  0
LINE
  5
38F
100
AcDbEntity
  8
RUNDUNGEN
100
AcDbLine
 62
9
  6
CONTINUOUS
 10
736.7044008637
 20
103.9080300914
 11
720.6021754335
 21
103.9088908461
  0
LWPOLYLINE
  5
390
100
AcDbEntity
  8
RUNDUNGEN
100
AcDbPolyline
 62
7
  6
CONTINUOUS
 90
12
 70
0
 10
723.3788070204
 20
106.9079994831
 10
723.2765082516
 20
106.9104277314
 10
722.7513060644
 20
106.9832363516
 10
722.2411389341
 20
107.157964094
 10
721.7821962311
 20
107.4221338138
 10
721.3978086596
 20
107.7528614837
 10
721.1033400422
 20
108.1171870883
 10
720.9022166896
 20
108.4755511105
 10
720.7818145531
 20
108.7969592782
 10
720.7248279634
 20
109.0471981441
 10
720.7060273361
 20
109.2192216628
 10
720.7043991545
 20
109.2809109947
  0
LINE
  5
391
100
AcDbEntity
  8
BEZUGSACHSEN
100
AcDbLine
 62
7
  6
CONTINUOUS
 10
702.2044008637
 20
20.9080300914
 11
700.7044008637
 21
22.4080300914
  0
LINE
  5
392
100
AcDbEntity
  8
FASEN
100
AcDbLine
 62
7
  6
CONTINUOUS
 10
736.8604726843
 20
95.9080300914
 11
738.034120862
 21
94.9232223384
  0
LINE
  5
393
100
AcDbEntity
  8
BEZUGSACHSEN
100
AcDbLine
 62
7
  6
CONTINUOUS
 10
738.034120862
 20
94.9232223384
 11
738.19003135
 21
94.0390100222
  0
LINE
  5
394
100
AcDbEntity
  8
RUNDUNGEN
100
AcDbLine
 62
7
  6
CONTINUOUS
 10
680.2044008637
 20
93.0080300914
 11
680.2044008637
 21
77.0080300914
  0
LINE
  5
395
100
AcDbEntity
  8
RUNDUNGEN
100
AcDbLine
 62
9
  6
CONTINUOUS
 10
681.2044008637
 20
94.0080300914
 11
681.2044008637
 21
76.0080300914
  0
LINE
  5
396
100
AcDbEntity
  8
RUNDUNGEN
100
AcDbLine
 62
9
  6
CONTINUOUS
 10
682.2044008637
 20
76.0080300914
 11
682.2044008637
 21
84.3841091497
  0
LINE
  5
397
100
AcDbEntity
  8
0
100
AcDbLine
 62
7
  6
CONTINUOUS
 10
683.2044008637
 20
73.9519793695
 11
683.2044008637
 21
54.9080300914
  0
LINE
  5
398
100
AcDbEntity
  8
RUNDUNGEN
100
AcDbLine
 62
7
  6
CONTINUOUS
 10
683.2044008637
 20
73.9519793695
 11
683.2044008637
 21
83.9661369802
  0
LINE
  5
399
100
AcDbEntity
  8
0
100
AcDbLine
 62
7
  6
CONTINUOUS
 10
684.5108258291
 20
73.9519793695
 11
684.5108258291
 21
54.9080300914
  0
LINE
  5
39A
100
AcDbEntity
  8
BEZUGSACHSEN
100
AcDbLine
 62
7
  6
CONTINUOUS
 10
684.7044008637
 20
103.9080300914
 11
684.7044008637
 21
95.9080300914
  0
LINE
  5
39B
100
AcDbEntity
  8
0
100
AcDbLine
 62
7
  6
CONTINUOUS
 10
687.2044008637
 20
146.4080300914
 11
687.2044008637
 21
673.4080300914
  0
LINE
  5
39C
100
AcDbEntity
  8
0
100
AcDbLine
 62
7
  6
CONTINUOUS
 10
687.2044008637
 20
675.9080300914
 11
687.2044008637
 21
1123.4080300914
  0
LINE
  5
39D
100
AcDbEntity
  8
0
100
AcDbLine
 62
7
  6
CONTINUOUS
 10
699.2044008637
 20
146.4080300914
 11
699.2044008637
 21
673.4080300914
  0
LINE
  5
39E
100
AcDbEntity
  8
0
100
AcDbLine
 62
7
  6
CONTINUOUS
 10
699.2044008637
 20
675.9080300914
 11
699.2044008637
 21
1123.4080300914
  0
LINE
  5
39F
100
AcDbEntity
  8
BEZUGSACHSEN
100
AcDbLine
 62
7
  6
CONTINUOUS
 10
700.7044008637
 20
22.4080300914
 11
700.7044008637
 21
54.9080300914
  0
LINE
  5
3A0
100
AcDbEntity
  8
0
100
AcDbLine
 62
7
  6
CONTINUOUS
 10
700.7044008637
 20
109.2784464271
 11
700.7044008637
 21
148.9080300914
  0
LINE
  5
3A1
100
AcDbEntity
  8
0
100
AcDbLine
 62
7
  6
CONTINUOUS
 10
709.3979758984
 20
73.9519793695
 11
709.3979758984
 21
54.9080300914
  0
LINE
  5
3A2
100
AcDbEntity
  8
0
100
AcDbLine
 62
7
  6
CONTINUOUS
 10
712.0108258291
 20
73.9519793695
 11
712.0108258291
 21
54.9080300914
  0
LINE
  5
3A3
100
AcDbEntity
  8
RUNDUNGEN
100
AcDbLine
 62
7
  6
CONTINUOUS
 10
700.7044008637
 20
109.2784464271
 11
700.7044027307
 21
109.2806679717
  0
LWPOLYLINE
  5
3A4
100
AcDbEntity
  8
RUNDUNGEN
100
AcDbPolyline
 62
7
  6
CONTINUOUS
 90
10
 70
0
 10
700.7044019524
 20
109.2806262049
 10
700.7033841608
 20
109.2321591451
 10
700.6868770271
 20
109.0658286344
 10
700.633173681
 20
108.8185231661
 10
700.5160824334
 20
108.4965197784
 10
700.3176588325
 20
108.1355177526
 10
700.0253451468
 20
107.7678566642
 10
699.6419669095
 20
107.433131085
 10
699.1827370102
 20
107.1648765424
 10
698.6701774492
 20
106.986284015
  0
LWPOLYLINE
  5
3A5
100
AcDbEntity
  8
RUNDUNGEN
100
AcDbPolyline
 62
7
  6
CONTINUOUS
 90
3
 70
0
 10
700.7030149848
 20
109.2284392245
 10
700.702769152
 20
109.2191418521
 10
700.683979342
 20
109.0472333034
  0
LINE
  5
3A6
100
AcDbEntity
  8
BEZUGSACHSEN
100
AcDbLine
 62
7
  6
CONTINUOUS
 10
720.7044008637
 20
22.4080300914
 11
720.7044008637
 21
54.9080300914
  0
LINE
  5
3A7
100
AcDbEntity
  8
RUNDUNGEN
100
AcDbLine
 62
7
  6
CONTINUOUS
 10
720.7044008637
 20
109.2784464271
 11
720.7044008637
 21
148.9080300914
  0
LINE
  5
3A8
100
AcDbEntity
  8
0
100
AcDbLine
 62
7
  6
CONTINUOUS
 10
720.7044008637
 20
109.2784464271
 11
720.7044008637
 21
148.9080300914
  0
LINE
  5
3A9
100
AcDbEntity
  8
BEZUGSACHSEN
100
AcDbLine
 62
7
  6
CONTINUOUS
 10
722.2044008637
 20
146.4080300914
 11
722.2044008637
 21
1123.4080300914
  0
LINE
  5
3AA
100
AcDbEntity
  8
BEZUGSACHSEN
100
AcDbLine
 62
7
  6
CONTINUOUS
 10
734.2044008637
 20
146.4080300914
 11
734.2044008637
 21
1123.4080300914
  0
LINE
  5
3AB
100
AcDbEntity
  8
BEZUGSACHSEN
100
AcDbLine
 62
7
  6
CONTINUOUS
 10
736.7044008637
 20
103.9080300914
 11
736.7044008637
 21
95.9080300914
  0
LINE
  5
3AC
100
AcDbEntity
  8
0
100
AcDbLine
 62
7
  6
CONTINUOUS
 10
736.8979758984
 20
73.9519793695
 11
736.8979758984
 21
54.9080300914
  0
LINE
  5
3AD
100
AcDbEntity
  8
RUNDUNGEN
100
AcDbLine
 62
9
  6
CONTINUOUS
 10
737.20440068
 20
87.942783005
 11
737.2044013996
 21
81.9263601741
  0
LINE
  5
3AE
100
AcDbEntity
  8
RUNDUNGEN
100
AcDbLine
 62
7
  6
CONTINUOUS
 10
738.2044008637
 20
93.869914004
 11
738.2044008637
 21
54.9080300914
  0
LINE
  5
3AF
100
AcDbEntity
  8
BEZUGSACHSEN
100
AcDbLine
 62
7
  6
CONTINUOUS
 10
683.3746808655
 20
94.9232223384
 11
683.3590082091
 21
94.8343382873
  0
LINE
  5
3B0
100
AcDbEntity
  8
0
100
AcDbLine
 62
7
  6
CONTINUOUS
 10
683.5874417495
 20
661.9365013644
 11
683.2502522973
 21
662.1726039606
  0
LWPOLYLINE
  5
3B1
100
AcDbEntity
  8
RUNDUNGEN
100
AcDbPolyline
 62
7
  6
CONTINUOUS
 90
8
 70
0
 10
700.683979342
 20
109.0472333034
 10
700.6270546683
 20
108.797187333
 10
700.5067808144
 20
108.4759785879
 10
700.3058135418
 20
108.1177123186
 10
700.0113991975
 20
107.7532828485
 10
699.62695781
 20
107.4223839373
 10
699.1678507063
 20
107.1580501634
 10
698.6575008644
 20
106.9832389082
  0
LINE
  5
3B2
100
AcDbEntity
  8
0
100
AcDbLine
 62
7
  6
CONTINUOUS
 10
686.7044008637
 20
673.4080300914
 11
699.7044008637
 21
673.4080300914
  0
LINE
  5
3B3
100
AcDbEntity
  8
0
100
AcDbLine
 62
7
  6
CONTINUOUS
 10
687.2044008637
 20
675.9080300914
 11
699.2044008637
 21
675.9080300914
  0
LINE
  5
3B4
100
AcDbEntity
  8
FASEN
100
AcDbLine
 62
7
  6
CONTINUOUS
 10
684.5483290432
 20
95.9080300914
 11
683.3746808655
 21
94.9232223384
  0
LINE
  5
3B5
100
AcDbEntity
  8
BEZUGSACHSEN
100
AcDbLine
 62
7
  6
CONTINUOUS
 10
719.2044008637
 20
20.9080300914
 11
720.7044008637
 21
22.4080300914
  0
ARC
  5
3B6
100
AcDbEntity
  8
RUNDUNGEN
100
AcDbCircle
 62
7
  6
CONTINUOUS
 10
456.5267303618
 20
81.56525385
 40
11.3791499046
100
AcDbArc
 50
178.1814811196
 51
179.8195461461
  0
ARC
  5
3B7
100
AcDbEntity
  8
RUNDUNGEN
100
AcDbCircle
 62
7
  6
CONTINUOUS
 10
455.1482377091
 20
81.6080300914
 40
10.0
100
AcDbArc
 50
140.6930088088
 51
178.1757947985
  0
ARC
  5
3B8
100
AcDbEntity
  8
RUNDUNGEN
100
AcDbCircle
 62
7
  6
CONTINUOUS
 10
430.5169134705
 20
96.8312896189
 40
2.9999760107
100
AcDbArc
 50
359.9986793299
 51
41.9618386376
  0
ARC
  5
3B9
100
AcDbEntity
  8
RUNDUNGEN
100
AcDbCircle
 62
7
  6
CONTINUOUS
 10
451.0168405009
 20
58.6080300914
 40
2.0
100
AcDbArc
 50
180.0
 51
270.0
  0
ARC
  5
3BA
100
AcDbEntity
  8
RUNDUNGEN
100
AcDbCircle
 62
7
  6
CONTINUOUS
 10
451.0168405009
 20
84.6080300914
 40
2.0
100
AcDbArc
 50
90.0
 51
180.0
  0
ARC
  5
3BB
100
AcDbEntity
  8
0
100
AcDbCircle
 62
7
  6
CONTINUOUS
 10
448.0168405009
 20
673.4080300914
 40
6.5
100
AcDbArc
 50
157.380135052
 51
180.0
  0
ARC
  5
3BC
100
AcDbEntity
  8
0
100
AcDbCircle
 62
7
  6
CONTINUOUS
 10
459.5168405009
 20
122.9080300914
 40
36.0
100
AcDbArc
 50
119.1289629572
 51
221.9618888284
  0
ARC
  5
3BD
100
AcDbEntity
  8
0
100
AcDbCircle
 62
7
  6
CONTINUOUS
 10
459.5168405009
 20
122.9080300914
 40
36.0
100
AcDbArc
 50
318.0381111716
 51
60.8710370428
  0
ARC
  5
3BE
100
AcDbEntity
  8
0
100
AcDbCircle
 62
7
  6
CONTINUOUS
 10
459.5168405009
 20
122.9080300914
 40
16.0
100
AcDbArc
 50
180.0
 51
360.0
  0
ARC
  5
3BF
100
AcDbEntity
  8
RUNDUNGEN
100
AcDbCircle
 62
7
  6
CONTINUOUS
 10
462.5116179582
 20
81.5653523897
 40
11.3744841205
100
AcDbArc
 50
0.1800310053
 51
1.818714521
  0
ARC
  5
3C0
100
AcDbEntity
  8
RUNDUNGEN
100
AcDbCircle
 62
7
  6
CONTINUOUS
 10
463.8854432928
 20
81.6080300914
 40
10.0
100
AcDbArc
 50
1.824138958
 51
39.3069891446
  0
ARC
  5
3C1
100
AcDbEntity
  8
RUNDUNGEN
100
AcDbCircle
 62
7
  6
CONTINUOUS
 10
488.5167675304
 20
96.8312896206
 40
2.9999760102
100
AcDbArc
 50
138.0381613748
 51
180.001320703
  0
ARC
  5
3C2
100
AcDbEntity
  8
RUNDUNGEN
100
AcDbCircle
 62
7
  6
CONTINUOUS
 10
468.0168405009
 20
58.6080300914
 40
2.0
100
AcDbArc
 50
270.0
 51
360.0
  0
ARC
  5
3C3
100
AcDbEntity
  8
RUNDUNGEN
100
AcDbCircle
 62
7
  6
CONTINUOUS
 10
468.0168405009
 20
84.6080300914
 40
2.0
100
AcDbArc
 50
0.0
 51
90.0
  0
ARC
  5
3C4
100
AcDbEntity
  8
0
100
AcDbCircle
 62
7
  6
CONTINUOUS
 10
471.0168405009
 20
673.4080300914
 40
6.5
100
AcDbArc
 50
0.0
 51
22.619864948
  0
ARC
  5
3C5
100
AcDbEntity
  8
RUNDUNGEN
100
AcDbCircle
 62
9
  6
CONTINUOUS
 10
-2393.731159058
 20
-550.9544474825
 40
3193.3935346944
100
AcDbArc
 50
11.2869139516
 51
11.4218026595
  0
ARC
  5
3C6
100
AcDbEntity
  8
RUNDUNGEN
100
AcDbCircle
 62
9
  6
CONTINUOUS
 10
772.7248248961
 20
85.4810800526
 40
35.6978500981
100
AcDbArc
 50
185.714873377
 51
186.2397861798
  0
ARC
  5
3C7
100
AcDbEntity
  8
BEZUGSACHSEN
100
AcDbCircle
 62
7
  6
CONTINUOUS
 10
710.7044008637
 20
146.4080300914
 40
23.5
100
AcDbArc
 50
295.1904261277
 51
360.0
  0
ARC
  5
3C8
100
AcDbEntity
  8
BEZUGSACHSEN
100
AcDbCircle
 62
7
  6
CONTINUOUS
 10
710.7044008637
 20
146.4080300914
 40
23.5
100
AcDbArc
 50
180.0
 51
244.8095738723
  0
ARC
  5
3C9
100
AcDbEntity
  8
BEZUGSACHSEN
100
AcDbCircle
 62
7
  6
CONTINUOUS
 10
710.7044008637
 20
1123.4080300914
 40
23.5
100
AcDbArc
 50
0.0
 51
180.0
  0
ARC
  5
3CA
100
AcDbEntity
  8
0
100
AcDbCircle
 62
7
  6
CONTINUOUS
 10
666.7044008637
 20
673.4080300914
 40
20.0
100
AcDbArc
 50
325.821615884
 51
360.0
  0
ARC
  5
3CB
100
AcDbEntity
  8
0
100
AcDbCircle
 62
7
  6
CONTINUOUS
 10
667.2044008637
 20
673.4080300914
 40
20.0
100
AcDbArc
 50
325.0
 51
360.0
  0
ARC
  5
3CC
100
AcDbEntity
  8
BEZUGSACHSEN
100
AcDbCircle
 62
7
  6
CONTINUOUS
 10
710.7044008637
 20
146.4080300914
 40
11.5
100
AcDbArc
 50
330.4283885549
 51
360.0
  0
ARC
  5
3CD
100
AcDbEntity
  8
BEZUGSACHSEN
100
AcDbCircle
 62
7
  6
CONTINUOUS
 10
710.7044008637
 20
146.4080300914
 40
11.5
100
AcDbArc
 50
180.0
 51
209.5716114451
  0
ARC
  5
3CE
100
AcDbEntity
  8
BEZUGSACHSEN
100
AcDbCircle
 62
7
  6
CONTINUOUS
 10
710.7044008637
 20
1123.4080300914
 40
11.5
100
AcDbArc
 50
0.0
 51
180.0
  0
ARC
  5
3CF
100
AcDbEntity
  8
0
100
AcDbCircle
 62
7
  6
CONTINUOUS
 10
710.7044008637
 20
148.9080300914
 40
10.0
100
AcDbArc
 50
0.0
 51
180.0
  0
ARC
  5
3D0
100
AcDbEntity
  8
0
100
AcDbCircle
 62
7
  6
CONTINUOUS
 10
693.2044008637
 20
673.4080300914
 40
6.5
100
AcDbArc
 50
157.380135052
 51
180.0
  0
ARC
  5
3D1
100
AcDbEntity
  8
0
100
AcDbCircle
 62
7
  6
CONTINUOUS
 10
693.2044008637
 20
673.4080300914
 40
6.5
100
AcDbArc
 50
0.0
 51
22.619864948
  0
ARC
  5
3D2
100
AcDbEntity
  8
RUNDUNGEN
100
AcDbCircle
 62
7
  6
CONTINUOUS
 10
687.7044008637
 20
103.9080300914
 40
3.0
100
AcDbArc
 50
90.0
 51
180.0
  0
ARC
  5
3D3
100
AcDbEntity
  8
RUNDUNGEN
100
AcDbCircle
 62
7
  6
CONTINUOUS
 10
733.7044008637
 20
103.9080300914
 40
3.0
100
AcDbArc
 50
0.0
 51
90.0
  0
ARC
  5
3D4
100
AcDbEntity
  8
RUNDUNGEN
100
AcDbCircle
 62
7
  6
CONTINUOUS
 10
737.2044008637
 20
93.8699150651
 40
1.0
100
AcDbArc
 50
0.0000001831
 51
9.9980965379
  0
ARC
  5
3D5
100
AcDbEntity
  8
RUNDUNGEN
100
AcDbCircle
 62
7
  6
CONTINUOUS
 10
682.3742081587
 20
95.0080300815
 40
0.999999999
100
AcDbArc
 50
269.9999999985
 51
349.9999999389
  0
ARC
  5
3D6
100
AcDbEntity
  8
RUNDUNGEN
100
AcDbCircle
 62
7
  6
CONTINUOUS
 10
681.2044008637
 20
93.0080300914
 40
1.0
100
AcDbArc
 50
90.0
 51
180.0
  0
ARC
  5
3D7
100
AcDbEntity
  8
RUNDUNGEN
100
AcDbCircle
 62
7
  6
CONTINUOUS
 10
681.2044008637
 20
77.0080300914
 40
1.0
100
AcDbArc
 50
180.0
 51
270.0
  0
ARC
  5
3D8
100
AcDbEntity
  8
RUNDUNGEN
100
AcDbCircle
 62
9
  6
CONTINUOUS
 10
738.1512938274
 20
92.2040382081
 40
0.2302990396
100
AcDbArc
 50
83.1473879017
 51
84.8669526007
  0
SPLINE
  5
3D9
100
AcDbEntity
  8
RUNDUNGEN
100
AcDbSpline
 62
7
  6
CONTINUOUS
 70
0
 71
3
 72
17
 73
13
 74
0
 42
0.0000001
 43
0.0000001
 44
0.0000000001
 40
0.0
 40
0.0
 40
0.0
 40
0.0
 40
0.2578377256
 40
0.3866319798
 40
0.5151542907
 40
0.6429792993
 40
0.70629257
 40
0.7684820555
 40
0.8279597955
 40
0.883411434
 40
0.9407299572
 40
1.0
 40
1.0
 40
1.0
 40
1.0
 10
445.1482377091
 20
73.2061637996
 30
0.0
 10
445.1482375094
 20
73.3135929248
 30
0.0
 10
445.1437161759
 20
73.4747751023
 30
0.0
 10
445.1254226233
 20
73.688698714
 30
0.0
 10
445.1033937792
 20
73.8477367394
 30
0.0
 10
445.0751427886
 20
73.9781346175
 30
0.0
 10
445.0403768802
 20
74.0782160617
 30
0.0
 10
445.0058478809
 20
74.1467717619
 30
0.0
 10
444.9535867704
 20
74.2046242766
 30
0.0
 10
444.8752021134
 20
74.2110206445
 30
0.0
 10
444.8123140733
 20
74.1722833783
 30
0.0
 10
444.7767896543
 20
74.139334106
 30
0.0
 10
444.7597531163
 20
74.1214566224
 30
0.0
  0
SPLINE
  5
3DA
100
AcDbEntity
  8
RUNDUNGEN
100
AcDbSpline
 62
7
  6
CONTINUOUS
 70
0
 71
3
 72
17
 73
13
 74
0
 42
0.0000001
 43
0.0000001
 44
0.0000000001
 40
0.0
 40
0.0
 40
0.0
 40
0.0
 40
0.0592544805
 40
0.1166279184
 40
0.1722914626
 40
0.2316710985
 40
0.2938063278
 40
0.3571159527
 40
0.4849191851
 40
0.6134232077
 40
0.7421990331
 40
1.0
 40
1.0
 40
1.0
 40
1.0
 10
474.2739281147
 20
74.1214564066
 30
0.0
 10
474.256895143
 20
74.1393302512
 30
0.0
 10
474.2213195114
 20
74.1722301725
 30
0.0
 10
474.1584476036
 20
74.2112423191
 30
0.0
 10
474.0798838639
 20
74.2046228295
 30
0.0
 10
474.0278998841
 20
74.1465505547
 30
0.0
 10
473.993214905
 20
74.078156679
 30
0.0
 10
473.9585623468
 20
73.9780491803
 30
0.0
 10
473.9302632074
 20
73.8476871484
 30
0.0
 10
473.9082580362
 20
73.688655365
 30
0.0
 10
473.8899618982
 20
73.4747529568
 30
0.0
 10
473.8854430373
 20
73.3135836594
 30
0.0
 10
473.8854432928
 20
73.2061638049
 30
0.0
  0
SPLINE
  5
3DB
100
AcDbEntity
  8
RUNDUNGEN
100
AcDbSpline
 62
7
  6
CONTINUOUS
 70
0
 71
3
 72
9
 73
5
 74
0
 42
0.0000001
 43
0.0000001
 44
0.0000000001
 40
0.0
 40
0.0
 40
0.0
 40
0.0
 40
0.4887546402
 40
1.0
 40
1.0
 40
1.0
 40
1.0
 10
474.4123623269
 20
74.0634712028
 30
0.0
 10
474.3874104227
 20
74.0597930261
 30
0.0
 10
474.3330296313
 20
74.06842222
 30
0.0
 10
474.2921284589
 20
74.1023575726
 30
0.0
 10
474.2739281147
 20
74.1214564066
 30
0.0
  0
SPLINE
  5
3DC
100
AcDbEntity
  8
RUNDUNGEN
100
AcDbSpline
 62
7
  6
CONTINUOUS
 70
0
 71
3
 72
9
 73
5
 74
0
 42
0.0000001
 43
0.0000001
 44
0.0000000001
 40
0.0
 40
0.0
 40
0.0
 40
0.0
 40
0.5111597143
 40
1.0
 40
1.0
 40
1.0
 40
1.0
 10
444.7597531163
 20
74.1214566224
 30
0.0
 10
444.7415560342
 20
74.102361211
 30
0.0
 10
444.7006535947
 20
74.0684320508
 30
0.0
 10
444.6462746952
 20
74.0597924313
 30
0.0
 10
444.6213187106
 20
74.0634712099
 30
0.0
  0
SPLINE
  5
3DD
100
AcDbEntity
  8
RUNDUNGEN
100
AcDbSpline
 62
7
  6
CONTINUOUS
 70
0
 71
3
 72
9
 73
5
 74
0
 42
0.0000001
 43
0.0000001
 44
0.0000000001
 40
0.0
 40
0.0
 40
0.0
 40
0.0
 40
0.4991475155
 40
1.0
 40
1.0
 40
1.0
 40
1.0
 10
444.6213187106
 20
74.0634712099
 30
0.0
 10
444.3334134442
 20
74.1059115066
 30
0.0
 10
443.7458371302
 20
74.1306601496
 30
0.0
 10
443.1669486742
 20
74.0295995704
 30
0.0
 10
442.8854432928
 20
73.9519793695
 30
0.0
  0
SPLINE
  5
3DE
100
AcDbEntity
  8
BEZUGSACHSEN
100
AcDbSpline
 62
7
  6
CONTINUOUS
 70
0
 71
3
 72
35
 73
31
 74
0
 42
0.0000001
 43
0.0000001
 44
0.0000000001
 40
0.0
 40
0.0
 40
0.0
 40
0.0
 40
0.0696953358
 40
0.138852935
 40
0.2072606308
 40
0.2745594339
 40
0.3076048086
 40
0.3400800601
 40
0.37177835
 40
0.4023772326
 40
0.4313526353
 40
0.4578498958
 40
0.46982277
 40
0.4807681094
 40
0.490712913
 40
0.4999998561
 40
0.5092868356
 40
0.5192316789
 40
0.530176923
 40
0.5421499928
 40
0.5686473041
 40
0.5976227153
 40
0.6282215902
 40
0.6599198765
 40
0.6923951486
 40
0.7254405476
 40
0.7927393546
 40
0.8611470557
 40
0.930304661
 40
1.0
 40
1.0
 40
1.0
 40
1.0
 10
442.8854432928
 20
73.9519793695
 30
0.0
 10
442.6956630997
 20
74.9488289728
 30
0.0
 10
442.3062883543
 20
76.9327177484
 30
0.0
 10
441.6823071762
 20
79.8853313669
 30
0.0
 10
441.0098758209
 20
82.7915455063
 30
0.0
 10
440.3931962052
 20
85.1704251627
 30
0.0
 10
439.8519332086
 20
87.0271205286
 30
0.0
 10
439.4210437497
 20
88.3756617754
 30
0.0
 10
438.9567112121
 20
89.6753756444
 30
0.0
 10
438.4512643785
 20
90.9053502645
 30
0.0
 10
437.8953395824
 20
92.0294241324
 30
0.0
 10
437.3639729699
 20
92.8609518617
 30
0.0
 10
436.8839016376
 20
93.3993341517
 30
0.0
 10
436.5130847008
 20
93.705735442
 30
0.0
 10
436.117733734
 20
93.9083243208
 30
0.0
 10
435.7011482812
 20
93.9812679989
 30
0.0
 10
435.2845572892
 20
93.9083369222
 30
0.0
 10
434.8892136491
 20
93.7057344243
 30
0.0
 10
434.5183851027
 20
93.3993456837
 30
0.0
 10
434.0383196684
 20
92.8609532089
 30
0.0
 10
433.5069459604
 20
92.0294277787
 30
0.0
 10
432.951021936
 20
90.9053516693
 30
0.0
 10
432.4455735627
 20
89.6753780752
 30
0.0
 10
431.9812401531
 20
88.3756642582
 30
0.0
 10
431.5503506699
 20
87.0271224044
 30
0.0
 10
431.0090885902
 20
85.1704260275
 30
0.0
 10
430.3924078624
 20
82.7915461771
 30
0.0
 10
429.7199766834
 20
79.8853317532
 30
0.0
 10
429.0959954426
 20
76.9327179361
 30
0.0
 10
428.7066207029
 20
74.9488290196
 30
0.0
 10
428.5168405009
 20
73.9519793695
 30
0.0
  0
SPLINE
  5
3DF
100
AcDbEntity
  8
BEZUGSACHSEN
100
AcDbSpline
 62
7
  6
CONTINUOUS
 70
0
 71
3
 72
35
 73
31
 74
0
 42
0.0000001
 43
0.0000001
 44
0.0000000001
 40
0.0
 40
0.0
 40
0.0
 40
0.0
 40
0.0696953358
 40
0.138852935
 40
0.2072606308
 40
0.2745594339
 40
0.3076048086
 40
0.3400800601
 40
0.37177835
 40
0.4023772326
 40
0.4313526353
 40
0.4578498958
 40
0.46982277
 40
0.4807681094
 40
0.490712913
 40
0.4999998561
 40
0.5092868356
 40
0.5192316789
 40
0.530176923
 40
0.5421499928
 40
0.5686473041
 40
0.5976227153
 40
0.6282215902
 40
0.6599198765
 40
0.6923951486
 40
0.7254405476
 40
0.7927393546
 40
0.8611470557
 40
0.930304661
 40
1.0
 40
1.0
 40
1.0
 40
1.0
 10
490.5168405009
 20
73.9519793695
 30
0.0
 10
490.3270603079
 20
74.9488289728
 30
0.0
 10
489.9376855624
 20
76.9327177484
 30
0.0
 10
489.3137043843
 20
79.8853313669
 30
0.0
 10
488.641273029
 20
82.7915455063
 30
0.0
 10
488.0245934134
 20
85.1704251627
 30
0.0
 10
487.4833304167
 20
87.0271205286
 30
0.0
 10
487.0524409578
 20
88.3756617754
 30
0.0
 10
486.5881084203
 20
89.6753756444
 30
0.0
 10
486.0826615866
 20
90.9053502645
 30
0.0
 10
485.5267367905
 20
92.0294241324
 30
0.0
 10
484.9953701781
 20
92.8609518617
 30
0.0
 10
484.5152988457
 20
93.3993341517
 30
0.0
 10
484.1444819089
 20
93.705735442
 30
0.0
 10
483.7491309422
 20
93.9083243208
 30
0.0
 10
483.3325454893
 20
93.9812679989
 30
0.0
 10
482.9159544974
 20
93.9083369222
 30
0.0
 10
482.5206108572
 20
93.7057344243
 30
0.0
 10
482.1497823108
 20
93.3993456837
 30
0.0
 10
481.6697168765
 20
92.8609532089
 30
0.0
 10
481.1383431685
 20
92.0294277787
 30
0.0
 10
480.5824191442
 20
90.9053516693
 30
0.0
 10
480.0769707708
 20
89.6753780752
 30
0.0
 10
479.6126373612
 20
88.3756642582
 30
0.0
 10
479.181747878
 20
87.0271224044
 30
0.0
 10
478.6404857983
 20
85.1704260275
 30
0.0
 10
478.0238050705
 20
82.7915461771
 30
0.0
 10
477.3513738916
 20
79.8853317532
 30
0.0
 10
476.7273926507
 20
76.9327179361
 30
0.0
 10
476.338017911
 20
74.9488290196
 30
0.0
 10
476.1482377091
 20
73.9519793695
 30
0.0
  0
SPLINE
  5
3E0
100
AcDbEntity
  8
RUNDUNGEN
100
AcDbSpline
 62
7
  6
CONTINUOUS
 70
0
 71
3
 72
9
 73
5
 74
0
 42
0.0000001
 43
0.0000001
 44
0.0000000001
 40
0.0
 40
0.0
 40
0.0
 40
0.0
 40
0.5008524848
 40
1.0
 40
1.0
 40
1.0
 40
1.0
 10
476.1482377091
 20
73.9519793695
 30
0.0
 10
475.8667323331
 20
74.0295995689
 30
0.0
 10
475.2878438894
 20
74.1306601546
 30
0.0
 10
474.7002675874
 20
74.1059114987
 30
0.0
 10
474.4123623269
 20
74.0634712028
 30
0.0
  0
SPLINE
  5
3E1
100
AcDbEntity
  8
RUNDUNGEN
100
AcDbSpline
 62
9
  6
CONTINUOUS
 70
0
 71
3
 72
11
 73
7
 74
0
 42
0.0000001
 43
0.0000001
 44
0.0000000001
 40
0.0
 40
0.0
 40
0.0
 40
0.0
 40
0.1968722189
 40
0.4282738336
 40
0.7011482463
 40
1.0
 40
1.0
 40
1.0
 40
1.0
 10
738.2044008637
 20
87.3093084325
 30
0.0
 10
738.2044008633
 20
87.3940152104
 30
0.0
 10
738.1396623551
 20
87.5798109283
 30
0.0
 10
737.9049741111
 20
87.7826920418
 30
0.0
 10
737.5803249167
 20
87.9132034377
 30
0.0
 10
737.3329856344
 20
87.942782928
 30
0.0
 10
737.2044008637
 20
87.9427828492
 30
0.0
  0
SPLINE
  5
3E2
100
AcDbEntity
  8
RUNDUNGEN
100
AcDbSpline
 62
9
  6
CONTINUOUS
 70
0
 71
3
 72
16
 73
12
 74
0
 42
0.0000001
 43
0.0000001
 44
0.0000000001
 40
0.0
 40
0.0
 40
0.0
 40
0.0
 40
0.0057395938
 40
0.0204434888
 40
0.0444136021
 40
0.0775504275
 40
0.1699398873
 40
0.2941890577
 40
0.445443514
 40
0.6179938006
 40
1.0
 40
1.0
 40
1.0
 40
1.0
 10
738.2044008637
 20
81.8945296053
 30
0.0
 10
738.2044008608
 20
81.8964464554
 30
0.0
 10
738.1953107364
 20
81.898723938
 30
0.0
 10
738.1829940766
 20
81.9014162223
 30
0.0
 10
738.1579256218
 20
81.9042415167
 30
0.0
 10
738.108911367
 20
81.9084864336
 30
0.0
 10
738.0250719761
 20
81.9130196643
 30
0.0
 10
737.9025355123
 20
81.9175992825
 30
0.0
 10
737.7528553813
 20
81.9213827426
 30
0.0
 10
737.5172040078
 20
81.9252917577
 30
0.0
 10
737.3319793424
 20
81.9263588418
 30
0.0
 10
737.2044008637
 20
81.9263574174
 30
0.0
  0
LINE
  5
3E3
100
AcDbEntity
  8
RUNDUNGEN
100
AcDbLine
 62
9
  6
CONTINUOUS
 10
682.320933063
 20
85.007581722
 11
682.2044008637
 21
84.3841091497
  0
SPLINE
  5
3E4
100
AcDbEntity
  8
BEZUGSACHSEN
100
AcDbSpline
 62
7
  6
CONTINUOUS
 70
0
 71
3
 72
29
 73
25
 74
0
 42
0.0000001
 43
0.0000001
 44
0.0000000001
 40
0.0
 40
0.0
 40
0.0
 40
0.0
 40
0.0643696464
 40
0.1285855451
 40
0.1925879717
 40
0.2562772921
 40
0.319468196
 40
0.3507819532
 40
0.3818048587
 40
0.4124115182
 40
0.4424134732
 40
0.4715919432
 40
0.4999998081
 40
0.5284077371
 40
0.5575863716
 40
0.5875883951
 40
0.6181950732
 40
0.6492179842
 40
0.6805317479
 40
0.7437226876
 40
0.8074120147
 40
0.8714144467
 40
0.9356303508
 40
1.0
 40
1.0
 40
1.0
 40
1.0
 10
709.3979758984
 20
73.9519793695
 30
0.0
 10
709.0685564142
 20
74.9509837942
 30
0.0
 10
708.3920936836
 20
76.9406252701
 30
0.0
 10
707.3098852481
 20
79.89629503
 30
0.0
 10
706.1427370519
 20
82.8078864086
 30
0.0
 10
704.8630591065
 20
85.6537380519
 30
0.0
 10
703.6632454907
 20
87.9469506741
 30
0.0
 10
702.5826062618
 20
89.6917834882
 30
0.0
 10
701.6994487822
 20
90.9292442918
 30
0.0
 10
700.7208699058
 20
92.0665195966
 30
0.0
 10
699.6197441311
 20
93.0455565141
 30
0.0
 10
698.3648205022
 20
93.7663336058
 30
0.0
 10
696.9544103755
 20
94.0518280855
 30
0.0
 10
695.5439976393
 20
93.7663352717
 30
0.0
 10
694.2890661069
 20
93.0455618117
 30
0.0
 10
693.1879373079
 20
92.0665216131
 30
0.0
 10
692.2093565772
 20
90.9292461011
 30
0.0
 10
691.3261974508
 20
89.691785831
 30
0.0
 10
690.2455558263
 20
87.9469535367
 30
0.0
 10
689.0457444351
 20
85.6537387727
 30
0.0
 10
687.7660646078
 20
82.8078872081
 30
0.0
 10
686.5989165714
 20
79.8962954139
 30
0.0
 10
685.5167080564
 20
76.9406254602
 30
0.0
 10
684.840245328
 20
74.9509838387
 30
0.0
 10
684.5108258291
 20
73.9519793695
 30
0.0
  0
SPLINE
  5
3E5
100
AcDbEntity
  8
BEZUGSACHSEN
100
AcDbSpline
 62
7
  6
CONTINUOUS
 70
0
 71
3
 72
9
 73
5
 74
0
 42
0.0000001
 43
0.0000001
 44
0.0000000001
 40
0.0
 40
0.0
 40
0.0
 40
0.0
 40
0.5
 40
1.0
 40
1.0
 40
1.0
 40
1.0
 10
684.5108258291
 20
73.9519793695
 30
0.0
 10
684.3088185238
 20
74.0484545864
 30
0.0
 10
683.8576133464
 20
74.1675504453
 30
0.0
 10
683.406408169
 20
74.0484545864
 30
0.0
 10
683.2044008637
 20
73.9519793695
 30
0.0
  0
SPLINE
  5
3E6
100
AcDbEntity
  8
RUNDUNGEN
100
AcDbSpline
 62
9
  6
CONTINUOUS
 70
0
 71
3
 72
9
 73
5
 74
0
 42
0.0000001
 43
0.0000001
 44
0.0000000001
 40
0.0
 40
0.0
 40
0.0
 40
0.0
 40
0.4695612149
 40
1.0
 40
1.0
 40
1.0
 40
1.0
 10
737.20440068
 20
87.942783005
 30
0.0
 10
736.9991370798
 20
87.0183780902
 30
0.0
 10
736.7789715218
 20
84.9968753417
 30
0.0
 10
736.9906913931
 20
82.9744806222
 30
0.0
 10
737.2044013996
 20
81.9263601741
 30
0.0
  0
SPLINE
  5
3E7
100
AcDbEntity
  8
BEZUGSACHSEN
100
AcDbSpline
 62
7
  6
CONTINUOUS
 70
0
 71
3
 72
8
 73
4
 74
0
 42
0.0000001
 43
0.0000001
 44
0.0000000001
 40
0.0
 40
0.0
 40
0.0
 40
0.0
 40
1.0
 40
1.0
 40
1.0
 40
1.0
 10
710.7044113604
 20
74.1080307125
 30
0.0
 10
710.2658372012
 20
74.1080307125
 30
0.0
 10
709.8245565592
 20
74.0538431653
 30
0.0
 10
709.3979758984
 20
73.9519793695
 30
0.0
  0
SPLINE
  5
3E8
100
AcDbEntity
  8
BEZUGSACHSEN
100
AcDbSpline
 62
7
  6
CONTINUOUS
 70
0
 71
3
 72
8
 73
4
 74
0
 42
0.0000001
 43
0.0000001
 44
0.0000000001
 40
0.0
 40
0.0
 40
0.0
 40
0.0
 40
1.0
 40
1.0
 40
1.0
 40
1.0
 10
712.0108258291
 20
73.9519793695
 30
0.0
 10
711.5842519266
 20
74.0538415514
 30
0.0
 10
711.1429785712
 20
74.1080307125
 30
0.0
 10
710.7044113604
 20
74.1080307125
 30
0.0
  0
SPLINE
  5
3E9
100
AcDbEntity
  8
RUNDUNGEN
100
AcDbSpline
 62
9
  6
CONTINUOUS
 70
0
 71
3
 72
14
 73
10
 74
0
 42
0.0000001
 43
0.0000001
 44
0.0000000001
 40
0.0
 40
0.0
 40
0.0
 40
0.0
 40
0.0195583446
 40
0.0772324011
 40
0.1702898952
 40
0.2948209538
 40
0.4461098574
 40
0.6186133893
 40
1.0
 40
1.0
 40
1.0
 40
1.0
 10
682.3742081577
 20
94.0080300913
 30
0.0
 10
682.3844851748
 20
93.9498762991
 30
0.0
 10
682.4312197905
 20
93.7213763968
 30
0.0
 10
682.5185797235
 20
93.2146046078
 30
0.0
 10
682.6414740847
 20
92.3924721356
 30
0.0
 10
682.7562039233
 20
91.28410226
 30
0.0
 10
682.820695979
 20
89.931027604
 30
0.0
 10
682.7793126017
 20
87.800900006
 30
0.0
 10
682.5550494926
 20
86.1351008447
 30
0.0
 10
682.3209396348
 20
85.0075817193
 30
0.0
  0
LINE
  5
3EA
100
AcDbEntity
  8
RUNDUNGEN
100
AcDbLine
 62
9
  6
CONTINUOUS
 10
738.189236792
 20
94.0434234828
 11
738.18772334
 21
93.8171118737
  0
LINE
  5
3EB
100
AcDbEntity
  8
RUNDUNGEN
100
AcDbLine
 62
9
  6
CONTINUOUS
 10
738.18772334
 20
93.8171118737
 11
738.1787721215
 21
92.4326920753
  0
LINE
  5
3EC
100
AcDbEntity
  8
RUNDUNGEN
100
AcDbLine
 62
9
  6
CONTINUOUS
 10
683.3590159004
 20
94.834381906
 11
683.3653443923
 21
94.7958865529
  0
SPLINE
  5
3ED
100
AcDbEntity
  8
RUNDUNGEN
100
AcDbSpline
 62
9
  6
CONTINUOUS
 70
0
 71
3
 72
10
 73
6
 74
0
 42
0.0000001
 43
0.0000001
 44
0.0000000001
 40
0.0
 40
0.0
 40
0.0
 40
0.0
 40
0.3291372137
 40
0.6420566322
 40
1.0
 40
1.0
 40
1.0
 40
1.0
 10
683.3653443923
 20
94.7958865529
 30
0.0
 10
683.5420769575
 20
93.7122400438
 30
0.0
 10
683.7725837837
 20
91.5772843448
 30
0.0
 10
683.7505529182
 20
88.2352399285
 30
0.0
 10
683.4684441051
 20
86.008262511
 30
0.0
 10
683.2498623553
 20
84.8343819137
 30
0.0
  0
SPLINE
  5
3EE
100
AcDbEntity
  8
RUNDUNGEN
100
AcDbSpline
 62
9
  6
CONTINUOUS
 70
0
 71
3
 72
19
 73
15
 74
0
 42
0.0000001
 43
0.0000001
 44
0.0000000001
 40
0.0
 40
0.0
 40
0.0
 40
0.0
 40
0.0153524621
 40
0.0365665057
 40
0.065363591
 40
0.1020608757
 40
0.1464757
 40
0.1982303708
 40
0.2568640973
 40
0.3218795998
 40
0.4689048953
 40
0.6347870722
 40
0.8139901205
 40
1.0
 40
1.0
 40
1.0
 40
1.0
 10
738.1718984025
 20
92.4334136626
 30
0.0
 10
738.1128387264
 20
92.4387204477
 30
0.0
 10
737.9694238473
 20
92.3934029594
 30
0.0
 10
737.7786721952
 20
92.2249489532
 30
0.0
 10
737.5716992078
 20
91.9600527627
 30
0.0
 10
737.3538758732
 20
91.594848367
 30
0.0
 10
737.1289595466
 20
91.1330645063
 30
0.0
 10
736.904481958
 20
90.5784535346
 30
0.0
 10
736.6879078987
 20
89.9361242842
 30
0.0
 10
736.4093451203
 20
88.927991706
 30
0.0
 10
736.1392809231
 20
87.4902812922
 30
0.0
 10
735.9938666317
 20
85.591199922
 30
0.0
 10
736.0692397839
 20
83.5369613677
 30
0.0
 10
736.2777741859
 20
82.1385997849
 30
0.0
 10
736.4200570789
 20
81.4343819137
 30
0.0
  0
SPLINE
  5
3EF
100
AcDbEntity
  8
RUNDUNGEN
100
AcDbSpline
 62
9
  6
CONTINUOUS
 70
0
 71
3
 72
8
 73
4
 74
0
 42
0.0000001
 43
0.0000001
 44
0.0000000001
 40
0.0
 40
0.0
 40
0.0
 40
0.0
 40
1.0
 40
1.0
 40
1.0
 40
1.0
 10
738.2044013279
 20
92.2590410148
 30
0.0
 10
738.2043975447
 20
92.3175513563
 30
0.0
 10
738.1955248575
 20
92.3766335915
 30
0.0
 10
738.1787495299
 20
92.4326875697
 30
0.0
  0
SPLINE
  5
3F0
100
AcDbEntity
  8
RUNDUNGEN
100
AcDbSpline
 62
7
  6
CONTINUOUS
 70
0
 71
3
 72
9
 73
5
 74
0
 42
0.0000001
 43
0.0000001
 44
0.0000000001
 40
0.0
 40
0.0
 40
0.0
 40
0.0
 40
0.492692786
 40
1.0
 40
1.0
 40
1.0
 40
1.0
 10
737.9001840381
 20
74.0634712099
 30
0.0
 10
737.7371145725
 20
74.1051065463
 30
0.0
 10
737.3873926206
 20
74.1315292935
 30
0.0
 10
737.0543506684
 20
74.0266612719
 30
0.0
 10
736.8979758984
 20
73.9519793695
 30
0.0
  0
SPLINE
  5
3F1
100
AcDbEntity
  8
RUNDUNGEN
100
AcDbSpline
 62
9
  6
CONTINUOUS
 70
0
 71
3
 72
18
 73
14
 74
0
 42
0.0000001
 43
0.0000001
 44
0.0000000001
 40
0.0
 40
0.0
 40
0.0
 40
0.0
 40
0.0048381557
 40
0.0191271559
 40
0.0427509778
 40
0.0755487942
 40
0.1171906064
 40
0.1672709958
 40
0.2909556194
 40
0.441946266
 40
0.6147727804
 40
0.8032989506
 40
1.0
 40
1.0
 40
1.0
 40
1.0
 10
738.2044008717
 20
81.5941452914
 30
0.0
 10
738.2044012469
 20
81.595703239
 30
0.0
 10
738.1945958732
 20
81.5934784356
 30
0.0
 10
738.1843387678
 20
81.5966146224
 30
0.0
 10
738.1596023486
 20
81.5957645115
 30
0.0
 10
738.1288924938
 20
81.5970022026
 30
0.0
 10
738.0884713799
 20
81.5973492323
 30
0.0
 10
738.019263914
 20
81.5982709585
 30
0.0
 10
737.9145963426
 20
81.5990685388
 30
0.0
 10
737.7705364975
 20
81.5999284719
 30
0.0
 10
737.6055436349
 20
81.6005508765
 30
0.0
 10
737.4258476691
 20
81.6009618018
 30
0.0
 10
737.301798656
 20
81.6010725955
 30
0.0
 10
737.2384584177
 20
81.601087736
 30
0.0
  0
SPLINE
  5
3F2
100
AcDbEntity
  8
BEZUGSACHSEN
100
AcDbSpline
 62
7
  6
CONTINUOUS
 70
0
 71
3
 72
29
 73
25
 74
0
 42
0.0000001
 43
0.0000001
 44
0.0000000001
 40
0.0
 40
0.0
 40
0.0
 40
0.0
 40
0.0643696464
 40
0.1285855451
 40
0.1925879717
 40
0.2562772921
 40
0.319468196
 40
0.3507819532
 40
0.3818048587
 40
0.4124115182
 40
0.4424134732
 40
0.4715919432
 40
0.4999998081
 40
0.5284077371
 40
0.5575863716
 40
0.5875883951
 40
0.6181950732
 40
0.6492179842
 40
0.6805317479
 40
0.7437226876
 40
0.8074120147
 40
0.8714144467
 40
0.9356303508
 40
1.0
 40
1.0
 40
1.0
 40
1.0
 10
736.8979758984
 20
73.9519793695
 30
0.0
 10
736.5685564142
 20
74.9509837942
 30
0.0
 10
735.8920936836
 20
76.9406252701
 30
0.0
 10
734.8098852481
 20
79.89629503
 30
0.0
 10
733.6427370519
 20
82.8078864086
 30
0.0
 10
732.3630591065
 20
85.6537380519
 30
0.0
 10
731.1632454907
 20
87.9469506741
 30
0.0
 10
730.0826062618
 20
89.6917834882
 30
0.0
 10
729.1994487822
 20
90.9292442918
 30
0.0
 10
728.2208699058
 20
92.0665195966
 30
0.0
 10
727.1197441311
 20
93.0455565141
 30
0.0
 10
725.8648205022
 20
93.7663336058
 30
0.0
 10
724.4544103755
 20
94.0518280855
 30
0.0
 10
723.0439976393
 20
93.7663352717
 30
0.0
 10
721.7890661069
 20
93.0455618117
 30
0.0
 10
720.6879373079
 20
92.0665216131
 30
0.0
 10
719.7093565772
 20
90.9292461011
 30
0.0
 10
718.8261974508
 20
89.691785831
 30
0.0
 10
717.7455558263
 20
87.9469535367
 30
0.0
 10
716.5457444351
 20
85.6537387727
 30
0.0
 10
715.2660646078
 20
82.8078872081
 30
0.0
 10
714.0989165714
 20
79.8962954139
 30
0.0
 10
713.0167080564
 20
76.9406254602
 30
0.0
 10
712.340245328
 20
74.9509838387
 30
0.0
 10
712.0108258291
 20
73.9519793695
 30
0.0
  0
SPLINE
  5
3F3
100
AcDbEntity
  8
RUNDUNGEN
100
AcDbSpline
 62
9
  6
CONTINUOUS
 70
0
 71
3
 72
9
 73
5
 74
0
 42
0.0000001
 43
0.0000001
 44
0.0000000001
 40
0.0
 40
0.0
 40
0.0
 40
0.0
 40
0.2923658636
 40
1.0
 40
1.0
 40
1.0
 40
1.0
 10
738.1787495867
 20
92.432687075
 30
0.0
 10
738.1741405007
 20
92.4087220805
 30
0.0
 10
738.1547787937
 20
92.3274255233
 30
0.0
 10
738.1270149869
 20
92.2485528662
 30
0.0
 10
738.1071428586
 20
92.1929288112
 30
0.0
  0
SPLINE
  5
3F4
100
AcDbEntity
  8
RUNDUNGEN
100
AcDbSpline
 62
9
  6
CONTINUOUS
 70
0
 71
3
 72
12
 73
8
 74
0
 42
0.0000001
 43
0.0000001
 44
0.0000000001
 40
0.0
 40
0.0
 40
0.0
 40
0.0
 40
0.0672087382
 40
0.1489715883
 40
0.3645964878
 40
0.6495694698
 40
1.0
 40
1.0
 40
1.0
 40
1.0
 10
738.1071428586
 20
92.1929288112
 30
0.0
 10
738.0743241698
 20
92.1010660509
 30
0.0
 10
738.000259259
 20
91.897899547
 30
0.0
 10
737.8393683707
 20
91.3936065137
 30
0.0
 10
737.6276666133
 20
90.5746297751
 30
0.0
 10
737.3870330217
 20
89.3625137002
 30
0.0
 10
737.2597917638
 20
88.4483840443
 30
0.0
 10
737.2044005091
 20
87.9427819658
 30
0.0
  0
SPLINE
  5
3F5
100
AcDbEntity
  8
RUNDUNGEN
100
AcDbSpline
 62
7
  6
CONTINUOUS
 70
0
 71
3
 72
9
 73
5
 74
0
 42
0.0000001
 43
0.0000001
 44
0.0000000001
 40
0.0
 40
0.0
 40
0.0
 40
0.0
 40
0.5727584616
 40
1.0
 40
1.0
 40
1.0
 40
1.0
 10
737.9801091795
 20
74.1214566224
 30
0.0
 10
737.9705072999
 20
74.1040046648
 30
0.0
 10
737.9526647424
 20
74.0729077709
 30
0.0
 10
737.9145805142
 20
74.0597954616
 30
0.0
 10
737.9001840381
 20
74.0634712099
 30
0.0
  0
SPLINE
  5
3F6
100
AcDbEntity
  8
RUNDUNGEN
100
AcDbSpline
 62
9
  6
CONTINUOUS
 70
0
 71
3
 72
9
 73
5
 74
0
 42
0.0000001
 43
0.0000001
 44
0.0000000001
 40
0.0
 40
0.0
 40
0.0
 40
0.0
 40
0.250445155
 40
1.0
 40
1.0
 40
1.0
 40
1.0
 10
737.2384579463
 20
81.6010924655
 30
0.0
 10
737.3007596105
 20
80.9767181627
 30
0.0
 10
737.5491160525
 20
78.4836195115
 30
0.0
 10
737.7959048514
 20
75.9903647622
 30
0.0
 10
737.9801096336
 20
74.1214571847
 30
0.0
  0
SPLINE
  5
3F7
100
AcDbEntity
  8
RUNDUNGEN
100
AcDbSpline
 62
9
  6
CONTINUOUS
 70
0
 71
3
 72
8
 73
4
 74
0
 42
0.0000001
 43
0.0000001
 44
0.0000000001
 40
0.0
 40
0.0
 40
0.0
 40
0.0
 40
1.0
 40
1.0
 40
1.0
 40
1.0
 10
683.1641792776
 20
76.3270780255
 30
0.0
 10
683.1717738571
 20
76.2895803878
 30
0.0
 10
683.1849597021
 20
76.2528490381
 30
0.0
 10
683.202738708
 20
76.2189719452
 30
0.0
  0
SPLINE
  5
3F8
100
AcDbEntity
  8
RUNDUNGEN
100
AcDbSpline
 62
9
  6
CONTINUOUS
 70
0
 71
3
 72
11
 73
7
 74
0
 42
0.0000001
 43
0.0000001
 44
0.0000000001
 40
0.0
 40
0.0
 40
0.0
 40
0.0
 40
0.2780489862
 40
0.5504117784
 40
0.8015336299
 40
1.0
 40
1.0
 40
1.0
 40
1.0
 10
682.2044008637
 20
76.0080300914
 30
0.0
 10
682.2998951076
 20
76.0080300914
 30
0.0
 10
682.4892023497
 20
76.0249736004
 30
0.0
 10
682.7570587978
 20
76.0948311981
 30
0.0
 10
682.9842705498
 20
76.1930642744
 30
0.0
 10
683.1181538955
 20
76.2768014188
 30
0.0
 10
683.1641792382
 20
76.3270780172
 30
0.0
  0
LINE
  5
3F9
100
AcDbEntity
  8
RUNDUNGEN
100
AcDbLine
 62
7
  6
CONTINUOUS
 10
683.1496941571
 20
84.2965426177
 11
682.2044008637
 21
84.3841091497
  0
SPLINE
  5
3FA
100
AcDbEntity
  8
RUNDUNGEN
100
AcDbSpline
 62
9
  6
CONTINUOUS
 70
0
 71
3
 72
9
 73
5
 74
0
 42
0.0000001
 43
0.0000001
 44
0.0000000001
 40
0.0
 40
0.0
 40
0.0
 40
0.0
 40
0.7637239301
 40
1.0
 40
1.0
 40
1.0
 40
1.0
 10
683.1641792382
 20
76.3270780172
 30
0.0
 10
683.1729553118
 20
76.3366715059
 30
0.0
 10
683.1766814436
 20
76.3455137036
 30
0.0
 10
683.2044004637
 20
76.3604811741
 30
0.0
 10
683.2044008636
 20
76.3564586681
 30
0.0
  0
SPLINE
  5
3FB
100
AcDbEntity
  8
RUNDUNGEN
100
AcDbSpline
 62
7
  6
CONTINUOUS
 70
0
 71
3
 72
11
 73
7
 74
0
 42
0.0000001
 43
0.0000001
 44
0.0000000001
 40
0.0
 40
0.0
 40
0.0
 40
0.0
 40
0.1504039099
 40
0.399530595
 40
0.690070279
 40
1.0
 40
1.0
 40
1.0
 40
1.0
 10
683.1496941571
 20
84.2965426177
 30
0.0
 10
683.1667844434
 20
84.2949594243
 30
0.0
 10
683.1882449743
 20
84.2396927592
 30
0.0
 10
683.1969648618
 20
84.168883246
 30
0.0
 10
683.203724568
 20
84.0693813722
 30
0.0
 10
683.2044008637
 20
84.0015048547
 30
0.0
 10
683.2044008637
 20
83.9661369802
 30
0.0
  0
LINE
  5
3FC
100
AcDbEntity
  8
RUNDUNGEN
100
AcDbLine
 62
9
  6
CONTINUOUS
 10
683.2498623553
 20
84.8343819137
 11
683.1496941574
 21
84.2965426175
  0
SPLINE
  5
3FD
100
AcDbEntity
  8
RUNDUNGEN
100
AcDbSpline
 62
7
  6
CONTINUOUS
 70
0
 71
3
 72
21
 73
17
 74
0
 42
0.0000001
 43
0.0000001
 44
0.0000000001
 40
0.0
 40
0.0
 40
0.0
 40
0.0
 40
0.1392300159
 40
0.2783145878
 40
0.4170210123
 40
0.5548654612
 40
0.6231313366
 40
0.6905346866
 40
0.7562666636
 40
0.8182104655
 40
0.8460675519
 40
0.8699884064
 40
0.8888374841
 40
0.9065695131
 40
0.9490956534
 40
1.0
 40
1.0
 40
1.0
 40
1.0
 10
738.2044008637
 20
73.2061637996
 30
0.0
 10
738.2044008061
 20
73.2598911605
 30
0.0
 10
738.2035041362
 20
73.3672920767
 30
0.0
 10
738.1991641585
 20
73.5281692843
 30
0.0
 10
738.1912246632
 20
73.6883741087
 30
0.0
 10
738.1807107948
 20
73.8210604207
 30
0.0
 10
738.1686265634
 20
73.9259162281
 30
0.0
 10
738.1572756209
 20
74.0028450948
 30
0.0
 10
738.1423649096
 20
74.0766039069
 30
0.0
 10
738.1261177556
 20
74.1346873708
 30
0.0
 10
738.1071942237
 20
74.1743932664
 30
0.0
 10
738.0914080583
 20
74.196943943
 30
0.0
 10
738.0698140163
 20
74.2093206328
 30
0.0
 10
738.037974102
 20
74.2030098831
 30
0.0
 10
738.0083591082
 20
74.1688211197
 30
0.0
 10
737.9895782586
 20
74.1386671194
 30
0.0
 10
737.9801091795
 20
74.1214566224
 30
0.0
  0
SPLINE
  5
3FE
100
AcDbEntity
  8
RUNDUNGEN
100
AcDbSpline
 62
9
  6
CONTINUOUS
 70
0
 71
3
 72
11
 73
7
 74
0
 42
0.0000001
 43
0.0000001
 44
0.0000000001
 40
0.0
 40
0.0
 40
0.0
 40
0.0
 40
0.2513311142
 40
0.5007099029
 40
0.7494769445
 40
1.0
 40
1.0
 40
1.0
 40
1.0
 10
710.7044008637
 20
98.837128903
 30
0.0
 10
709.779765317
 20
98.8372157229
 30
0.0
 10
707.9252140314
 20
99.1094927098
 30
0.0
 10
705.4067417376
 20
100.3426996482
 30
0.0
 10
703.4245345672
 20
102.3235137676
 30
0.0
 10
702.5549001756
 20
103.9682014714
 30
0.0
 10
702.212619453
 20
104.8239503327
 30
0.0
  0
SPLINE
  5
3FF
100
AcDbEntity
  8
RUNDUNGEN
100
AcDbSpline
 62
9
  6
CONTINUOUS
 70
0
 71
3
 72
9
 73
5
 74
0
 42
0.0000001
 43
0.0000001
 44
0.0000000001
 40
0.0
 40
0.0
 40
0.0
 40
0.0
 40
0.6616397526
 40
1.0
 40
1.0
 40
1.0
 40
1.0
 10
698.3817433517
 20
106.5932382592
 30
0.0
 10
698.3093595201
 20
106.6726238706
 30
0.0
 10
698.2049511781
 20
106.783302432
 30
0.0
 10
698.0704476607
 20
106.9080369158
 30
0.0
 10
698.0155076472
 20
106.908030089
 30
0.0
  0
SPLINE
  5
400
100
AcDbEntity
  8
RUNDUNGEN
100
AcDbSpline
 62
9
  6
CONTINUOUS
 70
0
 71
3
 72
9
 73
5
 74
0
 42
0.0000001
 43
0.0000001
 44
0.0000000001
 40
0.0
 40
0.0
 40
0.0
 40
0.0
 40
0.5895446378
 40
1.0
 40
1.0
 40
1.0
 40
1.0
 10
700.8063032332
 20
103.9088735985
 30
0.0
 10
700.3566549179
 20
104.459432409
 30
0.0
 10
699.5215405214
 20
105.3314968553
 30
0.0
 10
698.7154222797
 20
106.2277372763
 30
0.0
 10
698.3817433517
 20
106.5932382592
 30
0.0
  0
SPLINE
  5
401
100
AcDbEntity
  8
RUNDUNGEN
100
AcDbSpline
 62
9
  6
CONTINUOUS
 70
0
 71
3
 72
9
 73
5
 74
0
 42
0.0000001
 43
0.0000001
 44
0.0000000001
 40
0.0
 40
0.0
 40
0.0
 40
0.0
 40
0.4170561104
 40
1.0
 40
1.0
 40
1.0
 40
1.0
 10
702.2129539477
 20
104.8240710269
 30
0.0
 10
702.0434524804
 20
104.6632319894
 30
0.0
 10
701.5806355753
 20
104.340557767
 30
0.0
 10
701.0955362623
 20
104.061298959
 30
0.0
 10
700.8071230101
 20
103.9080301099
 30
0.0
  0
SPLINE
  5
402
100
AcDbEntity
  8
RUNDUNGEN
100
AcDbSpline
 62
9
  6
CONTINUOUS
 70
0
 71
3
 72
9
 73
5
 74
0
 42
0.0000001
 43
0.0000001
 44
0.0000000001
 40
0.0
 40
0.0
 40
0.0
 40
0.0
 40
0.4170209103
 40
1.0
 40
1.0
 40
1.0
 40
1.0
 10
719.1961379797
 20
104.8239662672
 30
0.0
 10
719.3656015252
 20
104.663166194
 30
0.0
 10
719.8283436868
 20
104.3405338153
 30
0.0
 10
720.3133598158
 20
104.0612963071
 30
0.0
 10
720.6017420233
 20
103.908030108
 30
0.0
  0
SPLINE
  5
403
100
AcDbEntity
  8
RUNDUNGEN
100
AcDbSpline
 62
9
  6
CONTINUOUS
 70
0
 71
3
 72
11
 73
7
 74
0
 42
0.0000001
 43
0.0000001
 44
0.0000000001
 40
0.0
 40
0.0
 40
0.0
 40
0.0
 40
0.3163021379
 40
0.6037066843
 40
0.8399436926
 40
1.0
 40
1.0
 40
1.0
 40
1.0
 10
702.212619453
 20
104.8239503327
 30
0.0
 10
702.0275890356
 20
105.2857696084
 30
0.0
 10
701.661299056
 20
106.161448671
 30
0.0
 10
701.1681309712
 20
107.3888314175
 30
0.0
 10
700.8355961209
 20
108.4092080033
 30
0.0
 10
700.7043762066
 20
109.0266961642
 30
0.0
 10
700.7044008637
 20
109.2784464271
 30
0.0
  0
SPLINE
  5
404
100
AcDbEntity
  8
RUNDUNGEN
100
AcDbSpline
 62
9
  6
CONTINUOUS
 70
0
 71
3
 72
11
 73
7
 74
0
 42
0.0000001
 43
0.0000001
 44
0.0000000001
 40
0.0
 40
0.0
 40
0.0
 40
0.0
 40
0.2525836581
 40
0.502414849
 40
0.7505785138
 40
1.0
 40
1.0
 40
1.0
 40
1.0
 10
710.7044008637
 20
96.8312204706
 30
0.0
 10
709.6176947704
 20
96.8315001992
 30
0.0
 10
707.4401235431
 20
97.1705848049
 30
0.0
 10
704.5187914645
 20
98.6715189719
 30
0.0
 10
702.2329266317
 20
101.0050893464
 30
0.0
 10
701.2119334341
 20
102.9152540324
 30
0.0
 10
700.806635395
 20
103.9088736528
 30
0.0
  0
SPLINE
  5
405
100
AcDbEntity
  8
RUNDUNGEN
100
AcDbSpline
 62
9
  6
CONTINUOUS
 70
0
 71
3
 72
9
 73
5
 74
0
 42
0.0000001
 43
0.0000001
 44
0.0000000001
 40
0.0
 40
0.0
 40
0.0
 40
0.0
 40
0.4104554364
 40
1.0
 40
1.0
 40
1.0
 40
1.0
 10
723.0270583758
 20
106.5932382592
 30
0.0
 10
722.6934125748
 20
106.227711253
 30
0.0
 10
721.8872504803
 20
105.3315217582
 30
0.0
 10
721.05214998
 20
104.459453937
 30
0.0
 10
720.6025143918
 20
103.9088907895
 30
0.0
  0
SPLINE
  5
406
100
AcDbEntity
  8
RUNDUNGEN
100
AcDbSpline
 62
9
  6
CONTINUOUS
 70
0
 71
3
 72
11
 73
7
 74
0
 42
0.0000001
 43
0.0000001
 44
0.0000000001
 40
0.0
 40
0.0
 40
0.0
 40
0.0
 40
0.1600561068
 40
0.3962929495
 40
0.6836987254
 40
1.0
 40
1.0
 40
1.0
 40
1.0
 10
720.7044008637
 20
109.2784464271
 30
0.0
 10
720.7044234123
 20
109.0266964761
 30
0.0
 10
720.5732074272
 20
108.4092087697
 30
0.0
 10
720.2406681718
 20
107.3888316788
 30
0.0
 10
719.7475113086
 20
106.1614444276
 30
0.0
 10
719.3812116687
 20
105.2857685625
 30
0.0
 10
719.1961822745
 20
104.8239503326
 30
0.0
  0
SPLINE
  5
407
100
AcDbEntity
  8
RUNDUNGEN
100
AcDbSpline
 62
9
  6
CONTINUOUS
 70
0
 71
3
 72
9
 73
5
 74
0
 42
0.0000001
 43
0.0000001
 44
0.0000000001
 40
0.0
 40
0.0
 40
0.0
 40
0.0
 40
0.3383584355
 40
1.0
 40
1.0
 40
1.0
 40
1.0
 10
723.3932964565
 20
106.9080300896
 30
0.0
 10
723.3383564586
 20
106.9080360754
 30
0.0
 10
723.2038479048
 20
106.7833090551
 30
0.0
 10
723.0994474157
 20
106.6726202566
 30
0.0
 10
723.0270583758
 20
106.5932382592
 30
0.0
  0
SPLINE
  5
408
100
AcDbEntity
  8
RUNDUNGEN
100
AcDbSpline
 62
9
  6
CONTINUOUS
 70
0
 71
3
 72
11
 73
7
 74
0
 42
0.0000001
 43
0.0000001
 44
0.0000000001
 40
0.0
 40
0.0
 40
0.0
 40
0.0
 40
0.2494213222
 40
0.4975848085
 40
0.747416819
 40
1.0
 40
1.0
 40
1.0
 40
1.0
 10
720.6021754335
 20
103.9088908461
 30
0.0
 10
720.1968548371
 20
102.9152803898
 30
0.0
 10
719.1759283517
 20
101.0050756515
 30
0.0
 10
716.8899760411
 20
98.6715827219
 30
0.0
 10
713.9686893136
 20
97.1705735278
 30
0.0
 10
711.7911056515
 20
96.8315094555
 30
0.0
 10
710.7044008637
 20
96.8312204706
 30
0.0
  0
SPLINE
  5
409
100
AcDbEntity
  8
RUNDUNGEN
100
AcDbSpline
 62
9
  6
CONTINUOUS
 70
0
 71
3
 72
11
 73
7
 74
0
 42
0.0000001
 43
0.0000001
 44
0.0000000001
 40
0.0
 40
0.0
 40
0.0
 40
0.0
 40
0.2505227577
 40
0.4992892993
 40
0.7486686936
 40
1.0
 40
1.0
 40
1.0
 40
1.0
 10
719.1961822745
 20
104.8239503326
 30
0.0
 10
718.8538908609
 20
103.9682067563
 30
0.0
 10
717.984282076
 20
102.3235086453
 30
0.0
 10
716.0020558129
 20
100.3427122387
 30
0.0
 10
713.4835961378
 20
99.1094808773
 30
0.0
 10
711.6290372772
 20
98.8372131748
 30
0.0
 10
710.7044008637
 20
98.837128903
 30
0.0
  0
ENDSEC
  0
SECTION
  2
OBJECTS
  0
DICTIONARY
  5
C
100
AcDbDictionary
280
0
281
1
  3
ACAD_GROUP
350
D
  3
ACAD_MLINESTYLE
350
17
  3
ACAD_LAYOUT
350
1A
  3
ACAD_PLOTSETTINGS
350
19
  3
ACAD_PLOTSTYLENAME
350
E
  0
DICTIONARY
  5
D
102
{ACAD_REACTORS
330
C
102
}
100
AcDbDictionary
280
0
281
1
  0
ACDBDICTIONARYWDFLT
  5
E
102
{ACAD_REACTORS
330
C
102
}
100
AcDbDictionary
281
1
  3
Normal
350
F
100
AcDbDictionaryWithDefault
340
F
  0
DICTIONARY
  5
17
102
{ACAD_REACTORS
330
C
102
}
100
AcDbDictionary
280
0
281
1
  3
Standard
350
18
  0
DICTIONARY
  5
19
102
{ACAD_REACTORS
330
C
102
}
100
AcDbDictionary
281
1
  0
DICTIONARY
  5
1A
102
{ACAD_REACTORS
330
C
102
}
100
AcDbDictionary
281
1
  3
Model
350
40A
  3
Layout1
350
40B
  0
ACDBPLACEHOLDER
  5
F
102
{ACAD_REACTORS
330
E
102
}
  0
MLINESTYLE
  5
18
102
{ACAD_REACTORS
330
17
102
}
100
AcDbMlineStyle
  2
STANDARD
 70
0
  3

 62
256
 51
90.0
 52
90.0
 71
2
 49
0.5
 62
256
  6
BYLAYER
 49
-0.5
 62
256
  6
BYLAYER
  0
LAYOUT
  5
40A
102
{ACAD_REACTORS
330
1A
102
}
100
AcDbPlotSettings
  1

  2
none_device
  4
ISO_A0_(1189.00_x_841.00_MM)
  6

 40
0.0
 41
0.0
 42
0.0
 43
0.0
 44
1189.0
 45
841.0
 46
0.0
 47
0.0
 48
0.0
 49
0.0
140
0.0
141
0.0
142
1.0
143
1.0
 70
1024
 72
1
 73
0
 74
0
  7

 75
0
147
1.0
148
0.0
149
0.0
100
AcDbLayout
  1
Model
 70
0
 71
0
 10
0.0
 20
0.0
 11
1189.0
 21
841.0
 12
0.0
 22
0.0
 32
0.0
 14
0.0
 24
0.0
 34
0.0
 15
0.0
 25
0.0
 35
0.0
146
0.0
 13
0.0
 23
0.0
 33
0.0
 16
1.0
 26
0.0
 36
0.0
 17
0.0
 27
1.0
 37
0.0
 76
0
330
212
345
0
346
0
  0
LAYOUT
  5
40B
102
{ACAD_REACTORS
330
1A
102
}
100
AcDbPlotSettings
  1

  2
none_device
  4
ISO_A0_(1189.00_x_841.00_MM)
  6

 40
0.0
 41
0.0
 42
0.0
 43
0.0
 44
1189.0
 45
841.0
 46
0.0
 47
0.0
 48
0.0
 49
0.0
140
0.0
141
0.0
142
1.0
143
1.0
 70
0
 72
1
 73
0
 74
0
  7

 75
0
147
1.0
148
0.0
149
0.0
100
AcDbLayout
  1
Layout1
 70
0
 71
1
 10
0.0
 20
0.0
 11
1189.0
 21
841.0
 12
0.0
 22
0.0
 32
0.0
 14
0.0
 24
0.0
 34
0.0
 15
0.0
 25
0.0
 35
0.0
146
0.0
 13
0.0
 23
0.0
 33
0.0
 16
1.0
 26
0.0
 36
0.0
 17
0.0
 27
1.0
 37
0.0
 76
0
330
213
345
0
346
0
  0
ENDSEC
  0
EOF
