999
DXF file: 001-m36305-p-1.dxf
999
Pro/ENGINEER 2011490 by Parametric Technology Corporation
  0
SECTION
  2
HEADER
  9
$ACADVER
  1
AC1015
  9
$DWGCODEPAGE
  3
ANSI_1252
  9
$EXTMAX
 10
1189.0
 20
841.0
 30
0.0
  9
$EXTMIN
 10
0.0
 20
0.0
 30
0.0
  9
$LIMMIN
 10
0.0
 20
0.0
  9
$LIMMAX
 10
1189.0
 20
841.0
  9
$VIEWCTR
 10
594.5
 20
420.5
  9
$VIEWSIZE
 40
841.0
  9
$CLAYER
  8
0
  9
$LTSCALE
 40
65.395
  9
$CELTYPE
  6
BYLAYER
  9
$DIMSCALE
 40
1.0
  9
$DIMASZ
 40
3.5
  9
$DIMEXO
 40
7.43125
  9
$DIMDLI
 40
45.182
  9
$DIMEXE
 40
21.402
  9
$DIMCEN
 40
10.701
  9
$DIMLFAC
 40
1.0
  9
$DIMBLK
  1
_FILLED
  9
$DIMTXT
 40
3.5
  9
$DIMTOL
 70
1
  9
$DIMLIM
 70
0
  9
$DIMTFAC
 40
1.0
  9
$DIMTP
 40
0.005
  9
$DIMTM
 40
0.005
  9
$PDMODE
 70
3
  9
$PDSIZE
 40
0.3125
  9
$HANDSEED
  5
40C
  9
$TILEMODE
 70
1
  9
$MEASUREMENT
 70
1
  9
$INSUNITS
 70
4
  0
ENDSEC
  0
SECTION
  2
CLASSES
  0
CLASS
  1
ACDBDICTIONARYWDFLT
  2
AcDbDictionaryWithDefault
  3
AutoCAD 2000
 90
0
280
0
281
0
  0
CLASS
  1
ACDBPLACEHOLDER
  2
AcDbPlaceHolder
  3
AutoCAD 2000
 90
0
280
0
281
0
  0
CLASS
  1
LAYOUT
  2
AcDbLayout
  3
AutoCAD 2000
 90
0
280
0
281
0
  0
ENDSEC
  0
SECTION
  2
TABLES
  0
TABLE
  2
VPORT
  5
8
100
AcDbSymbolTable
 70
2
  0
VPORT
  5
1F4
100
AcDbSymbolTableRecord
100
AcDbViewportTableRecord
  2
*ACTIVE
 70
0
 10
0.0
 20
0.0
 11
1.0
 21
1.0
 12
594.5
 22
420.5
 13
0.0
 23
0.0
 14
1.0
 24
1.0
 15
0.0
 25
0.0
 16
0.0
 26
0.0
 36
1.0
 17
0.0
 27
0.0
 37
0.0
 40
841.0
 41
1.4137931034
 42
50.0
 43
0.0
 44
0.0
 50
0.0
 51
0.0
 71
0
 72
100
 73
1
 74
1
 75
0
 76
0
 77
0
 78
0
  0
ENDTAB
  0
TABLE
  2
LTYPE
  5
5
100
AcDbSymbolTable
 70
6
  0
LTYPE
  5
14
100
AcDbSymbolTableRecord
100
AcDbLinetypeTableRecord
  2
BYBLOCK
 70
0
  3

 72
65
 73
0
 40
0.0
  0
LTYPE
  5
15
100
AcDbSymbolTableRecord
100
AcDbLinetypeTableRecord
  2
BYLAYER
 70
0
  3

 72
65
 73
0
 40
0.0
  0
LTYPE
  5
16
100
AcDbSymbolTableRecord
100
AcDbLinetypeTableRecord
  2
CONTINUOUS
 70
64
  3
Solid line
 72
65
 73
0
 40
0.0
  0
LTYPE
  5
1F5
100
AcDbSymbolTableRecord
100
AcDbLinetypeTableRecord
  2
CENTER
 70
64
  3
____ _ ____ _ ____ _ ____ _ ____ _ ____ _ ____
 72
65
 73
4
 40
0.6
 49
0.375
 74
0
 49
-0.075
 74
0
 49
0.075
 74
0
 49
-0.075
 74
0
  0
LTYPE
  5
1F6
100
AcDbSymbolTableRecord
100
AcDbLinetypeTableRecord
  2
HIDDEN
 70
64
  3
- - - - - - - - - - - - - - - - - - - -
 72
65
 73
2
 40
0.2
 49
0.1
 74
0
 49
-0.1
 74
0
  0
LTYPE
  5
1F7
100
AcDbSymbolTableRecord
100
AcDbLinetypeTableRecord
  2
PHANTOM
 70
64
  3
_____ _ _ _____ _ _ _____ _ _ _____
 72
65
 73
6
 40
0.8
 49
0.45
 74
0
 49
-0.05
 74
0
 49
0.1
 74
0
 49
-0.05
 74
0
 49
0.1
 74
0
 49
-0.05
 74
0
  0
LTYPE
  5
1F8
100
AcDbSymbolTableRecord
100
AcDbLinetypeTableRecord
  2
DOT
 70
64
  3
. . . . . . . . . . . . . . . . . . . .
 72
65
 73
2
 40
0.2
 49
0.1
 74
0
 49
-0.1
 74
0
  0
LTYPE
  5
1F9
100
AcDbSymbolTableRecord
100
AcDbLinetypeTableRecord
  2
DASHED
 70
64
  3
- - - - - - - - - - - - - - - - - - - -
 72
65
 73
2
 40
0.2
 49
0.1
 74
0
 49
-0.1
 74
0
  0
ENDTAB
  0
TABLE
  2
LAYER
  5
2
100
AcDbSymbolTable
 70
36
  0
LAYER
  5
10
100
AcDbSymbolTableRecord
100
AcDbLayerTableRecord
  2
0
 70
0
 62
7
  6
CONTINUOUS
370
-3
390
F
  0
LAYER
  5
1FA
100
AcDbSymbolTableRecord
100
AcDbLayerTableRecord
  2
DEFAULT_1
 70
0
 62
7
  6
CENTER
370
-3
390
F
  0
LAYER
  5
1FB
100
AcDbSymbolTableRecord
100
AcDbLayerTableRecord
  2
DEFAULT_2
 70
0
 62
8
  6
HIDDEN
370
-3
390
F
  0
LAYER
  5
1FC
100
AcDbSymbolTableRecord
100
AcDbLayerTableRecord
  2
DEFAULT_3
 70
0
 62
7
  6
PHANTOM
370
-3
390
F
  0
LAYER
  5
1FD
100
AcDbSymbolTableRecord
100
AcDbLayerTableRecord
  2
AUSFORMSCHRAEGEN
 70
0
 62
7
  6
CONTINUOUS
370
-3
390
F
  0
LAYER
  5
1FE
100
AcDbSymbolTableRecord
100
AcDbLayerTableRecord
  2
BEZUGSACHSEN
 70
0
 62
7
  6
CONTINUOUS
370
-3
390
F
  0
LAYER
  5
1FF
100
AcDbSymbolTableRecord
100
AcDbLayerTableRecord
  2
BEZUGSEBENEN
 70
0
 62
7
  6
CONTINUOUS
370
-3
390
F
  0
LAYER
  5
200
100
AcDbSymbolTableRecord
100
AcDbLayerTableRecord
  2
BEZUGSPUNKTE
 70
0
 62
7
  6
CONTINUOUS
370
-3
390
F
  0
LAYER
  5
201
100
AcDbSymbolTableRecord
100
AcDbLayerTableRecord
  2
BG_STARTBEZUEGE
 70
0
 62
7
  6
CONTINUOUS
370
-3
390
F
  0
LAYER
  5
202
100
AcDbSymbolTableRecord
100
AcDbLayerTableRecord
  2
FASEN
 70
0
 62
7
  6
CONTINUOUS
370
-3
390
F
  0
LAYER
  5
203
100
AcDbSymbolTableRecord
100
AcDbLayerTableRecord
  2
FLAECHEN
 70
0
 62
7
  6
CONTINUOUS
370
-3
390
F
  0
LAYER
  5
204
100
AcDbSymbolTableRecord
100
AcDbLayerTableRecord
  2
FLAECHENVERBUND
 70
0
 62
7
  6
CONTINUOUS
370
-3
390
F
  0
LAYER
  5
205
100
AcDbSymbolTableRecord
100
AcDbLayerTableRecord
  2
GEWINDE
 70
0
 62
7
  6
CONTINUOUS
370
-3
390
F
  0
LAYER
  5
206
100
AcDbSymbolTableRecord
100
AcDbLayerTableRecord
  2
HILFEN
 70
0
 62
7
  6
CONTINUOUS
370
-3
390
F
  0
LAYER
  5
207
100
AcDbSymbolTableRecord
100
AcDbLayerTableRecord
  2
KONSTRUKTIONSELEMENTE
 70
0
 62
7
  6
CONTINUOUS
370
-3
390
F
  0
LAYER
  5
208
100
AcDbSymbolTableRecord
100
AcDbLayerTableRecord
  2
KURVEN
 70
0
 62
7
  6
CONTINUOUS
370
-3
390
F
  0
LAYER
  5
209
100
AcDbSymbolTableRecord
100
AcDbLayerTableRecord
  2
NORM
 70
0
 62
7
  6
CONTINUOUS
370
-3
390
F
  0
LAYER
  5
20A
100
AcDbSymbolTableRecord
100
AcDbLayerTableRecord
  2
PLATZIERUNG
 70
0
 62
7
  6
CONTINUOUS
370
-3
390
F
  0
LAYER
  5
20B
100
AcDbSymbolTableRecord
100
AcDbLayerTableRecord
  2
PLAZIERUNG
 70
0
 62
7
  6
CONTINUOUS
370
-3
390
F
  0
LAYER
  5
20C
100
AcDbSymbolTableRecord
100
AcDbLayerTableRecord
  2
RUNDUNGEN
 70
0
 62
7
  6
CONTINUOUS
370
-3
390
F
  0
LAYER
  5
20D
100
AcDbSymbolTableRecord
100
AcDbLayerTableRecord
  2
TEIL_STARTBEZUEGE
 70
0
 62
7
  6
CONTINUOUS
370
-3
390
F
  0
LAYER
  5
20E
100
AcDbSymbolTableRecord
100
AcDbLayerTableRecord
  2
T_STARTBEZUEGE
 70
0
 62
7
  6
CONTINUOUS
370
-3
390
F
  0
LAYER
  5
20F
100
AcDbSymbolTableRecord
100
AcDbLayerTableRecord
  2
ZEICHNUNGSBEMASSUNGEN
 70
0
 62
7
  6
CONTINUOUS
370
-3
390
F
  0
ENDTAB
  0
TABLE
  2
STYLE
  5
3
100
AcDbSymbolTable
 70
1
  0
STYLE
  5
11
100
AcDbSymbolTableRecord
100
AcDbTextStyleTableRecord
  2
STANDARD
 70
0
 40
0.0
 41
0.7
 50
0.0
 71
0
 42
0.2
  3
txt
  4

  0
STYLE
  5
210
100
AcDbSymbolTableRecord
100
AcDbTextStyleTableRecord
  2
TEXTSTYLE_1
 70
0
 40
0.0
 41
0.8
 50
0.0
 71
0
 42
0.2
  3
gdt
  4

  0
ENDTAB
  0
TABLE
  2
VIEW
  5
6
100
AcDbSymbolTable
 70
0
  0
ENDTAB
  0
TABLE
  2
UCS
  5
7
100
AcDbSymbolTable
 70
0
  0
ENDTAB
  0
TABLE
  2
APPID
  5
9
100
AcDbSymbolTable
 70
1
  0
APPID
  5
211
100
AcDbSymbolTableRecord
100
AcDbRegAppTableRecord
  2
ACAD
 70
0
  0
ENDTAB
  0
TABLE
  2
BLOCK_RECORD
  5
1
100
AcDbSymbolTable
 70
0
  0
BLOCK_RECORD
  5
212
100
AcDbSymbolTableRecord
100
AcDbBlockTableRecord
  2
*Model_Space
  0
BLOCK_RECORD
  5
213
100
AcDbSymbolTableRecord
100
AcDbBlockTableRecord
  2
*Paper_Space
  0
ENDTAB
  0
TABLE
  2
DIMSTYLE
  5
A
100
AcDbSymbolTable
 70
1
100
AcDbDimStyleTable
 71
0
  0
DIMSTYLE
105
214
100
AcDbSymbolTableRecord
100
AcDbDimStyleTableRecord
  2
STANDARD
 70
0
  3

  4

 40
1.0
 41
3.5
 42
0.0625
 43
0.38
 44
0.18
 45
0.0
 46
0.0
 47
0.005
 48
0.005
140
3.5
141
0.09
142
0.0
143
25.4
144
1.0
145
0.0
146
1.0
147
0.09
 71
1.0
 72
0.0
 73
0
 74
0
 75
0
 76
0
 77
1
 78
8
170
0
171
2
172
0
173
0
174
0
175
0
176
0
177
0
178
5
270
2
271
3
272
3
273
2
274
2
275
0
280
0
281
0
282
0
283
1
284
8
285
0
286
0
287
3
288
0
340
11
  0
ENDTAB
  0
ENDSEC
  0
SECTION
  2
BLOCKS
  0
BLOCK
  5
20
100
AcDbEntity
  8
0
100
AcDbBlockBegin
  2
*Model_Space
 70
0
 10
0.0
 20
0.0
 30
0.0
  3
*Model_Space
  1

  0
ENDBLK
  5
21
100
AcDbEntity
  8
0
100
AcDbBlockEnd
  0
BLOCK
  5
1C
100
AcDbEntity
  8
0
100
AcDbBlockBegin
  2
*Paper_Space
 70
0
 10
0.0
 20
0.0
 30
0.0
  3
*Paper_Space
  1

  0
ENDBLK
  5
1D
100
AcDbEntity
  8
0
100
AcDbBlockEnd
  0
ENDSEC
  0
SECTION
  2
ENTITIES
  0
LINE
  5
215
100
AcDbEntity
  8
0
100
AcDbLine
 62
7
  6
CONTINUOUS
 10
0.0
 20
0.0
 11
0.0
 21
841.0
  0
LINE
  5
216
100
AcDbEntity
  8
0
100
AcDbLine
 62
7
  6
CONTINUOUS
 10
0.0
 20
0.0
 11
1189.0
 21
0.0
  0
LINE
  5
217
100
AcDbEntity
  8
0
100
AcDbLine
 62
7
  6
CONTINUOUS
 10
0.0
 20
841.0
 11
1189.0
 21
841.0
  0
LINE
  5
218
100
AcDbEntity
  8
0
100
AcDbLine
 62
7
  6
CONTINUOUS
 10
1189.0
 20
0.0
 11
1189.0
 21
841.0
  0
LINE
  5
219
100
AcDbEntity
  8
BEZUGSACHSEN
100
AcDbLine
 62
7
  6
CONTINUOUS
 10
398.8024943589
 20
50.1044692138
 11
415.8020774836
 21
50.1044692138
  0
LINE
  5
21A
100
AcDbEntity
  8
BEZUGSACHSEN
100
AcDbLine
 62
7
  6
CONTINUOUS
 10
397.3022859212
 20
51.6044692138
 11
417.3022859212
 21
51.6044692138
  0
LINE
  5
21B
100
AcDbEntity
  8
0
100
AcDbLine
 62
7
  6
CONTINUOUS
 10
438.3022859212
 20
84.1044692138
 11
376.3022859212
 21
84.1044692138
  0
LINE
  5
21C
100
AcDbEntity
  8
RUNDUNGEN
100
AcDbLine
 62
7
  6
CONTINUOUS
 10
415.8022859212
 20
85.8044692138
 11
398.8022859212
 21
85.8044692138
  0
LINE
  5
21D
100
AcDbEntity
  8
KONSTRUKTIONSELEMENTE
100
AcDbLine
 62
7
  6
CONTINUOUS
 10
402.2022859212
 20
86.8044692138
 11
407.6022859212
 21
86.8044692138
  0
LINE
  5
21E
100
AcDbEntity
  8
KONSTRUKTIONSELEMENTE
100
AcDbLine
 62
7
  6
CONTINUOUS
 10
407.6022859212
 20
87.7619160423
 11
403.402285957
 21
87.7619160423
  0
LINE
  5
21F
100
AcDbEntity
  8
KONSTRUKTIONSELEMENTE
100
AcDbLine
 62
7
  6
CONTINUOUS
 10
408.8022860643
 20
92.1661712387
 11
410.0022862073
 21
92.1661712387
  0
LINE
  5
220
100
AcDbEntity
  8
KONSTRUKTIONSELEMENTE
100
AcDbLine
 62
7
  6
CONTINUOUS
 10
410.7522859212
 20
92.1661712387
 11
412.4022856351
 21
92.1661712387
  0
LINE
  5
221
100
AcDbEntity
  8
KONSTRUKTIONSELEMENTE
100
AcDbLine
 62
7
  6
CONTINUOUS
 10
403.852285957
 20
94.6555331805
 11
404.6022859928
 21
94.8470225194
  0
LINE
  5
222
100
AcDbEntity
  8
0
100
AcDbLine
 62
7
  6
CONTINUOUS
 10
414.1522854444
 20
99.9280862179
 11
413.6522859212
 21
99.8004266587
  0
LINE
  5
223
100
AcDbEntity
  8
0
100
AcDbLine
 62
7
  6
CONTINUOUS
 10
408.1522861597
 20
99.9280862179
 11
407.6522859212
 21
99.8004266587
  0
LINE
  5
224
100
AcDbEntity
  8
0
100
AcDbLine
 62
7
  6
CONTINUOUS
 10
413.6522859212
 20
99.0344692138
 11
414.2772863981
 21
99.1621287842
  0
LINE
  5
225
100
AcDbEntity
  8
0
100
AcDbLine
 62
7
  6
CONTINUOUS
 10
407.6522859212
 20
99.0344692138
 11
408.2772856828
 21
99.1621287842
  0
LINE
  5
226
100
AcDbEntity
  8
KONSTRUKTIONSELEMENTE
100
AcDbLine
 62
7
  6
CONTINUOUS
 10
404.7522858497
 20
95.8044692138
 11
403.7022858855
 21
95.6129798749
  0
LINE
  5
227
100
AcDbEntity
  8
KONSTRUKTIONSELEMENTE
100
AcDbLine
 62
7
  6
CONTINUOUS
 10
412.4022856351
 20
92.9321285942
 11
410.7522859212
 21
92.9321285942
  0
LINE
  5
228
100
AcDbEntity
  8
KONSTRUKTIONSELEMENTE
100
AcDbLine
 62
7
  6
CONTINUOUS
 10
410.0022862073
 20
92.9321285942
 11
408.8022860643
 21
92.9321285942
  0
LINE
  5
229
100
AcDbEntity
  8
KONSTRUKTIONSELEMENTE
100
AcDbLine
 62
7
  6
CONTINUOUS
 10
402.3522859257
 20
93.6980864862
 11
403.1022859212
 21
93.6980864862
  0
LINE
  5
22A
100
AcDbEntity
  8
KONSTRUKTIONSELEMENTE
100
AcDbLine
 62
7
  6
CONTINUOUS
 10
410.7522859212
 20
94.4640438417
 11
410.0022862073
 21
94.4640438417
  0
LINE
  5
22B
100
AcDbEntity
  8
KONSTRUKTIONSELEMENTE
100
AcDbLine
 62
7
  6
CONTINUOUS
 10
404.6022859928
 20
94.8470225194
 11
405.2022858497
 21
94.8470225194
  0
LINE
  5
22C
100
AcDbEntity
  8
KONSTRUKTIONSELEMENTE
100
AcDbLine
 62
7
  6
CONTINUOUS
 10
405.3522859212
 20
95.8044692138
 11
404.7522858497
 21
95.8044692138
  0
LINE
  5
22D
100
AcDbEntity
  8
0
100
AcDbLine
 62
7
  6
CONTINUOUS
 10
399.4022859212
 20
99.0344692138
 11
400.1522859212
 21
99.0344692138
  0
LINE
  5
22E
100
AcDbEntity
  8
0
100
AcDbLine
 62
7
  6
CONTINUOUS
 10
403.277285802
 20
99.0344692138
 11
404.1522860405
 21
99.0344692138
  0
LINE
  5
22F
100
AcDbEntity
  8
0
100
AcDbLine
 62
7
  6
CONTINUOUS
 10
407.1522856828
 20
99.0344692138
 11
407.6522859212
 21
99.0344692138
  0
LINE
  5
230
100
AcDbEntity
  8
0
100
AcDbLine
 62
7
  6
CONTINUOUS
 10
410.6522859212
 20
99.0344692138
 11
413.6522859212
 21
99.0344692138
  0
LINE
  5
231
100
AcDbEntity
  8
0
100
AcDbLine
 62
7
  6
CONTINUOUS
 10
413.6522859212
 20
99.8004266587
 11
411.4022859212
 21
99.8004266587
  0
LINE
  5
232
100
AcDbEntity
  8
0
100
AcDbLine
 62
7
  6
CONTINUOUS
 10
407.6522859212
 20
99.8004266587
 11
407.1522856828
 21
99.8004266587
  0
LINE
  5
233
100
AcDbEntity
  8
0
100
AcDbLine
 62
7
  6
CONTINUOUS
 10
400.1522859212
 20
101.7153203157
 11
402.2772858616
 21
101.7153203157
  0
LINE
  5
234
100
AcDbEntity
  8
0
100
AcDbLine
 62
7
  6
CONTINUOUS
 10
402.527285802
 20
102.4812776712
 11
400.1522859212
 21
102.4812776712
  0
LINE
  5
235
100
AcDbEntity
  8
0
100
AcDbLine
 62
7
  6
CONTINUOUS
 10
411.4022859212
 20
104.2685118583
 11
413.6522859212
 21
104.2685118583
  0
LINE
  5
236
100
AcDbEntity
  8
0
100
AcDbLine
 62
7
  6
CONTINUOUS
 10
400.1522859212
 20
104.3961714175
 11
402.527285802
 21
104.3961714175
  0
LINE
  5
237
100
AcDbEntity
  8
0
100
AcDbLine
 62
7
  6
CONTINUOUS
 10
413.6522859212
 20
105.0344692138
 11
410.6522859212
 21
105.0344692138
  0
LINE
  5
238
100
AcDbEntity
  8
0
100
AcDbLine
 62
7
  6
CONTINUOUS
 10
409.6522861597
 20
105.0344692138
 11
408.9022861597
 21
105.0344692138
  0
LINE
  5
239
100
AcDbEntity
  8
0
100
AcDbLine
 62
7
  6
CONTINUOUS
 10
405.9022861597
 20
105.0344692138
 11
405.152285802
 21
105.0344692138
  0
LINE
  5
23A
100
AcDbEntity
  8
0
100
AcDbLine
 62
7
  6
CONTINUOUS
 10
402.4022859212
 20
105.0344692138
 11
399.4022859212
 21
105.0344692138
  0
LINE
  5
23B
100
AcDbEntity
  8
0
100
AcDbLine
 62
7
  6
CONTINUOUS
 10
406.5272859212
 20
99.1621287842
 11
407.1522856828
 21
99.0344692138
  0
LINE
  5
23C
100
AcDbEntity
  8
0
100
AcDbLine
 62
7
  6
CONTINUOUS
 10
403.0272860405
 20
104.9068096545
 11
402.4022859212
 21
105.0344692138
  0
LINE
  5
23D
100
AcDbEntity
  8
0
100
AcDbLine
 62
7
  6
CONTINUOUS
 10
414.2772863981
 20
104.9068096545
 11
413.6522859212
 21
105.0344692138
  0
LINE
  5
23E
100
AcDbEntity
  8
KONSTRUKTIONSELEMENTE
100
AcDbLine
 62
7
  6
CONTINUOUS
 10
411.2022859212
 20
86.9959585694
 11
412.1022859212
 21
86.8044692138
  0
LINE
  5
23F
100
AcDbEntity
  8
KONSTRUKTIONSELEMENTE
100
AcDbLine
 62
7
  6
CONTINUOUS
 10
406.2522859212
 20
95.6129798749
 11
405.3522859212
 21
95.8044692138
  0
LINE
  5
240
100
AcDbEntity
  8
KONSTRUKTIONSELEMENTE
100
AcDbLine
 62
7
  6
CONTINUOUS
 10
412.1022859212
 20
87.5704266363
 11
411.3522862073
 21
87.7619160423
  0
LINE
  5
241
100
AcDbEntity
  8
KONSTRUKTIONSELEMENTE
100
AcDbLine
 62
7
  6
CONTINUOUS
 10
405.2022858497
 20
94.8470225194
 11
405.9522857782
 21
94.6555331805
  0
LINE
  5
242
100
AcDbEntity
  8
0
100
AcDbLine
 62
7
  6
CONTINUOUS
 10
407.1522856828
 20
99.8004266587
 11
406.6522861597
 21
99.9280862179
  0
LINE
  5
243
100
AcDbEntity
  8
KONSTRUKTIONSELEMENTE
100
AcDbLine
 62
7
  6
CONTINUOUS
 10
410.7522859212
 20
87.1874479251
 11
411.2022859212
 21
86.9959585694
  0
LINE
  5
244
100
AcDbEntity
  8
RUNDUNGEN
100
AcDbLine
 62
7
  6
CONTINUOUS
 10
398.8022859212
 20
115.8044692138
 11
415.8022859212
 21
115.8044692138
  0
LINE
  5
245
100
AcDbEntity
  8
FASEN
100
AcDbLine
 62
7
  6
CONTINUOUS
 10
434.6320059195
 20
124.1196614608
 11
379.972565923
 21
124.1196614608
  0
LINE
  5
246
100
AcDbEntity
  8
FASEN
100
AcDbLine
 62
7
  6
CONTINUOUS
 10
433.4583577418
 20
125.1044692138
 11
381.1462141007
 21
125.1044692138
  0
LINE
  5
247
100
AcDbEntity
  8
0
100
AcDbLine
 62
7
  6
CONTINUOUS
 10
413.6522859212
 20
104.2685118583
 11
414.1522854444
 21
104.140852299
  0
LINE
  5
248
100
AcDbEntity
  8
0
100
AcDbLine
 62
7
  6
CONTINUOUS
 10
402.527285802
 20
104.3961714175
 11
402.902285802
 21
104.2685118583
  0
LINE
  5
249
100
AcDbEntity
  8
0
100
AcDbLine
 62
7
  6
CONTINUOUS
 10
406.0272856828
 20
99.4174479362
 11
406.5272859212
 21
99.1621287842
  0
LINE
  5
24A
100
AcDbEntity
  8
RUNDUNGEN
100
AcDbLine
 62
7
  6
CONTINUOUS
 10
388.1190748572
 20
136.1044692138
 11
426.4855087347
 21
136.1044692138
  0
LINE
  5
24B
100
AcDbEntity
  8
0
100
AcDbLine
 62
7
  6
CONTINUOUS
 10
391.3022859212
 20
152.1044692138
 11
423.3022859212
 21
152.1044692138
  0
LINE
  5
24C
100
AcDbEntity
  8
0
100
AcDbLine
 62
7
  6
CONTINUOUS
 10
414.7772859212
 20
104.651490536
 11
414.2772863981
 21
104.9068096545
  0
LINE
  5
24D
100
AcDbEntity
  8
KONSTRUKTIONSELEMENTE
100
AcDbLine
 62
7
  6
CONTINUOUS
 10
406.8522857782
 20
95.2300011972
 11
406.2522859212
 21
95.6129798749
  0
LINE
  5
24E
100
AcDbEntity
  8
0
100
AcDbLine
 62
7
  6
CONTINUOUS
 10
406.6522861597
 20
99.9280862179
 11
406.2772861597
 21
100.1834054258
  0
LINE
  5
24F
100
AcDbEntity
  8
0
100
AcDbLine
 62
7
  6
CONTINUOUS
 10
414.1522854444
 20
104.140852299
 11
414.5272854444
 21
103.8855331805
  0
LINE
  5
250
100
AcDbEntity
  8
0
100
AcDbLine
 62
7
  6
CONTINUOUS
 10
403.5272859212
 20
104.5238309768
 11
403.0272860405
 21
104.9068096545
  0
LINE
  5
251
100
AcDbEntity
  8
KONSTRUKTIONSELEMENTE
100
AcDbLine
 62
7
  6
CONTINUOUS
 10
410.3022859212
 20
87.5704266363
 11
410.7522859212
 21
87.1874479251
  0
LINE
  5
252
100
AcDbEntity
  8
BEZUGSACHSEN
100
AcDbLine
 62
7
  6
CONTINUOUS
 10
398.8022859212
 20
50.1044692138
 11
397.3022859212
 21
51.6044692138
  0
LINE
  5
253
100
AcDbEntity
  8
KONSTRUKTIONSELEMENTE
100
AcDbLine
 62
7
  6
CONTINUOUS
 10
411.3522862073
 20
87.7619160423
 11
410.9022862073
 21
88.14489472
  0
LINE
  5
254
100
AcDbEntity
  8
KONSTRUKTIONSELEMENTE
100
AcDbLine
 62
7
  6
CONTINUOUS
 10
405.9522857782
 20
94.6555331805
 11
406.4022857782
 21
94.2725545028
  0
LINE
  5
255
100
AcDbEntity
  8
FASEN
100
AcDbLine
 62
7
  6
CONTINUOUS
 10
433.4583577417
 20
125.1044692139
 11
434.6320059193
 21
124.1196614609
  0
LINE
  5
256
100
AcDbEntity
  8
0
100
AcDbLine
 62
7
  6
CONTINUOUS
 10
405.5272861597
 20
99.9280862179
 11
406.0272856828
 21
99.4174479362
  0
LINE
  5
257
100
AcDbEntity
  8
0
100
AcDbLine
 62
7
  6
CONTINUOUS
 10
402.902285802
 20
104.2685118583
 11
403.1522859212
 21
104.0131927398
  0
LINE
  5
258
100
AcDbEntity
  8
0
100
AcDbLine
 62
7
  6
CONTINUOUS
 10
415.2772854444
 20
104.140852299
 11
414.7772859212
 21
104.651490536
  0
LINE
  5
259
100
AcDbEntity
  8
KONSTRUKTIONSELEMENTE
100
AcDbLine
 62
7
  6
CONTINUOUS
 10
407.4522860643
 20
94.4640438417
 11
406.8522857782
 21
95.2300011972
  0
LINE
  5
25A
100
AcDbEntity
  8
0
100
AcDbLine
 62
7
  6
CONTINUOUS
 10
403.3129239496
 20
217.9169692138
 11
411.2916471478
 21
217.9169692138
  0
LINE
  5
25B
100
AcDbEntity
  8
0
100
AcDbLine
 62
7
  6
CONTINUOUS
 10
403.9022859212
 20
104.0131927398
 11
403.5272859212
 21
104.5238309768
  0
LINE
  5
25C
100
AcDbEntity
  8
0
100
AcDbLine
 62
7
  6
CONTINUOUS
 10
406.2772861597
 20
100.1834054258
 11
406.0272856828
 21
100.5663841036
  0
LINE
  5
25D
100
AcDbEntity
  8
0
100
AcDbLine
 62
7
  6
CONTINUOUS
 10
419.8022859212
 20
548.6461363771
 11
407.5682433363
 21
539.7919692138
  0
LINE
  5
25E
100
AcDbEntity
  8
0
100
AcDbLine
 62
7
  6
CONTINUOUS
 10
404.9086691853
 20
538.2294692138
 11
394.8022859212
 21
530.9378035405
  0
LINE
  5
25F
100
AcDbEntity
  8
0
100
AcDbLine
 62
7
  6
CONTINUOUS
 10
409.6959026572
 20
538.2294692138
 11
419.8022859212
 21
545.521134887
  0
LINE
  5
260
100
AcDbEntity
  8
0
100
AcDbLine
 62
7
  6
CONTINUOUS
 10
394.8022859212
 20
527.8128035405
 11
407.5682433363
 21
536.6669692138
  0
LINE
  5
261
100
AcDbEntity
  8
0
100
AcDbLine
 62
7
  6
CONTINUOUS
 10
415.5469672796
 20
508.0211378673
 11
413.951222789
 21
507.5003005603
  0
LINE
  5
262
100
AcDbEntity
  8
0
100
AcDbLine
 62
7
  6
CONTINUOUS
 10
413.951222789
 20
504.3753005603
 11
415.5469672796
 21
504.8961378673
  0
LINE
  5
263
100
AcDbEntity
  8
0
100
AcDbLine
 62
7
  6
CONTINUOUS
 10
413.4193064686
 20
221.5627945998
 11
411.2916471478
 21
221.0419692138
  0
LINE
  5
264
100
AcDbEntity
  8
0
100
AcDbLine
 62
7
  6
CONTINUOUS
 10
411.2916471478
 20
217.9169692138
 11
413.951222789
 21
218.4377945998
  0
LINE
  5
265
100
AcDbEntity
  8
0
100
AcDbLine
 62
7
  6
CONTINUOUS
 10
411.2916471478
 20
221.0419692138
 11
403.3129239496
 21
221.0419692138
  0
LINE
  5
266
100
AcDbEntity
  8
0
100
AcDbLine
 62
7
  6
CONTINUOUS
 10
397.993775275
 20
235.6252945998
 11
416.61079694
 21
235.6252945998
  0
LINE
  5
267
100
AcDbEntity
  8
0
100
AcDbLine
 62
7
  6
CONTINUOUS
 10
419.8022859212
 20
238.7502945998
 11
394.8022859212
 21
238.7502945998
  0
LINE
  5
268
100
AcDbEntity
  8
0
100
AcDbLine
 62
7
  6
CONTINUOUS
 10
400.6533497986
 20
218.4377945998
 11
403.3129239496
 21
217.9169692138
  0
LINE
  5
269
100
AcDbEntity
  8
0
100
AcDbLine
 62
7
  6
CONTINUOUS
 10
403.3129239496
 20
221.0419692138
 11
401.1852646288
 21
221.5627945998
  0
LINE
  5
26A
100
AcDbEntity
  8
0
100
AcDbLine
 62
7
  6
CONTINUOUS
 10
398.5256901052
 20
219.4794692138
 11
400.6533497986
 21
218.4377945998
  0
LINE
  5
26B
100
AcDbEntity
  8
0
100
AcDbLine
 62
7
  6
CONTINUOUS
 10
414.5272854444
 20
103.8855331805
 11
414.7772859212
 21
103.5025541452
  0
LINE
  5
26C
100
AcDbEntity
  8
KONSTRUKTIONSELEMENTE
100
AcDbLine
 62
7
  6
CONTINUOUS
 10
406.4022857782
 20
94.2725545028
 11
406.7022859212
 21
93.6980864862
  0
LINE
  5
26D
100
AcDbEntity
  8
0
100
AcDbLine
 62
7
  6
CONTINUOUS
 10
415.5469672796
 20
504.8961378673
 11
417.6746266004
 21
506.4586378673
  0
LINE
  5
26E
100
AcDbEntity
  8
0
100
AcDbLine
 62
7
  6
CONTINUOUS
 10
403.3129239496
 20
242.9169692138
 11
419.8022859212
 21
242.9169692138
  0
LINE
  5
26F
100
AcDbEntity
  8
0
100
AcDbLine
 62
7
  6
CONTINUOUS
 10
419.8022859212
 20
246.0419692138
 11
403.3129239496
 21
246.0419692138
  0
LINE
  5
270
100
AcDbEntity
  8
0
100
AcDbLine
 62
7
  6
CONTINUOUS
 10
403.3129239496
 20
258.5419692138
 11
419.8022859212
 21
258.5419692138
  0
LINE
  5
271
100
AcDbEntity
  8
0
100
AcDbLine
 62
7
  6
CONTINUOUS
 10
400.6533497986
 20
243.4377945998
 11
403.3129239496
 21
242.9169692138
  0
LINE
  5
272
100
AcDbEntity
  8
0
100
AcDbLine
 62
7
  6
CONTINUOUS
 10
403.3129239496
 20
246.0419692138
 11
401.1852646288
 21
246.5627945998
  0
LINE
  5
273
100
AcDbEntity
  8
0
100
AcDbLine
 62
7
  6
CONTINUOUS
 10
398.5256901052
 20
244.4794692138
 11
400.6533497986
 21
243.4377945998
  0
LINE
  5
274
100
AcDbEntity
  8
0
100
AcDbLine
 62
7
  6
CONTINUOUS
 10
401.1852646288
 20
221.5627945998
 11
399.5895201382
 21
222.6044692138
  0
LINE
  5
275
100
AcDbEntity
  8
0
100
AcDbLine
 62
7
  6
CONTINUOUS
 10
396.3980305981
 20
221.5627945998
 11
398.5256901052
 21
219.4794692138
  0
LINE
  5
276
100
AcDbEntity
  8
0
100
AcDbLine
 62
7
  6
CONTINUOUS
 10
405.2772860405
 20
100.4387245443
 11
405.5272861597
 21
99.9280862179
  0
LINE
  5
277
100
AcDbEntity
  8
0
100
AcDbLine
 62
7
  6
CONTINUOUS
 10
415.5272859212
 20
103.630214062
 11
415.2772854444
 21
104.140852299
  0
LINE
  5
278
100
AcDbEntity
  8
0
100
AcDbLine
 62
7
  6
CONTINUOUS
 10
416.61079694
 20
509.0628005603
 11
415.5469672796
 21
508.0211378673
  0
LINE
  5
279
100
AcDbEntity
  8
0
100
AcDbLine
 62
7
  6
CONTINUOUS
 10
401.1852646288
 20
258.0211438277
 11
403.3129239496
 21
258.5419692138
  0
LINE
  5
27A
100
AcDbEntity
  8
0
100
AcDbLine
 62
7
  6
CONTINUOUS
 10
403.3129239496
 20
261.6669692138
 11
400.6533497986
 21
261.1461438277
  0
LINE
  5
27B
100
AcDbEntity
  8
0
100
AcDbLine
 62
7
  6
CONTINUOUS
 10
419.8022859212
 20
261.6669692138
 11
403.3129239496
 21
261.6669692138
  0
LINE
  5
27C
100
AcDbEntity
  8
0
100
AcDbLine
 62
7
  6
CONTINUOUS
 10
411.823561978
 20
266.3544692138
 11
413.951222789
 21
266.3544692138
  0
LINE
  5
27D
100
AcDbEntity
  8
0
100
AcDbLine
 62
7
  6
CONTINUOUS
 10
413.951222789
 20
269.4794692138
 11
412.3554768082
 21
269.4794692138
  0
LINE
  5
27E
100
AcDbEntity
  8
0
100
AcDbLine
 62
7
  6
CONTINUOUS
 10
410.2278174874
 20
266.8752945998
 11
411.823561978
 21
266.3544692138
  0
LINE
  5
27F
100
AcDbEntity
  8
0
100
AcDbLine
 62
7
  6
CONTINUOUS
 10
412.3554768082
 20
269.4794692138
 11
410.7597323176
 21
270.0002945998
  0
LINE
  5
280
100
AcDbEntity
  8
0
100
AcDbLine
 62
7
  6
CONTINUOUS
 10
401.1852646288
 20
246.5627945998
 11
399.5895201382
 21
247.6044692138
  0
LINE
  5
281
100
AcDbEntity
  8
0
100
AcDbLine
 62
7
  6
CONTINUOUS
 10
396.3980305981
 20
246.5627945998
 11
398.5256901052
 21
244.4794692138
  0
LINE
  5
282
100
AcDbEntity
  8
0
100
AcDbLine
 62
7
  6
CONTINUOUS
 10
399.5895201382
 20
222.6044692138
 11
398.5256901052
 21
224.1669692138
  0
LINE
  5
283
100
AcDbEntity
  8
KONSTRUKTIONSELEMENTE
100
AcDbLine
 62
7
  6
CONTINUOUS
 10
410.0022862073
 20
88.3363840589
 11
410.3022859212
 21
87.5704266363
  0
LINE
  5
284
100
AcDbEntity
  8
0
100
AcDbLine
 62
7
  6
CONTINUOUS
 10
404.1522860405
 20
99.0344692138
 11
403.0272860405
 21
101.9706394342
  0
LINE
  5
285
100
AcDbEntity
  8
0
100
AcDbLine
 62
7
  6
CONTINUOUS
 10
402.2772858616
 20
101.7153203157
 11
403.277285802
 21
99.0344692138
  0
LINE
  5
286
100
AcDbEntity
  8
0
100
AcDbLine
 62
7
  6
CONTINUOUS
 10
403.1522859212
 20
104.0131927398
 11
403.277285802
 21
103.630214062
  0
LINE
  5
287
100
AcDbEntity
  8
0
100
AcDbLine
 62
7
  6
CONTINUOUS
 10
404.027285802
 20
103.630214062
 11
403.9022859212
 21
104.0131927398
  0
LINE
  5
288
100
AcDbEntity
  8
0
100
AcDbLine
 62
7
  6
CONTINUOUS
 10
417.6746266004
 20
506.4586378673
 11
419.270371091
 21
508.5419692138
  0
LINE
  5
289
100
AcDbEntity
  8
0
100
AcDbLine
 62
7
  6
CONTINUOUS
 10
394.8022859212
 20
282.5002945998
 11
405.9724988457
 21
282.5002945998
  0
LINE
  5
28A
100
AcDbEntity
  8
0
100
AcDbLine
 62
7
  6
CONTINUOUS
 10
409.163987827
 20
282.5002945998
 11
417.1427117702
 21
282.5002945998
  0
LINE
  5
28B
100
AcDbEntity
  8
0
100
AcDbLine
 62
7
  6
CONTINUOUS
 10
419.8022859212
 20
285.6252945998
 11
394.8022859212
 21
285.6252945998
  0
LINE
  5
28C
100
AcDbEntity
  8
0
100
AcDbLine
 62
7
  6
CONTINUOUS
 10
408.1001581666
 20
268.4377945998
 11
410.2278174874
 21
266.8752945998
  0
LINE
  5
28D
100
AcDbEntity
  8
0
100
AcDbLine
 62
7
  6
CONTINUOUS
 10
410.7597323176
 20
270.0002945998
 11
409.6959026572
 21
271.0419692138
  0
LINE
  5
28E
100
AcDbEntity
  8
0
100
AcDbLine
 62
7
  6
CONTINUOUS
 10
399.5895201382
 20
247.6044692138
 11
398.5256901052
 21
249.1669692138
  0
LINE
  5
28F
100
AcDbEntity
  8
0
100
AcDbLine
 62
7
  6
CONTINUOUS
 10
395.334200798
 20
223.6461438277
 11
396.3980305981
 21
221.5627945998
  0
LINE
  5
290
100
AcDbEntity
  8
0
100
AcDbLine
 62
7
  6
CONTINUOUS
 10
395.334200798
 20
248.6461438277
 11
396.3980305981
 21
246.5627945998
  0
LINE
  5
291
100
AcDbEntity
  8
KONSTRUKTIONSELEMENTE
100
AcDbLine
 62
7
  6
CONTINUOUS
 10
410.9022862073
 20
88.14489472
 11
410.7522859212
 21
88.7193628707
  0
LINE
  5
292
100
AcDbEntity
  8
0
100
AcDbLine
 62
7
  6
CONTINUOUS
 10
406.0272856828
 20
100.5663841036
 11
405.9022861597
 21
101.0770223406
  0
LINE
  5
293
100
AcDbEntity
  8
0
100
AcDbLine
 62
7
  6
CONTINUOUS
 10
409.6959026572
 20
314.7919692138
 11
411.823561978
 21
314.7919692138
  0
LINE
  5
294
100
AcDbEntity
  8
0
100
AcDbLine
 62
7
  6
CONTINUOUS
 10
394.8022859212
 20
315.8336438277
 11
396.9299454283
 21
315.8336438277
  0
LINE
  5
295
100
AcDbEntity
  8
0
100
AcDbLine
 62
7
  6
CONTINUOUS
 10
400.1214349684
 20
320.5211438277
 11
409.6959026572
 21
320.5211438277
  0
LINE
  5
296
100
AcDbEntity
  8
0
100
AcDbLine
 62
7
  6
CONTINUOUS
 10
411.823561978
 20
320.5211438277
 11
416.0788821098
 21
320.5211438277
  0
LINE
  5
297
100
AcDbEntity
  8
0
100
AcDbLine
 62
7
  6
CONTINUOUS
 10
416.0788821098
 20
323.1252945998
 11
411.823561978
 21
323.1252945998
  0
LINE
  5
298
100
AcDbEntity
  8
0
100
AcDbLine
 62
7
  6
CONTINUOUS
 10
409.6959026572
 20
323.1252945998
 11
399.0576049354
 21
323.1252945998
  0
LINE
  5
299
100
AcDbEntity
  8
0
100
AcDbLine
 62
7
  6
CONTINUOUS
 10
407.0363285061
 20
270.5211438277
 11
408.1001581666
 21
268.4377945998
  0
LINE
  5
29A
100
AcDbEntity
  8
0
100
AcDbLine
 62
7
  6
CONTINUOUS
 10
398.5256901052
 20
224.1669692138
 11
397.993775275
 21
226.2502945998
  0
LINE
  5
29B
100
AcDbEntity
  8
0
100
AcDbLine
 62
7
  6
CONTINUOUS
 10
414.7772859212
 20
103.5025541452
 11
414.9022854444
 21
102.9919159082
  0
LINE
  5
29C
100
AcDbEntity
  8
0
100
AcDbLine
 62
7
  6
CONTINUOUS
 10
394.8022859212
 20
226.2502945998
 11
395.334200798
 21
223.6461438277
  0
LINE
  5
29D
100
AcDbEntity
  8
0
100
AcDbLine
 62
7
  6
CONTINUOUS
 10
405.152285802
 20
101.0770223406
 11
405.2772860405
 21
100.4387245443
  0
LINE
  5
29E
100
AcDbEntity
  8
KONSTRUKTIONSELEMENTE
100
AcDbLine
 62
7
  6
CONTINUOUS
 10
407.6022859212
 20
93.6980864862
 11
407.4522860643
 21
94.4640438417
  0
LINE
  5
29F
100
AcDbEntity
  8
0
100
AcDbLine
 62
7
  6
CONTINUOUS
 10
415.6522854444
 20
102.9919159082
 11
415.5272859212
 21
103.630214062
  0
LINE
  5
2A0
100
AcDbEntity
  8
0
100
AcDbLine
 62
7
  6
CONTINUOUS
 10
376.3022859212
 20
103.1484184919
 11
376.3022859212
 21
84.1044692138
  0
LINE
  5
2A1
100
AcDbEntity
  8
BEZUGSACHSEN
100
AcDbLine
 62
7
  6
CONTINUOUS
 10
376.3022859212
 20
103.1484184919
 11
376.3022859212
 21
103.3044698349
  0
LINE
  5
2A2
100
AcDbEntity
  8
BEZUGSACHSEN
100
AcDbLine
 62
7
  6
CONTINUOUS
 10
381.3022859212
 20
126.027659593
 11
381.3022859212
 21
125.1044692138
  0
LINE
  5
2A3
100
AcDbEntity
  8
RUNDUNGEN
100
AcDbLine
 62
7
  6
CONTINUOUS
 10
381.3022859212
 20
125.1044692138
 11
381.3022859212
 21
126.027659593
  0
LINE
  5
2A4
100
AcDbEntity
  8
0
100
AcDbLine
 62
7
  6
CONTINUOUS
 10
417.1427117702
 20
510.6253005603
 11
416.61079694
 21
509.0628005603
  0
LINE
  5
2A5
100
AcDbEntity
  8
0
100
AcDbLine
 62
7
  6
CONTINUOUS
 10
413.951222789
 20
331.4586438277
 11
416.0788821098
 21
331.9794692138
  0
LINE
  5
2A6
100
AcDbEntity
  8
0
100
AcDbLine
 62
7
  6
CONTINUOUS
 10
411.823561978
 20
327.2919692138
 11
409.6959026572
 21
327.2919692138
  0
LINE
  5
2A7
100
AcDbEntity
  8
0
100
AcDbLine
 62
7
  6
CONTINUOUS
 10
394.8022859212
 20
331.4586438277
 11
397.4618604448
 21
331.4586438277
  0
LINE
  5
2A8
100
AcDbEntity
  8
0
100
AcDbLine
 62
7
  6
CONTINUOUS
 10
412.8873916384
 20
331.4586438277
 11
413.951222789
 21
331.4586438277
  0
LINE
  5
2A9
100
AcDbEntity
  8
0
100
AcDbLine
 62
7
  6
CONTINUOUS
 10
413.951222789
 20
334.5836438277
 11
412.8873916384
 21
334.5836438277
  0
LINE
  5
2AA
100
AcDbEntity
  8
0
100
AcDbLine
 62
7
  6
CONTINUOUS
 10
410.7597323176
 20
331.9794692138
 11
412.8873916384
 21
331.4586438277
  0
LINE
  5
2AB
100
AcDbEntity
  8
0
100
AcDbLine
 62
7
  6
CONTINUOUS
 10
412.8873916384
 20
334.5836438277
 11
410.7597323176
 21
335.6252945998
  0
LINE
  5
2AC
100
AcDbEntity
  8
0
100
AcDbLine
 62
7
  6
CONTINUOUS
 10
409.163987827
 20
333.0211438277
 11
410.7597323176
 21
331.9794692138
  0
LINE
  5
2AD
100
AcDbEntity
  8
0
100
AcDbLine
 62
7
  6
CONTINUOUS
 10
397.4618604448
 20
346.0419692138
 11
409.163987827
 21
333.0211438277
  0
LINE
  5
2AE
100
AcDbEntity
  8
0
100
AcDbLine
 62
7
  6
CONTINUOUS
 10
409.6959026572
 20
271.0419692138
 11
409.163987827
 21
272.6044692138
  0
LINE
  5
2AF
100
AcDbEntity
  8
0
100
AcDbLine
 62
7
  6
CONTINUOUS
 10
398.5256901052
 20
249.1669692138
 11
397.993775275
 21
251.2502945998
  0
LINE
  5
2B0
100
AcDbEntity
  8
0
100
AcDbLine
 62
7
  6
CONTINUOUS
 10
394.8022859212
 20
251.2502945998
 11
395.334200798
 21
248.6461438277
  0
LINE
  5
2B1
100
AcDbEntity
  8
BEZUGSACHSEN
100
AcDbLine
 62
7
  6
CONTINUOUS
 10
389.8022859212
 20
152.1044692138
 11
389.8022859212
 21
676.1044692138
  0
LINE
  5
2B2
100
AcDbEntity
  8
0
100
AcDbLine
 62
7
  6
CONTINUOUS
 10
390.6708887131
 20
103.1484184919
 11
390.6708887131
 21
84.1044692138
  0
LINE
  5
2B3
100
AcDbEntity
  8
RUNDUNGEN
100
AcDbLine
 62
7
  6
CONTINUOUS
 10
392.9336831294
 20
102.402602922
 11
392.9336831294
 21
84.1044692138
  0
LINE
  5
2B4
100
AcDbEntity
  8
0
100
AcDbLine
 62
7
  6
CONTINUOUS
 10
394.8022859212
 20
564.2711356321
 11
394.8022859212
 21
561.1461356321
  0
LINE
  5
2B5
100
AcDbEntity
  8
0
100
AcDbLine
 62
7
  6
CONTINUOUS
 10
394.8022859212
 20
548.6461363771
 11
394.8022859212
 21
545.521134887
  0
LINE
  5
2B6
100
AcDbEntity
  8
0
100
AcDbLine
 62
7
  6
CONTINUOUS
 10
394.8022859212
 20
530.9378035405
 11
394.8022859212
 21
527.8128035405
  0
LINE
  5
2B7
100
AcDbEntity
  8
0
100
AcDbLine
 62
7
  6
CONTINUOUS
 10
394.8022859212
 20
523.646134887
 11
394.8022859212
 21
520.5211378673
  0
LINE
  5
2B8
100
AcDbEntity
  8
0
100
AcDbLine
 62
7
  6
CONTINUOUS
 10
394.8022859212
 20
421.0419692138
 11
394.8022859212
 21
416.8753065208
  0
LINE
  5
2B9
100
AcDbEntity
  8
0
100
AcDbLine
 62
7
  6
CONTINUOUS
 10
394.8022859212
 20
408.5419692138
 11
394.8022859212
 21
404.3753065208
  0
LINE
  5
2BA
100
AcDbEntity
  8
0
100
AcDbLine
 62
7
  6
CONTINUOUS
 10
394.8022859212
 20
396.0419692138
 11
394.8022859212
 21
377.2919692138
  0
LINE
  5
2BB
100
AcDbEntity
  8
0
100
AcDbLine
 62
7
  6
CONTINUOUS
 10
394.8022859212
 20
373.1253065208
 11
394.8022859212
 21
354.3752945998
  0
LINE
  5
2BC
100
AcDbEntity
  8
0
100
AcDbLine
 62
7
  6
CONTINUOUS
 10
394.8022859212
 20
350.2086438277
 11
394.8022859212
 21
331.4586438277
  0
LINE
  5
2BD
100
AcDbEntity
  8
0
100
AcDbLine
 62
7
  6
CONTINUOUS
 10
394.8022859212
 20
285.6252945998
 11
394.8022859212
 21
282.5002945998
  0
LINE
  5
2BE
100
AcDbEntity
  8
0
100
AcDbLine
 62
7
  6
CONTINUOUS
 10
394.8022859212
 20
269.4794692138
 11
394.8022859212
 21
265.8336438277
  0
LINE
  5
2BF
100
AcDbEntity
  8
0
100
AcDbLine
 62
7
  6
CONTINUOUS
 10
394.8022859212
 20
253.3336438277
 11
394.8022859212
 21
251.2502945998
  0
LINE
  5
2C0
100
AcDbEntity
  8
0
100
AcDbLine
 62
7
  6
CONTINUOUS
 10
394.8022859212
 20
238.7502945998
 11
394.8022859212
 21
226.2502945998
  0
LINE
  5
2C1
100
AcDbEntity
  8
RUNDUNGEN
100
AcDbLine
 62
7
  6
CONTINUOUS
 10
396.8022859212
 20
87.8044692138
 11
396.8022859212
 21
113.8044692138
  0
LINE
  5
2C2
100
AcDbEntity
  8
BEZUGSACHSEN
100
AcDbLine
 62
7
  6
CONTINUOUS
 10
397.3022859212
 20
51.6044692138
 11
397.3022859212
 21
84.1044692138
  0
LINE
  5
2C3
100
AcDbEntity
  8
0
100
AcDbLine
 62
7
  6
CONTINUOUS
 10
397.4618604448
 20
331.4586438277
 11
397.4618604448
 21
346.0419692138
  0
LINE
  5
2C4
100
AcDbEntity
  8
0
100
AcDbLine
 62
7
  6
CONTINUOUS
 10
397.993775275
 20
226.2502945998
 11
397.993775275
 21
235.6252945998
  0
LINE
  5
2C5
100
AcDbEntity
  8
0
100
AcDbLine
 62
7
  6
CONTINUOUS
 10
397.993775275
 20
251.2502945998
 11
397.993775275
 21
253.3336438277
  0
LINE
  5
2C6
100
AcDbEntity
  8
0
100
AcDbLine
 62
7
  6
CONTINUOUS
 10
397.993775275
 20
354.3752945998
 11
397.993775275
 21
370.0002945998
  0
LINE
  5
2C7
100
AcDbEntity
  8
0
100
AcDbLine
 62
7
  6
CONTINUOUS
 10
397.993775275
 20
377.2919692138
 11
397.993775275
 21
392.9169692138
  0
LINE
  5
2C8
100
AcDbEntity
  8
0
100
AcDbLine
 62
7
  6
CONTINUOUS
 10
399.4022859212
 20
105.0344692138
 11
399.4022859212
 21
99.0344692138
  0
LINE
  5
2C9
100
AcDbEntity
  8
0
100
AcDbLine
 62
7
  6
CONTINUOUS
 10
400.1522859212
 20
99.0344692138
 11
400.1522859212
 21
101.7153203157
  0
LINE
  5
2CA
100
AcDbEntity
  8
0
100
AcDbLine
 62
7
  6
CONTINUOUS
 10
400.1522859212
 20
102.4812776712
 11
400.1522859212
 21
104.3961714175
  0
LINE
  5
2CB
100
AcDbEntity
  8
KONSTRUKTIONSELEMENTE
100
AcDbLine
 62
7
  6
CONTINUOUS
 10
402.2022859212
 20
87.7619160423
 11
402.2022859212
 21
86.8044692138
  0
LINE
  5
2CC
100
AcDbEntity
  8
0
100
AcDbLine
 62
7
  6
CONTINUOUS
 10
403.277285802
 20
103.630214062
 11
403.277285802
 21
103.2472350267
  0
LINE
  5
2CD
100
AcDbEntity
  8
0
100
AcDbLine
 62
7
  6
CONTINUOUS
 10
404.027285802
 20
103.1195754674
 11
404.027285802
 21
103.630214062
  0
LINE
  5
2CE
100
AcDbEntity
  8
0
100
AcDbLine
 62
7
  6
CONTINUOUS
 10
405.152285802
 20
105.0344692138
 11
405.152285802
 21
101.0770223406
  0
LINE
  5
2CF
100
AcDbEntity
  8
0
100
AcDbLine
 62
7
  6
CONTINUOUS
 10
405.9022861597
 20
101.0770223406
 11
405.9022861597
 21
105.0344692138
  0
LINE
  5
2D0
100
AcDbEntity
  8
0
100
AcDbLine
 62
7
  6
CONTINUOUS
 10
405.9724988457
 20
520.5211378673
 11
405.9724988457
 21
511.1461378673
  0
LINE
  5
2D1
100
AcDbEntity
  8
0
100
AcDbLine
 62
7
  6
CONTINUOUS
 10
405.9724988457
 20
282.5002945998
 11
405.9724988457
 21
273.6461438277
  0
LINE
  5
2D2
100
AcDbEntity
  8
KONSTRUKTIONSELEMENTE
100
AcDbLine
 62
7
  6
CONTINUOUS
 10
406.7022859212
 20
93.6980864862
 11
406.7022859212
 21
93.315107272
  0
LINE
  5
2D3
100
AcDbEntity
  8
KONSTRUKTIONSELEMENTE
100
AcDbLine
 62
7
  6
CONTINUOUS
 10
407.6022859212
 20
86.8044692138
 11
407.6022859212
 21
87.7619160423
  0
LINE
  5
2D4
100
AcDbEntity
  8
KONSTRUKTIONSELEMENTE
100
AcDbLine
 62
7
  6
CONTINUOUS
 10
407.6022859212
 20
93.315107272
 11
407.6022859212
 21
93.6980864862
  0
LINE
  5
2D5
100
AcDbEntity
  8
KONSTRUKTIONSELEMENTE
100
AcDbLine
 62
7
  6
CONTINUOUS
 10
408.8022860643
 20
92.9321285942
 11
408.8022860643
 21
92.1661712387
  0
LINE
  5
2D6
100
AcDbEntity
  8
0
100
AcDbLine
 62
7
  6
CONTINUOUS
 10
408.9022861597
 20
105.0344692138
 11
408.9022861597
 21
101.0770223406
  0
LINE
  5
2D7
100
AcDbEntity
  8
0
100
AcDbLine
 62
7
  6
CONTINUOUS
 10
409.163987827
 20
272.6044692138
 11
409.163987827
 21
282.5002945998
  0
LINE
  5
2D8
100
AcDbEntity
  8
0
100
AcDbLine
 62
7
  6
CONTINUOUS
 10
409.163987827
 20
510.6253005603
 11
409.163987827
 21
520.5211378673
  0
LINE
  5
2D9
100
AcDbEntity
  8
0
100
AcDbLine
 62
7
  6
CONTINUOUS
 10
409.6522861597
 20
101.0770223406
 11
409.6522861597
 21
105.0344692138
  0
LINE
  5
2DA
100
AcDbEntity
  8
0
100
AcDbLine
 62
7
  6
CONTINUOUS
 10
409.6959026572
 20
327.2919692138
 11
409.6959026572
 21
323.1252945998
  0
LINE
  5
2DB
100
AcDbEntity
  8
0
100
AcDbLine
 62
7
  6
CONTINUOUS
 10
409.6959026572
 20
320.5211438277
 11
409.6959026572
 21
314.7919692138
  0
LINE
  5
2DC
100
AcDbEntity
  8
KONSTRUKTIONSELEMENTE
100
AcDbLine
 62
7
  6
CONTINUOUS
 10
410.0022862073
 20
94.4640438417
 11
410.0022862073
 21
92.9321285942
  0
LINE
  5
2DD
100
AcDbEntity
  8
KONSTRUKTIONSELEMENTE
100
AcDbLine
 62
7
  6
CONTINUOUS
 10
410.0022862073
 20
92.1661712387
 11
410.0022862073
 21
88.3363840589
  0
LINE
  5
2DE
100
AcDbEntity
  8
0
100
AcDbLine
 62
7
  6
CONTINUOUS
 10
395.334200798
 20
318.9586438277
 11
394.8022859212
 21
315.8336438277
  0
LINE
  5
2DF
100
AcDbEntity
  8
0
100
AcDbLine
 62
7
  6
CONTINUOUS
 10
419.270371091
 20
508.5419692138
 11
419.8022859212
 21
511.1461378673
  0
LINE
  5
2E0
100
AcDbEntity
  8
0
100
AcDbLine
 62
7
  6
CONTINUOUS
 10
396.9299454283
 20
315.8336438277
 11
397.4618604448
 21
318.4377945998
  0
LINE
  5
2E1
100
AcDbEntity
  8
0
100
AcDbLine
 62
7
  6
CONTINUOUS
 10
397.4618604448
 20
350.2086438277
 11
394.8022859212
 21
350.2086438277
  0
LINE
  5
2E2
100
AcDbEntity
  8
0
100
AcDbLine
 62
7
  6
CONTINUOUS
 10
389.3022859212
 20
352.6044692138
 11
389.8022859212
 21
352.6044692138
  0
LINE
  5
2E3
100
AcDbEntity
  8
0
100
AcDbLine
 62
7
  6
CONTINUOUS
 10
424.8022859212
 20
352.6044692138
 11
425.3022859212
 21
352.6044692138
  0
LINE
  5
2E4
100
AcDbEntity
  8
0
100
AcDbLine
 62
7
  6
CONTINUOUS
 10
394.8022859212
 20
354.3752945998
 11
397.993775275
 21
354.3752945998
  0
LINE
  5
2E5
100
AcDbEntity
  8
0
100
AcDbLine
 62
7
  6
CONTINUOUS
 10
416.0788821098
 20
349.1669692138
 11
413.951222789
 21
349.6877945998
  0
LINE
  5
2E6
100
AcDbEntity
  8
0
100
AcDbLine
 62
7
  6
CONTINUOUS
 10
413.951222789
 20
347.0836438277
 11
415.5469672796
 21
346.0419692138
  0
LINE
  5
2E7
100
AcDbEntity
  8
0
100
AcDbLine
 62
7
  6
CONTINUOUS
 10
418.2065414306
 20
347.0836438277
 11
416.0788821098
 21
349.1669692138
  0
LINE
  5
2E8
100
AcDbEntity
  8
0
100
AcDbLine
 62
7
  6
CONTINUOUS
 10
410.7597323176
 20
335.6252945998
 11
397.4618604448
 21
350.2086438277
  0
LINE
  5
2E9
100
AcDbEntity
  8
0
100
AcDbLine
 62
7
  6
CONTINUOUS
 10
415.5469672796
 20
346.0419692138
 11
416.61079694
 21
344.4794692138
  0
LINE
  5
2EA
100
AcDbEntity
  8
0
100
AcDbLine
 62
7
  6
CONTINUOUS
 10
419.270371091
 20
345.0002945998
 11
418.2065414306
 21
347.0836438277
  0
LINE
  5
2EB
100
AcDbEntity
  8
BEZUGSACHSEN
100
AcDbLine
 62
7
  6
CONTINUOUS
 10
434.6320059195
 20
124.1196614608
 11
438.3022859212
 21
103.3044692138
  0
LINE
  5
2EC
100
AcDbEntity
  8
FASEN
100
AcDbLine
 62
7
  6
CONTINUOUS
 10
438.3022857022
 20
103.3044704559
 11
434.6320059195
 21
124.1196614608
  0
LINE
  5
2ED
100
AcDbEntity
  8
0
100
AcDbLine
 62
7
  6
CONTINUOUS
 10
410.6522859212
 20
105.0344692138
 11
410.6522859212
 21
99.0344692138
  0
LINE
  5
2EE
100
AcDbEntity
  8
KONSTRUKTIONSELEMENTE
100
AcDbLine
 62
7
  6
CONTINUOUS
 10
410.7522859212
 20
88.7193628707
 11
410.7522859212
 21
92.1661712387
  0
LINE
  5
2EF
100
AcDbEntity
  8
KONSTRUKTIONSELEMENTE
100
AcDbLine
 62
7
  6
CONTINUOUS
 10
410.7522859212
 20
92.9321285942
 11
410.7522859212
 21
94.4640438417
  0
LINE
  5
2F0
100
AcDbEntity
  8
0
100
AcDbLine
 62
7
  6
CONTINUOUS
 10
411.4022859212
 20
99.8004266587
 11
411.4022859212
 21
104.2685118583
  0
LINE
  5
2F1
100
AcDbEntity
  8
0
100
AcDbLine
 62
7
  6
CONTINUOUS
 10
411.823561978
 20
314.7919692138
 11
411.823561978
 21
320.5211438277
  0
LINE
  5
2F2
100
AcDbEntity
  8
0
100
AcDbLine
 62
7
  6
CONTINUOUS
 10
411.823561978
 20
323.1252945998
 11
411.823561978
 21
327.2919692138
  0
LINE
  5
2F3
100
AcDbEntity
  8
KONSTRUKTIONSELEMENTE
100
AcDbLine
 62
7
  6
CONTINUOUS
 10
412.1022859212
 20
86.8044692138
 11
412.1022859212
 21
87.5704266363
  0
LINE
  5
2F4
100
AcDbEntity
  8
KONSTRUKTIONSELEMENTE
100
AcDbLine
 62
7
  6
CONTINUOUS
 10
412.4022856351
 20
92.1661712387
 11
412.4022856351
 21
92.9321285942
  0
LINE
  5
2F5
100
AcDbEntity
  8
0
100
AcDbLine
 62
7
  6
CONTINUOUS
 10
413.951222789
 20
349.6877945998
 11
413.951222789
 21
347.0836438277
  0
LINE
  5
2F6
100
AcDbEntity
  8
0
100
AcDbLine
 62
7
  6
CONTINUOUS
 10
414.9022854444
 20
102.9919159082
 11
414.9022854444
 21
101.0770223406
  0
LINE
  5
2F7
100
AcDbEntity
  8
0
100
AcDbLine
 62
7
  6
CONTINUOUS
 10
415.6522854444
 20
101.0770223406
 11
415.6522854444
 21
102.9919159082
  0
LINE
  5
2F8
100
AcDbEntity
  8
0
100
AcDbLine
 62
7
  6
CONTINUOUS
 10
416.0788821098
 20
320.5211438277
 11
416.0788821098
 21
323.1252945998
  0
LINE
  5
2F9
100
AcDbEntity
  8
0
100
AcDbLine
 62
7
  6
CONTINUOUS
 10
416.61079694
 20
235.6252945998
 11
416.61079694
 21
226.2502945998
  0
LINE
  5
2FA
100
AcDbEntity
  8
0
100
AcDbLine
 62
7
  6
CONTINUOUS
 10
417.1427117702
 20
572.6044692138
 11
417.1427117702
 21
564.2711356321
  0
LINE
  5
2FB
100
AcDbEntity
  8
0
100
AcDbLine
 62
7
  6
CONTINUOUS
 10
417.1427117702
 20
561.1461356321
 11
417.1427117702
 21
552.8128020504
  0
LINE
  5
2FC
100
AcDbEntity
  8
0
100
AcDbLine
 62
7
  6
CONTINUOUS
 10
417.1427117702
 20
520.5211378673
 11
417.1427117702
 21
510.6253005603
  0
LINE
  5
2FD
100
AcDbEntity
  8
0
100
AcDbLine
 62
7
  6
CONTINUOUS
 10
417.1427117702
 20
341.8752945998
 11
417.1427117702
 21
339.7919692138
  0
LINE
  5
2FE
100
AcDbEntity
  8
0
100
AcDbLine
 62
7
  6
CONTINUOUS
 10
417.1427117702
 20
282.5002945998
 11
417.1427117702
 21
272.6044692138
  0
LINE
  5
2FF
100
AcDbEntity
  8
BEZUGSACHSEN
100
AcDbLine
 62
7
  6
CONTINUOUS
 10
417.3022859212
 20
51.6044692138
 11
417.3022859212
 21
84.1044692138
  0
LINE
  5
300
100
AcDbEntity
  8
RUNDUNGEN
100
AcDbLine
 62
7
  6
CONTINUOUS
 10
417.8022859212
 20
113.8044692138
 11
417.8022859212
 21
87.8044692138
  0
LINE
  5
301
100
AcDbEntity
  8
0
100
AcDbLine
 62
7
  6
CONTINUOUS
 10
419.8022859212
 20
226.2502945998
 11
419.8022859212
 21
238.7502945998
  0
LINE
  5
302
100
AcDbEntity
  8
0
100
AcDbLine
 62
7
  6
CONTINUOUS
 10
419.8022859212
 20
242.9169692138
 11
419.8022859212
 21
246.0419692138
  0
LINE
  5
303
100
AcDbEntity
  8
0
100
AcDbLine
 62
7
  6
CONTINUOUS
 10
419.8022859212
 20
258.5419692138
 11
419.8022859212
 21
261.6669692138
  0
LINE
  5
304
100
AcDbEntity
  8
0
100
AcDbLine
 62
7
  6
CONTINUOUS
 10
419.8022859212
 20
273.1252945998
 11
419.8022859212
 21
285.6252945998
  0
LINE
  5
305
100
AcDbEntity
  8
0
100
AcDbLine
 62
7
  6
CONTINUOUS
 10
419.8022859212
 20
339.2711438277
 11
419.8022859212
 21
341.3544692138
  0
LINE
  5
306
100
AcDbEntity
  8
0
100
AcDbLine
 62
7
  6
CONTINUOUS
 10
419.8022859212
 20
370.0002945998
 11
419.8022859212
 21
373.1253065208
  0
LINE
  5
307
100
AcDbEntity
  8
0
100
AcDbLine
 62
7
  6
CONTINUOUS
 10
419.8022859212
 20
392.9169692138
 11
419.8022859212
 21
396.0419692138
  0
LINE
  5
308
100
AcDbEntity
  8
0
100
AcDbLine
 62
7
  6
CONTINUOUS
 10
419.8022859212
 20
400.2086319068
 11
419.8022859212
 21
403.3336319068
  0
LINE
  5
309
100
AcDbEntity
  8
0
100
AcDbLine
 62
7
  6
CONTINUOUS
 10
419.8022859212
 20
410.6253065208
 11
419.8022859212
 21
414.7919692138
  0
LINE
  5
30A
100
AcDbEntity
  8
0
100
AcDbLine
 62
7
  6
CONTINUOUS
 10
419.8022859212
 20
422.0836319068
 11
419.8022859212
 21
425.2086319068
  0
LINE
  5
30B
100
AcDbEntity
  8
0
100
AcDbLine
 62
7
  6
CONTINUOUS
 10
419.8022859212
 20
511.1461378673
 11
419.8022859212
 21
523.646134887
  0
LINE
  5
30C
100
AcDbEntity
  8
0
100
AcDbLine
 62
7
  6
CONTINUOUS
 10
419.8022859212
 20
527.8128035405
 11
419.8022859212
 21
530.9378035405
  0
LINE
  5
30D
100
AcDbEntity
  8
0
100
AcDbLine
 62
7
  6
CONTINUOUS
 10
419.8022859212
 20
545.521134887
 11
419.8022859212
 21
548.6461363771
  0
LINE
  5
30E
100
AcDbEntity
  8
0
100
AcDbLine
 62
7
  6
CONTINUOUS
 10
419.8022859212
 20
552.8128020504
 11
419.8022859212
 21
572.6044692138
  0
LINE
  5
30F
100
AcDbEntity
  8
RUNDUNGEN
100
AcDbLine
 62
7
  6
CONTINUOUS
 10
421.6708887131
 20
84.1044692138
 11
421.6708887131
 21
102.4026029273
  0
LINE
  5
310
100
AcDbEntity
  8
0
100
AcDbLine
 62
7
  6
CONTINUOUS
 10
423.9336831294
 20
103.1484184919
 11
423.9336831294
 21
84.1044692138
  0
LINE
  5
311
100
AcDbEntity
  8
BEZUGSACHSEN
100
AcDbLine
 62
7
  6
CONTINUOUS
 10
424.8022859212
 20
152.1044692138
 11
424.8022859212
 21
676.1044692138
  0
LINE
  5
312
100
AcDbEntity
  8
0
100
AcDbLine
 62
7
  6
CONTINUOUS
 10
419.270371091
 20
336.1461438277
 11
419.8022859212
 21
339.2711438277
  0
LINE
  5
313
100
AcDbEntity
  8
BEZUGSACHSEN
100
AcDbLine
 62
7
  6
CONTINUOUS
 10
379.972565923
 20
124.1196614608
 11
376.3022859212
 21
103.3044692138
  0
LINE
  5
314
100
AcDbEntity
  8
FASEN
100
AcDbLine
 62
7
  6
CONTINUOUS
 10
376.3022859212
 20
103.3044692138
 11
379.972565923
 21
124.1196614608
  0
LINE
  5
315
100
AcDbEntity
  8
0
100
AcDbLine
 62
7
  6
CONTINUOUS
 10
395.334200798
 20
255.9377945998
 11
394.8022859212
 21
253.3336438277
  0
LINE
  5
316
100
AcDbEntity
  8
0
100
AcDbLine
 62
7
  6
CONTINUOUS
 10
417.1427117702
 20
339.7919692138
 11
416.61079694
 21
337.1877945998
  0
LINE
  5
317
100
AcDbEntity
  8
0
100
AcDbLine
 62
7
  6
CONTINUOUS
 10
397.993775275
 20
253.3336438277
 11
398.5256901052
 21
255.4169692138
  0
LINE
  5
318
100
AcDbEntity
  8
0
100
AcDbLine
 62
7
  6
CONTINUOUS
 10
395.8661156748
 20
320.5211438277
 11
395.334200798
 21
318.9586438277
  0
LINE
  5
319
100
AcDbEntity
  8
0
100
AcDbLine
 62
7
  6
CONTINUOUS
 10
418.2065414306
 20
334.0627945998
 11
419.270371091
 21
336.1461438277
  0
LINE
  5
31A
100
AcDbEntity
  8
0
100
AcDbLine
 62
7
  6
CONTINUOUS
 10
396.9299454283
 20
322.0836438277
 11
395.8661156748
 21
320.5211438277
  0
LINE
  5
31B
100
AcDbEntity
  8
0
100
AcDbLine
 62
7
  6
CONTINUOUS
 10
397.4618604448
 20
318.4377945998
 11
398.5256901052
 21
320.0002945998
  0
LINE
  5
31C
100
AcDbEntity
  8
0
100
AcDbLine
 62
7
  6
CONTINUOUS
 10
416.61079694
 20
337.1877945998
 11
415.5469672796
 21
335.6252945998
  0
LINE
  5
31D
100
AcDbEntity
  8
0
100
AcDbLine
 62
7
  6
CONTINUOUS
 10
397.993775275
 20
370.0002945998
 11
419.8022859212
 21
370.0002945998
  0
LINE
  5
31E
100
AcDbEntity
  8
0
100
AcDbLine
 62
7
  6
CONTINUOUS
 10
419.8022859212
 20
373.1253065208
 11
394.8022859212
 21
373.1253065208
  0
LINE
  5
31F
100
AcDbEntity
  8
0
100
AcDbLine
 62
7
  6
CONTINUOUS
 10
394.8022859212
 20
377.2919692138
 11
397.993775275
 21
377.2919692138
  0
LINE
  5
320
100
AcDbEntity
  8
0
100
AcDbLine
 62
7
  6
CONTINUOUS
 10
416.61079694
 20
344.4794692138
 11
417.1427117702
 21
341.8752945998
  0
LINE
  5
321
100
AcDbEntity
  8
0
100
AcDbLine
 62
7
  6
CONTINUOUS
 10
419.8022859212
 20
341.3544692138
 11
419.270371091
 21
345.0002945998
  0
LINE
  5
322
100
AcDbEntity
  8
BEZUGSACHSEN
100
AcDbLine
 62
7
  6
CONTINUOUS
 10
433.3022859212
 20
126.027659593
 11
433.3022859212
 21
125.1044692138
  0
LINE
  5
323
100
AcDbEntity
  8
RUNDUNGEN
100
AcDbLine
 62
7
  6
CONTINUOUS
 10
433.3022859212
 20
125.1044692138
 11
433.3022859212
 21
126.027659593
  0
LINE
  5
324
100
AcDbEntity
  8
BEZUGSACHSEN
100
AcDbLine
 62
7
  6
CONTINUOUS
 10
438.3022859212
 20
103.3044698348
 11
438.3022859212
 21
103.1484184919
  0
LINE
  5
325
100
AcDbEntity
  8
0
100
AcDbLine
 62
7
  6
CONTINUOUS
 10
438.3022859212
 20
103.1484184919
 11
438.3022859212
 21
84.1044692138
  0
LINE
  5
326
100
AcDbEntity
  8
0
100
AcDbLine
 62
7
  6
CONTINUOUS
 10
419.270371091
 20
270.5211438277
 11
419.8022859212
 21
273.1252945998
  0
LINE
  5
327
100
AcDbEntity
  8
0
100
AcDbLine
 62
7
  6
CONTINUOUS
 10
419.270371091
 20
223.6461438277
 11
419.8022859212
 21
226.2502945998
  0
LINE
  5
328
100
AcDbEntity
  8
0
100
AcDbLine
 62
7
  6
CONTINUOUS
 10
416.61079694
 20
226.2502945998
 11
416.0788821098
 21
224.1669692138
  0
LINE
  5
329
100
AcDbEntity
  8
0
100
AcDbLine
 62
7
  6
CONTINUOUS
 10
417.1427117702
 20
272.6044692138
 11
416.61079694
 21
271.0419692138
  0
LINE
  5
32A
100
AcDbEntity
  8
0
100
AcDbLine
 62
7
  6
CONTINUOUS
 10
396.3980305981
 20
258.0211438277
 11
395.334200798
 21
255.9377945998
  0
LINE
  5
32B
100
AcDbEntity
  8
0
100
AcDbLine
 62
7
  6
CONTINUOUS
 10
416.0788821098
 20
331.9794692138
 11
418.2065414306
 21
334.0627945998
  0
LINE
  5
32C
100
AcDbEntity
  8
0
100
AcDbLine
 62
7
  6
CONTINUOUS
 10
415.5469672796
 20
335.6252945998
 11
413.951222789
 21
334.5836438277
  0
LINE
  5
32D
100
AcDbEntity
  8
0
100
AcDbLine
 62
7
  6
CONTINUOUS
 10
399.0576049354
 20
323.1252945998
 11
396.9299454283
 21
322.0836438277
  0
LINE
  5
32E
100
AcDbEntity
  8
0
100
AcDbLine
 62
7
  6
CONTINUOUS
 10
398.5256901052
 20
320.0002945998
 11
400.1214349684
 21
320.5211438277
  0
LINE
  5
32F
100
AcDbEntity
  8
0
100
AcDbLine
 62
7
  6
CONTINUOUS
 10
400.6533497986
 20
406.4586319068
 11
419.8022859212
 21
410.6253065208
  0
LINE
  5
330
100
AcDbEntity
  8
0
100
AcDbLine
 62
7
  6
CONTINUOUS
 10
397.993775275
 20
392.9169692138
 11
419.8022859212
 21
392.9169692138
  0
LINE
  5
331
100
AcDbEntity
  8
0
100
AcDbLine
 62
7
  6
CONTINUOUS
 10
419.8022859212
 20
396.0419692138
 11
394.8022859212
 21
396.0419692138
  0
LINE
  5
332
100
AcDbEntity
  8
0
100
AcDbLine
 62
7
  6
CONTINUOUS
 10
419.8022859212
 20
403.3336319068
 11
400.6533497986
 21
406.4586319068
  0
LINE
  5
333
100
AcDbEntity
  8
0
100
AcDbLine
 62
7
  6
CONTINUOUS
 10
394.8022859212
 20
404.3753065208
 11
419.8022859212
 21
400.2086319068
  0
LINE
  5
334
100
AcDbEntity
  8
0
100
AcDbLine
 62
7
  6
CONTINUOUS
 10
405.9724988457
 20
511.1461378673
 11
406.5044136759
 21
508.5419692138
  0
LINE
  5
335
100
AcDbEntity
  8
KONSTRUKTIONSELEMENTE
100
AcDbLine
 62
7
  6
CONTINUOUS
 10
402.5022859302
 20
94.4640438417
 11
402.3522859257
 21
93.6980864862
  0
LINE
  5
336
100
AcDbEntity
  8
KONSTRUKTIONSELEMENTE
100
AcDbLine
 62
7
  6
CONTINUOUS
 10
407.4522860643
 20
92.5491499165
 11
407.6022859212
 21
93.315107272
  0
LINE
  5
337
100
AcDbEntity
  8
0
100
AcDbLine
 62
7
  6
CONTINUOUS
 10
409.5272859212
 20
100.4387245443
 11
409.6522861597
 21
101.0770223406
  0
LINE
  5
338
100
AcDbEntity
  8
0
100
AcDbLine
 62
7
  6
CONTINUOUS
 10
415.5272859212
 20
100.4387245443
 11
415.6522854444
 21
101.0770223406
  0
LINE
  5
339
100
AcDbEntity
  8
0
100
AcDbLine
 62
7
  6
CONTINUOUS
 10
408.9022861597
 20
101.0770223406
 11
408.7772859212
 21
100.5663841036
  0
LINE
  5
33A
100
AcDbEntity
  8
0
100
AcDbLine
 62
7
  6
CONTINUOUS
 10
398.5256901052
 20
255.4169692138
 11
399.5895201382
 21
256.9794692138
  0
LINE
  5
33B
100
AcDbEntity
  8
0
100
AcDbLine
 62
7
  6
CONTINUOUS
 10
417.6746266004
 20
268.4377945998
 11
419.270371091
 21
270.5211438277
  0
LINE
  5
33C
100
AcDbEntity
  8
0
100
AcDbLine
 62
7
  6
CONTINUOUS
 10
415.0150524494
 20
412.7086319068
 11
394.8022859212
 21
408.5419692138
  0
LINE
  5
33D
100
AcDbEntity
  8
0
100
AcDbLine
 62
7
  6
CONTINUOUS
 10
419.8022859212
 20
425.2086319068
 11
394.8022859212
 21
421.0419692138
  0
LINE
  5
33E
100
AcDbEntity
  8
0
100
AcDbLine
 62
7
  6
CONTINUOUS
 10
400.6533497986
 20
418.9586319068
 11
419.8022859212
 21
422.0836319068
  0
LINE
  5
33F
100
AcDbEntity
  8
0
100
AcDbLine
 62
7
  6
CONTINUOUS
 10
394.8022859212
 20
416.8753065208
 11
415.0150524494
 21
412.7086319068
  0
LINE
  5
340
100
AcDbEntity
  8
0
100
AcDbLine
 62
7
  6
CONTINUOUS
 10
419.8022859212
 20
414.7919692138
 11
400.6533497986
 21
418.9586319068
  0
LINE
  5
341
100
AcDbEntity
  8
0
100
AcDbLine
 62
7
  6
CONTINUOUS
 10
409.6959026572
 20
509.0628005603
 11
409.163987827
 21
510.6253005603
  0
LINE
  5
342
100
AcDbEntity
  8
0
100
AcDbLine
 62
7
  6
CONTINUOUS
 10
414.9022854444
 20
101.0770223406
 11
414.7772859212
 21
100.5663841036
  0
LINE
  5
343
100
AcDbEntity
  8
0
100
AcDbLine
 62
7
  6
CONTINUOUS
 10
403.277285802
 20
103.2472350267
 11
403.1522859212
 21
102.8642563489
  0
LINE
  5
344
100
AcDbEntity
  8
0
100
AcDbLine
 62
7
  6
CONTINUOUS
 10
403.9022859212
 20
102.7365967897
 11
404.027285802
 21
103.1195754674
  0
LINE
  5
345
100
AcDbEntity
  8
0
100
AcDbLine
 62
7
  6
CONTINUOUS
 10
418.2065414306
 20
221.5627945998
 11
419.270371091
 21
223.6461438277
  0
LINE
  5
346
100
AcDbEntity
  8
0
100
AcDbLine
 62
7
  6
CONTINUOUS
 10
416.0788821098
 20
224.1669692138
 11
415.0150524494
 21
222.6044692138
  0
LINE
  5
347
100
AcDbEntity
  8
0
100
AcDbLine
 62
7
  6
CONTINUOUS
 10
398.5256901052
 20
260.1044692138
 11
396.3980305981
 21
258.0211438277
  0
LINE
  5
348
100
AcDbEntity
  8
0
100
AcDbLine
 62
7
  6
CONTINUOUS
 10
416.61079694
 20
271.0419692138
 11
415.5469672796
 21
270.0002945998
  0
LINE
  5
349
100
AcDbEntity
  8
0
100
AcDbLine
 62
7
  6
CONTINUOUS
 10
415.5469672796
 20
266.8752945998
 11
417.6746266004
 21
268.4377945998
  0
LINE
  5
34A
100
AcDbEntity
  8
0
100
AcDbLine
 62
7
  6
CONTINUOUS
 10
399.5895201382
 20
256.9794692138
 11
401.1852646288
 21
258.0211438277
  0
LINE
  5
34B
100
AcDbEntity
  8
0
100
AcDbLine
 62
7
  6
CONTINUOUS
 10
394.8022859212
 20
265.8336438277
 11
407.0363285061
 21
270.5211438277
  0
LINE
  5
34C
100
AcDbEntity
  8
0
100
AcDbLine
 62
7
  6
CONTINUOUS
 10
405.9724988457
 20
273.6461438277
 11
394.8022859212
 21
269.4794692138
  0
LINE
  5
34D
100
AcDbEntity
  8
KONSTRUKTIONSELEMENTE
100
AcDbLine
 62
7
  6
CONTINUOUS
 10
406.7022859212
 20
93.315107272
 11
406.4022857782
 21
92.5491499165
  0
LINE
  5
34E
100
AcDbEntity
  8
0
100
AcDbLine
 62
7
  6
CONTINUOUS
 10
400.6533497986
 20
261.1461438277
 11
398.5256901052
 21
260.1044692138
  0
LINE
  5
34F
100
AcDbEntity
  8
0
100
AcDbLine
 62
7
  6
CONTINUOUS
 10
415.5469672796
 20
270.0002945998
 11
413.951222789
 21
269.4794692138
  0
LINE
  5
350
100
AcDbEntity
  8
0
100
AcDbLine
 62
7
  6
CONTINUOUS
 10
413.951222789
 20
266.3544692138
 11
415.5469672796
 21
266.8752945998
  0
LINE
  5
351
100
AcDbEntity
  8
0
100
AcDbLine
 62
7
  6
CONTINUOUS
 10
410.7597323176
 20
508.0211378673
 11
409.6959026572
 21
509.0628005603
  0
LINE
  5
352
100
AcDbEntity
  8
0
100
AcDbLine
 62
7
  6
CONTINUOUS
 10
406.5044136759
 20
508.5419692138
 11
408.1001581666
 21
506.4586378673
  0
LINE
  5
353
100
AcDbEntity
  8
0
100
AcDbLine
 62
7
  6
CONTINUOUS
 10
409.2772861597
 20
99.9280862179
 11
409.5272859212
 21
100.4387245443
  0
LINE
  5
354
100
AcDbEntity
  8
0
100
AcDbLine
 62
7
  6
CONTINUOUS
 10
415.2772854444
 20
99.9280862179
 11
415.5272859212
 21
100.4387245443
  0
LINE
  5
355
100
AcDbEntity
  8
KONSTRUKTIONSELEMENTE
100
AcDbLine
 62
7
  6
CONTINUOUS
 10
403.1022859212
 20
93.6980864862
 11
403.402285957
 21
94.2725545028
  0
LINE
  5
356
100
AcDbEntity
  8
KONSTRUKTIONSELEMENTE
100
AcDbLine
 62
7
  6
CONTINUOUS
 10
407.1522859212
 20
91.9746818998
 11
407.4522860643
 21
92.5491499165
  0
LINE
  5
357
100
AcDbEntity
  8
0
100
AcDbLine
 62
7
  6
CONTINUOUS
 10
416.0788821098
 20
219.4794692138
 11
418.2065414306
 21
221.5627945998
  0
LINE
  5
358
100
AcDbEntity
  8
0
100
AcDbLine
 62
7
  6
CONTINUOUS
 10
415.0150524494
 20
222.6044692138
 11
413.4193064686
 21
221.5627945998
  0
LINE
  5
359
100
AcDbEntity
  8
0
100
AcDbLine
 62
7
  6
CONTINUOUS
 10
408.1001581666
 20
506.4586378673
 11
410.2278174874
 21
504.8961378673
  0
LINE
  5
35A
100
AcDbEntity
  8
0
100
AcDbLine
 62
7
  6
CONTINUOUS
 10
408.7772859212
 20
100.5663841036
 11
408.5272861597
 21
100.1834054258
  0
LINE
  5
35B
100
AcDbEntity
  8
0
100
AcDbLine
 62
7
  6
CONTINUOUS
 10
414.7772859212
 20
100.5663841036
 11
414.5272854444
 21
100.1834054258
  0
LINE
  5
35C
100
AcDbEntity
  8
0
100
AcDbLine
 62
7
  6
CONTINUOUS
 10
413.951222789
 20
218.4377945998
 11
416.0788821098
 21
219.4794692138
  0
LINE
  5
35D
100
AcDbEntity
  8
0
100
AcDbLine
 62
7
  6
CONTINUOUS
 10
411.823561978
 20
504.3753005603
 11
413.951222789
 21
504.3753005603
  0
LINE
  5
35E
100
AcDbEntity
  8
0
100
AcDbLine
 62
7
  6
CONTINUOUS
 10
413.951222789
 20
507.5003005603
 11
412.3554768082
 21
507.5003005603
  0
LINE
  5
35F
100
AcDbEntity
  8
0
100
AcDbLine
 62
7
  6
CONTINUOUS
 10
410.2278174874
 20
504.8961378673
 11
411.823561978
 21
504.3753005603
  0
LINE
  5
360
100
AcDbEntity
  8
0
100
AcDbLine
 62
7
  6
CONTINUOUS
 10
412.3554768082
 20
507.5003005603
 11
410.7597323176
 21
508.0211378673
  0
LINE
  5
361
100
AcDbEntity
  8
0
100
AcDbLine
 62
7
  6
CONTINUOUS
 10
407.5682433363
 20
539.7919692138
 11
394.8022859212
 21
548.6461363771
  0
LINE
  5
362
100
AcDbEntity
  8
0
100
AcDbLine
 62
7
  6
CONTINUOUS
 10
394.8022859212
 20
545.521134887
 11
404.9086691853
 21
538.2294692138
  0
LINE
  5
363
100
AcDbEntity
  8
0
100
AcDbLine
 62
7
  6
CONTINUOUS
 10
419.8022859212
 20
530.9378035405
 11
409.6959026572
 21
538.2294692138
  0
LINE
  5
364
100
AcDbEntity
  8
0
100
AcDbLine
 62
7
  6
CONTINUOUS
 10
407.5682433363
 20
536.6669692138
 11
419.8022859212
 21
527.8128035405
  0
LINE
  5
365
100
AcDbEntity
  8
0
100
AcDbLine
 62
7
  6
CONTINUOUS
 10
403.5272859212
 20
102.2259585527
 11
403.9022859212
 21
102.7365967897
  0
LINE
  5
366
100
AcDbEntity
  8
KONSTRUKTIONSELEMENTE
100
AcDbLine
 62
7
  6
CONTINUOUS
 10
403.1022859212
 20
95.2300011972
 11
402.5022859302
 21
94.4640438417
  0
LINE
  5
367
100
AcDbEntity
  8
FASEN
100
AcDbLine
 62
7
  6
CONTINUOUS
 10
381.1462141008
 20
125.1044692139
 11
379.9725659232
 21
124.1196614609
  0
LINE
  5
368
100
AcDbEntity
  8
0
100
AcDbLine
 62
7
  6
CONTINUOUS
 10
394.8022859212
 20
520.5211378673
 11
405.9724988457
 21
520.5211378673
  0
LINE
  5
369
100
AcDbEntity
  8
0
100
AcDbLine
 62
7
  6
CONTINUOUS
 10
409.163987827
 20
520.5211378673
 11
417.1427117702
 21
520.5211378673
  0
LINE
  5
36A
100
AcDbEntity
  8
0
100
AcDbLine
 62
7
  6
CONTINUOUS
 10
419.8022859212
 20
523.646134887
 11
394.8022859212
 21
523.646134887
  0
LINE
  5
36B
100
AcDbEntity
  8
KONSTRUKTIONSELEMENTE
100
AcDbLine
 62
7
  6
CONTINUOUS
 10
406.4022857782
 20
92.5491499165
 11
402.2022859212
 21
87.7619160423
  0
LINE
  5
36C
100
AcDbEntity
  8
KONSTRUKTIONSELEMENTE
100
AcDbLine
 62
7
  6
CONTINUOUS
 10
403.402285957
 20
87.7619160423
 11
407.1522859212
 21
91.9746818998
  0
LINE
  5
36D
100
AcDbEntity
  8
0
100
AcDbLine
 62
7
  6
CONTINUOUS
 10
403.1522859212
 20
102.8642563489
 11
402.902285802
 21
102.6089372304
  0
LINE
  5
36E
100
AcDbEntity
  8
0
100
AcDbLine
 62
7
  6
CONTINUOUS
 10
408.7772859212
 20
99.4174479362
 11
409.2772861597
 21
99.9280862179
  0
LINE
  5
36F
100
AcDbEntity
  8
0
100
AcDbLine
 62
7
  6
CONTINUOUS
 10
414.7772859212
 20
99.4174479362
 11
415.2772854444
 21
99.9280862179
  0
LINE
  5
370
100
AcDbEntity
  8
0
100
AcDbLine
 62
7
  6
CONTINUOUS
 10
417.1427117702
 20
552.8128020504
 11
419.8022859212
 21
552.8128020504
  0
LINE
  5
371
100
AcDbEntity
  8
KONSTRUKTIONSELEMENTE
100
AcDbLine
 62
7
  6
CONTINUOUS
 10
403.402285957
 20
94.2725545028
 11
403.852285957
 21
94.6555331805
  0
LINE
  5
372
100
AcDbEntity
  8
0
100
AcDbLine
 62
7
  6
CONTINUOUS
 10
394.8022859212
 20
561.1461356321
 11
417.1427117702
 21
561.1461356321
  0
LINE
  5
373
100
AcDbEntity
  8
0
100
AcDbLine
 62
7
  6
CONTINUOUS
 10
417.1427117702
 20
564.2711356321
 11
394.8022859212
 21
564.2711356321
  0
LINE
  5
374
100
AcDbEntity
  8
0
100
AcDbLine
 62
7
  6
CONTINUOUS
 10
419.8022859212
 20
572.6044692138
 11
417.1427117702
 21
572.6044692138
  0
LINE
  5
375
100
AcDbEntity
  8
BEZUGSACHSEN
100
AcDbLine
 62
7
  6
CONTINUOUS
 10
415.8022859212
 20
50.1044692138
 11
417.3022859212
 21
51.6044692138
  0
LINE
  5
376
100
AcDbEntity
  8
0
100
AcDbLine
 62
7
  6
CONTINUOUS
 10
408.5272861597
 20
100.1834054258
 11
408.1522861597
 21
99.9280862179
  0
LINE
  5
377
100
AcDbEntity
  8
0
100
AcDbLine
 62
7
  6
CONTINUOUS
 10
414.5272854444
 20
100.1834054258
 11
414.1522854444
 21
99.9280862179
  0
LINE
  5
378
100
AcDbEntity
  8
KONSTRUKTIONSELEMENTE
100
AcDbLine
 62
7
  6
CONTINUOUS
 10
403.7022858855
 20
95.6129798749
 11
403.1022859212
 21
95.2300011972
  0
LINE
  5
379
100
AcDbEntity
  8
0
100
AcDbLine
 62
7
  6
CONTINUOUS
 10
403.0272860405
 20
101.9706394342
 11
403.5272859212
 21
102.2259585527
  0
LINE
  5
37A
100
AcDbEntity
  8
0
100
AcDbLine
 62
7
  6
CONTINUOUS
 10
408.2772856828
 20
99.1621287842
 11
408.7772859212
 21
99.4174479362
  0
LINE
  5
37B
100
AcDbEntity
  8
0
100
AcDbLine
 62
7
  6
CONTINUOUS
 10
414.2772863981
 20
99.1621287842
 11
414.7772859212
 21
99.4174479362
  0
LINE
  5
37C
100
AcDbEntity
  8
0
100
AcDbLine
 62
7
  6
CONTINUOUS
 10
402.902285802
 20
102.6089372304
 11
402.527285802
 21
102.4812776712
  0
LINE
  5
37D
100
AcDbEntity
  8
0
100
AcDbLine
 62
7
  6
CONTINUOUS
 10
389.8022859212
 20
676.1044692138
 11
424.8022859212
 21
676.1044692138
  0
LINE
  5
37E
100
AcDbEntity
  8
BEZUGSACHSEN
100
AcDbLine
 62
7
  6
CONTINUOUS
 10
702.2049349449
 20
50.1044692138
 11
719.2038667826
 21
50.1044692138
  0
LINE
  5
37F
100
AcDbEntity
  8
BEZUGSACHSEN
100
AcDbLine
 62
7
  6
CONTINUOUS
 10
700.7044008637
 20
51.6044692138
 11
720.7044008637
 21
51.6044692138
  0
LINE
  5
380
100
AcDbEntity
  8
0
100
AcDbLine
 62
7
  6
CONTINUOUS
 10
738.2044008637
 20
84.1044692138
 11
683.2044008637
 21
84.1044692138
  0
LINE
  5
381
100
AcDbEntity
  8
RUNDUNGEN
100
AcDbLine
 62
9
  6
CONTINUOUS
 10
736.4200570795
 20
110.6308210362
 11
737.2384579463
 21
110.7975315878
  0
LINE
  5
382
100
AcDbEntity
  8
0
100
AcDbLine
 62
7
  6
CONTINUOUS
 10
682.2044008637
 20
105.2044692138
 11
681.2044008637
 21
105.2044692138
  0
LINE
  5
383
100
AcDbEntity
  8
RUNDUNGEN
100
AcDbLine
 62
7
  6
CONTINUOUS
 10
681.2044008637
 20
105.2044692138
 11
683.2044008637
 21
105.2044692138
  0
LINE
  5
384
100
AcDbEntity
  8
RUNDUNGEN
100
AcDbLine
 62
9
  6
CONTINUOUS
 10
683.2044008637
 20
108.2044692138
 11
680.2044008637
 21
108.2044692138
  0
LINE
  5
385
100
AcDbEntity
  8
RUNDUNGEN
100
AcDbLine
 62
9
  6
CONTINUOUS
 10
682.320933063
 20
114.2040208444
 11
680.2044008637
 21
114.2044692138
  0
LINE
  5
386
100
AcDbEntity
  8
RUNDUNGEN
100
AcDbLine
 62
9
  6
CONTINUOUS
 10
682.3210168762
 20
114.2044692126
 11
683.249862355
 21
114.0308210357
  0
LINE
  5
387
100
AcDbEntity
  8
0
100
AcDbLine
 62
7
  6
CONTINUOUS
 10
682.3742142909
 20
123.2044692138
 11
681.2044008637
 21
123.2044692138
  0
LINE
  5
388
100
AcDbEntity
  8
FASEN
100
AcDbLine
 62
7
  6
CONTINUOUS
 10
738.034120862
 20
124.1196614608
 11
683.3746808655
 21
124.1196614608
  0
LINE
  5
389
100
AcDbEntity
  8
FASEN
100
AcDbLine
 62
7
  6
CONTINUOUS
 10
736.8601661305
 20
125.1044692138
 11
684.5486355969
 21
125.1044692138
  0
LINE
  5
38A
100
AcDbEntity
  8
RUNDUNGEN
100
AcDbLine
 62
9
  6
CONTINUOUS
 10
700.806635395
 20
133.1053127752
 11
684.7044008637
 21
133.1044692138
  0
LINE
  5
38B
100
AcDbEntity
  8
RUNDUNGEN
100
AcDbLine
 62
9
  6
CONTINUOUS
 10
736.7044008637
 20
133.1044692138
 11
720.6021754335
 21
133.1053299685
  0
LINE
  5
38C
100
AcDbEntity
  8
RUNDUNGEN
100
AcDbLine
 62
7
  6
CONTINUOUS
 10
698.6701774492
 20
136.1827231374
 11
698.1322444886
 21
136.1068661116
  0
LINE
  5
38D
100
AcDbEntity
  8
RUNDUNGEN
100
AcDbLine
 62
7
  6
CONTINUOUS
 10
698.1396739781
 20
136.1071934018
 11
698.0305613988
 21
136.1044463783
  0
LINE
  5
38E
100
AcDbEntity
  8
RUNDUNGEN
100
AcDbLine
 62
7
  6
CONTINUOUS
 10
698.030561032
 20
136.1045083736
 11
687.7044008637
 21
136.1044692138
  0
LINE
  5
38F
100
AcDbEntity
  8
RUNDUNGEN
100
AcDbLine
 62
7
  6
CONTINUOUS
 10
723.3775175348
 20
136.1044692138
 11
733.7031798039
 21
136.1044692138
  0
LWPOLYLINE
  5
390
100
AcDbEntity
  8
RUNDUNGEN
100
AcDbPolyline
 62
7
  6
CONTINUOUS
 90
12
 70
0
 10
723.3788070204
 20
136.1044386055
 10
723.2765082516
 20
136.1068668538
 10
722.7513060644
 20
136.179675474
 10
722.2411389341
 20
136.3544032164
 10
721.7821962311
 20
136.6185729362
 10
721.3978086596
 20
136.949300606
 10
721.1033400422
 20
137.3136262107
 10
720.9022166896
 20
137.6719902329
 10
720.7818145531
 20
137.9933984006
 10
720.7248279634
 20
138.2436372665
 10
720.7060273361
 20
138.4156607852
 10
720.7043991545
 20
138.4773501171
  0
LINE
  5
391
100
AcDbEntity
  8
BEZUGSACHSEN
100
AcDbLine
 62
7
  6
CONTINUOUS
 10
702.2044008637
 20
50.1044692138
 11
700.7044008637
 21
51.6044692138
  0
LINE
  5
392
100
AcDbEntity
  8
FASEN
100
AcDbLine
 62
7
  6
CONTINUOUS
 10
736.8604726843
 20
125.1044692138
 11
738.034120862
 21
124.1196614608
  0
LINE
  5
393
100
AcDbEntity
  8
RUNDUNGEN
100
AcDbLine
 62
7
  6
CONTINUOUS
 10
680.2044008637
 20
122.2044692138
 11
680.2044008637
 21
106.2044692138
  0
LINE
  5
394
100
AcDbEntity
  8
RUNDUNGEN
100
AcDbLine
 62
9
  6
CONTINUOUS
 10
681.2044008637
 20
123.2044692138
 11
681.2044008637
 21
105.2044692138
  0
LINE
  5
395
100
AcDbEntity
  8
RUNDUNGEN
100
AcDbLine
 62
9
  6
CONTINUOUS
 10
682.2044008637
 20
105.2044692138
 11
682.2044008637
 21
113.580548272
  0
LINE
  5
396
100
AcDbEntity
  8
0
100
AcDbLine
 62
7
  6
CONTINUOUS
 10
683.2044008637
 20
103.1484184919
 11
683.2044008637
 21
84.1044692138
  0
LINE
  5
397
100
AcDbEntity
  8
RUNDUNGEN
100
AcDbLine
 62
7
  6
CONTINUOUS
 10
683.2044008637
 20
103.1484184919
 11
683.2044008637
 21
113.1625761026
  0
LINE
  5
398
100
AcDbEntity
  8
0
100
AcDbLine
 62
7
  6
CONTINUOUS
 10
684.5108258291
 20
103.1484184919
 11
684.5108258291
 21
84.1044692138
  0
LINE
  5
399
100
AcDbEntity
  8
BEZUGSACHSEN
100
AcDbLine
 62
7
  6
CONTINUOUS
 10
684.7044008637
 20
133.1044692138
 11
684.7044008637
 21
125.1044692138
  0
LINE
  5
39A
100
AcDbEntity
  8
0
100
AcDbLine
 62
7
  6
CONTINUOUS
 10
687.2044008637
 20
175.6044692138
 11
687.2044008637
 21
352.6044692138
  0
LINE
  5
39B
100
AcDbEntity
  8
0
100
AcDbLine
 62
7
  6
CONTINUOUS
 10
687.2044008637
 20
355.1044692138
 11
687.2044008637
 21
652.6044692138
  0
LINE
  5
39C
100
AcDbEntity
  8
0
100
AcDbLine
 62
7
  6
CONTINUOUS
 10
683.5874417495
 20
341.1329404868
 11
683.2502522973
 21
341.369043083
  0
LINE
  5
39D
100
AcDbEntity
  8
0
100
AcDbLine
 62
7
  6
CONTINUOUS
 10
699.2044008637
 20
175.6044692138
 11
699.2044008637
 21
352.6044692138
  0
LINE
  5
39E
100
AcDbEntity
  8
0
100
AcDbLine
 62
7
  6
CONTINUOUS
 10
699.2044008637
 20
355.1044692138
 11
699.2044008637
 21
652.6044692138
  0
LINE
  5
39F
100
AcDbEntity
  8
BEZUGSACHSEN
100
AcDbLine
 62
7
  6
CONTINUOUS
 10
700.7044008637
 20
51.6044692138
 11
700.7044008637
 21
84.1044692138
  0
LINE
  5
3A0
100
AcDbEntity
  8
0
100
AcDbLine
 62
7
  6
CONTINUOUS
 10
700.7044008637
 20
138.4748855495
 11
700.7044008637
 21
178.1044692138
  0
LINE
  5
3A1
100
AcDbEntity
  8
0
100
AcDbLine
 62
7
  6
CONTINUOUS
 10
709.3979758984
 20
103.1484184919
 11
709.3979758984
 21
84.1044692138
  0
LINE
  5
3A2
100
AcDbEntity
  8
0
100
AcDbLine
 62
7
  6
CONTINUOUS
 10
712.0108258291
 20
103.1484184919
 11
712.0108258291
 21
84.1044692138
  0
LINE
  5
3A3
100
AcDbEntity
  8
RUNDUNGEN
100
AcDbLine
 62
7
  6
CONTINUOUS
 10
700.7044008637
 20
138.4748855495
 11
700.7044027307
 21
138.477107094
  0
LWPOLYLINE
  5
3A4
100
AcDbEntity
  8
RUNDUNGEN
100
AcDbPolyline
 62
7
  6
CONTINUOUS
 90
10
 70
0
 10
700.7044019524
 20
138.4770653273
 10
700.7033841608
 20
138.4285982675
 10
700.6868770271
 20
138.2622677567
 10
700.633173681
 20
138.0149622885
 10
700.5160824334
 20
137.6929589008
 10
700.3176588325
 20
137.331956875
 10
700.0253451468
 20
136.9642957865
 10
699.6419669095
 20
136.6295702074
 10
699.1827370102
 20
136.3613156648
 10
698.6701774492
 20
136.1827231374
  0
LWPOLYLINE
  5
3A5
100
AcDbEntity
  8
RUNDUNGEN
100
AcDbPolyline
 62
7
  6
CONTINUOUS
 90
3
 70
0
 10
700.7030149848
 20
138.4248783469
 10
700.702769152
 20
138.4155809745
 10
700.683979342
 20
138.2436724258
  0
LINE
  5
3A6
100
AcDbEntity
  8
0
100
AcDbLine
 62
7
  6
CONTINUOUS
 10
686.7044008637
 20
352.6044692138
 11
699.7044008637
 21
352.6044692138
  0
LINE
  5
3A7
100
AcDbEntity
  8
0
100
AcDbLine
 62
7
  6
CONTINUOUS
 10
687.2044008637
 20
355.1044692138
 11
699.2044008637
 21
355.1044692138
  0
LINE
  5
3A8
100
AcDbEntity
  8
BEZUGSACHSEN
100
AcDbLine
 62
7
  6
CONTINUOUS
 10
738.034120862
 20
124.1196614608
 11
738.19003135
 21
123.2354491446
  0
LINE
  5
3A9
100
AcDbEntity
  8
BEZUGSACHSEN
100
AcDbLine
 62
7
  6
CONTINUOUS
 10
720.7044008637
 20
51.6044692138
 11
720.7044008637
 21
84.1044692138
  0
LINE
  5
3AA
100
AcDbEntity
  8
RUNDUNGEN
100
AcDbLine
 62
7
  6
CONTINUOUS
 10
720.7044008637
 20
138.4748855495
 11
720.7044008637
 21
178.1044692138
  0
LINE
  5
3AB
100
AcDbEntity
  8
0
100
AcDbLine
 62
7
  6
CONTINUOUS
 10
720.7044008637
 20
138.4748855495
 11
720.7044008637
 21
178.1044692138
  0
LINE
  5
3AC
100
AcDbEntity
  8
BEZUGSACHSEN
100
AcDbLine
 62
7
  6
CONTINUOUS
 10
722.2044008637
 20
175.6044692138
 11
722.2044008637
 21
652.6044692138
  0
LINE
  5
3AD
100
AcDbEntity
  8
BEZUGSACHSEN
100
AcDbLine
 62
7
  6
CONTINUOUS
 10
683.3746808655
 20
124.1196614608
 11
683.3590082091
 21
124.0307774096
  0
LINE
  5
3AE
100
AcDbEntity
  8
BEZUGSACHSEN
100
AcDbLine
 62
7
  6
CONTINUOUS
 10
734.2044008637
 20
175.6044692138
 11
734.2044008637
 21
652.6044692138
  0
LINE
  5
3AF
100
AcDbEntity
  8
BEZUGSACHSEN
100
AcDbLine
 62
7
  6
CONTINUOUS
 10
736.7044008637
 20
133.1044692138
 11
736.7044008637
 21
125.1044692138
  0
LINE
  5
3B0
100
AcDbEntity
  8
0
100
AcDbLine
 62
7
  6
CONTINUOUS
 10
736.8979758984
 20
103.1484184919
 11
736.8979758984
 21
84.1044692138
  0
LINE
  5
3B1
100
AcDbEntity
  8
RUNDUNGEN
100
AcDbLine
 62
9
  6
CONTINUOUS
 10
737.20440068
 20
117.1392221273
 11
737.2044013996
 21
111.1227992964
  0
LINE
  5
3B2
100
AcDbEntity
  8
RUNDUNGEN
100
AcDbLine
 62
7
  6
CONTINUOUS
 10
738.2044008637
 20
123.0663531264
 11
738.2044008637
 21
84.1044692138
  0
LWPOLYLINE
  5
3B3
100
AcDbEntity
  8
RUNDUNGEN
100
AcDbPolyline
 62
7
  6
CONTINUOUS
 90
8
 70
0
 10
700.683979342
 20
138.2436724258
 10
700.6270546683
 20
137.9936264554
 10
700.5067808144
 20
137.6724177102
 10
700.3058135418
 20
137.3141514409
 10
700.0113991975
 20
136.9497219709
 10
699.62695781
 20
136.6188230596
 10
699.1678507063
 20
136.3544892858
 10
698.6575008644
 20
136.1796780306
  0
LINE
  5
3B4
100
AcDbEntity
  8
FASEN
100
AcDbLine
 62
7
  6
CONTINUOUS
 10
684.5483290432
 20
125.1044692138
 11
683.3746808655
 21
124.1196614608
  0
LINE
  5
3B5
100
AcDbEntity
  8
BEZUGSACHSEN
100
AcDbLine
 62
7
  6
CONTINUOUS
 10
719.2044008637
 20
50.1044692138
 11
720.7044008637
 21
51.6044692138
  0
ARC
  5
3B6
100
AcDbEntity
  8
RUNDUNGEN
100
AcDbCircle
 62
7
  6
CONTINUOUS
 10
404.3121757814
 20
110.7616929724
 40
11.379149904
100
AcDbArc
 50
178.1814811195
 51
179.8195461462
  0
ARC
  5
3B7
100
AcDbEntity
  8
RUNDUNGEN
100
AcDbCircle
 62
7
  6
CONTINUOUS
 10
402.9336831294
 20
110.8044692138
 40
10.0
100
AcDbArc
 50
140.6930088088
 51
178.1757947985
  0
ARC
  5
3B8
100
AcDbEntity
  8
RUNDUNGEN
100
AcDbCircle
 62
7
  6
CONTINUOUS
 10
378.3023588908
 20
126.0277287413
 40
2.9999760107
100
AcDbArc
 50
359.9986793299
 51
41.9618386376
  0
ARC
  5
3B9
100
AcDbEntity
  8
RUNDUNGEN
100
AcDbCircle
 62
7
  6
CONTINUOUS
 10
398.8022859212
 20
87.8044692138
 40
2.0
100
AcDbArc
 50
180.0
 51
270.0
  0
ARC
  5
3BA
100
AcDbEntity
  8
RUNDUNGEN
100
AcDbCircle
 62
7
  6
CONTINUOUS
 10
398.8022859212
 20
113.8044692138
 40
2.0
100
AcDbArc
 50
90.0
 51
180.0
  0
ARC
  5
3BB
100
AcDbEntity
  8
0
100
AcDbCircle
 62
7
  6
CONTINUOUS
 10
395.8022859212
 20
352.6044692138
 40
6.5
100
AcDbArc
 50
157.380135052
 51
180.0
  0
ARC
  5
3BC
100
AcDbEntity
  8
0
100
AcDbCircle
 62
7
  6
CONTINUOUS
 10
407.3022859212
 20
152.1044692138
 40
36.0
100
AcDbArc
 50
119.1289629572
 51
221.9618888284
  0
ARC
  5
3BD
100
AcDbEntity
  8
0
100
AcDbCircle
 62
7
  6
CONTINUOUS
 10
407.3022859212
 20
152.1044692138
 40
36.0
100
AcDbArc
 50
318.0381111716
 51
60.8710370428
  0
ARC
  5
3BE
100
AcDbEntity
  8
0
100
AcDbCircle
 62
7
  6
CONTINUOUS
 10
407.3022859212
 20
152.1044692138
 40
16.0
100
AcDbArc
 50
180.0
 51
360.0
  0
ARC
  5
3BF
100
AcDbEntity
  8
RUNDUNGEN
100
AcDbCircle
 62
7
  6
CONTINUOUS
 10
410.2970633785
 20
110.7617915121
 40
11.3744841205
100
AcDbArc
 50
0.1800310053
 51
1.818714521
  0
ARC
  5
3C0
100
AcDbEntity
  8
RUNDUNGEN
100
AcDbCircle
 62
7
  6
CONTINUOUS
 10
411.6708887131
 20
110.8044692138
 40
10.0
100
AcDbArc
 50
1.824138958
 51
39.3069891446
  0
ARC
  5
3C1
100
AcDbEntity
  8
RUNDUNGEN
100
AcDbCircle
 62
7
  6
CONTINUOUS
 10
436.3022129507
 20
126.027728743
 40
2.9999760102
100
AcDbArc
 50
138.0381613748
 51
180.001320703
  0
ARC
  5
3C2
100
AcDbEntity
  8
RUNDUNGEN
100
AcDbCircle
 62
7
  6
CONTINUOUS
 10
415.8022859212
 20
87.8044692138
 40
2.0
100
AcDbArc
 50
270.0
 51
360.0
  0
ARC
  5
3C3
100
AcDbEntity
  8
RUNDUNGEN
100
AcDbCircle
 62
7
  6
CONTINUOUS
 10
415.8022859212
 20
113.8044692138
 40
2.0
100
AcDbArc
 50
0.0
 51
90.0
  0
ARC
  5
3C4
100
AcDbEntity
  8
0
100
AcDbCircle
 62
7
  6
CONTINUOUS
 10
418.8022859212
 20
352.6044692138
 40
6.5
100
AcDbArc
 50
0.0
 51
22.619864948
  0
ARC
  5
3C5
100
AcDbEntity
  8
RUNDUNGEN
100
AcDbCircle
 62
9
  6
CONTINUOUS
 10
-2393.731159058
 20
-521.7580083601
 40
3193.3935346944
100
AcDbArc
 50
11.2869139516
 51
11.4218026595
  0
ARC
  5
3C6
100
AcDbEntity
  8
RUNDUNGEN
100
AcDbCircle
 62
9
  6
CONTINUOUS
 10
772.7248248961
 20
114.677519175
 40
35.6978500981
100
AcDbArc
 50
185.714873377
 51
186.2397861798
  0
ARC
  5
3C7
100
AcDbEntity
  8
BEZUGSACHSEN
100
AcDbCircle
 62
7
  6
CONTINUOUS
 10
710.7044008637
 20
175.6044692138
 40
23.5
100
AcDbArc
 50
295.1856436557
 51
360.0
  0
ARC
  5
3C8
100
AcDbEntity
  8
BEZUGSACHSEN
100
AcDbCircle
 62
7
  6
CONTINUOUS
 10
710.7044008637
 20
175.6044692138
 40
23.5
100
AcDbArc
 50
180.0
 51
244.8143563443
  0
ARC
  5
3C9
100
AcDbEntity
  8
BEZUGSACHSEN
100
AcDbCircle
 62
7
  6
CONTINUOUS
 10
710.7044008637
 20
652.6044692138
 40
23.5
100
AcDbArc
 50
0.0
 51
180.0
  0
ARC
  5
3CA
100
AcDbEntity
  8
0
100
AcDbCircle
 62
7
  6
CONTINUOUS
 10
666.7044008637
 20
352.6044692138
 40
20.0
100
AcDbArc
 50
325.821615884
 51
360.0
  0
ARC
  5
3CB
100
AcDbEntity
  8
0
100
AcDbCircle
 62
7
  6
CONTINUOUS
 10
667.2044008637
 20
352.6044692138
 40
20.0
100
AcDbArc
 50
325.0
 51
360.0
  0
ARC
  5
3CC
100
AcDbEntity
  8
BEZUGSACHSEN
100
AcDbCircle
 62
7
  6
CONTINUOUS
 10
710.7044008637
 20
175.6044692138
 40
11.5
100
AcDbArc
 50
330.428255555
 51
360.0
  0
ARC
  5
3CD
100
AcDbEntity
  8
BEZUGSACHSEN
100
AcDbCircle
 62
7
  6
CONTINUOUS
 10
710.7044008637
 20
175.6044692138
 40
11.5
100
AcDbArc
 50
180.0
 51
209.571744445
  0
ARC
  5
3CE
100
AcDbEntity
  8
BEZUGSACHSEN
100
AcDbCircle
 62
7
  6
CONTINUOUS
 10
710.7044008637
 20
652.6044692138
 40
11.5
100
AcDbArc
 50
0.0
 51
180.0
  0
ARC
  5
3CF
100
AcDbEntity
  8
0
100
AcDbCircle
 62
7
  6
CONTINUOUS
 10
710.7044008637
 20
178.1044692138
 40
10.0
100
AcDbArc
 50
0.0
 51
180.0
  0
ARC
  5
3D0
100
AcDbEntity
  8
0
100
AcDbCircle
 62
7
  6
CONTINUOUS
 10
693.2044008637
 20
352.6044692138
 40
6.5
100
AcDbArc
 50
157.380135052
 51
180.0
  0
ARC
  5
3D1
100
AcDbEntity
  8
0
100
AcDbCircle
 62
7
  6
CONTINUOUS
 10
693.2044008637
 20
352.6044692138
 40
6.5
100
AcDbArc
 50
0.0
 51
22.619864948
  0
ARC
  5
3D2
100
AcDbEntity
  8
RUNDUNGEN
100
AcDbCircle
 62
7
  6
CONTINUOUS
 10
687.7044008637
 20
133.1044692138
 40
3.0
100
AcDbArc
 50
90.0
 51
180.0
  0
ARC
  5
3D3
100
AcDbEntity
  8
RUNDUNGEN
100
AcDbCircle
 62
7
  6
CONTINUOUS
 10
733.7044008637
 20
133.1044692138
 40
3.0
100
AcDbArc
 50
0.0
 51
90.0
  0
ARC
  5
3D4
100
AcDbEntity
  8
RUNDUNGEN
100
AcDbCircle
 62
7
  6
CONTINUOUS
 10
737.2044008637
 20
123.0663541874
 40
1.0
100
AcDbArc
 50
0.0000001831
 51
9.9980965379
  0
ARC
  5
3D5
100
AcDbEntity
  8
RUNDUNGEN
100
AcDbCircle
 62
7
  6
CONTINUOUS
 10
682.3742081587
 20
124.2044692039
 40
0.999999999
100
AcDbArc
 50
269.9999999985
 51
349.9999999389
  0
ARC
  5
3D6
100
AcDbEntity
  8
RUNDUNGEN
100
AcDbCircle
 62
7
  6
CONTINUOUS
 10
681.2044008637
 20
122.2044692138
 40
1.0
100
AcDbArc
 50
90.0
 51
180.0
  0
ARC
  5
3D7
100
AcDbEntity
  8
RUNDUNGEN
100
AcDbCircle
 62
7
  6
CONTINUOUS
 10
681.2044008637
 20
106.2044692138
 40
1.0
100
AcDbArc
 50
180.0
 51
270.0
  0
ARC
  5
3D8
100
AcDbEntity
  8
RUNDUNGEN
100
AcDbCircle
 62
9
  6
CONTINUOUS
 10
738.1512938274
 20
121.4004773302
 40
0.2302990398
100
AcDbArc
 50
83.1473879029
 51
84.8669526003
  0
SPLINE
  5
3D9
100
AcDbEntity
  8
RUNDUNGEN
100
AcDbSpline
 62
7
  6
CONTINUOUS
 70
0
 71
3
 72
17
 73
13
 74
0
 42
0.0000001
 43
0.0000001
 44
0.0000000001
 40
0.0
 40
0.0
 40
0.0
 40
0.0
 40
0.2578377256
 40
0.3866319798
 40
0.5151542907
 40
0.6429792993
 40
0.70629257
 40
0.7684820555
 40
0.8279597955
 40
0.883411434
 40
0.9407299572
 40
1.0
 40
1.0
 40
1.0
 40
1.0
 10
392.9336831294
 20
102.402602922
 30
0.0
 10
392.9336829298
 20
102.5100320471
 30
0.0
 10
392.9291615962
 20
102.6712142247
 30
0.0
 10
392.9108680436
 20
102.8851378363
 30
0.0
 10
392.8888391995
 20
103.0441758618
 30
0.0
 10
392.860588209
 20
103.1745737399
 30
0.0
 10
392.8258223005
 20
103.274655184
 30
0.0
 10
392.7912933012
 20
103.3432108843
 30
0.0
 10
392.7390321908
 20
103.401063399
 30
0.0
 10
392.6606475337
 20
103.4074597669
 30
0.0
 10
392.5977594936
 20
103.3687225007
 30
0.0
 10
392.5622350746
 20
103.3357732284
 30
0.0
 10
392.5451985366
 20
103.3178957448
 30
0.0
  0
SPLINE
  5
3DA
100
AcDbEntity
  8
RUNDUNGEN
100
AcDbSpline
 62
7
  6
CONTINUOUS
 70
0
 71
3
 72
17
 73
13
 74
0
 42
0.0000001
 43
0.0000001
 44
0.0000000001
 40
0.0
 40
0.0
 40
0.0
 40
0.0
 40
0.0592544805
 40
0.1166279184
 40
0.1722914626
 40
0.2316710985
 40
0.2938063278
 40
0.3571159527
 40
0.4849191851
 40
0.6134232077
 40
0.7421990331
 40
1.0
 40
1.0
 40
1.0
 40
1.0
 10
422.059373535
 20
103.317895529
 30
0.0
 10
422.0423405634
 20
103.3357693736
 30
0.0
 10
422.0067649318
 20
103.3686692948
 30
0.0
 10
421.9438930239
 20
103.4076814415
 30
0.0
 10
421.8653292843
 20
103.4010619518
 30
0.0
 10
421.8133453044
 20
103.3429896771
 30
0.0
 10
421.7786603253
 20
103.2745958014
 30
0.0
 10
421.7440077671
 20
103.1744883027
 30
0.0
 10
421.7157086277
 20
103.0441262707
 30
0.0
 10
421.6937034565
 20
102.8850944874
 30
0.0
 10
421.6754073185
 20
102.6711920791
 30
0.0
 10
421.6708884576
 20
102.5100227818
 30
0.0
 10
421.6708887131
 20
102.4026029273
 30
0.0
  0
SPLINE
  5
3DB
100
AcDbEntity
  8
RUNDUNGEN
100
AcDbSpline
 62
7
  6
CONTINUOUS
 70
0
 71
3
 72
9
 73
5
 74
0
 42
0.0000001
 43
0.0000001
 44
0.0000000001
 40
0.0
 40
0.0
 40
0.0
 40
0.0
 40
0.4887546402
 40
1.0
 40
1.0
 40
1.0
 40
1.0
 10
422.1978077472
 20
103.2599103252
 30
0.0
 10
422.172855843
 20
103.2562321485
 30
0.0
 10
422.1184750516
 20
103.2648613424
 30
0.0
 10
422.0775738793
 20
103.298796695
 30
0.0
 10
422.059373535
 20
103.317895529
 30
0.0
  0
SPLINE
  5
3DC
100
AcDbEntity
  8
RUNDUNGEN
100
AcDbSpline
 62
7
  6
CONTINUOUS
 70
0
 71
3
 72
9
 73
5
 74
0
 42
0.0000001
 43
0.0000001
 44
0.0000000001
 40
0.0
 40
0.0
 40
0.0
 40
0.0
 40
0.5111597143
 40
1.0
 40
1.0
 40
1.0
 40
1.0
 10
392.5451985366
 20
103.3178957448
 30
0.0
 10
392.5270014546
 20
103.2988003333
 30
0.0
 10
392.486099015
 20
103.2648711732
 30
0.0
 10
392.4317201156
 20
103.2562315537
 30
0.0
 10
392.4067641309
 20
103.2599103323
 30
0.0
  0
SPLINE
  5
3DD
100
AcDbEntity
  8
RUNDUNGEN
100
AcDbSpline
 62
7
  6
CONTINUOUS
 70
0
 71
3
 72
9
 73
5
 74
0
 42
0.0000001
 43
0.0000001
 44
0.0000000001
 40
0.0
 40
0.0
 40
0.0
 40
0.0
 40
0.4991475155
 40
1.0
 40
1.0
 40
1.0
 40
1.0
 10
392.4067641309
 20
103.2599103323
 30
0.0
 10
392.1188588645
 20
103.302350629
 30
0.0
 10
391.5312825505
 20
103.327099272
 30
0.0
 10
390.9523940946
 20
103.2260386928
 30
0.0
 10
390.6708887131
 20
103.1484184919
 30
0.0
  0
SPLINE
  5
3DE
100
AcDbEntity
  8
BEZUGSACHSEN
100
AcDbSpline
 62
7
  6
CONTINUOUS
 70
0
 71
3
 72
35
 73
31
 74
0
 42
0.0000001
 43
0.0000001
 44
0.0000000001
 40
0.0
 40
0.0
 40
0.0
 40
0.0
 40
0.0696953358
 40
0.138852935
 40
0.2072606308
 40
0.2745594339
 40
0.3076048086
 40
0.3400800601
 40
0.37177835
 40
0.4023772326
 40
0.4313526353
 40
0.4578498958
 40
0.46982277
 40
0.4807681094
 40
0.490712913
 40
0.4999998561
 40
0.5092868356
 40
0.5192316789
 40
0.530176923
 40
0.5421499928
 40
0.5686473041
 40
0.5976227153
 40
0.6282215902
 40
0.6599198765
 40
0.6923951486
 40
0.7254405476
 40
0.7927393546
 40
0.8611470557
 40
0.930304661
 40
1.0
 40
1.0
 40
1.0
 40
1.0
 10
390.6708887131
 20
103.1484184919
 30
0.0
 10
390.48110852
 20
104.1452680952
 30
0.0
 10
390.0917337746
 20
106.1291568708
 30
0.0
 10
389.4677525965
 20
109.0817704893
 30
0.0
 10
388.7953212412
 20
111.9879846287
 30
0.0
 10
388.1786416255
 20
114.3668642851
 30
0.0
 10
387.6373786289
 20
116.223559651
 30
0.0
 10
387.20648917
 20
117.5721008978
 30
0.0
 10
386.7421566325
 20
118.8718147668
 30
0.0
 10
386.2367097988
 20
120.1017893869
 30
0.0
 10
385.6807850027
 20
121.2258632547
 30
0.0
 10
385.1494183903
 20
122.057390984
 30
0.0
 10
384.6693470579
 20
122.5957732741
 30
0.0
 10
384.2985301211
 20
122.9021745644
 30
0.0
 10
383.9031791544
 20
123.1047634432
 30
0.0
 10
383.4865937015
 20
123.1777071213
 30
0.0
 10
383.0700027095
 20
123.1047760445
 30
0.0
 10
382.6746590694
 20
122.9021735467
 30
0.0
 10
382.303830523
 20
122.5957848061
 30
0.0
 10
381.8237650887
 20
122.0573923313
 30
0.0
 10
381.2923913807
 20
121.2258669011
 30
0.0
 10
380.7364673564
 20
120.1017907917
 30
0.0
 10
380.231018983
 20
118.8718171976
 30
0.0
 10
379.7666855734
 20
117.5721033806
 30
0.0
 10
379.3357960902
 20
116.2235615268
 30
0.0
 10
378.7945340105
 20
114.3668651499
 30
0.0
 10
378.1778532827
 20
111.9879852994
 30
0.0
 10
377.5054221038
 20
109.0817708755
 30
0.0
 10
376.8814408629
 20
106.1291570585
 30
0.0
 10
376.4920661232
 20
104.145268142
 30
0.0
 10
376.3022859212
 20
103.1484184919
 30
0.0
  0
SPLINE
  5
3DF
100
AcDbEntity
  8
BEZUGSACHSEN
100
AcDbSpline
 62
7
  6
CONTINUOUS
 70
0
 71
3
 72
35
 73
31
 74
0
 42
0.0000001
 43
0.0000001
 44
0.0000000001
 40
0.0
 40
0.0
 40
0.0
 40
0.0
 40
0.0696953358
 40
0.138852935
 40
0.2072606308
 40
0.2745594339
 40
0.3076048086
 40
0.3400800601
 40
0.37177835
 40
0.4023772326
 40
0.4313526353
 40
0.4578498958
 40
0.46982277
 40
0.4807681094
 40
0.490712913
 40
0.4999998561
 40
0.5092868356
 40
0.5192316789
 40
0.530176923
 40
0.5421499928
 40
0.5686473041
 40
0.5976227153
 40
0.6282215902
 40
0.6599198765
 40
0.6923951486
 40
0.7254405476
 40
0.7927393546
 40
0.8611470557
 40
0.930304661
 40
1.0
 40
1.0
 40
1.0
 40
1.0
 10
438.3022859212
 20
103.1484184919
 30
0.0
 10
438.1125057282
 20
104.1452680952
 30
0.0
 10
437.7231309827
 20
106.1291568708
 30
0.0
 10
437.0991498047
 20
109.0817704893
 30
0.0
 10
436.4267184493
 20
111.9879846287
 30
0.0
 10
435.8100388337
 20
114.3668642851
 30
0.0
 10
435.2687758371
 20
116.223559651
 30
0.0
 10
434.8378863782
 20
117.5721008978
 30
0.0
 10
434.3735538406
 20
118.8718147668
 30
0.0
 10
433.8681070069
 20
120.1017893869
 30
0.0
 10
433.3121822108
 20
121.2258632547
 30
0.0
 10
432.7808155984
 20
122.057390984
 30
0.0
 10
432.300744266
 20
122.5957732741
 30
0.0
 10
431.9299273292
 20
122.9021745644
 30
0.0
 10
431.5345763625
 20
123.1047634432
 30
0.0
 10
431.1179909097
 20
123.1777071213
 30
0.0
 10
430.7013999177
 20
123.1047760445
 30
0.0
 10
430.3060562775
 20
122.9021735467
 30
0.0
 10
429.9352277311
 20
122.5957848061
 30
0.0
 10
429.4551622969
 20
122.0573923313
 30
0.0
 10
428.9237885889
 20
121.2258669011
 30
0.0
 10
428.3678645645
 20
120.1017907917
 30
0.0
 10
427.8624161912
 20
118.8718171976
 30
0.0
 10
427.3980827816
 20
117.5721033806
 30
0.0
 10
426.9671932983
 20
116.2235615268
 30
0.0
 10
426.4259312186
 20
114.3668651499
 30
0.0
 10
425.8092504908
 20
111.9879852994
 30
0.0
 10
425.1368193119
 20
109.0817708755
 30
0.0
 10
424.5128380711
 20
106.1291570585
 30
0.0
 10
424.1234633314
 20
104.145268142
 30
0.0
 10
423.9336831294
 20
103.1484184919
 30
0.0
  0
SPLINE
  5
3E0
100
AcDbEntity
  8
RUNDUNGEN
100
AcDbSpline
 62
7
  6
CONTINUOUS
 70
0
 71
3
 72
9
 73
5
 74
0
 42
0.0000001
 43
0.0000001
 44
0.0000000001
 40
0.0
 40
0.0
 40
0.0
 40
0.0
 40
0.5008524848
 40
1.0
 40
1.0
 40
1.0
 40
1.0
 10
423.9336831294
 20
103.1484184919
 30
0.0
 10
423.6521777534
 20
103.2260386913
 30
0.0
 10
423.0732893097
 20
103.327099277
 30
0.0
 10
422.4857130077
 20
103.3023506211
 30
0.0
 10
422.1978077472
 20
103.2599103252
 30
0.0
  0
SPLINE
  5
3E1
100
AcDbEntity
  8
RUNDUNGEN
100
AcDbSpline
 62
9
  6
CONTINUOUS
 70
0
 71
3
 72
11
 73
7
 74
0
 42
0.0000001
 43
0.0000001
 44
0.0000000001
 40
0.0
 40
0.0
 40
0.0
 40
0.0
 40
0.1968722189
 40
0.4282738336
 40
0.7011482463
 40
1.0
 40
1.0
 40
1.0
 40
1.0
 10
738.2044008637
 20
116.5057475549
 30
0.0
 10
738.2044008633
 20
116.5904543328
 30
0.0
 10
738.1396623551
 20
116.7762500507
 30
0.0
 10
737.9049741111
 20
116.9791311642
 30
0.0
 10
737.5803249167
 20
117.1096425601
 30
0.0
 10
737.3329856344
 20
117.1392220504
 30
0.0
 10
737.2044008637
 20
117.1392219716
 30
0.0
  0
SPLINE
  5
3E2
100
AcDbEntity
  8
RUNDUNGEN
100
AcDbSpline
 62
9
  6
CONTINUOUS
 70
0
 71
3
 72
16
 73
12
 74
0
 42
0.0000001
 43
0.0000001
 44
0.0000000001
 40
0.0
 40
0.0
 40
0.0
 40
0.0
 40
0.0057395938
 40
0.0204434888
 40
0.0444136021
 40
0.0775504275
 40
0.1699398873
 40
0.2941890577
 40
0.445443514
 40
0.6179938006
 40
1.0
 40
1.0
 40
1.0
 40
1.0
 10
738.2044008637
 20
111.0909687276
 30
0.0
 10
738.2044008608
 20
111.0928855778
 30
0.0
 10
738.1953107364
 20
111.0951630604
 30
0.0
 10
738.1829940766
 20
111.0978553446
 30
0.0
 10
738.1579256218
 20
111.1006806391
 30
0.0
 10
738.108911367
 20
111.104925556
 30
0.0
 10
738.0250719761
 20
111.1094587867
 30
0.0
 10
737.9025355123
 20
111.1140384049
 30
0.0
 10
737.7528553813
 20
111.117821865
 30
0.0
 10
737.5172040078
 20
111.12173088
 30
0.0
 10
737.3319793424
 20
111.1227979642
 30
0.0
 10
737.2044008637
 20
111.1227965398
 30
0.0
  0
LINE
  5
3E3
100
AcDbEntity
  8
RUNDUNGEN
100
AcDbLine
 62
9
  6
CONTINUOUS
 10
682.320933063
 20
114.2040208444
 11
682.2044008637
 21
113.580548272
  0
SPLINE
  5
3E4
100
AcDbEntity
  8
BEZUGSACHSEN
100
AcDbSpline
 62
7
  6
CONTINUOUS
 70
0
 71
3
 72
29
 73
25
 74
0
 42
0.0000001
 43
0.0000001
 44
0.0000000001
 40
0.0
 40
0.0
 40
0.0
 40
0.0
 40
0.0643696464
 40
0.1285855451
 40
0.1925879717
 40
0.2562772921
 40
0.319468196
 40
0.3507819532
 40
0.3818048587
 40
0.4124115182
 40
0.4424134732
 40
0.4715919432
 40
0.4999998081
 40
0.5284077371
 40
0.5575863716
 40
0.5875883951
 40
0.6181950732
 40
0.6492179842
 40
0.6805317479
 40
0.7437226876
 40
0.8074120147
 40
0.8714144467
 40
0.9356303508
 40
1.0
 40
1.0
 40
1.0
 40
1.0
 10
709.3979758984
 20
103.1484184919
 30
0.0
 10
709.0685564142
 20
104.1474229166
 30
0.0
 10
708.3920936836
 20
106.1370643925
 30
0.0
 10
707.3098852481
 20
109.0927341524
 30
0.0
 10
706.1427370519
 20
112.004325531
 30
0.0
 10
704.8630591065
 20
114.8501771742
 30
0.0
 10
703.6632454907
 20
117.1433897965
 30
0.0
 10
702.5826062618
 20
118.8882226106
 30
0.0
 10
701.6994487822
 20
120.1256834142
 30
0.0
 10
700.7208699058
 20
121.2629587189
 30
0.0
 10
699.6197441311
 20
122.2419956364
 30
0.0
 10
698.3648205022
 20
122.9627727282
 30
0.0
 10
696.9544103755
 20
123.2482672079
 30
0.0
 10
695.5439976393
 20
122.962774394
 30
0.0
 10
694.2890661069
 20
122.2420009341
 30
0.0
 10
693.1879373079
 20
121.2629607355
 30
0.0
 10
692.2093565772
 20
120.1256852235
 30
0.0
 10
691.3261974508
 20
118.8882249534
 30
0.0
 10
690.2455558263
 20
117.1433926591
 30
0.0
 10
689.0457444351
 20
114.8501778951
 30
0.0
 10
687.7660646078
 20
112.0043263305
 30
0.0
 10
686.5989165714
 20
109.0927345363
 30
0.0
 10
685.5167080564
 20
106.1370645826
 30
0.0
 10
684.840245328
 20
104.1474229611
 30
0.0
 10
684.5108258291
 20
103.1484184919
 30
0.0
  0
SPLINE
  5
3E5
100
AcDbEntity
  8
BEZUGSACHSEN
100
AcDbSpline
 62
7
  6
CONTINUOUS
 70
0
 71
3
 72
9
 73
5
 74
0
 42
0.0000001
 43
0.0000001
 44
0.0000000001
 40
0.0
 40
0.0
 40
0.0
 40
0.0
 40
0.5
 40
1.0
 40
1.0
 40
1.0
 40
1.0
 10
684.5108258291
 20
103.1484184919
 30
0.0
 10
684.3088185238
 20
103.2448937088
 30
0.0
 10
683.8576133464
 20
103.3639895677
 30
0.0
 10
683.406408169
 20
103.2448937088
 30
0.0
 10
683.2044008637
 20
103.1484184919
 30
0.0
  0
SPLINE
  5
3E6
100
AcDbEntity
  8
RUNDUNGEN
100
AcDbSpline
 62
9
  6
CONTINUOUS
 70
0
 71
3
 72
9
 73
5
 74
0
 42
0.0000001
 43
0.0000001
 44
0.0000000001
 40
0.0
 40
0.0
 40
0.0
 40
0.0
 40
0.4695612149
 40
1.0
 40
1.0
 40
1.0
 40
1.0
 10
737.20440068
 20
117.1392221273
 30
0.0
 10
736.9991370798
 20
116.2148172126
 30
0.0
 10
736.7789715218
 20
114.1933144641
 30
0.0
 10
736.9906913931
 20
112.1709197446
 30
0.0
 10
737.2044013996
 20
111.1227992964
 30
0.0
  0
SPLINE
  5
3E7
100
AcDbEntity
  8
BEZUGSACHSEN
100
AcDbSpline
 62
7
  6
CONTINUOUS
 70
0
 71
3
 72
8
 73
4
 74
0
 42
0.0000001
 43
0.0000001
 44
0.0000000001
 40
0.0
 40
0.0
 40
0.0
 40
0.0
 40
1.0
 40
1.0
 40
1.0
 40
1.0
 10
710.7044113604
 20
103.3044698349
 30
0.0
 10
710.2658372012
 20
103.3044698349
 30
0.0
 10
709.8245565592
 20
103.2502822877
 30
0.0
 10
709.3979758984
 20
103.1484184919
 30
0.0
  0
SPLINE
  5
3E8
100
AcDbEntity
  8
BEZUGSACHSEN
100
AcDbSpline
 62
7
  6
CONTINUOUS
 70
0
 71
3
 72
8
 73
4
 74
0
 42
0.0000001
 43
0.0000001
 44
0.0000000001
 40
0.0
 40
0.0
 40
0.0
 40
0.0
 40
1.0
 40
1.0
 40
1.0
 40
1.0
 10
712.0108258291
 20
103.1484184919
 30
0.0
 10
711.5842519266
 20
103.2502806738
 30
0.0
 10
711.1429785712
 20
103.3044698349
 30
0.0
 10
710.7044113604
 20
103.3044698349
 30
0.0
  0
SPLINE
  5
3E9
100
AcDbEntity
  8
RUNDUNGEN
100
AcDbSpline
 62
9
  6
CONTINUOUS
 70
0
 71
3
 72
14
 73
10
 74
0
 42
0.0000001
 43
0.0000001
 44
0.0000000001
 40
0.0
 40
0.0
 40
0.0
 40
0.0
 40
0.0195583446
 40
0.0772324011
 40
0.1702898952
 40
0.2948209538
 40
0.4461098574
 40
0.6186133893
 40
1.0
 40
1.0
 40
1.0
 40
1.0
 10
682.3742081577
 20
123.2044692137
 30
0.0
 10
682.3844851749
 20
123.1463154215
 30
0.0
 10
682.4312197904
 20
122.9178155192
 30
0.0
 10
682.5185797235
 20
122.4110437302
 30
0.0
 10
682.6414740846
 20
121.588911258
 30
0.0
 10
682.7562039233
 20
120.4805413824
 30
0.0
 10
682.820695979
 20
119.1274667264
 30
0.0
 10
682.7793126017
 20
116.9973391284
 30
0.0
 10
682.5550494926
 20
115.3315399671
 30
0.0
 10
682.3209396348
 20
114.2040208417
 30
0.0
  0
LINE
  5
3EA
100
AcDbEntity
  8
RUNDUNGEN
100
AcDbLine
 62
9
  6
CONTINUOUS
 10
738.189236792
 20
123.2398626052
 11
738.18772334
 21
123.0135509961
  0
LINE
  5
3EB
100
AcDbEntity
  8
RUNDUNGEN
100
AcDbLine
 62
9
  6
CONTINUOUS
 10
738.18772334
 20
123.0135509961
 11
738.1787721215
 21
121.6291311977
  0
LINE
  5
3EC
100
AcDbEntity
  8
RUNDUNGEN
100
AcDbLine
 62
9
  6
CONTINUOUS
 10
683.3590159004
 20
124.0308210284
 11
683.3653443923
 21
123.9923256753
  0
SPLINE
  5
3ED
100
AcDbEntity
  8
RUNDUNGEN
100
AcDbSpline
 62
9
  6
CONTINUOUS
 70
0
 71
3
 72
10
 73
6
 74
0
 42
0.0000001
 43
0.0000001
 44
0.0000000001
 40
0.0
 40
0.0
 40
0.0
 40
0.0
 40
0.3291372137
 40
0.6420566322
 40
1.0
 40
1.0
 40
1.0
 40
1.0
 10
683.3653443923
 20
123.9923256753
 30
0.0
 10
683.5420769575
 20
122.9086791662
 30
0.0
 10
683.7725837837
 20
120.7737234672
 30
0.0
 10
683.7505529182
 20
117.4316790509
 30
0.0
 10
683.4684441051
 20
115.2047016334
 30
0.0
 10
683.2498623553
 20
114.0308210361
 30
0.0
  0
SPLINE
  5
3EE
100
AcDbEntity
  8
RUNDUNGEN
100
AcDbSpline
 62
9
  6
CONTINUOUS
 70
0
 71
3
 72
19
 73
15
 74
0
 42
0.0000001
 43
0.0000001
 44
0.0000000001
 40
0.0
 40
0.0
 40
0.0
 40
0.0
 40
0.0153524621
 40
0.0365665057
 40
0.065363591
 40
0.1020608757
 40
0.1464757
 40
0.1982303708
 40
0.2568640973
 40
0.3218795998
 40
0.4689048953
 40
0.6347870722
 40
0.8139901205
 40
1.0
 40
1.0
 40
1.0
 40
1.0
 10
738.1718984025
 20
121.6298527849
 30
0.0
 10
738.1128387264
 20
121.6351595701
 30
0.0
 10
737.9694238473
 20
121.5898420817
 30
0.0
 10
737.7786721952
 20
121.4213880756
 30
0.0
 10
737.5716992078
 20
121.1564918851
 30
0.0
 10
737.3538758732
 20
120.7912874894
 30
0.0
 10
737.1289595466
 20
120.3295036286
 30
0.0
 10
736.904481958
 20
119.774892657
 30
0.0
 10
736.6879078987
 20
119.1325634066
 30
0.0
 10
736.4093451203
 20
118.1244308284
 30
0.0
 10
736.1392809231
 20
116.6867204146
 30
0.0
 10
735.9938666317
 20
114.7876390444
 30
0.0
 10
736.0692397839
 20
112.7334004901
 30
0.0
 10
736.2777741859
 20
111.3350389073
 30
0.0
 10
736.4200570789
 20
110.6308210361
 30
0.0
  0
SPLINE
  5
3EF
100
AcDbEntity
  8
RUNDUNGEN
100
AcDbSpline
 62
9
  6
CONTINUOUS
 70
0
 71
3
 72
8
 73
4
 74
0
 42
0.0000001
 43
0.0000001
 44
0.0000000001
 40
0.0
 40
0.0
 40
0.0
 40
0.0
 40
1.0
 40
1.0
 40
1.0
 40
1.0
 10
738.2044013279
 20
121.4554801371
 30
0.0
 10
738.2043975447
 20
121.5139904787
 30
0.0
 10
738.1955248575
 20
121.5730727139
 30
0.0
 10
738.1787495299
 20
121.6291266921
 30
0.0
  0
SPLINE
  5
3F0
100
AcDbEntity
  8
RUNDUNGEN
100
AcDbSpline
 62
7
  6
CONTINUOUS
 70
0
 71
3
 72
9
 73
5
 74
0
 42
0.0000001
 43
0.0000001
 44
0.0000000001
 40
0.0
 40
0.0
 40
0.0
 40
0.0
 40
0.492692786
 40
1.0
 40
1.0
 40
1.0
 40
1.0
 10
737.9001840381
 20
103.2599103323
 30
0.0
 10
737.7371145725
 20
103.3015456687
 30
0.0
 10
737.3873926206
 20
103.3279684158
 30
0.0
 10
737.0543506684
 20
103.2231003943
 30
0.0
 10
736.8979758984
 20
103.1484184919
 30
0.0
  0
SPLINE
  5
3F1
100
AcDbEntity
  8
RUNDUNGEN
100
AcDbSpline
 62
9
  6
CONTINUOUS
 70
0
 71
3
 72
18
 73
14
 74
0
 42
0.0000001
 43
0.0000001
 44
0.0000000001
 40
0.0
 40
0.0
 40
0.0
 40
0.0
 40
0.0048381557
 40
0.0191271559
 40
0.0427509778
 40
0.0755487942
 40
0.1171906064
 40
0.1672709958
 40
0.2909556194
 40
0.441946266
 40
0.6147727804
 40
0.8032989506
 40
1.0
 40
1.0
 40
1.0
 40
1.0
 10
738.2044008717
 20
110.7905844138
 30
0.0
 10
738.2044012469
 20
110.7921423614
 30
0.0
 10
738.1945958732
 20
110.7899175579
 30
0.0
 10
738.1843387678
 20
110.7930537448
 30
0.0
 10
738.1596023486
 20
110.7922036338
 30
0.0
 10
738.1288924938
 20
110.793441325
 30
0.0
 10
738.0884713799
 20
110.7937883547
 30
0.0
 10
738.019263914
 20
110.7947100808
 30
0.0
 10
737.9145963426
 20
110.7955076611
 30
0.0
 10
737.7705364975
 20
110.7963675942
 30
0.0
 10
737.6055436349
 20
110.7969899989
 30
0.0
 10
737.4258476691
 20
110.7974009242
 30
0.0
 10
737.301798656
 20
110.7975117179
 30
0.0
 10
737.2384584177
 20
110.7975268584
 30
0.0
  0
SPLINE
  5
3F2
100
AcDbEntity
  8
BEZUGSACHSEN
100
AcDbSpline
 62
7
  6
CONTINUOUS
 70
0
 71
3
 72
29
 73
25
 74
0
 42
0.0000001
 43
0.0000001
 44
0.0000000001
 40
0.0
 40
0.0
 40
0.0
 40
0.0
 40
0.0643696464
 40
0.1285855451
 40
0.1925879717
 40
0.2562772921
 40
0.319468196
 40
0.3507819532
 40
0.3818048587
 40
0.4124115182
 40
0.4424134732
 40
0.4715919432
 40
0.4999998081
 40
0.5284077371
 40
0.5575863716
 40
0.5875883951
 40
0.6181950732
 40
0.6492179842
 40
0.6805317479
 40
0.7437226876
 40
0.8074120147
 40
0.8714144467
 40
0.9356303508
 40
1.0
 40
1.0
 40
1.0
 40
1.0
 10
736.8979758984
 20
103.1484184919
 30
0.0
 10
736.5685564142
 20
104.1474229166
 30
0.0
 10
735.8920936836
 20
106.1370643925
 30
0.0
 10
734.8098852481
 20
109.0927341524
 30
0.0
 10
733.6427370519
 20
112.004325531
 30
0.0
 10
732.3630591065
 20
114.8501771742
 30
0.0
 10
731.1632454907
 20
117.1433897965
 30
0.0
 10
730.0826062618
 20
118.8882226106
 30
0.0
 10
729.1994487822
 20
120.1256834142
 30
0.0
 10
728.2208699058
 20
121.2629587189
 30
0.0
 10
727.1197441311
 20
122.2419956364
 30
0.0
 10
725.8648205022
 20
122.9627727282
 30
0.0
 10
724.4544103755
 20
123.2482672079
 30
0.0
 10
723.0439976393
 20
122.962774394
 30
0.0
 10
721.7890661069
 20
122.2420009341
 30
0.0
 10
720.6879373079
 20
121.2629607355
 30
0.0
 10
719.7093565772
 20
120.1256852235
 30
0.0
 10
718.8261974508
 20
118.8882249534
 30
0.0
 10
717.7455558263
 20
117.1433926591
 30
0.0
 10
716.5457444351
 20
114.8501778951
 30
0.0
 10
715.2660646078
 20
112.0043263305
 30
0.0
 10
714.0989165714
 20
109.0927345363
 30
0.0
 10
713.0167080564
 20
106.1370645826
 30
0.0
 10
712.340245328
 20
104.1474229611
 30
0.0
 10
712.0108258291
 20
103.1484184919
 30
0.0
  0
SPLINE
  5
3F3
100
AcDbEntity
  8
RUNDUNGEN
100
AcDbSpline
 62
9
  6
CONTINUOUS
 70
0
 71
3
 72
9
 73
5
 74
0
 42
0.0000001
 43
0.0000001
 44
0.0000000001
 40
0.0
 40
0.0
 40
0.0
 40
0.0
 40
0.2923658636
 40
1.0
 40
1.0
 40
1.0
 40
1.0
 10
738.1787495867
 20
121.6291261974
 30
0.0
 10
738.1741405007
 20
121.6051612029
 30
0.0
 10
738.1547787937
 20
121.5238646457
 30
0.0
 10
738.1270149869
 20
121.4449919886
 30
0.0
 10
738.1071428586
 20
121.3893679336
 30
0.0
  0
SPLINE
  5
3F4
100
AcDbEntity
  8
RUNDUNGEN
100
AcDbSpline
 62
9
  6
CONTINUOUS
 70
0
 71
3
 72
12
 73
8
 74
0
 42
0.0000001
 43
0.0000001
 44
0.0000000001
 40
0.0
 40
0.0
 40
0.0
 40
0.0
 40
0.0672087382
 40
0.1489715883
 40
0.3645964878
 40
0.6495694698
 40
1.0
 40
1.0
 40
1.0
 40
1.0
 10
738.1071428586
 20
121.3893679336
 30
0.0
 10
738.0743241698
 20
121.2975051733
 30
0.0
 10
738.000259259
 20
121.0943386694
 30
0.0
 10
737.8393683707
 20
120.5900456361
 30
0.0
 10
737.6276666133
 20
119.7710688975
 30
0.0
 10
737.3870330217
 20
118.5589528226
 30
0.0
 10
737.2597917638
 20
117.6448231667
 30
0.0
 10
737.2044005091
 20
117.1392210882
 30
0.0
  0
SPLINE
  5
3F5
100
AcDbEntity
  8
RUNDUNGEN
100
AcDbSpline
 62
7
  6
CONTINUOUS
 70
0
 71
3
 72
9
 73
5
 74
0
 42
0.0000001
 43
0.0000001
 44
0.0000000001
 40
0.0
 40
0.0
 40
0.0
 40
0.0
 40
0.5727584616
 40
1.0
 40
1.0
 40
1.0
 40
1.0
 10
737.9801091795
 20
103.3178957448
 30
0.0
 10
737.9705072999
 20
103.3004437872
 30
0.0
 10
737.9526647424
 20
103.2693468932
 30
0.0
 10
737.9145805142
 20
103.2562345839
 30
0.0
 10
737.9001840381
 20
103.2599103323
 30
0.0
  0
SPLINE
  5
3F6
100
AcDbEntity
  8
RUNDUNGEN
100
AcDbSpline
 62
9
  6
CONTINUOUS
 70
0
 71
3
 72
9
 73
5
 74
0
 42
0.0000001
 43
0.0000001
 44
0.0000000001
 40
0.0
 40
0.0
 40
0.0
 40
0.0
 40
0.250445155
 40
1.0
 40
1.0
 40
1.0
 40
1.0
 10
737.2384579463
 20
110.7975315878
 30
0.0
 10
737.3007596105
 20
110.1731572851
 30
0.0
 10
737.5491160525
 20
107.6800586339
 30
0.0
 10
737.7959048514
 20
105.1868038846
 30
0.0
 10
737.9801096336
 20
103.317896307
 30
0.0
  0
SPLINE
  5
3F7
100
AcDbEntity
  8
RUNDUNGEN
100
AcDbSpline
 62
9
  6
CONTINUOUS
 70
0
 71
3
 72
8
 73
4
 74
0
 42
0.0000001
 43
0.0000001
 44
0.0000000001
 40
0.0
 40
0.0
 40
0.0
 40
0.0
 40
1.0
 40
1.0
 40
1.0
 40
1.0
 10
683.1641792776
 20
105.5235171479
 30
0.0
 10
683.1717738571
 20
105.4860195102
 30
0.0
 10
683.1849597021
 20
105.4492881605
 30
0.0
 10
683.202738708
 20
105.4154110676
 30
0.0
  0
SPLINE
  5
3F8
100
AcDbEntity
  8
RUNDUNGEN
100
AcDbSpline
 62
9
  6
CONTINUOUS
 70
0
 71
3
 72
11
 73
7
 74
0
 42
0.0000001
 43
0.0000001
 44
0.0000000001
 40
0.0
 40
0.0
 40
0.0
 40
0.0
 40
0.2780489862
 40
0.5504117784
 40
0.8015336299
 40
1.0
 40
1.0
 40
1.0
 40
1.0
 10
682.2044008637
 20
105.2044692138
 30
0.0
 10
682.2998951076
 20
105.2044692138
 30
0.0
 10
682.4892023497
 20
105.2214127228
 30
0.0
 10
682.7570587978
 20
105.2912703205
 30
0.0
 10
682.9842705498
 20
105.3895033968
 30
0.0
 10
683.1181538955
 20
105.4732405412
 30
0.0
 10
683.1641792382
 20
105.5235171396
 30
0.0
  0
LINE
  5
3F9
100
AcDbEntity
  8
RUNDUNGEN
100
AcDbLine
 62
7
  6
CONTINUOUS
 10
683.1496941571
 20
113.4929817401
 11
682.2044008637
 21
113.580548272
  0
SPLINE
  5
3FA
100
AcDbEntity
  8
RUNDUNGEN
100
AcDbSpline
 62
9
  6
CONTINUOUS
 70
0
 71
3
 72
9
 73
5
 74
0
 42
0.0000001
 43
0.0000001
 44
0.0000000001
 40
0.0
 40
0.0
 40
0.0
 40
0.0
 40
0.7637239301
 40
1.0
 40
1.0
 40
1.0
 40
1.0
 10
683.1641792382
 20
105.5235171396
 30
0.0
 10
683.1729553118
 20
105.5331106283
 30
0.0
 10
683.1766814436
 20
105.5419528259
 30
0.0
 10
683.2044004637
 20
105.5569202965
 30
0.0
 10
683.2044008636
 20
105.5528977905
 30
0.0
  0
SPLINE
  5
3FB
100
AcDbEntity
  8
RUNDUNGEN
100
AcDbSpline
 62
7
  6
CONTINUOUS
 70
0
 71
3
 72
11
 73
7
 74
0
 42
0.0000001
 43
0.0000001
 44
0.0000000001
 40
0.0
 40
0.0
 40
0.0
 40
0.0
 40
0.1504039099
 40
0.399530595
 40
0.690070279
 40
1.0
 40
1.0
 40
1.0
 40
1.0
 10
683.1496941571
 20
113.4929817401
 30
0.0
 10
683.1667844434
 20
113.4913985467
 30
0.0
 10
683.1882449743
 20
113.4361318816
 30
0.0
 10
683.1969648618
 20
113.3653223684
 30
0.0
 10
683.203724568
 20
113.2658204946
 30
0.0
 10
683.2044008637
 20
113.1979439771
 30
0.0
 10
683.2044008637
 20
113.1625761026
 30
0.0
  0
LINE
  5
3FC
100
AcDbEntity
  8
RUNDUNGEN
100
AcDbLine
 62
9
  6
CONTINUOUS
 10
683.2498623553
 20
114.0308210361
 11
683.1496941574
 21
113.4929817399
  0
SPLINE
  5
3FD
100
AcDbEntity
  8
RUNDUNGEN
100
AcDbSpline
 62
7
  6
CONTINUOUS
 70
0
 71
3
 72
21
 73
17
 74
0
 42
0.0000001
 43
0.0000001
 44
0.0000000001
 40
0.0
 40
0.0
 40
0.0
 40
0.0
 40
0.1392300159
 40
0.2783145878
 40
0.4170210123
 40
0.5548654612
 40
0.6231313366
 40
0.6905346866
 40
0.7562666636
 40
0.8182104655
 40
0.8460675519
 40
0.8699884064
 40
0.8888374841
 40
0.9065695131
 40
0.9490956534
 40
1.0
 40
1.0
 40
1.0
 40
1.0
 10
738.2044008637
 20
102.402602922
 30
0.0
 10
738.2044008061
 20
102.4563302829
 30
0.0
 10
738.2035041362
 20
102.5637311991
 30
0.0
 10
738.1991641585
 20
102.7246084067
 30
0.0
 10
738.1912246632
 20
102.8848132311
 30
0.0
 10
738.1807107948
 20
103.0174995431
 30
0.0
 10
738.1686265634
 20
103.1223553505
 30
0.0
 10
738.1572756209
 20
103.1992842172
 30
0.0
 10
738.1423649096
 20
103.2730430293
 30
0.0
 10
738.1261177556
 20
103.3311264932
 30
0.0
 10
738.1071942237
 20
103.3708323888
 30
0.0
 10
738.0914080583
 20
103.3933830654
 30
0.0
 10
738.0698140163
 20
103.4057597552
 30
0.0
 10
738.037974102
 20
103.3994490054
 30
0.0
 10
738.0083591082
 20
103.365260242
 30
0.0
 10
737.9895782586
 20
103.3351062417
 30
0.0
 10
737.9801091795
 20
103.3178957448
 30
0.0
  0
SPLINE
  5
3FE
100
AcDbEntity
  8
RUNDUNGEN
100
AcDbSpline
 62
9
  6
CONTINUOUS
 70
0
 71
3
 72
11
 73
7
 74
0
 42
0.0000001
 43
0.0000001
 44
0.0000000001
 40
0.0
 40
0.0
 40
0.0
 40
0.0
 40
0.2513311142
 40
0.5007099029
 40
0.7494769445
 40
1.0
 40
1.0
 40
1.0
 40
1.0
 10
710.7044008637
 20
128.0335680253
 30
0.0
 10
709.779765317
 20
128.0336548452
 30
0.0
 10
707.9252140314
 20
128.3059318321
 30
0.0
 10
705.4067417376
 20
129.5391387706
 30
0.0
 10
703.4245345672
 20
131.51995289
 30
0.0
 10
702.5549001756
 20
133.1646405938
 30
0.0
 10
702.212619453
 20
134.020389455
 30
0.0
  0
SPLINE
  5
3FF
100
AcDbEntity
  8
RUNDUNGEN
100
AcDbSpline
 62
9
  6
CONTINUOUS
 70
0
 71
3
 72
9
 73
5
 74
0
 42
0.0000001
 43
0.0000001
 44
0.0000000001
 40
0.0
 40
0.0
 40
0.0
 40
0.0
 40
0.6616397526
 40
1.0
 40
1.0
 40
1.0
 40
1.0
 10
698.3817433517
 20
135.7896773816
 30
0.0
 10
698.3093595201
 20
135.8690629929
 30
0.0
 10
698.2049511781
 20
135.9797415544
 30
0.0
 10
698.0704476607
 20
136.1044760382
 30
0.0
 10
698.0155076472
 20
136.1044692114
 30
0.0
  0
SPLINE
  5
400
100
AcDbEntity
  8
RUNDUNGEN
100
AcDbSpline
 62
9
  6
CONTINUOUS
 70
0
 71
3
 72
9
 73
5
 74
0
 42
0.0000001
 43
0.0000001
 44
0.0000000001
 40
0.0
 40
0.0
 40
0.0
 40
0.0
 40
0.5895446378
 40
1.0
 40
1.0
 40
1.0
 40
1.0
 10
700.8063032332
 20
133.1053127209
 30
0.0
 10
700.3566549179
 20
133.6558715314
 30
0.0
 10
699.5215405214
 20
134.5279359776
 30
0.0
 10
698.7154222797
 20
135.4241763987
 30
0.0
 10
698.3817433517
 20
135.7896773816
 30
0.0
  0
SPLINE
  5
401
100
AcDbEntity
  8
RUNDUNGEN
100
AcDbSpline
 62
9
  6
CONTINUOUS
 70
0
 71
3
 72
9
 73
5
 74
0
 42
0.0000001
 43
0.0000001
 44
0.0000000001
 40
0.0
 40
0.0
 40
0.0
 40
0.0
 40
0.4170561104
 40
1.0
 40
1.0
 40
1.0
 40
1.0
 10
702.2129539477
 20
134.0205101493
 30
0.0
 10
702.0434524804
 20
133.8596711118
 30
0.0
 10
701.5806355753
 20
133.5369968894
 30
0.0
 10
701.0955362623
 20
133.2577380813
 30
0.0
 10
700.8071230101
 20
133.1044692323
 30
0.0
  0
SPLINE
  5
402
100
AcDbEntity
  8
RUNDUNGEN
100
AcDbSpline
 62
9
  6
CONTINUOUS
 70
0
 71
3
 72
9
 73
5
 74
0
 42
0.0000001
 43
0.0000001
 44
0.0000000001
 40
0.0
 40
0.0
 40
0.0
 40
0.0
 40
0.4170209103
 40
1.0
 40
1.0
 40
1.0
 40
1.0
 10
719.1961379797
 20
134.0204053896
 30
0.0
 10
719.3656015252
 20
133.8596053164
 30
0.0
 10
719.8283436868
 20
133.5369729377
 30
0.0
 10
720.3133598158
 20
133.2577354295
 30
0.0
 10
720.6017420233
 20
133.1044692304
 30
0.0
  0
SPLINE
  5
403
100
AcDbEntity
  8
RUNDUNGEN
100
AcDbSpline
 62
9
  6
CONTINUOUS
 70
0
 71
3
 72
11
 73
7
 74
0
 42
0.0000001
 43
0.0000001
 44
0.0000000001
 40
0.0
 40
0.0
 40
0.0
 40
0.0
 40
0.3163021379
 40
0.6037066843
 40
0.8399436926
 40
1.0
 40
1.0
 40
1.0
 40
1.0
 10
702.212619453
 20
134.020389455
 30
0.0
 10
702.0275890356
 20
134.4822087308
 30
0.0
 10
701.661299056
 20
135.3578877933
 30
0.0
 10
701.1681309712
 20
136.5852705399
 30
0.0
 10
700.8355961209
 20
137.6056471257
 30
0.0
 10
700.7043762066
 20
138.2231352865
 30
0.0
 10
700.7044008637
 20
138.4748855495
 30
0.0
  0
SPLINE
  5
404
100
AcDbEntity
  8
RUNDUNGEN
100
AcDbSpline
 62
9
  6
CONTINUOUS
 70
0
 71
3
 72
11
 73
7
 74
0
 42
0.0000001
 43
0.0000001
 44
0.0000000001
 40
0.0
 40
0.0
 40
0.0
 40
0.0
 40
0.2525836581
 40
0.502414849
 40
0.7505785138
 40
1.0
 40
1.0
 40
1.0
 40
1.0
 10
710.7044008637
 20
126.027659593
 30
0.0
 10
709.6176947704
 20
126.0279393215
 30
0.0
 10
707.4401235431
 20
126.3670239273
 30
0.0
 10
704.5187914645
 20
127.8679580943
 30
0.0
 10
702.2329266317
 20
130.2015284688
 30
0.0
 10
701.2119334341
 20
132.1116931548
 30
0.0
 10
700.806635395
 20
133.1053127752
 30
0.0
  0
SPLINE
  5
405
100
AcDbEntity
  8
RUNDUNGEN
100
AcDbSpline
 62
9
  6
CONTINUOUS
 70
0
 71
3
 72
9
 73
5
 74
0
 42
0.0000001
 43
0.0000001
 44
0.0000000001
 40
0.0
 40
0.0
 40
0.0
 40
0.0
 40
0.4104554364
 40
1.0
 40
1.0
 40
1.0
 40
1.0
 10
723.0270583758
 20
135.7896773816
 30
0.0
 10
722.6934125748
 20
135.4241503754
 30
0.0
 10
721.8872504803
 20
134.5279608806
 30
0.0
 10
721.05214998
 20
133.6558930594
 30
0.0
 10
720.6025143918
 20
133.1053299119
 30
0.0
  0
SPLINE
  5
406
100
AcDbEntity
  8
RUNDUNGEN
100
AcDbSpline
 62
9
  6
CONTINUOUS
 70
0
 71
3
 72
11
 73
7
 74
0
 42
0.0000001
 43
0.0000001
 44
0.0000000001
 40
0.0
 40
0.0
 40
0.0
 40
0.0
 40
0.1600561068
 40
0.3962929495
 40
0.6836987254
 40
1.0
 40
1.0
 40
1.0
 40
1.0
 10
720.7044008637
 20
138.4748855495
 30
0.0
 10
720.7044234123
 20
138.2231355985
 30
0.0
 10
720.5732074272
 20
137.6056478921
 30
0.0
 10
720.2406681718
 20
136.5852708012
 30
0.0
 10
719.7475113086
 20
135.35788355
 30
0.0
 10
719.3812116687
 20
134.4822076849
 30
0.0
 10
719.1961822745
 20
134.020389455
 30
0.0
  0
SPLINE
  5
407
100
AcDbEntity
  8
RUNDUNGEN
100
AcDbSpline
 62
9
  6
CONTINUOUS
 70
0
 71
3
 72
9
 73
5
 74
0
 42
0.0000001
 43
0.0000001
 44
0.0000000001
 40
0.0
 40
0.0
 40
0.0
 40
0.0
 40
0.3383584355
 40
1.0
 40
1.0
 40
1.0
 40
1.0
 10
723.3932964565
 20
136.1044692119
 30
0.0
 10
723.3383564586
 20
136.1044751978
 30
0.0
 10
723.2038479048
 20
135.9797481775
 30
0.0
 10
723.0994474157
 20
135.869059379
 30
0.0
 10
723.0270583758
 20
135.7896773816
 30
0.0
  0
SPLINE
  5
408
100
AcDbEntity
  8
RUNDUNGEN
100
AcDbSpline
 62
9
  6
CONTINUOUS
 70
0
 71
3
 72
11
 73
7
 74
0
 42
0.0000001
 43
0.0000001
 44
0.0000000001
 40
0.0
 40
0.0
 40
0.0
 40
0.0
 40
0.2494213222
 40
0.4975848085
 40
0.747416819
 40
1.0
 40
1.0
 40
1.0
 40
1.0
 10
720.6021754335
 20
133.1053299685
 30
0.0
 10
720.1968548371
 20
132.1117195122
 30
0.0
 10
719.1759283517
 20
130.2015147739
 30
0.0
 10
716.8899760411
 20
127.8680218443
 30
0.0
 10
713.9686893136
 20
126.3670126502
 30
0.0
 10
711.7911056515
 20
126.0279485779
 30
0.0
 10
710.7044008637
 20
126.027659593
 30
0.0
  0
SPLINE
  5
409
100
AcDbEntity
  8
RUNDUNGEN
100
AcDbSpline
 62
9
  6
CONTINUOUS
 70
0
 71
3
 72
11
 73
7
 74
0
 42
0.0000001
 43
0.0000001
 44
0.0000000001
 40
0.0
 40
0.0
 40
0.0
 40
0.0
 40
0.2505227577
 40
0.4992892993
 40
0.7486686936
 40
1.0
 40
1.0
 40
1.0
 40
1.0
 10
719.1961822745
 20
134.020389455
 30
0.0
 10
718.8538908609
 20
133.1646458787
 30
0.0
 10
717.984282076
 20
131.5199477677
 30
0.0
 10
716.0020558129
 20
129.539151361
 30
0.0
 10
713.4835961378
 20
128.3059199996
 30
0.0
 10
711.6290372772
 20
128.0336522972
 30
0.0
 10
710.7044008637
 20
128.0335680253
 30
0.0
  0
ENDSEC
  0
SECTION
  2
OBJECTS
  0
DICTIONARY
  5
C
100
AcDbDictionary
280
0
281
1
  3
ACAD_GROUP
350
D
  3
ACAD_MLINESTYLE
350
17
  3
ACAD_LAYOUT
350
1A
  3
ACAD_PLOTSETTINGS
350
19
  3
ACAD_PLOTSTYLENAME
350
E
  0
DICTIONARY
  5
D
102
{ACAD_REACTORS
330
C
102
}
100
AcDbDictionary
280
0
281
1
  0
ACDBDICTIONARYWDFLT
  5
E
102
{ACAD_REACTORS
330
C
102
}
100
AcDbDictionary
281
1
  3
Normal
350
F
100
AcDbDictionaryWithDefault
340
F
  0
DICTIONARY
  5
17
102
{ACAD_REACTORS
330
C
102
}
100
AcDbDictionary
280
0
281
1
  3
Standard
350
18
  0
DICTIONARY
  5
19
102
{ACAD_REACTORS
330
C
102
}
100
AcDbDictionary
281
1
  0
DICTIONARY
  5
1A
102
{ACAD_REACTORS
330
C
102
}
100
AcDbDictionary
281
1
  3
Model
350
40A
  3
Layout1
350
40B
  0
ACDBPLACEHOLDER
  5
F
102
{ACAD_REACTORS
330
E
102
}
  0
MLINESTYLE
  5
18
102
{ACAD_REACTORS
330
17
102
}
100
AcDbMlineStyle
  2
STANDARD
 70
0
  3

 62
256
 51
90.0
 52
90.0
 71
2
 49
0.5
 62
256
  6
BYLAYER
 49
-0.5
 62
256
  6
BYLAYER
  0
LAYOUT
  5
40A
102
{ACAD_REACTORS
330
1A
102
}
100
AcDbPlotSettings
  1

  2
none_device
  4
ISO_A0_(1189.00_x_841.00_MM)
  6

 40
0.0
 41
0.0
 42
0.0
 43
0.0
 44
1189.0
 45
841.0
 46
0.0
 47
0.0
 48
0.0
 49
0.0
140
0.0
141
0.0
142
1.0
143
1.0
 70
1024
 72
1
 73
0
 74
0
  7

 75
0
147
1.0
148
0.0
149
0.0
100
AcDbLayout
  1
Model
 70
0
 71
0
 10
0.0
 20
0.0
 11
1189.0
 21
841.0
 12
0.0
 22
0.0
 32
0.0
 14
0.0
 24
0.0
 34
0.0
 15
0.0
 25
0.0
 35
0.0
146
0.0
 13
0.0
 23
0.0
 33
0.0
 16
1.0
 26
0.0
 36
0.0
 17
0.0
 27
1.0
 37
0.0
 76
0
330
212
345
0
346
0
  0
LAYOUT
  5
40B
102
{ACAD_REACTORS
330
1A
102
}
100
AcDbPlotSettings
  1

  2
none_device
  4
ISO_A0_(1189.00_x_841.00_MM)
  6

 40
0.0
 41
0.0
 42
0.0
 43
0.0
 44
1189.0
 45
841.0
 46
0.0
 47
0.0
 48
0.0
 49
0.0
140
0.0
141
0.0
142
1.0
143
1.0
 70
0
 72
1
 73
0
 74
0
  7

 75
0
147
1.0
148
0.0
149
0.0
100
AcDbLayout
  1
Layout1
 70
0
 71
1
 10
0.0
 20
0.0
 11
1189.0
 21
841.0
 12
0.0
 22
0.0
 32
0.0
 14
0.0
 24
0.0
 34
0.0
 15
0.0
 25
0.0
 35
0.0
146
0.0
 13
0.0
 23
0.0
 33
0.0
 16
1.0
 26
0.0
 36
0.0
 17
0.0
 27
1.0
 37
0.0
 76
0
330
213
345
0
346
0
  0
ENDSEC
  0
EOF
