999
DXF file: 001-m36300-p-1.dxf
999
Pro/ENGINEER 2011490 by Parametric Technology Corporation
  0
SECTION
  2
HEADER
  9
$ACADVER
  1
AC1015
  9
$DWGCODEPAGE
  3
ANSI_1252
  9
$EXTMAX
 10
1189.0
 20
841.0
 30
0.0
  9
$EXTMIN
 10
0.0
 20
0.0
 30
0.0
  9
$LIMMIN
 10
0.0
 20
0.0
  9
$LIMMAX
 10
1189.0
 20
841.0
  9
$VIEWCTR
 10
594.5
 20
420.5
  9
$VIEWSIZE
 40
841.0
  9
$CLAYER
  8
0
  9
$LTSCALE
 40
65.395
  9
$CELTYPE
  6
BYLAYER
  9
$DIMSCALE
 40
1.0
  9
$DIMASZ
 40
3.5
  9
$DIMEXO
 40
7.43125
  9
$DIMDLI
 40
45.182
  9
$DIMEXE
 40
21.402
  9
$DIMCEN
 40
10.701
  9
$DIMLFAC
 40
1.0
  9
$DIMBLK
  1
_FILLED
  9
$DIMTXT
 40
3.5
  9
$DIMTOL
 70
1
  9
$DIMLIM
 70
0
  9
$DIMTFAC
 40
1.0
  9
$DIMTP
 40
0.005
  9
$DIMTM
 40
0.005
  9
$PDMODE
 70
3
  9
$PDSIZE
 40
0.3125
  9
$HANDSEED
  5
467
  9
$TILEMODE
 70
1
  9
$MEASUREMENT
 70
1
  9
$INSUNITS
 70
4
  0
ENDSEC
  0
SECTION
  2
CLASSES
  0
CLASS
  1
ACDBDICTIONARYWDFLT
  2
AcDbDictionaryWithDefault
  3
AutoCAD 2000
 90
0
280
0
281
0
  0
CLASS
  1
ACDBPLACEHOLDER
  2
AcDbPlaceHolder
  3
AutoCAD 2000
 90
0
280
0
281
0
  0
CLASS
  1
LAYOUT
  2
AcDbLayout
  3
AutoCAD 2000
 90
0
280
0
281
0
  0
ENDSEC
  0
SECTION
  2
TABLES
  0
TABLE
  2
VPORT
  5
8
100
AcDbSymbolTable
 70
2
  0
VPORT
  5
1F4
100
AcDbSymbolTableRecord
100
AcDbViewportTableRecord
  2
*ACTIVE
 70
0
 10
0.0
 20
0.0
 11
1.0
 21
1.0
 12
594.5
 22
420.5
 13
0.0
 23
0.0
 14
1.0
 24
1.0
 15
0.0
 25
0.0
 16
0.0
 26
0.0
 36
1.0
 17
0.0
 27
0.0
 37
0.0
 40
841.0
 41
1.4137931034
 42
50.0
 43
0.0
 44
0.0
 50
0.0
 51
0.0
 71
0
 72
100
 73
1
 74
1
 75
0
 76
0
 77
0
 78
0
  0
ENDTAB
  0
TABLE
  2
LTYPE
  5
5
100
AcDbSymbolTable
 70
6
  0
LTYPE
  5
14
100
AcDbSymbolTableRecord
100
AcDbLinetypeTableRecord
  2
BYBLOCK
 70
0
  3

 72
65
 73
0
 40
0.0
  0
LTYPE
  5
15
100
AcDbSymbolTableRecord
100
AcDbLinetypeTableRecord
  2
BYLAYER
 70
0
  3

 72
65
 73
0
 40
0.0
  0
LTYPE
  5
16
100
AcDbSymbolTableRecord
100
AcDbLinetypeTableRecord
  2
CONTINUOUS
 70
64
  3
Solid line
 72
65
 73
0
 40
0.0
  0
LTYPE
  5
1F5
100
AcDbSymbolTableRecord
100
AcDbLinetypeTableRecord
  2
CENTER
 70
64
  3
____ _ ____ _ ____ _ ____ _ ____ _ ____ _ ____
 72
65
 73
4
 40
0.6
 49
0.375
 74
0
 49
-0.075
 74
0
 49
0.075
 74
0
 49
-0.075
 74
0
  0
LTYPE
  5
1F6
100
AcDbSymbolTableRecord
100
AcDbLinetypeTableRecord
  2
HIDDEN
 70
64
  3
- - - - - - - - - - - - - - - - - - - -
 72
65
 73
2
 40
0.2
 49
0.1
 74
0
 49
-0.1
 74
0
  0
LTYPE
  5
1F7
100
AcDbSymbolTableRecord
100
AcDbLinetypeTableRecord
  2
PHANTOM
 70
64
  3
_____ _ _ _____ _ _ _____ _ _ _____
 72
65
 73
6
 40
0.8
 49
0.45
 74
0
 49
-0.05
 74
0
 49
0.1
 74
0
 49
-0.05
 74
0
 49
0.1
 74
0
 49
-0.05
 74
0
  0
LTYPE
  5
1F8
100
AcDbSymbolTableRecord
100
AcDbLinetypeTableRecord
  2
DOT
 70
64
  3
. . . . . . . . . . . . . . . . . . . .
 72
65
 73
2
 40
0.2
 49
0.1
 74
0
 49
-0.1
 74
0
  0
LTYPE
  5
1F9
100
AcDbSymbolTableRecord
100
AcDbLinetypeTableRecord
  2
DASHED
 70
64
  3
- - - - - - - - - - - - - - - - - - - -
 72
65
 73
2
 40
0.2
 49
0.1
 74
0
 49
-0.1
 74
0
  0
ENDTAB
  0
TABLE
  2
LAYER
  5
2
100
AcDbSymbolTable
 70
36
  0
LAYER
  5
10
100
AcDbSymbolTableRecord
100
AcDbLayerTableRecord
  2
0
 70
0
 62
7
  6
CONTINUOUS
370
-3
390
F
  0
LAYER
  5
1FA
100
AcDbSymbolTableRecord
100
AcDbLayerTableRecord
  2
DEFAULT_1
 70
0
 62
7
  6
CENTER
370
-3
390
F
  0
LAYER
  5
1FB
100
AcDbSymbolTableRecord
100
AcDbLayerTableRecord
  2
DEFAULT_2
 70
0
 62
8
  6
HIDDEN
370
-3
390
F
  0
LAYER
  5
1FC
100
AcDbSymbolTableRecord
100
AcDbLayerTableRecord
  2
DEFAULT_3
 70
0
 62
7
  6
PHANTOM
370
-3
390
F
  0
LAYER
  5
1FD
100
AcDbSymbolTableRecord
100
AcDbLayerTableRecord
  2
AUSFORMSCHRAEGEN
 70
0
 62
7
  6
CONTINUOUS
370
-3
390
F
  0
LAYER
  5
1FE
100
AcDbSymbolTableRecord
100
AcDbLayerTableRecord
  2
BEZUGSACHSEN
 70
0
 62
7
  6
CONTINUOUS
370
-3
390
F
  0
LAYER
  5
1FF
100
AcDbSymbolTableRecord
100
AcDbLayerTableRecord
  2
BEZUGSEBENEN
 70
0
 62
7
  6
CONTINUOUS
370
-3
390
F
  0
LAYER
  5
200
100
AcDbSymbolTableRecord
100
AcDbLayerTableRecord
  2
BEZUGSPUNKTE
 70
0
 62
7
  6
CONTINUOUS
370
-3
390
F
  0
LAYER
  5
201
100
AcDbSymbolTableRecord
100
AcDbLayerTableRecord
  2
BG_STARTBEZUEGE
 70
0
 62
7
  6
CONTINUOUS
370
-3
390
F
  0
LAYER
  5
202
100
AcDbSymbolTableRecord
100
AcDbLayerTableRecord
  2
FASEN
 70
0
 62
7
  6
CONTINUOUS
370
-3
390
F
  0
LAYER
  5
203
100
AcDbSymbolTableRecord
100
AcDbLayerTableRecord
  2
FLAECHEN
 70
0
 62
7
  6
CONTINUOUS
370
-3
390
F
  0
LAYER
  5
204
100
AcDbSymbolTableRecord
100
AcDbLayerTableRecord
  2
FLAECHENVERBUND
 70
0
 62
7
  6
CONTINUOUS
370
-3
390
F
  0
LAYER
  5
205
100
AcDbSymbolTableRecord
100
AcDbLayerTableRecord
  2
GEWINDE
 70
0
 62
7
  6
CONTINUOUS
370
-3
390
F
  0
LAYER
  5
206
100
AcDbSymbolTableRecord
100
AcDbLayerTableRecord
  2
HILFEN
 70
0
 62
7
  6
CONTINUOUS
370
-3
390
F
  0
LAYER
  5
207
100
AcDbSymbolTableRecord
100
AcDbLayerTableRecord
  2
KONSTRUKTIONSELEMENTE
 70
0
 62
7
  6
CONTINUOUS
370
-3
390
F
  0
LAYER
  5
208
100
AcDbSymbolTableRecord
100
AcDbLayerTableRecord
  2
KURVEN
 70
0
 62
7
  6
CONTINUOUS
370
-3
390
F
  0
LAYER
  5
209
100
AcDbSymbolTableRecord
100
AcDbLayerTableRecord
  2
NORM
 70
0
 62
7
  6
CONTINUOUS
370
-3
390
F
  0
LAYER
  5
20A
100
AcDbSymbolTableRecord
100
AcDbLayerTableRecord
  2
PLATZIERUNG
 70
0
 62
7
  6
CONTINUOUS
370
-3
390
F
  0
LAYER
  5
20B
100
AcDbSymbolTableRecord
100
AcDbLayerTableRecord
  2
PLAZIERUNG
 70
0
 62
7
  6
CONTINUOUS
370
-3
390
F
  0
LAYER
  5
20C
100
AcDbSymbolTableRecord
100
AcDbLayerTableRecord
  2
RUNDUNGEN
 70
0
 62
7
  6
CONTINUOUS
370
-3
390
F
  0
LAYER
  5
20D
100
AcDbSymbolTableRecord
100
AcDbLayerTableRecord
  2
TEIL_STARTBEZUEGE
 70
0
 62
7
  6
CONTINUOUS
370
-3
390
F
  0
LAYER
  5
20E
100
AcDbSymbolTableRecord
100
AcDbLayerTableRecord
  2
T_STARTBEZUEGE
 70
0
 62
7
  6
CONTINUOUS
370
-3
390
F
  0
LAYER
  5
20F
100
AcDbSymbolTableRecord
100
AcDbLayerTableRecord
  2
ZEICHNUNGSBEMASSUNGEN
 70
0
 62
7
  6
CONTINUOUS
370
-3
390
F
  0
ENDTAB
  0
TABLE
  2
STYLE
  5
3
100
AcDbSymbolTable
 70
1
  0
STYLE
  5
11
100
AcDbSymbolTableRecord
100
AcDbTextStyleTableRecord
  2
STANDARD
 70
0
 40
0.0
 41
0.7
 50
0.0
 71
0
 42
0.2
  3
txt
  4

  0
STYLE
  5
210
100
AcDbSymbolTableRecord
100
AcDbTextStyleTableRecord
  2
TEXTSTYLE_1
 70
0
 40
0.0
 41
0.8
 50
0.0
 71
0
 42
0.2
  3
gdt
  4

  0
ENDTAB
  0
TABLE
  2
VIEW
  5
6
100
AcDbSymbolTable
 70
0
  0
ENDTAB
  0
TABLE
  2
UCS
  5
7
100
AcDbSymbolTable
 70
0
  0
ENDTAB
  0
TABLE
  2
APPID
  5
9
100
AcDbSymbolTable
 70
1
  0
APPID
  5
211
100
AcDbSymbolTableRecord
100
AcDbRegAppTableRecord
  2
ACAD
 70
0
  0
ENDTAB
  0
TABLE
  2
BLOCK_RECORD
  5
1
100
AcDbSymbolTable
 70
0
  0
BLOCK_RECORD
  5
212
100
AcDbSymbolTableRecord
100
AcDbBlockTableRecord
  2
*Model_Space
  0
BLOCK_RECORD
  5
213
100
AcDbSymbolTableRecord
100
AcDbBlockTableRecord
  2
*Paper_Space
  0
ENDTAB
  0
TABLE
  2
DIMSTYLE
  5
A
100
AcDbSymbolTable
 70
1
100
AcDbDimStyleTable
 71
0
  0
DIMSTYLE
105
214
100
AcDbSymbolTableRecord
100
AcDbDimStyleTableRecord
  2
STANDARD
 70
0
  3

  4

 40
1.0
 41
3.5
 42
0.0625
 43
0.38
 44
0.18
 45
0.0
 46
0.0
 47
0.005
 48
0.005
140
3.5
141
0.09
142
0.0
143
25.4
144
1.0
145
0.0
146
1.0
147
0.09
 71
1.0
 72
0.0
 73
0
 74
0
 75
0
 76
0
 77
1
 78
8
170
0
171
2
172
0
173
0
174
0
175
0
176
0
177
0
178
5
270
2
271
3
272
3
273
2
274
2
275
0
280
0
281
0
282
0
283
1
284
8
285
0
286
0
287
3
288
0
340
11
  0
ENDTAB
  0
ENDSEC
  0
SECTION
  2
BLOCKS
  0
BLOCK
  5
20
100
AcDbEntity
  8
0
100
AcDbBlockBegin
  2
*Model_Space
 70
0
 10
0.0
 20
0.0
 30
0.0
  3
*Model_Space
  1

  0
ENDBLK
  5
21
100
AcDbEntity
  8
0
100
AcDbBlockEnd
  0
BLOCK
  5
1C
100
AcDbEntity
  8
0
100
AcDbBlockBegin
  2
*Paper_Space
 70
0
 10
0.0
 20
0.0
 30
0.0
  3
*Paper_Space
  1

  0
ENDBLK
  5
1D
100
AcDbEntity
  8
0
100
AcDbBlockEnd
  0
ENDSEC
  0
SECTION
  2
ENTITIES
  0
LINE
  5
215
100
AcDbEntity
  8
0
100
AcDbLine
 62
7
  6
CONTINUOUS
 10
0.0
 20
0.0
 11
0.0
 21
841.0
  0
LINE
  5
216
100
AcDbEntity
  8
0
100
AcDbLine
 62
7
  6
CONTINUOUS
 10
0.0
 20
0.0
 11
1189.0
 21
0.0
  0
LINE
  5
217
100
AcDbEntity
  8
0
100
AcDbLine
 62
7
  6
CONTINUOUS
 10
0.0
 20
841.0
 11
1189.0
 21
841.0
  0
LINE
  5
218
100
AcDbEntity
  8
0
100
AcDbLine
 62
7
  6
CONTINUOUS
 10
1189.0
 20
0.0
 11
1189.0
 21
841.0
  0
LINE
  5
219
100
AcDbEntity
  8
0
100
AcDbLine
 62
7
  6
CONTINUOUS
 10
415.0918701502
 20
29.2874985577
 11
428.6918701502
 21
29.2874985577
  0
LINE
  5
21A
100
AcDbEntity
  8
0
100
AcDbLine
 62
7
  6
CONTINUOUS
 10
413.8918701502
 20
30.4874985577
 11
429.8918701502
 21
30.4874985577
  0
LINE
  5
21B
100
AcDbEntity
  8
0
100
AcDbLine
 62
7
  6
CONTINUOUS
 10
445.3918701502
 20
54.2874985577
 11
398.3918701502
 21
54.2874985577
  0
LINE
  5
21C
100
AcDbEntity
  8
RUNDUNGEN
100
AcDbLine
 62
7
  6
CONTINUOUS
 10
417.1418701502
 20
55.7874985577
 11
426.6418701502
 21
55.7874985577
  0
LINE
  5
21D
100
AcDbEntity
  8
KONSTRUKTIONSELEMENTE
100
AcDbLine
 62
7
  6
CONTINUOUS
 10
418.5418701025
 20
57.5215411128
 11
419.0418700548
 21
57.5215411128
  0
LINE
  5
21E
100
AcDbEntity
  8
KONSTRUKTIONSELEMENTE
100
AcDbLine
 62
7
  6
CONTINUOUS
 10
417.1418701502
 20
58.2874985577
 11
417.7418701502
 21
58.2874985577
  0
LINE
  5
21F
100
AcDbEntity
  8
KONSTRUKTIONSELEMENTE
100
AcDbLine
 62
7
  6
CONTINUOUS
 10
421.8418699595
 20
58.2874985577
 11
422.6418703409
 21
58.2874985577
  0
LINE
  5
220
100
AcDbEntity
  8
KONSTRUKTIONSELEMENTE
100
AcDbLine
 62
7
  6
CONTINUOUS
 10
422.5418701502
 20
58.9257964434
 11
421.9418701502
 21
58.9257964434
  0
LINE
  5
221
100
AcDbEntity
  8
KONSTRUKTIONSELEMENTE
100
AcDbLine
 62
7
  6
CONTINUOUS
 10
419.6418700548
 20
58.9257964434
 11
419.1418702456
 21
58.9257964434
  0
LINE
  5
222
100
AcDbEntity
  8
KONSTRUKTIONSELEMENTE
100
AcDbLine
 62
7
  6
CONTINUOUS
 10
420.9418702456
 20
59.6917538883
 11
420.4418701502
 21
59.6917538883
  0
LINE
  5
223
100
AcDbEntity
  8
KONSTRUKTIONSELEMENTE
100
AcDbLine
 62
7
  6
CONTINUOUS
 10
422.0418703409
 20
61.0960092189
 11
422.4418699595
 21
61.0960092189
  0
LINE
  5
224
100
AcDbEntity
  8
KONSTRUKTIONSELEMENTE
100
AcDbLine
 62
7
  6
CONTINUOUS
 10
422.4418699595
 20
61.6066474559
 11
422.0418703409
 21
61.6066474559
  0
LINE
  5
225
100
AcDbEntity
  8
KONSTRUKTIONSELEMENTE
100
AcDbLine
 62
7
  6
CONTINUOUS
 10
424.8418699595
 20
61.8619665744
 11
425.6418703409
 21
61.8619665744
  0
LINE
  5
226
100
AcDbEntity
  8
KONSTRUKTIONSELEMENTE
100
AcDbLine
 62
7
  6
CONTINUOUS
 10
426.1418701502
 20
61.8619665744
 11
427.2418705317
 21
61.8619665744
  0
LINE
  5
227
100
AcDbEntity
  8
KONSTRUKTIONSELEMENTE
100
AcDbLine
 62
7
  6
CONTINUOUS
 10
427.2418705317
 20
62.3726048114
 11
426.1418701502
 21
62.3726048114
  0
LINE
  5
228
100
AcDbEntity
  8
KONSTRUKTIONSELEMENTE
100
AcDbLine
 62
7
  6
CONTINUOUS
 10
425.6418703409
 20
62.3726048114
 11
424.8418699595
 21
62.3726048114
  0
LINE
  5
229
100
AcDbEntity
  8
KONSTRUKTIONSELEMENTE
100
AcDbLine
 62
7
  6
CONTINUOUS
 10
420.5418700548
 20
62.883243406
 11
421.0418701502
 21
62.883243406
  0
LINE
  5
22A
100
AcDbEntity
  8
KONSTRUKTIONSELEMENTE
100
AcDbLine
 62
7
  6
CONTINUOUS
 10
426.1418701502
 20
63.393881643
 11
425.6418703409
 21
63.393881643
  0
LINE
  5
22B
100
AcDbEntity
  8
KONSTRUKTIONSELEMENTE
100
AcDbLine
 62
7
  6
CONTINUOUS
 10
422.0418703409
 20
63.6492007615
 11
422.4418699595
 21
63.6492007615
  0
LINE
  5
22C
100
AcDbEntity
  8
KONSTRUKTIONSELEMENTE
100
AcDbLine
 62
7
  6
CONTINUOUS
 10
422.3418703409
 20
64.2874985577
 11
422.1418699595
 21
64.2874985577
  0
LINE
  5
22D
100
AcDbEntity
  8
KONSTRUKTIONSELEMENTE
100
AcDbLine
 62
7
  6
CONTINUOUS
 10
417.7418701502
 20
64.2874985577
 11
417.1418701502
 21
64.2874985577
  0
LINE
  5
22E
100
AcDbEntity
  8
0
100
AcDbLine
 62
7
  6
CONTINUOUS
 10
415.9118701502
 20
66.4274985577
 11
416.4743701502
 21
66.4274985577
  0
LINE
  5
22F
100
AcDbEntity
  8
0
100
AcDbLine
 62
7
  6
CONTINUOUS
 10
418.8181200608
 20
66.4274985577
 11
419.4743702396
 21
66.4274985577
  0
LINE
  5
230
100
AcDbEntity
  8
0
100
AcDbLine
 62
7
  6
CONTINUOUS
 10
421.7243699714
 20
66.4274985577
 11
422.0993701502
 21
66.4274985577
  0
LINE
  5
231
100
AcDbEntity
  8
0
100
AcDbLine
 62
7
  6
CONTINUOUS
 10
424.3493701502
 20
66.4274985577
 11
426.5993701502
 21
66.4274985577
  0
LINE
  5
232
100
AcDbEntity
  8
0
100
AcDbLine
 62
7
  6
CONTINUOUS
 10
426.5993701502
 20
67.0019666414
 11
424.9118701502
 21
67.0019666414
  0
LINE
  5
233
100
AcDbEntity
  8
0
100
AcDbLine
 62
7
  6
CONTINUOUS
 10
422.0993701502
 20
67.0019666414
 11
421.7243699714
 21
67.0019666414
  0
LINE
  5
234
100
AcDbEntity
  8
0
100
AcDbLine
 62
7
  6
CONTINUOUS
 10
416.4743701502
 20
68.4381368842
 11
418.0681201055
 21
68.4381368842
  0
LINE
  5
235
100
AcDbEntity
  8
0
100
AcDbLine
 62
7
  6
CONTINUOUS
 10
418.2556200608
 20
69.0126049008
 11
416.4743701502
 21
69.0126049008
  0
LINE
  5
236
100
AcDbEntity
  8
KONSTRUKTIONSELEMENTE
100
AcDbLine
 62
7
  6
CONTINUOUS
 10
423.0418699595
 20
59.0534560027
 11
422.5418701502
 21
58.9257964434
  0
LINE
  5
237
100
AcDbEntity
  8
KONSTRUKTIONSELEMENTE
100
AcDbLine
 62
7
  6
CONTINUOUS
 10
421.5418699595
 20
63.5215412022
 11
422.0418703409
 21
63.6492007615
  0
LINE
  5
238
100
AcDbEntity
  8
0
100
AcDbLine
 62
7
  6
CONTINUOUS
 10
426.9743697926
 20
67.0977113109
 11
426.5993701502
 21
67.0019666414
  0
LINE
  5
239
100
AcDbEntity
  8
0
100
AcDbLine
 62
7
  6
CONTINUOUS
 10
422.474370329
 20
67.0977113109
 11
422.0993701502
 21
67.0019666414
  0
LINE
  5
23A
100
AcDbEntity
  8
0
100
AcDbLine
 62
7
  6
CONTINUOUS
 10
426.5993701502
 20
66.4274985577
 11
427.0681205078
 21
66.5232432356
  0
LINE
  5
23B
100
AcDbEntity
  8
0
100
AcDbLine
 62
7
  6
CONTINUOUS
 10
422.0993701502
 20
66.4274985577
 11
422.5681199714
 21
66.5232432356
  0
LINE
  5
23C
100
AcDbEntity
  8
KONSTRUKTIONSELEMENTE
100
AcDbLine
 62
7
  6
CONTINUOUS
 10
422.1418699595
 20
64.2874985577
 11
421.4418703409
 21
64.1598389985
  0
LINE
  5
23D
100
AcDbEntity
  8
0
100
AcDbLine
 62
7
  6
CONTINUOUS
 10
424.9118701502
 20
70.3530305411
 11
426.5993701502
 21
70.3530305411
  0
LINE
  5
23E
100
AcDbEntity
  8
0
100
AcDbLine
 62
7
  6
CONTINUOUS
 10
416.4743701502
 20
70.4487752106
 11
418.2556200608
 21
70.4487752106
  0
LINE
  5
23F
100
AcDbEntity
  8
0
100
AcDbLine
 62
7
  6
CONTINUOUS
 10
426.5993701502
 20
70.9274985577
 11
424.3493701502
 21
70.9274985577
  0
LINE
  5
240
100
AcDbEntity
  8
0
100
AcDbLine
 62
7
  6
CONTINUOUS
 10
423.599370329
 20
70.9274985577
 11
423.036870329
 21
70.9274985577
  0
LINE
  5
241
100
AcDbEntity
  8
0
100
AcDbLine
 62
7
  6
CONTINUOUS
 10
420.786870329
 20
70.9274985577
 11
420.2243700608
 21
70.9274985577
  0
LINE
  5
242
100
AcDbEntity
  8
0
100
AcDbLine
 62
7
  6
CONTINUOUS
 10
418.1618701502
 20
70.9274985577
 11
415.9118701502
 21
70.9274985577
  0
LINE
  5
243
100
AcDbEntity
  8
RUNDUNGEN
100
AcDbLine
 62
7
  6
CONTINUOUS
 10
426.6418701502
 20
79.7874985577
 11
417.1418701502
 21
79.7874985577
  0
LINE
  5
244
100
AcDbEntity
  8
RUNDUNGEN
100
AcDbLine
 62
7
  6
CONTINUOUS
 10
417.3272475393
 20
84.2874985577
 11
426.4570532752
 21
84.2874985577
  0
LINE
  5
245
100
AcDbEntity
  8
FASEN
100
AcDbLine
 62
7
  6
CONTINUOUS
 10
442.2166450959
 20
84.7950946812
 11
401.5670952045
 21
84.7950946812
  0
LINE
  5
246
100
AcDbEntity
  8
FASEN
100
AcDbLine
 62
7
  6
CONTINUOUS
 10
441.629821007
 20
85.2874985577
 11
402.1539192934
 21
85.2874985577
  0
LINE
  5
247
100
AcDbEntity
  8
RUNDUNGEN
100
AcDbLine
 62
7
  6
CONTINUOUS
 10
407.936751501
 20
94.2874985577
 11
435.8469872991
 21
94.2874985577
  0
LINE
  5
248
100
AcDbEntity
  8
0
100
AcDbLine
 62
7
  6
CONTINUOUS
 10
411.3344121662
 20
102.2874985577
 11
432.4493281342
 21
102.2874985577
  0
LINE
  5
249
100
AcDbEntity
  8
KONSTRUKTIONSELEMENTE
100
AcDbLine
 62
7
  6
CONTINUOUS
 10
423.0418699595
 20
64.1598389985
 11
422.3418703409
 21
64.2874985577
  0
LINE
  5
24A
100
AcDbEntity
  8
0
100
AcDbLine
 62
7
  6
CONTINUOUS
 10
421.2556201502
 20
66.5232432356
 11
421.7243699714
 21
66.4274985577
  0
LINE
  5
24B
100
AcDbEntity
  8
0
100
AcDbLine
 62
7
  6
CONTINUOUS
 10
418.6306202396
 20
70.8317538883
 11
418.1618701502
 21
70.9274985577
  0
LINE
  5
24C
100
AcDbEntity
  8
0
100
AcDbLine
 62
7
  6
CONTINUOUS
 10
427.0681205078
 20
70.8317538883
 11
426.5993701502
 21
70.9274985577
  0
LINE
  5
24D
100
AcDbEntity
  8
KONSTRUKTIONSELEMENTE
100
AcDbLine
 62
7
  6
CONTINUOUS
 10
426.4418701502
 20
58.4151581282
 11
427.0418701502
 21
58.2874985577
  0
LINE
  5
24E
100
AcDbEntity
  8
KONSTRUKTIONSELEMENTE
100
AcDbLine
 62
7
  6
CONTINUOUS
 10
422.4418699595
 20
61.0960092189
 11
423.0418699595
 21
60.9683496596
  0
LINE
  5
24F
100
AcDbEntity
  8
KONSTRUKTIONSELEMENTE
100
AcDbLine
 62
7
  6
CONTINUOUS
 10
421.9418701502
 20
58.9257964434
 11
421.4418703409
 21
59.0534560027
  0
LINE
  5
250
100
AcDbEntity
  8
KONSTRUKTIONSELEMENTE
100
AcDbLine
 62
7
  6
CONTINUOUS
 10
427.0418701502
 20
58.7981368394
 11
426.5418697687
 21
58.9257964434
  0
LINE
  5
251
100
AcDbEntity
  8
KONSTRUKTIONSELEMENTE
100
AcDbLine
 62
7
  6
CONTINUOUS
 10
422.4418699595
 20
63.6492007615
 11
422.9418703409
 21
63.5215412022
  0
LINE
  5
252
100
AcDbEntity
  8
0
100
AcDbLine
 62
7
  6
CONTINUOUS
 10
421.7243699714
 20
67.0019666414
 11
421.349370329
 21
67.0977113109
  0
LINE
  5
253
100
AcDbEntity
  8
0
100
AcDbLine
 62
7
  6
CONTINUOUS
 10
426.5993701502
 20
70.3530305411
 11
426.9743697926
 21
70.2572858717
  0
LINE
  5
254
100
AcDbEntity
  8
KONSTRUKTIONSELEMENTE
100
AcDbLine
 62
7
  6
CONTINUOUS
 10
421.4418703409
 20
58.4151581282
 11
421.8418699595
 21
58.2874985577
  0
LINE
  5
255
100
AcDbEntity
  8
0
100
AcDbLine
 62
7
  6
CONTINUOUS
 10
418.2556200608
 20
70.4487752106
 11
418.5368700608
 21
70.3530305411
  0
LINE
  5
256
100
AcDbEntity
  8
KONSTRUKTIONSELEMENTE
100
AcDbLine
 62
7
  6
CONTINUOUS
 10
426.1418701502
 20
58.5428176986
 11
426.4418701502
 21
58.4151581282
  0
LINE
  5
257
100
AcDbEntity
  8
KONSTRUKTIONSELEMENTE
100
AcDbLine
 62
7
  6
CONTINUOUS
 10
423.7418701502
 20
61.0960092189
 11
423.2418703409
 21
61.3513283374
  0
LINE
  5
258
100
AcDbEntity
  8
0
100
AcDbLine
 62
7
  6
CONTINUOUS
 10
420.8806199714
 20
66.7147325996
 11
421.2556201502
 21
66.5232432356
  0
LINE
  5
259
100
AcDbEntity
  8
0
100
AcDbLine
 62
7
  6
CONTINUOUS
 10
427.4431201502
 20
70.6402645494
 11
427.0681205078
 21
70.8317538883
  0
LINE
  5
25A
100
AcDbEntity
  8
KONSTRUKTIONSELEMENTE
100
AcDbLine
 62
7
  6
CONTINUOUS
 10
421.0418701502
 20
58.6704772802
 11
421.4418703409
 21
58.4151581282
  0
LINE
  5
25B
100
AcDbEntity
  8
KONSTRUKTIONSELEMENTE
100
AcDbLine
 62
7
  6
CONTINUOUS
 10
421.4418703409
 20
59.0534560027
 11
421.2418702456
 21
59.1811155619
  0
LINE
  5
25C
100
AcDbEntity
  8
0
100
AcDbLine
 62
7
  6
CONTINUOUS
 10
417.2586114922
 20
177.7874985577
 11
425.2373346904
 21
177.7874985577
  0
LINE
  5
25D
100
AcDbEntity
  8
KONSTRUKTIONSELEMENTE
100
AcDbLine
 62
7
  6
CONTINUOUS
 10
423.4418701502
 20
63.90451988
 11
423.0418699595
 21
64.1598389985
  0
LINE
  5
25E
100
AcDbEntity
  8
0
100
AcDbLine
 62
7
  6
CONTINUOUS
 10
421.349370329
 20
67.0977113109
 11
421.068120329
 21
67.2892007168
  0
LINE
  5
25F
100
AcDbEntity
  8
0
100
AcDbLine
 62
7
  6
CONTINUOUS
 10
426.9743697926
 20
70.2572858717
 11
427.2556197926
 21
70.0657965328
  0
LINE
  5
260
100
AcDbEntity
  8
0
100
AcDbLine
 62
7
  6
CONTINUOUS
 10
419.0056201502
 20
70.54451988
 11
418.6306202396
 21
70.8317538883
  0
LINE
  5
261
100
AcDbEntity
  8
0
100
AcDbLine
 62
7
  6
CONTINUOUS
 10
427.3649940112
 20
181.4333477857
 11
425.2373346904
 21
180.9124985577
  0
LINE
  5
262
100
AcDbEntity
  8
0
100
AcDbLine
 62
7
  6
CONTINUOUS
 10
425.2373346904
 20
177.7874985577
 11
427.8969103316
 21
178.3083477857
  0
LINE
  5
263
100
AcDbEntity
  8
0
100
AcDbLine
 62
7
  6
CONTINUOUS
 10
425.2373346904
 20
180.9124985577
 11
417.2586114922
 21
180.9124985577
  0
LINE
  5
264
100
AcDbEntity
  8
0
100
AcDbLine
 62
7
  6
CONTINUOUS
 10
411.9394628176
 20
195.4958477857
 11
430.5564844826
 21
195.4958477857
  0
LINE
  5
265
100
AcDbEntity
  8
0
100
AcDbLine
 62
7
  6
CONTINUOUS
 10
433.7479734638
 20
198.6208477857
 11
408.7479734638
 21
198.6208477857
  0
LINE
  5
266
100
AcDbEntity
  8
0
100
AcDbLine
 62
7
  6
CONTINUOUS
 10
417.2586114922
 20
202.7874985577
 11
433.7479734638
 21
202.7874985577
  0
LINE
  5
267
100
AcDbEntity
  8
0
100
AcDbLine
 62
7
  6
CONTINUOUS
 10
433.7479734638
 20
205.9124985577
 11
417.2586114922
 21
205.9124985577
  0
LINE
  5
268
100
AcDbEntity
  8
0
100
AcDbLine
 62
7
  6
CONTINUOUS
 10
414.5990373412
 20
178.3083477857
 11
417.2586114922
 21
177.7874985577
  0
LINE
  5
269
100
AcDbEntity
  8
0
100
AcDbLine
 62
7
  6
CONTINUOUS
 10
414.5990373412
 20
203.3083477857
 11
417.2586114922
 21
202.7874985577
  0
LINE
  5
26A
100
AcDbEntity
  8
0
100
AcDbLine
 62
7
  6
CONTINUOUS
 10
417.2586114922
 20
180.9124985577
 11
415.1309521714
 21
181.4333477857
  0
LINE
  5
26B
100
AcDbEntity
  8
0
100
AcDbLine
 62
7
  6
CONTINUOUS
 10
417.2586114922
 20
205.9124985577
 11
415.1309521714
 21
206.4333477857
  0
LINE
  5
26C
100
AcDbEntity
  8
0
100
AcDbLine
 62
7
  6
CONTINUOUS
 10
412.4713776478
 20
179.3499985577
 11
414.5990373412
 21
178.3083477857
  0
LINE
  5
26D
100
AcDbEntity
  8
FASEN
100
AcDbLine
 62
7
  6
CONTINUOUS
 10
441.6298210066
 20
85.2874985581
 11
442.2166450955
 21
84.7950946816
  0
LINE
  5
26E
100
AcDbEntity
  8
KONSTRUKTIONSELEMENTE
100
AcDbLine
 62
7
  6
CONTINUOUS
 10
420.7418701502
 20
58.9257964434
 11
421.0418701502
 21
58.6704772802
  0
LINE
  5
26F
100
AcDbEntity
  8
KONSTRUKTIONSELEMENTE
100
AcDbLine
 62
7
  6
CONTINUOUS
 10
423.0418699595
 20
60.9683496596
 11
423.3418699595
 21
60.7130305411
  0
LINE
  5
270
100
AcDbEntity
  8
KONSTRUKTIONSELEMENTE
100
AcDbLine
 62
7
  6
CONTINUOUS
 10
425.8418701502
 20
58.7981368394
 11
426.1418701502
 21
58.5428176986
  0
LINE
  5
271
100
AcDbEntity
  8
KONSTRUKTIONSELEMENTE
100
AcDbLine
 62
7
  6
CONTINUOUS
 10
426.5418697687
 20
58.9257964434
 11
426.2418697687
 21
59.1811155619
  0
LINE
  5
272
100
AcDbEntity
  8
KONSTRUKTIONSELEMENTE
100
AcDbLine
 62
7
  6
CONTINUOUS
 10
422.9418703409
 20
63.5215412022
 11
423.2418703409
 21
63.2662220837
  0
LINE
  5
273
100
AcDbEntity
  8
0
100
AcDbLine
 62
7
  6
CONTINUOUS
 10
413.8918701502
 20
30.4874985577
 11
415.0918701502
 21
29.2874985577
  0
LINE
  5
274
100
AcDbEntity
  8
0
100
AcDbLine
 62
7
  6
CONTINUOUS
 10
415.1309521714
 20
217.8916493298
 11
417.2586114922
 21
218.4124985577
  0
LINE
  5
275
100
AcDbEntity
  8
0
100
AcDbLine
 62
7
  6
CONTINUOUS
 10
417.2586114922
 20
221.5374985577
 11
414.5990373412
 21
221.0166493298
  0
LINE
  5
276
100
AcDbEntity
  8
0
100
AcDbLine
 62
7
  6
CONTINUOUS
 10
417.2586114922
 20
218.4124985577
 11
433.7479734638
 21
218.4124985577
  0
LINE
  5
277
100
AcDbEntity
  8
0
100
AcDbLine
 62
7
  6
CONTINUOUS
 10
433.7479734638
 20
221.5374985577
 11
417.2586114922
 21
221.5374985577
  0
LINE
  5
278
100
AcDbEntity
  8
0
100
AcDbLine
 62
7
  6
CONTINUOUS
 10
425.7692495206
 20
226.2249985577
 11
427.8969103316
 21
226.2249985577
  0
LINE
  5
279
100
AcDbEntity
  8
0
100
AcDbLine
 62
7
  6
CONTINUOUS
 10
427.8969103316
 20
229.3499985577
 11
426.3011643508
 21
229.3499985577
  0
LINE
  5
27A
100
AcDbEntity
  8
0
100
AcDbLine
 62
7
  6
CONTINUOUS
 10
408.7479734638
 20
242.3708477857
 11
419.9181863883
 21
242.3708477857
  0
LINE
  5
27B
100
AcDbEntity
  8
0
100
AcDbLine
 62
7
  6
CONTINUOUS
 10
423.1096753696
 20
242.3708477857
 11
431.0883993128
 21
242.3708477857
  0
LINE
  5
27C
100
AcDbEntity
  8
0
100
AcDbLine
 62
7
  6
CONTINUOUS
 10
433.7479734638
 20
245.4958477857
 11
408.7479734638
 21
245.4958477857
  0
LINE
  5
27D
100
AcDbEntity
  8
0
100
AcDbLine
 62
7
  6
CONTINUOUS
 10
424.17350503
 20
226.7458477857
 11
425.7692495206
 21
226.2249985577
  0
LINE
  5
27E
100
AcDbEntity
  8
0
100
AcDbLine
 62
7
  6
CONTINUOUS
 10
426.3011643508
 20
229.3499985577
 11
424.7054198602
 21
229.8708477857
  0
LINE
  5
27F
100
AcDbEntity
  8
0
100
AcDbLine
 62
7
  6
CONTINUOUS
 10
412.4713776478
 20
204.3499985577
 11
414.5990373412
 21
203.3083477857
  0
LINE
  5
280
100
AcDbEntity
  8
0
100
AcDbLine
 62
7
  6
CONTINUOUS
 10
415.1309521714
 20
181.4333477857
 11
413.5352076808
 21
182.4749985577
  0
LINE
  5
281
100
AcDbEntity
  8
0
100
AcDbLine
 62
7
  6
CONTINUOUS
 10
420.505620329
 20
67.0977113109
 11
420.8806199714
 21
66.7147325996
  0
LINE
  5
282
100
AcDbEntity
  8
0
100
AcDbLine
 62
7
  6
CONTINUOUS
 10
418.5368700608
 20
70.3530305411
 11
418.7243701502
 21
70.1615412022
  0
LINE
  5
283
100
AcDbEntity
  8
0
100
AcDbLine
 62
7
  6
CONTINUOUS
 10
427.8181197926
 20
70.2572858717
 11
427.4431201502
 21
70.6402645494
  0
LINE
  5
284
100
AcDbEntity
  8
0
100
AcDbLine
 62
7
  6
CONTINUOUS
 10
415.1309521714
 20
206.4333477857
 11
413.5352076808
 21
207.4749985577
  0
LINE
  5
285
100
AcDbEntity
  8
0
100
AcDbLine
 62
7
  6
CONTINUOUS
 10
410.3437181407
 20
181.4333477857
 11
412.4713776478
 21
179.3499985577
  0
LINE
  5
286
100
AcDbEntity
  8
KONSTRUKTIONSELEMENTE
100
AcDbLine
 62
7
  6
CONTINUOUS
 10
421.2418702456
 20
59.1811155619
 11
421.0418701502
 21
59.4364347698
  0
LINE
  5
287
100
AcDbEntity
  8
KONSTRUKTIONSELEMENTE
100
AcDbLine
 62
7
  6
CONTINUOUS
 10
423.8418703409
 20
63.393881643
 11
423.4418701502
 21
63.90451988
  0
LINE
  5
288
100
AcDbEntity
  8
0
100
AcDbLine
 62
7
  6
CONTINUOUS
 10
419.2868701502
 20
70.1615412022
 11
419.0056201502
 21
70.54451988
  0
LINE
  5
289
100
AcDbEntity
  8
0
100
AcDbLine
 62
7
  6
CONTINUOUS
 10
422.0458457092
 20
228.3083477857
 11
424.17350503
 21
226.7458477857
  0
LINE
  5
28A
100
AcDbEntity
  8
0
100
AcDbLine
 62
7
  6
CONTINUOUS
 10
410.3437181407
 20
206.4333477857
 11
412.4713776478
 21
204.3499985577
  0
LINE
  5
28B
100
AcDbEntity
  8
0
100
AcDbLine
 62
7
  6
CONTINUOUS
 10
421.068120329
 20
67.2892007168
 11
420.8806199714
 21
67.5764347251
  0
LINE
  5
28C
100
AcDbEntity
  8
0
100
AcDbLine
 62
7
  6
CONTINUOUS
 10
427.2556197926
 20
70.0657965328
 11
427.4431201502
 21
69.7785622563
  0
LINE
  5
28D
100
AcDbEntity
  8
0
100
AcDbLine
 62
7
  6
CONTINUOUS
 10
423.6415901998
 20
349.6624985577
 11
425.7692495206
 21
349.6624985577
  0
LINE
  5
28E
100
AcDbEntity
  8
0
100
AcDbLine
 62
7
  6
CONTINUOUS
 10
408.7479734638
 20
350.7041493298
 11
410.8756329709
 21
350.7041493298
  0
LINE
  5
28F
100
AcDbEntity
  8
0
100
AcDbLine
 62
7
  6
CONTINUOUS
 10
414.067122511
 20
355.3916493298
 11
423.6415901998
 21
355.3916493298
  0
LINE
  5
290
100
AcDbEntity
  8
0
100
AcDbLine
 62
7
  6
CONTINUOUS
 10
425.7692495206
 20
355.3916493298
 11
430.0245696524
 21
355.3916493298
  0
LINE
  5
291
100
AcDbEntity
  8
0
100
AcDbLine
 62
7
  6
CONTINUOUS
 10
430.0245696524
 20
357.9958477857
 11
425.7692495206
 21
357.9958477857
  0
LINE
  5
292
100
AcDbEntity
  8
0
100
AcDbLine
 62
7
  6
CONTINUOUS
 10
423.6415901998
 20
357.9958477857
 11
413.003292478
 21
357.9958477857
  0
LINE
  5
293
100
AcDbEntity
  8
0
100
AcDbLine
 62
7
  6
CONTINUOUS
 10
425.7692495206
 20
362.1624985577
 11
423.6415901998
 21
362.1624985577
  0
LINE
  5
294
100
AcDbEntity
  8
0
100
AcDbLine
 62
7
  6
CONTINUOUS
 10
424.7054198602
 20
229.8708477857
 11
423.6415901998
 21
230.9124985577
  0
LINE
  5
295
100
AcDbEntity
  8
0
100
AcDbLine
 62
7
  6
CONTINUOUS
 10
413.5352076808
 20
182.4749985577
 11
412.4713776478
 21
184.0374985577
  0
LINE
  5
296
100
AcDbEntity
  8
0
100
AcDbLine
 62
7
  6
CONTINUOUS
 10
413.5352076808
 20
207.4749985577
 11
412.4713776478
 21
209.0374985577
  0
LINE
  5
297
100
AcDbEntity
  8
KONSTRUKTIONSELEMENTE
100
AcDbLine
 62
7
  6
CONTINUOUS
 10
420.5418700548
 20
59.3087751212
 11
420.7418701502
 21
58.9257964434
  0
LINE
  5
298
100
AcDbEntity
  8
KONSTRUKTIONSELEMENTE
100
AcDbLine
 62
7
  6
CONTINUOUS
 10
423.9418699595
 20
60.7130305411
 11
423.7418701502
 21
61.0960092189
  0
LINE
  5
299
100
AcDbEntity
  8
KONSTRUKTIONSELEMENTE
100
AcDbLine
 62
7
  6
CONTINUOUS
 10
423.2418703409
 20
63.2662220837
 11
423.4418701502
 21
62.883243406
  0
LINE
  5
29A
100
AcDbEntity
  8
0
100
AcDbLine
 62
7
  6
CONTINUOUS
 10
420.3181202396
 20
67.4806900557
 11
420.505620329
 21
67.0977113109
  0
LINE
  5
29B
100
AcDbEntity
  8
0
100
AcDbLine
 62
7
  6
CONTINUOUS
 10
428.0056201502
 20
69.8743071939
 11
427.8181197926
 21
70.2572858717
  0
LINE
  5
29C
100
AcDbEntity
  8
0
100
AcDbLine
 62
7
  6
CONTINUOUS
 10
427.8969103316
 20
366.8499985577
 11
430.0245696524
 21
367.3708477857
  0
LINE
  5
29D
100
AcDbEntity
  8
0
100
AcDbLine
 62
7
  6
CONTINUOUS
 10
416.726696662
 20
366.3291493298
 11
418.8543567279
 21
366.8499985577
  0
LINE
  5
29E
100
AcDbEntity
  8
0
100
AcDbLine
 62
7
  6
CONTINUOUS
 10
414.5990373412
 20
366.3291493298
 11
416.726696662
 21
366.3291493298
  0
LINE
  5
29F
100
AcDbEntity
  8
0
100
AcDbLine
 62
7
  6
CONTINUOUS
 10
426.833079181
 20
366.8499985577
 11
427.8969103316
 21
366.8499985577
  0
LINE
  5
2A0
100
AcDbEntity
  8
0
100
AcDbLine
 62
7
  6
CONTINUOUS
 10
416.726696662
 20
368.9333477857
 11
414.5990373412
 21
368.9333477857
  0
LINE
  5
2A1
100
AcDbEntity
  8
0
100
AcDbLine
 62
7
  6
CONTINUOUS
 10
427.8969103316
 20
369.4541493298
 11
426.833079181
 21
369.4541493298
  0
LINE
  5
2A2
100
AcDbEntity
  8
0
100
AcDbLine
 62
7
  6
CONTINUOUS
 10
422.5777605394
 20
376.7458477857
 11
420.4501012185
 21
376.7458477857
  0
LINE
  5
2A3
100
AcDbEntity
  8
0
100
AcDbLine
 62
7
  6
CONTINUOUS
 10
408.7479734638
 20
399.1416493298
 11
433.7479734638
 21
399.1416493298
  0
LINE
  5
2A4
100
AcDbEntity
  8
0
100
AcDbLine
 62
7
  6
CONTINUOUS
 10
424.7054198602
 20
367.3708477857
 11
426.833079181
 21
366.8499985577
  0
LINE
  5
2A5
100
AcDbEntity
  8
0
100
AcDbLine
 62
7
  6
CONTINUOUS
 10
430.0245696524
 20
384.0374985577
 11
427.8969103316
 21
384.5583477857
  0
LINE
  5
2A6
100
AcDbEntity
  8
0
100
AcDbLine
 62
7
  6
CONTINUOUS
 10
413.003292478
 20
366.8499985577
 11
414.5990373412
 21
366.3291493298
  0
LINE
  5
2A7
100
AcDbEntity
  8
0
100
AcDbLine
 62
7
  6
CONTINUOUS
 10
414.5990373412
 20
368.9333477857
 11
413.5352076808
 21
369.4541493298
  0
LINE
  5
2A8
100
AcDbEntity
  8
0
100
AcDbLine
 62
7
  6
CONTINUOUS
 10
426.833079181
 20
369.4541493298
 11
424.7054198602
 21
370.4958477857
  0
LINE
  5
2A9
100
AcDbEntity
  8
0
100
AcDbLine
 62
7
  6
CONTINUOUS
 10
411.4075479874
 20
367.8916493298
 11
413.003292478
 21
366.8499985577
  0
LINE
  5
2AA
100
AcDbEntity
  8
0
100
AcDbLine
 62
7
  6
CONTINUOUS
 10
409.2798883406
 20
183.5166493298
 11
410.3437181407
 21
181.4333477857
  0
LINE
  5
2AB
100
AcDbEntity
  8
0
100
AcDbLine
 62
7
  6
CONTINUOUS
 10
409.2798883406
 20
208.5166493298
 11
410.3437181407
 21
206.4333477857
  0
LINE
  5
2AC
100
AcDbEntity
  8
KONSTRUKTIONSELEMENTE
100
AcDbLine
 62
7
  6
CONTINUOUS
 10
421.0418701502
 20
59.4364347698
 11
420.9418702456
 21
59.6917538883
  0
LINE
  5
2AD
100
AcDbEntity
  8
KONSTRUKTIONSELEMENTE
100
AcDbLine
 62
7
  6
CONTINUOUS
 10
423.3418699595
 20
60.7130305411
 11
423.5418703409
 21
60.2023921253
  0
LINE
  5
2AE
100
AcDbEntity
  8
KONSTRUKTIONSELEMENTE
100
AcDbLine
 62
7
  6
CONTINUOUS
 10
425.6418703409
 20
59.3087751212
 11
425.8418701502
 21
58.7981368394
  0
LINE
  5
2AF
100
AcDbEntity
  8
0
100
AcDbLine
 62
7
  6
CONTINUOUS
 10
419.4743702396
 20
66.4274985577
 11
418.6306202396
 21
68.629626223
  0
LINE
  5
2B0
100
AcDbEntity
  8
0
100
AcDbLine
 62
7
  6
CONTINUOUS
 10
418.0681201055
 20
68.4381368842
 11
418.8181200608
 21
66.4274985577
  0
LINE
  5
2B1
100
AcDbEntity
  8
0
100
AcDbLine
 62
7
  6
CONTINUOUS
 10
433.7479734638
 20
778.8291657211
 11
421.5139308789
 21
769.9749985577
  0
LINE
  5
2B2
100
AcDbEntity
  8
0
100
AcDbLine
 62
7
  6
CONTINUOUS
 10
418.8543567279
 20
768.4124985577
 11
408.7479734638
 21
761.1208328845
  0
LINE
  5
2B3
100
AcDbEntity
  8
0
100
AcDbLine
 62
7
  6
CONTINUOUS
 10
423.6415901998
 20
768.4124985577
 11
433.7479734638
 21
775.704164231
  0
LINE
  5
2B4
100
AcDbEntity
  8
0
100
AcDbLine
 62
7
  6
CONTINUOUS
 10
408.7479734638
 20
757.9958328845
 11
421.5139308789
 21
766.8499985577
  0
LINE
  5
2B5
100
AcDbEntity
  8
0
100
AcDbLine
 62
7
  6
CONTINUOUS
 10
429.4926548222
 20
738.2041672112
 11
427.8969103316
 21
737.6833299043
  0
LINE
  5
2B6
100
AcDbEntity
  8
0
100
AcDbLine
 62
7
  6
CONTINUOUS
 10
427.8969103316
 20
734.5583299043
 11
429.4926548222
 21
735.0791672112
  0
LINE
  5
2B7
100
AcDbEntity
  8
0
100
AcDbLine
 62
7
  6
CONTINUOUS
 10
429.4926548222
 20
402.2666493298
 11
408.7479734638
 21
402.2666493298
  0
LINE
  5
2B8
100
AcDbEntity
  8
0
100
AcDbLine
 62
7
  6
CONTINUOUS
 10
430.0245696524
 20
405.3916731717
 11
425.7692495206
 21
405.3916731717
  0
LINE
  5
2B9
100
AcDbEntity
  8
0
100
AcDbLine
 62
7
  6
CONTINUOUS
 10
408.7479734638
 20
409.5583239438
 11
411.9394628176
 21
409.5583239438
  0
LINE
  5
2BA
100
AcDbEntity
  8
0
100
AcDbLine
 62
7
  6
CONTINUOUS
 10
411.9394628176
 20
425.1833239438
 11
433.7479734638
 21
425.1833239438
  0
LINE
  5
2BB
100
AcDbEntity
  8
0
100
AcDbLine
 62
7
  6
CONTINUOUS
 10
433.7479734638
 20
428.3083239438
 11
408.7479734638
 21
428.3083239438
  0
LINE
  5
2BC
100
AcDbEntity
  8
0
100
AcDbLine
 62
7
  6
CONTINUOUS
 10
408.7479734638
 20
432.4749985577
 11
411.9394628176
 21
432.4749985577
  0
LINE
  5
2BD
100
AcDbEntity
  8
0
100
AcDbLine
 62
7
  6
CONTINUOUS
 10
405.5564841101
 20
392.3708477857
 11
411.4075479874
 21
389.2458477857
  0
LINE
  5
2BE
100
AcDbEntity
  8
0
100
AcDbLine
 62
7
  6
CONTINUOUS
 10
411.4075479874
 20
391.8499985577
 11
405.5564841101
 21
394.9749985577
  0
LINE
  5
2BF
100
AcDbEntity
  8
0
100
AcDbLine
 62
7
  6
CONTINUOUS
 10
423.1096753696
 20
368.4124985577
 11
424.7054198602
 21
367.3708477857
  0
LINE
  5
2C0
100
AcDbEntity
  8
0
100
AcDbLine
 62
7
  6
CONTINUOUS
 10
427.8969103316
 20
381.9541493298
 11
429.4926548222
 21
380.9124985577
  0
LINE
  5
2C1
100
AcDbEntity
  8
0
100
AcDbLine
 62
7
  6
CONTINUOUS
 10
413.5352076808
 20
369.4541493298
 11
412.4713776478
 21
370.4958477857
  0
LINE
  5
2C2
100
AcDbEntity
  8
0
100
AcDbLine
 62
7
  6
CONTINUOUS
 10
424.7054198602
 20
370.4958477857
 11
423.6415901998
 21
371.5374985577
  0
LINE
  5
2C3
100
AcDbEntity
  8
0
100
AcDbLine
 62
7
  6
CONTINUOUS
 10
420.9820160487
 20
230.3916493298
 11
422.0458457092
 21
228.3083477857
  0
LINE
  5
2C4
100
AcDbEntity
  8
0
100
AcDbLine
 62
7
  6
CONTINUOUS
 10
418.7243701502
 20
70.1615412022
 11
418.8181200608
 21
69.8743071939
  0
LINE
  5
2C5
100
AcDbEntity
  8
0
100
AcDbLine
 62
7
  6
CONTINUOUS
 10
419.3806200608
 20
69.8743071939
 11
419.2868701502
 21
70.1615412022
  0
LINE
  5
2C6
100
AcDbEntity
  8
0
100
AcDbLine
 62
7
  6
CONTINUOUS
 10
430.5564844826
 20
739.2458299043
 11
429.4926548222
 21
738.2041672112
  0
LINE
  5
2C7
100
AcDbEntity
  8
0
100
AcDbLine
 62
7
  6
CONTINUOUS
 10
429.4926548222
 20
735.0791672112
 11
431.620314143
 21
736.6416672112
  0
LINE
  5
2C8
100
AcDbEntity
  8
0
100
AcDbLine
 62
7
  6
CONTINUOUS
 10
414.5990373412
 20
461.6416731717
 11
433.7479734638
 21
465.8083239438
  0
LINE
  5
2C9
100
AcDbEntity
  8
0
100
AcDbLine
 62
7
  6
CONTINUOUS
 10
428.960739992
 20
467.8916731717
 11
408.7479734638
 21
463.7249985577
  0
LINE
  5
2CA
100
AcDbEntity
  8
0
100
AcDbLine
 62
7
  6
CONTINUOUS
 10
411.9394628176
 20
448.0999985577
 11
433.7479734638
 21
448.0999985577
  0
LINE
  5
2CB
100
AcDbEntity
  8
0
100
AcDbLine
 62
7
  6
CONTINUOUS
 10
433.7479734638
 20
451.2249985577
 11
408.7479734638
 21
451.2249985577
  0
LINE
  5
2CC
100
AcDbEntity
  8
0
100
AcDbLine
 62
7
  6
CONTINUOUS
 10
433.7479734638
 20
458.5166731717
 11
414.5990373412
 21
461.6416731717
  0
LINE
  5
2CD
100
AcDbEntity
  8
0
100
AcDbLine
 62
7
  6
CONTINUOUS
 10
408.7479734638
 20
459.5583239438
 11
433.7479734638
 21
455.3916731717
  0
LINE
  5
2CE
100
AcDbEntity
  8
0
100
AcDbLine
 62
7
  6
CONTINUOUS
 10
408.7479734638
 20
472.0583239438
 11
428.960739992
 21
467.8916731717
  0
LINE
  5
2CF
100
AcDbEntity
  8
0
100
AcDbLine
 62
7
  6
CONTINUOUS
 10
425.7692495206
 20
405.3916731717
 11
429.4926548222
 21
402.2666493298
  0
LINE
  5
2D0
100
AcDbEntity
  8
0
100
AcDbLine
 62
7
  6
CONTINUOUS
 10
433.7479734638
 20
402.2666493298
 11
430.0245696524
 21
405.3916731717
  0
LINE
  5
2D1
100
AcDbEntity
  8
0
100
AcDbLine
 62
7
  6
CONTINUOUS
 10
432.1522289732
 20
381.9541493298
 11
430.0245696524
 21
384.0374985577
  0
LINE
  5
2D2
100
AcDbEntity
  8
0
100
AcDbLine
 62
7
  6
CONTINUOUS
 10
421.5139308789
 20
370.4958477857
 11
423.1096753696
 21
368.4124985577
  0
LINE
  5
2D3
100
AcDbEntity
  8
0
100
AcDbLine
 62
7
  6
CONTINUOUS
 10
410.3437181407
 20
369.4541493298
 11
411.4075479874
 21
367.8916493298
  0
LINE
  5
2D4
100
AcDbEntity
  8
0
100
AcDbLine
 62
7
  6
CONTINUOUS
 10
409.2798883406
 20
371.5374985577
 11
410.3437181407
 21
369.4541493298
  0
LINE
  5
2D5
100
AcDbEntity
  8
0
100
AcDbLine
 62
7
  6
CONTINUOUS
 10
423.6415901998
 20
230.9124985577
 11
423.1096753696
 21
232.4749985577
  0
LINE
  5
2D6
100
AcDbEntity
  8
KONSTRUKTIONSELEMENTE
100
AcDbLine
 62
7
  6
CONTINUOUS
 10
420.4418701502
 20
59.6917538883
 11
420.5418700548
 21
59.3087751212
  0
LINE
  5
2D7
100
AcDbEntity
  8
KONSTRUKTIONSELEMENTE
100
AcDbLine
 62
7
  6
CONTINUOUS
 10
426.2418697687
 20
59.1811155619
 11
426.1418701502
 21
59.5640943291
  0
LINE
  5
2D8
100
AcDbEntity
  8
0
100
AcDbLine
 62
7
  6
CONTINUOUS
 10
412.4713776478
 20
184.0374985577
 11
411.9394628176
 21
186.1208477857
  0
LINE
  5
2D9
100
AcDbEntity
  8
0
100
AcDbLine
 62
7
  6
CONTINUOUS
 10
420.8806199714
 20
67.5764347251
 11
420.786870329
 21
67.9594134029
  0
LINE
  5
2DA
100
AcDbEntity
  8
0
100
AcDbLine
 62
7
  6
CONTINUOUS
 10
427.4431201502
 20
69.7785622563
 11
427.5368697926
 21
69.3955835785
  0
LINE
  5
2DB
100
AcDbEntity
  8
0
100
AcDbLine
 62
7
  6
CONTINUOUS
 10
431.620314143
 20
736.6416672112
 11
433.2160586336
 21
738.7249985577
  0
LINE
  5
2DC
100
AcDbEntity
  8
0
100
AcDbLine
 62
7
  6
CONTINUOUS
 10
433.7479734638
 20
480.3916731717
 11
408.7479734638
 21
476.2249985577
  0
LINE
  5
2DD
100
AcDbEntity
  8
0
100
AcDbLine
 62
7
  6
CONTINUOUS
 10
414.5990373412
 20
474.1416731717
 11
433.7479734638
 21
477.2666731717
  0
LINE
  5
2DE
100
AcDbEntity
  8
0
100
AcDbLine
 62
7
  6
CONTINUOUS
 10
433.7479734638
 20
469.9749985577
 11
414.5990373412
 21
474.1416731717
  0
LINE
  5
2DF
100
AcDbEntity
  8
0
100
AcDbLine
 62
7
  6
CONTINUOUS
 10
429.4926548222
 20
380.9124985577
 11
430.5564844826
 21
379.3499985577
  0
LINE
  5
2E0
100
AcDbEntity
  8
0
100
AcDbLine
 62
7
  6
CONTINUOUS
 10
412.4713776478
 20
370.4958477857
 11
411.9394628176
 21
371.5374985577
  0
LINE
  5
2E1
100
AcDbEntity
  8
0
100
AcDbLine
 62
7
  6
CONTINUOUS
 10
433.2160586336
 20
379.8708477857
 11
432.1522289732
 21
381.9541493298
  0
LINE
  5
2E2
100
AcDbEntity
  8
0
100
AcDbLine
 62
7
  6
CONTINUOUS
 10
412.4713776478
 20
209.0374985577
 11
411.9394628176
 21
211.1208477857
  0
LINE
  5
2E3
100
AcDbEntity
  8
0
100
AcDbLine
 62
7
  6
CONTINUOUS
 10
408.7479734638
 20
186.1208477857
 11
409.2798883406
 21
183.5166493298
  0
LINE
  5
2E4
100
AcDbEntity
  8
0
100
AcDbLine
 62
7
  6
CONTINUOUS
 10
408.7479734638
 20
211.1208477857
 11
409.2798883406
 21
208.5166493298
  0
LINE
  5
2E5
100
AcDbEntity
  8
0
100
AcDbLine
 62
7
  6
CONTINUOUS
 10
420.2243700608
 20
67.9594134029
 11
420.3181202396
 21
67.4806900557
  0
LINE
  5
2E6
100
AcDbEntity
  8
KONSTRUKTIONSELEMENTE
100
AcDbLine
 62
7
  6
CONTINUOUS
 10
424.0418701502
 20
60.2023921253
 11
423.9418699595
 21
60.7130305411
  0
LINE
  5
2E7
100
AcDbEntity
  8
KONSTRUKTIONSELEMENTE
100
AcDbLine
 62
7
  6
CONTINUOUS
 10
423.9418699595
 20
62.883243406
 11
423.8418703409
 21
63.393881643
  0
LINE
  5
2E8
100
AcDbEntity
  8
0
100
AcDbLine
 62
7
  6
CONTINUOUS
 10
428.0993697926
 20
69.3955835785
 11
428.0056201502
 21
69.8743071939
  0
LINE
  5
2E9
100
AcDbEntity
  8
0
100
AcDbLine
 62
7
  6
CONTINUOUS
 10
431.0883993128
 20
740.8083299043
 11
430.5564844826
 21
739.2458299043
  0
LINE
  5
2EA
100
AcDbEntity
  8
0
100
AcDbLine
 62
7
  6
CONTINUOUS
 10
423.6415901998
 20
371.5374985577
 11
422.5777605394
 21
374.6624985577
  0
LINE
  5
2EB
100
AcDbEntity
  8
0
100
AcDbLine
 62
7
  6
CONTINUOUS
 10
408.7479734638
 20
373.6208477857
 11
409.2798883406
 21
371.5374985577
  0
LINE
  5
2EC
100
AcDbEntity
  8
0
100
AcDbLine
 62
7
  6
CONTINUOUS
 10
411.9394628176
 20
371.5374985577
 11
411.4075479874
 21
374.1416493298
  0
LINE
  5
2ED
100
AcDbEntity
  8
BEZUGSACHSEN
100
AcDbLine
 62
7
  6
CONTINUOUS
 10
442.2166450959
 20
84.7950946812
 11
445.3920780218
 21
66.7863196593
  0
LINE
  5
2EE
100
AcDbEntity
  8
0
100
AcDbLine
 62
7
  6
CONTINUOUS
 10
398.3918701502
 20
66.7768690912
 11
398.3918701502
 21
54.2874985577
  0
LINE
  5
2EF
100
AcDbEntity
  8
BEZUGSACHSEN
100
AcDbLine
 62
7
  6
CONTINUOUS
 10
404.3918701502
 20
102.2875271688
 11
404.3918701502
 21
1126.2874699467
  0
LINE
  5
2F0
100
AcDbEntity
  8
0
100
AcDbLine
 62
7
  6
CONTINUOUS
 10
405.5564841101
 20
394.9749985577
 11
405.5564841101
 21
392.3708477857
  0
LINE
  5
2F1
100
AcDbEntity
  8
0
100
AcDbLine
 62
7
  6
CONTINUOUS
 10
408.7479734638
 20
794.4541649761
 11
408.7479734638
 21
791.3291649761
  0
LINE
  5
2F2
100
AcDbEntity
  8
0
100
AcDbLine
 62
7
  6
CONTINUOUS
 10
408.7479734638
 20
778.8291657211
 11
408.7479734638
 21
775.704164231
  0
LINE
  5
2F3
100
AcDbEntity
  8
0
100
AcDbLine
 62
7
  6
CONTINUOUS
 10
408.7479734638
 20
761.1208328845
 11
408.7479734638
 21
757.9958328845
  0
LINE
  5
2F4
100
AcDbEntity
  8
0
100
AcDbLine
 62
7
  6
CONTINUOUS
 10
408.7479734638
 20
753.829164231
 11
408.7479734638
 21
750.7041672112
  0
LINE
  5
2F5
100
AcDbEntity
  8
0
100
AcDbLine
 62
7
  6
CONTINUOUS
 10
408.7479734638
 20
476.2249985577
 11
408.7479734638
 21
472.0583239438
  0
LINE
  5
2F6
100
AcDbEntity
  8
0
100
AcDbLine
 62
7
  6
CONTINUOUS
 10
408.7479734638
 20
463.7249985577
 11
408.7479734638
 21
459.5583239438
  0
LINE
  5
2F7
100
AcDbEntity
  8
0
100
AcDbLine
 62
7
  6
CONTINUOUS
 10
408.7479734638
 20
451.2249985577
 11
408.7479734638
 21
432.4749985577
  0
LINE
  5
2F8
100
AcDbEntity
  8
0
100
AcDbLine
 62
7
  6
CONTINUOUS
 10
408.7479734638
 20
428.3083239438
 11
408.7479734638
 21
409.5583239438
  0
LINE
  5
2F9
100
AcDbEntity
  8
0
100
AcDbLine
 62
7
  6
CONTINUOUS
 10
408.7479734638
 20
402.2666493298
 11
408.7479734638
 21
399.1416493298
  0
LINE
  5
2FA
100
AcDbEntity
  8
0
100
AcDbLine
 62
7
  6
CONTINUOUS
 10
408.7479734638
 20
377.7874985577
 11
408.7479734638
 21
373.6208477857
  0
LINE
  5
2FB
100
AcDbEntity
  8
0
100
AcDbLine
 62
7
  6
CONTINUOUS
 10
408.7479734638
 20
245.4958477857
 11
408.7479734638
 21
242.3708477857
  0
LINE
  5
2FC
100
AcDbEntity
  8
0
100
AcDbLine
 62
7
  6
CONTINUOUS
 10
408.7479734638
 20
229.3499985577
 11
408.7479734638
 21
225.7041493298
  0
LINE
  5
2FD
100
AcDbEntity
  8
0
100
AcDbLine
 62
7
  6
CONTINUOUS
 10
408.7479734638
 20
213.2041493298
 11
408.7479734638
 21
211.1208477857
  0
LINE
  5
2FE
100
AcDbEntity
  8
0
100
AcDbLine
 62
7
  6
CONTINUOUS
 10
408.7479734638
 20
198.6208477857
 11
408.7479734638
 21
186.1208477857
  0
LINE
  5
2FF
100
AcDbEntity
  8
0
100
AcDbLine
 62
7
  6
CONTINUOUS
 10
409.884828595
 20
66.7768690912
 11
409.884828595
 21
54.2874985577
  0
LINE
  5
300
100
AcDbEntity
  8
RUNDUNGEN
100
AcDbLine
 62
7
  6
CONTINUOUS
 10
410.3989117054
 20
66.3760017491
 11
410.3989117054
 21
54.2874985577
  0
LINE
  5
301
100
AcDbEntity
  8
RUNDUNGEN
100
AcDbLine
 62
7
  6
CONTINUOUS
 10
410.3989117054
 20
70.9699882163
 11
410.3989117054
 21
74.2874985577
  0
LINE
  5
302
100
AcDbEntity
  8
0
100
AcDbLine
 62
7
  6
CONTINUOUS
 10
411.4075479874
 20
374.1416493298
 11
411.4075479874
 21
377.2666493298
  0
LINE
  5
303
100
AcDbEntity
  8
0
100
AcDbLine
 62
7
  6
CONTINUOUS
 10
411.4075479874
 20
389.2458477857
 11
411.4075479874
 21
391.8499985577
  0
LINE
  5
304
100
AcDbEntity
  8
0
100
AcDbLine
 62
7
  6
CONTINUOUS
 10
411.9394628176
 20
186.1208477857
 11
411.9394628176
 21
195.4958477857
  0
LINE
  5
305
100
AcDbEntity
  8
0
100
AcDbLine
 62
7
  6
CONTINUOUS
 10
411.9394628176
 20
211.1208477857
 11
411.9394628176
 21
213.2041493298
  0
LINE
  5
306
100
AcDbEntity
  8
0
100
AcDbLine
 62
7
  6
CONTINUOUS
 10
411.9394628176
 20
409.5583239438
 11
411.9394628176
 21
425.1833239438
  0
LINE
  5
307
100
AcDbEntity
  8
0
100
AcDbLine
 62
7
  6
CONTINUOUS
 10
411.9394628176
 20
432.4749985577
 11
411.9394628176
 21
448.0999985577
  0
LINE
  5
308
100
AcDbEntity
  8
BEZUGSACHSEN
100
AcDbLine
 62
7
  6
CONTINUOUS
 10
413.8918701502
 20
30.4874985577
 11
413.8918701502
 21
54.2874985577
  0
LINE
  5
309
100
AcDbEntity
  8
RUNDUNGEN
100
AcDbLine
 62
7
  6
CONTINUOUS
 10
414.1418701502
 20
76.7874985577
 11
414.1418701502
 21
58.7874985577
  0
LINE
  5
30A
100
AcDbEntity
  8
0
100
AcDbLine
 62
7
  6
CONTINUOUS
 10
414.5990373412
 20
382.4749985577
 11
414.5990373412
 21
385.0791493298
  0
LINE
  5
30B
100
AcDbEntity
  8
0
100
AcDbLine
 62
7
  6
CONTINUOUS
 10
415.9118701502
 20
70.9274985577
 11
415.9118701502
 21
66.4274985577
  0
LINE
  5
30C
100
AcDbEntity
  8
0
100
AcDbLine
 62
7
  6
CONTINUOUS
 10
416.4743701502
 20
66.4274985577
 11
416.4743701502
 21
68.4381368842
  0
LINE
  5
30D
100
AcDbEntity
  8
0
100
AcDbLine
 62
7
  6
CONTINUOUS
 10
416.4743701502
 20
69.0126049008
 11
416.4743701502
 21
70.4487752106
  0
LINE
  5
30E
100
AcDbEntity
  8
KONSTRUKTIONSELEMENTE
100
AcDbLine
 62
7
  6
CONTINUOUS
 10
416.5418701502
 20
63.393881643
 11
416.5418701502
 21
62.3726048114
  0
LINE
  5
30F
100
AcDbEntity
  8
KONSTRUKTIONSELEMENTE
100
AcDbLine
 62
7
  6
CONTINUOUS
 10
417.1418701502
 20
63.2662220837
 11
417.1418701502
 21
58.2874985577
  0
LINE
  5
310
100
AcDbEntity
  8
KONSTRUKTIONSELEMENTE
100
AcDbLine
 62
7
  6
CONTINUOUS
 10
417.7418701502
 20
58.2874985577
 11
417.7418701502
 21
64.2874985577
  0
LINE
  5
311
100
AcDbEntity
  8
0
100
AcDbLine
 62
7
  6
CONTINUOUS
 10
418.8181200608
 20
69.8743071939
 11
418.8181200608
 21
69.5870729174
  0
LINE
  5
312
100
AcDbEntity
  8
0
100
AcDbLine
 62
7
  6
CONTINUOUS
 10
419.3806200608
 20
69.491328248
 11
419.3806200608
 21
69.8743071939
  0
LINE
  5
313
100
AcDbEntity
  8
0
100
AcDbLine
 62
7
  6
CONTINUOUS
 10
419.9181863883
 20
750.7041672112
 11
419.9181863883
 21
741.3291672112
  0
LINE
  5
314
100
AcDbEntity
  8
0
100
AcDbLine
 62
7
  6
CONTINUOUS
 10
419.9181863883
 20
242.3708477857
 11
419.9181863883
 21
233.5166493298
  0
LINE
  5
315
100
AcDbEntity
  8
0
100
AcDbLine
 62
7
  6
CONTINUOUS
 10
420.2243700608
 20
70.9274985577
 11
420.2243700608
 21
67.9594134029
  0
LINE
  5
316
100
AcDbEntity
  8
0
100
AcDbLine
 62
7
  6
CONTINUOUS
 10
420.4501012185
 20
376.7458477857
 11
420.4501012185
 21
374.6624985577
  0
LINE
  5
317
100
AcDbEntity
  8
0
100
AcDbLine
 62
7
  6
CONTINUOUS
 10
420.786870329
 20
67.9594134029
 11
420.786870329
 21
70.9274985577
  0
LINE
  5
318
100
AcDbEntity
  8
KONSTRUKTIONSELEMENTE
100
AcDbLine
 62
7
  6
CONTINUOUS
 10
422.0418703409
 20
61.6066474559
 11
422.0418703409
 21
61.0960092189
  0
LINE
  5
319
100
AcDbEntity
  8
0
100
AcDbLine
 62
7
  6
CONTINUOUS
 10
422.5777605394
 20
374.6624985577
 11
422.5777605394
 21
376.7458477857
  0
LINE
  5
31A
100
AcDbEntity
  8
0
100
AcDbLine
 62
7
  6
CONTINUOUS
 10
423.036870329
 20
70.9274985577
 11
423.036870329
 21
67.9594134029
  0
LINE
  5
31B
100
AcDbEntity
  8
0
100
AcDbLine
 62
7
  6
CONTINUOUS
 10
423.1096753696
 20
232.4749985577
 11
423.1096753696
 21
242.3708477857
  0
LINE
  5
31C
100
AcDbEntity
  8
0
100
AcDbLine
 62
7
  6
CONTINUOUS
 10
423.1096753696
 20
740.8083299043
 11
423.1096753696
 21
750.7041672112
  0
LINE
  5
31D
100
AcDbEntity
  8
KONSTRUKTIONSELEMENTE
100
AcDbLine
 62
7
  6
CONTINUOUS
 10
423.4418701502
 20
62.883243406
 11
423.4418701502
 21
62.6279239299
  0
LINE
  5
31E
100
AcDbEntity
  8
KONSTRUKTIONSELEMENTE
100
AcDbLine
 62
7
  6
CONTINUOUS
 10
423.5418703409
 20
60.2023921253
 11
423.5418703409
 21
59.6917538883
  0
LINE
  5
31F
100
AcDbEntity
  8
0
100
AcDbLine
 62
7
  6
CONTINUOUS
 10
423.599370329
 20
67.9594134029
 11
423.599370329
 21
70.9274985577
  0
LINE
  5
320
100
AcDbEntity
  8
0
100
AcDbLine
 62
7
  6
CONTINUOUS
 10
423.6415901998
 20
362.1624985577
 11
423.6415901998
 21
357.9958477857
  0
LINE
  5
321
100
AcDbEntity
  8
0
100
AcDbLine
 62
7
  6
CONTINUOUS
 10
423.6415901998
 20
355.3916493298
 11
423.6415901998
 21
349.6624985577
  0
LINE
  5
322
100
AcDbEntity
  8
KONSTRUKTIONSELEMENTE
100
AcDbLine
 62
7
  6
CONTINUOUS
 10
423.9418699595
 20
62.6279239299
 11
423.9418699595
 21
62.883243406
  0
LINE
  5
323
100
AcDbEntity
  8
KONSTRUKTIONSELEMENTE
100
AcDbLine
 62
7
  6
CONTINUOUS
 10
424.0418701502
 20
59.6917538883
 11
424.0418701502
 21
60.2023921253
  0
LINE
  5
324
100
AcDbEntity
  8
0
100
AcDbLine
 62
7
  6
CONTINUOUS
 10
424.3493701502
 20
70.9274985577
 11
424.3493701502
 21
66.4274985577
  0
LINE
  5
325
100
AcDbEntity
  8
KONSTRUKTIONSELEMENTE
100
AcDbLine
 62
7
  6
CONTINUOUS
 10
424.8418699595
 20
62.3726048114
 11
424.8418699595
 21
61.8619665744
  0
LINE
  5
326
100
AcDbEntity
  8
0
100
AcDbLine
 62
7
  6
CONTINUOUS
 10
424.9118701502
 20
67.0019666414
 11
424.9118701502
 21
70.3530305411
  0
LINE
  5
327
100
AcDbEntity
  8
KONSTRUKTIONSELEMENTE
100
AcDbLine
 62
7
  6
CONTINUOUS
 10
425.6418703409
 20
63.393881643
 11
425.6418703409
 21
62.3726048114
  0
LINE
  5
328
100
AcDbEntity
  8
KONSTRUKTIONSELEMENTE
100
AcDbLine
 62
7
  6
CONTINUOUS
 10
425.6418703409
 20
61.8619665744
 11
425.6418703409
 21
59.3087751212
  0
LINE
  5
329
100
AcDbEntity
  8
0
100
AcDbLine
 62
7
  6
CONTINUOUS
 10
425.7692495206
 20
349.6624985577
 11
425.7692495206
 21
355.3916493298
  0
LINE
  5
32A
100
AcDbEntity
  8
0
100
AcDbLine
 62
7
  6
CONTINUOUS
 10
425.7692495206
 20
357.9958477857
 11
425.7692495206
 21
362.1624985577
  0
LINE
  5
32B
100
AcDbEntity
  8
KONSTRUKTIONSELEMENTE
100
AcDbLine
 62
7
  6
CONTINUOUS
 10
426.1418701502
 20
59.5640943291
 11
426.1418701502
 21
61.8619665744
  0
LINE
  5
32C
100
AcDbEntity
  8
KONSTRUKTIONSELEMENTE
100
AcDbLine
 62
7
  6
CONTINUOUS
 10
426.1418701502
 20
62.3726048114
 11
426.1418701502
 21
63.393881643
  0
LINE
  5
32D
100
AcDbEntity
  8
0
100
AcDbLine
 62
7
  6
CONTINUOUS
 10
433.2160586336
 20
738.7249985577
 11
433.7479734638
 21
741.3291672112
  0
LINE
  5
32E
100
AcDbEntity
  8
0
100
AcDbLine
 62
7
  6
CONTINUOUS
 10
430.5564844826
 20
379.3499985577
 11
431.0883993128
 21
376.7458477857
  0
LINE
  5
32F
100
AcDbEntity
  8
0
100
AcDbLine
 62
7
  6
CONTINUOUS
 10
433.7479734638
 20
376.2249985577
 11
433.2160586336
 21
379.8708477857
  0
LINE
  5
330
100
AcDbEntity
  8
KONSTRUKTIONSELEMENTE
100
AcDbLine
 62
7
  6
CONTINUOUS
 10
427.0418701502
 20
58.2874985577
 11
427.0418701502
 21
58.7981368394
  0
LINE
  5
331
100
AcDbEntity
  8
KONSTRUKTIONSELEMENTE
100
AcDbLine
 62
7
  6
CONTINUOUS
 10
427.2418705317
 20
61.8619665744
 11
427.2418705317
 21
62.3726048114
  0
LINE
  5
332
100
AcDbEntity
  8
0
100
AcDbLine
 62
7
  6
CONTINUOUS
 10
427.5368697926
 20
69.3955835785
 11
427.5368697926
 21
67.9594134029
  0
LINE
  5
333
100
AcDbEntity
  8
0
100
AcDbLine
 62
7
  6
CONTINUOUS
 10
427.8969103316
 20
384.5583477857
 11
427.8969103316
 21
381.9541493298
  0
LINE
  5
334
100
AcDbEntity
  8
0
100
AcDbLine
 62
7
  6
CONTINUOUS
 10
428.0993697926
 20
67.9594134029
 11
428.0993697926
 21
69.3955835785
  0
LINE
  5
335
100
AcDbEntity
  8
RUNDUNGEN
100
AcDbLine
 62
7
  6
CONTINUOUS
 10
429.6418701502
 20
58.7874985577
 11
429.6418701502
 21
76.7874985577
  0
LINE
  5
336
100
AcDbEntity
  8
BEZUGSACHSEN
100
AcDbLine
 62
7
  6
CONTINUOUS
 10
429.8918701502
 20
30.4874985577
 11
429.8918701502
 21
54.2874985577
  0
LINE
  5
337
100
AcDbEntity
  8
0
100
AcDbLine
 62
7
  6
CONTINUOUS
 10
430.0245696524
 20
355.3916493298
 11
430.0245696524
 21
357.9958477857
  0
LINE
  5
338
100
AcDbEntity
  8
0
100
AcDbLine
 62
7
  6
CONTINUOUS
 10
430.5564844826
 20
195.4958477857
 11
430.5564844826
 21
186.1208477857
  0
LINE
  5
339
100
AcDbEntity
  8
0
100
AcDbLine
 62
7
  6
CONTINUOUS
 10
431.0883993128
 20
802.7874985577
 11
431.0883993128
 21
794.4541649761
  0
LINE
  5
33A
100
AcDbEntity
  8
0
100
AcDbLine
 62
7
  6
CONTINUOUS
 10
431.0883993128
 20
791.3291649761
 11
431.0883993128
 21
782.9958313944
  0
LINE
  5
33B
100
AcDbEntity
  8
0
100
AcDbLine
 62
7
  6
CONTINUOUS
 10
431.0883993128
 20
750.7041672112
 11
431.0883993128
 21
740.8083299043
  0
LINE
  5
33C
100
AcDbEntity
  8
0
100
AcDbLine
 62
7
  6
CONTINUOUS
 10
431.0883993128
 20
376.7458477857
 11
431.0883993128
 21
374.6624985577
  0
LINE
  5
33D
100
AcDbEntity
  8
0
100
AcDbLine
 62
7
  6
CONTINUOUS
 10
431.0883993128
 20
242.3708477857
 11
431.0883993128
 21
232.4749985577
  0
LINE
  5
33E
100
AcDbEntity
  8
RUNDUNGEN
100
AcDbLine
 62
7
  6
CONTINUOUS
 10
433.384828595
 20
54.2874985577
 11
433.384828595
 21
66.3760017025
  0
LINE
  5
33F
100
AcDbEntity
  8
RUNDUNGEN
100
AcDbLine
 62
7
  6
CONTINUOUS
 10
433.384828595
 20
70.9699882121
 11
433.384828595
 21
74.2874985577
  0
LINE
  5
340
100
AcDbEntity
  8
0
100
AcDbLine
 62
7
  6
CONTINUOUS
 10
433.7479734638
 20
186.1208477857
 11
433.7479734638
 21
198.6208477857
  0
LINE
  5
341
100
AcDbEntity
  8
0
100
AcDbLine
 62
7
  6
CONTINUOUS
 10
433.7479734638
 20
202.7874985577
 11
433.7479734638
 21
205.9124985577
  0
LINE
  5
342
100
AcDbEntity
  8
0
100
AcDbLine
 62
7
  6
CONTINUOUS
 10
433.7479734638
 20
218.4124985577
 11
433.7479734638
 21
221.5374985577
  0
LINE
  5
343
100
AcDbEntity
  8
0
100
AcDbLine
 62
7
  6
CONTINUOUS
 10
433.7479734638
 20
232.9958477857
 11
433.7479734638
 21
245.4958477857
  0
LINE
  5
344
100
AcDbEntity
  8
0
100
AcDbLine
 62
7
  6
CONTINUOUS
 10
433.7479734638
 20
375.1833477857
 11
433.7479734638
 21
376.2249985577
  0
LINE
  5
345
100
AcDbEntity
  8
0
100
AcDbLine
 62
7
  6
CONTINUOUS
 10
433.7479734638
 20
399.1416493298
 11
433.7479734638
 21
402.2666493298
  0
LINE
  5
346
100
AcDbEntity
  8
0
100
AcDbLine
 62
7
  6
CONTINUOUS
 10
433.7479734638
 20
425.1833239438
 11
433.7479734638
 21
428.3083239438
  0
LINE
  5
347
100
AcDbEntity
  8
0
100
AcDbLine
 62
7
  6
CONTINUOUS
 10
433.7479734638
 20
448.0999985577
 11
433.7479734638
 21
451.2249985577
  0
LINE
  5
348
100
AcDbEntity
  8
0
100
AcDbLine
 62
7
  6
CONTINUOUS
 10
433.7479734638
 20
455.3916731717
 11
433.7479734638
 21
458.5166731717
  0
LINE
  5
349
100
AcDbEntity
  8
0
100
AcDbLine
 62
7
  6
CONTINUOUS
 10
433.7479734638
 20
465.8083239438
 11
433.7479734638
 21
469.9749985577
  0
LINE
  5
34A
100
AcDbEntity
  8
0
100
AcDbLine
 62
7
  6
CONTINUOUS
 10
433.7479734638
 20
477.2666731717
 11
433.7479734638
 21
480.3916731717
  0
LINE
  5
34B
100
AcDbEntity
  8
0
100
AcDbLine
 62
7
  6
CONTINUOUS
 10
433.7479734638
 20
741.3291672112
 11
433.7479734638
 21
753.829164231
  0
LINE
  5
34C
100
AcDbEntity
  8
0
100
AcDbLine
 62
7
  6
CONTINUOUS
 10
433.7479734638
 20
757.9958328845
 11
433.7479734638
 21
761.1208328845
  0
LINE
  5
34D
100
AcDbEntity
  8
0
100
AcDbLine
 62
7
  6
CONTINUOUS
 10
433.7479734638
 20
775.704164231
 11
433.7479734638
 21
778.8291657211
  0
LINE
  5
34E
100
AcDbEntity
  8
0
100
AcDbLine
 62
7
  6
CONTINUOUS
 10
433.7479734638
 20
782.9958313944
 11
433.7479734638
 21
802.7874985577
  0
LINE
  5
34F
100
AcDbEntity
  8
0
100
AcDbLine
 62
7
  6
CONTINUOUS
 10
433.8989117054
 20
66.7768690912
 11
433.8989117054
 21
54.2874985577
  0
LINE
  5
350
100
AcDbEntity
  8
BEZUGSACHSEN
100
AcDbLine
 62
7
  6
CONTINUOUS
 10
439.3918701502
 20
102.2875271688
 11
439.3918701502
 21
1126.2874699467
  0
LINE
  5
351
100
AcDbEntity
  8
0
100
AcDbLine
 62
7
  6
CONTINUOUS
 10
445.3918701502
 20
66.7768690912
 11
445.3918701502
 21
54.2874985577
  0
LINE
  5
352
100
AcDbEntity
  8
0
100
AcDbLine
 62
7
  6
CONTINUOUS
 10
433.2160586336
 20
371.5374985577
 11
433.7479734638
 21
375.1833477857
  0
LINE
  5
353
100
AcDbEntity
  8
0
100
AcDbLine
 62
7
  6
CONTINUOUS
 10
409.2798883406
 20
353.8291493298
 11
408.7479734638
 21
350.7041493298
  0
LINE
  5
354
100
AcDbEntity
  8
0
100
AcDbLine
 62
7
  6
CONTINUOUS
 10
420.4501012185
 20
374.6624985577
 11
419.9181863883
 21
371.5374985577
  0
LINE
  5
355
100
AcDbEntity
  8
0
100
AcDbLine
 62
7
  6
CONTINUOUS
 10
411.4075479874
 20
377.2666493298
 11
411.9394628176
 21
379.8708477857
  0
LINE
  5
356
100
AcDbEntity
  8
0
100
AcDbLine
 62
7
  6
CONTINUOUS
 10
410.8756329709
 20
350.7041493298
 11
411.4075479874
 21
353.3083477857
  0
LINE
  5
357
100
AcDbEntity
  8
0
100
AcDbLine
 62
7
  6
CONTINUOUS
 10
409.2798883406
 20
379.8708477857
 11
408.7479734638
 21
377.7874985577
  0
LINE
  5
358
100
AcDbEntity
  8
0
100
AcDbLine
 62
7
  6
CONTINUOUS
 10
419.9181863883
 20
741.3291672112
 11
420.4501012185
 21
738.7249985577
  0
LINE
  5
359
100
AcDbEntity
  8
BEZUGSACHSEN
100
AcDbLine
 62
7
  6
CONTINUOUS
 10
401.5670952045
 20
84.7950946812
 11
398.3916622786
 21
66.7863196593
  0
LINE
  5
35A
100
AcDbEntity
  8
0
100
AcDbLine
 62
7
  6
CONTINUOUS
 10
431.0883993128
 20
374.6624985577
 11
430.5564844826
 21
372.0583477857
  0
LINE
  5
35B
100
AcDbEntity
  8
0
100
AcDbLine
 62
7
  6
CONTINUOUS
 10
409.2798883406
 20
215.8083477857
 11
408.7479734638
 21
213.2041493298
  0
LINE
  5
35C
100
AcDbEntity
  8
0
100
AcDbLine
 62
7
  6
CONTINUOUS
 10
409.8118032174
 20
355.3916493298
 11
409.2798883406
 21
353.8291493298
  0
LINE
  5
35D
100
AcDbEntity
  8
0
100
AcDbLine
 62
7
  6
CONTINUOUS
 10
420.4501012185
 20
367.8916493298
 11
421.5139308789
 21
370.4958477857
  0
LINE
  5
35E
100
AcDbEntity
  8
0
100
AcDbLine
 62
7
  6
CONTINUOUS
 10
403.8918701502
 20
652.7874985577
 11
404.3918701502
 21
652.7874985577
  0
LINE
  5
35F
100
AcDbEntity
  8
0
100
AcDbLine
 62
7
  6
CONTINUOUS
 10
439.3918701502
 20
652.7874985577
 11
439.8918701502
 21
652.7874985577
  0
LINE
  5
360
100
AcDbEntity
  8
0
100
AcDbLine
 62
7
  6
CONTINUOUS
 10
423.6415901998
 20
739.2458299043
 11
423.1096753696
 21
740.8083299043
  0
LINE
  5
361
100
AcDbEntity
  8
KONSTRUKTIONSELEMENTE
100
AcDbLine
 62
7
  6
CONTINUOUS
 10
420.6418702456
 20
63.393881643
 11
420.5418700548
 21
62.883243406
  0
LINE
  5
362
100
AcDbEntity
  8
0
100
AcDbLine
 62
7
  6
CONTINUOUS
 10
423.5056201502
 20
67.4806900557
 11
423.599370329
 21
67.9594134029
  0
LINE
  5
363
100
AcDbEntity
  8
KONSTRUKTIONSELEMENTE
100
AcDbLine
 62
7
  6
CONTINUOUS
 10
423.8418703409
 20
62.1172856929
 11
423.9418699595
 21
62.6279239299
  0
LINE
  5
364
100
AcDbEntity
  8
0
100
AcDbLine
 62
7
  6
CONTINUOUS
 10
428.0056201502
 20
67.4806900557
 11
428.0993697926
 21
67.9594134029
  0
LINE
  5
365
100
AcDbEntity
  8
0
100
AcDbLine
 62
7
  6
CONTINUOUS
 10
433.2160586336
 20
230.3916493298
 11
433.7479734638
 21
232.9958477857
  0
LINE
  5
366
100
AcDbEntity
  8
0
100
AcDbLine
 62
7
  6
CONTINUOUS
 10
433.2160586336
 20
183.5166493298
 11
433.7479734638
 21
186.1208477857
  0
LINE
  5
367
100
AcDbEntity
  8
0
100
AcDbLine
 62
7
  6
CONTINUOUS
 10
411.9394628176
 20
213.2041493298
 11
412.4713776478
 21
215.2874985577
  0
LINE
  5
368
100
AcDbEntity
  8
0
100
AcDbLine
 62
7
  6
CONTINUOUS
 10
430.5564844826
 20
186.1208477857
 11
430.0245696524
 21
184.0374985577
  0
LINE
  5
369
100
AcDbEntity
  8
0
100
AcDbLine
 62
7
  6
CONTINUOUS
 10
410.3437181407
 20
381.9541493298
 11
409.2798883406
 21
379.8708477857
  0
LINE
  5
36A
100
AcDbEntity
  8
0
100
AcDbLine
 62
7
  6
CONTINUOUS
 10
411.9394628176
 20
379.8708477857
 11
412.4713776478
 21
380.9124985577
  0
LINE
  5
36B
100
AcDbEntity
  8
0
100
AcDbLine
 62
7
  6
CONTINUOUS
 10
432.1522289732
 20
369.4541493298
 11
433.2160586336
 21
371.5374985577
  0
LINE
  5
36C
100
AcDbEntity
  8
0
100
AcDbLine
 62
7
  6
CONTINUOUS
 10
411.4075479874
 20
383.5166493298
 11
410.3437181407
 21
381.9541493298
  0
LINE
  5
36D
100
AcDbEntity
  8
0
100
AcDbLine
 62
7
  6
CONTINUOUS
 10
419.9181863883
 20
371.5374985577
 11
418.8543567279
 21
369.9749985577
  0
LINE
  5
36E
100
AcDbEntity
  8
0
100
AcDbLine
 62
7
  6
CONTINUOUS
 10
420.4501012185
 20
738.7249985577
 11
422.0458457092
 21
736.6416672112
  0
LINE
  5
36F
100
AcDbEntity
  8
0
100
AcDbLine
 62
7
  6
CONTINUOUS
 10
423.036870329
 20
67.9594134029
 11
422.9431201502
 21
67.5764347251
  0
LINE
  5
370
100
AcDbEntity
  8
0
100
AcDbLine
 62
7
  6
CONTINUOUS
 10
427.5368697926
 20
67.9594134029
 11
427.4431201502
 21
67.5764347251
  0
LINE
  5
371
100
AcDbEntity
  8
KONSTRUKTIONSELEMENTE
100
AcDbLine
 62
7
  6
CONTINUOUS
 10
423.9418699595
 20
59.3087751212
 11
424.0418701502
 21
59.6917538883
  0
LINE
  5
372
100
AcDbEntity
  8
0
100
AcDbLine
 62
7
  6
CONTINUOUS
 10
431.0883993128
 20
232.4749985577
 11
430.5564844826
 21
230.9124985577
  0
LINE
  5
373
100
AcDbEntity
  8
0
100
AcDbLine
 62
7
  6
CONTINUOUS
 10
410.8756329709
 20
356.9541493298
 11
409.8118032174
 21
355.3916493298
  0
LINE
  5
374
100
AcDbEntity
  8
0
100
AcDbLine
 62
7
  6
CONTINUOUS
 10
411.4075479874
 20
353.3083477857
 11
412.4713776478
 21
354.8708477857
  0
LINE
  5
375
100
AcDbEntity
  8
0
100
AcDbLine
 62
7
  6
CONTINUOUS
 10
430.5564844826
 20
372.0583477857
 11
429.4926548222
 21
370.4958477857
  0
LINE
  5
376
100
AcDbEntity
  8
0
100
AcDbLine
 62
7
  6
CONTINUOUS
 10
412.4713776478
 20
380.9124985577
 11
413.5352076808
 21
381.9541493298
  0
LINE
  5
377
100
AcDbEntity
  8
0
100
AcDbLine
 62
7
  6
CONTINUOUS
 10
424.17350503
 20
735.0791672112
 11
425.7692495206
 21
734.5583299043
  0
LINE
  5
378
100
AcDbEntity
  8
0
100
AcDbLine
 62
7
  6
CONTINUOUS
 10
422.0458457092
 20
736.6416672112
 11
424.17350503
 21
735.0791672112
  0
LINE
  5
379
100
AcDbEntity
  8
0
100
AcDbLine
 62
7
  6
CONTINUOUS
 10
424.7054198602
 20
738.2041672112
 11
423.6415901998
 21
739.2458299043
  0
LINE
  5
37A
100
AcDbEntity
  8
0
100
AcDbLine
 62
7
  6
CONTINUOUS
 10
418.8181200608
 20
69.5870729174
 11
418.7243701502
 21
69.2998389091
  0
LINE
  5
37B
100
AcDbEntity
  8
0
100
AcDbLine
 62
7
  6
CONTINUOUS
 10
419.2868701502
 20
69.2040942397
 11
419.3806200608
 21
69.491328248
  0
LINE
  5
37C
100
AcDbEntity
  8
0
100
AcDbLine
 62
7
  6
CONTINUOUS
 10
410.3437181407
 20
217.8916493298
 11
409.2798883406
 21
215.8083477857
  0
LINE
  5
37D
100
AcDbEntity
  8
0
100
AcDbLine
 62
7
  6
CONTINUOUS
 10
430.0245696524
 20
367.3708477857
 11
432.1522289732
 21
369.4541493298
  0
LINE
  5
37E
100
AcDbEntity
  8
0
100
AcDbLine
 62
7
  6
CONTINUOUS
 10
413.003292478
 20
384.5583477857
 11
411.4075479874
 21
383.5166493298
  0
LINE
  5
37F
100
AcDbEntity
  8
0
100
AcDbLine
 62
7
  6
CONTINUOUS
 10
418.8543567279
 20
366.8499985577
 11
420.4501012185
 21
367.8916493298
  0
LINE
  5
380
100
AcDbEntity
  8
0
100
AcDbLine
 62
7
  6
CONTINUOUS
 10
429.4926548222
 20
370.4958477857
 11
427.8969103316
 21
369.4541493298
  0
LINE
  5
381
100
AcDbEntity
  8
0
100
AcDbLine
 62
7
  6
CONTINUOUS
 10
413.5352076808
 20
381.9541493298
 11
414.5990373412
 21
382.4749985577
  0
LINE
  5
382
100
AcDbEntity
  8
0
100
AcDbLine
 62
7
  6
CONTINUOUS
 10
418.8543567279
 20
369.9749985577
 11
416.726696662
 21
368.9333477857
  0
LINE
  5
383
100
AcDbEntity
  8
0
100
AcDbLine
 62
7
  6
CONTINUOUS
 10
414.5990373412
 20
385.0791493298
 11
413.003292478
 21
384.5583477857
  0
LINE
  5
384
100
AcDbEntity
  8
0
100
AcDbLine
 62
7
  6
CONTINUOUS
 10
425.7692495206
 20
734.5583299043
 11
427.8969103316
 21
734.5583299043
  0
LINE
  5
385
100
AcDbEntity
  8
0
100
AcDbLine
 62
7
  6
CONTINUOUS
 10
427.8969103316
 20
737.6833299043
 11
426.3011643508
 21
737.6833299043
  0
LINE
  5
386
100
AcDbEntity
  8
0
100
AcDbLine
 62
7
  6
CONTINUOUS
 10
408.7479734638
 20
750.7041672112
 11
419.9181863883
 21
750.7041672112
  0
LINE
  5
387
100
AcDbEntity
  8
0
100
AcDbLine
 62
7
  6
CONTINUOUS
 10
423.1096753696
 20
750.7041672112
 11
431.0883993128
 21
750.7041672112
  0
LINE
  5
388
100
AcDbEntity
  8
0
100
AcDbLine
 62
7
  6
CONTINUOUS
 10
433.7479734638
 20
753.829164231
 11
408.7479734638
 21
753.829164231
  0
LINE
  5
389
100
AcDbEntity
  8
0
100
AcDbLine
 62
7
  6
CONTINUOUS
 10
426.3011643508
 20
737.6833299043
 11
424.7054198602
 21
738.2041672112
  0
LINE
  5
38A
100
AcDbEntity
  8
0
100
AcDbLine
 62
7
  6
CONTINUOUS
 10
421.5139308789
 20
769.9749985577
 11
408.7479734638
 21
778.8291657211
  0
LINE
  5
38B
100
AcDbEntity
  8
0
100
AcDbLine
 62
7
  6
CONTINUOUS
 10
408.7479734638
 20
775.704164231
 11
418.8543567279
 21
768.4124985577
  0
LINE
  5
38C
100
AcDbEntity
  8
0
100
AcDbLine
 62
7
  6
CONTINUOUS
 10
433.7479734638
 20
761.1208328845
 11
423.6415901998
 21
768.4124985577
  0
LINE
  5
38D
100
AcDbEntity
  8
0
100
AcDbLine
 62
7
  6
CONTINUOUS
 10
421.5139308789
 20
766.8499985577
 11
433.7479734638
 21
757.9958328845
  0
LINE
  5
38E
100
AcDbEntity
  8
KONSTRUKTIONSELEMENTE
100
AcDbLine
 62
7
  6
CONTINUOUS
 10
423.4418701502
 20
62.6279239299
 11
423.2418703409
 21
62.1172856929
  0
LINE
  5
38F
100
AcDbEntity
  8
KONSTRUKTIONSELEMENTE
100
AcDbLine
 62
7
  6
CONTINUOUS
 10
423.5418703409
 20
59.6917538883
 11
423.4418701502
 21
59.4364347698
  0
LINE
  5
390
100
AcDbEntity
  8
KONSTRUKTIONSELEMENTE
100
AcDbLine
 62
7
  6
CONTINUOUS
 10
419.1418702456
 20
58.9257964434
 11
418.5418701025
 21
57.5215411128
  0
LINE
  5
391
100
AcDbEntity
  8
KONSTRUKTIONSELEMENTE
100
AcDbLine
 62
7
  6
CONTINUOUS
 10
419.0418700548
 20
57.5215411128
 11
419.6418700548
 21
58.9257964434
  0
LINE
  5
392
100
AcDbEntity
  8
0
100
AcDbLine
 62
7
  6
CONTINUOUS
 10
432.1522289732
 20
181.4333477857
 11
433.2160586336
 21
183.5166493298
  0
LINE
  5
393
100
AcDbEntity
  8
0
100
AcDbLine
 62
7
  6
CONTINUOUS
 10
412.4713776478
 20
215.2874985577
 11
413.5352076808
 21
216.8499985577
  0
LINE
  5
394
100
AcDbEntity
  8
0
100
AcDbLine
 62
7
  6
CONTINUOUS
 10
431.620314143
 20
228.3083477857
 11
433.2160586336
 21
230.3916493298
  0
LINE
  5
395
100
AcDbEntity
  8
0
100
AcDbLine
 62
7
  6
CONTINUOUS
 10
413.003292478
 20
357.9958477857
 11
410.8756329709
 21
356.9541493298
  0
LINE
  5
396
100
AcDbEntity
  8
0
100
AcDbLine
 62
7
  6
CONTINUOUS
 10
412.4713776478
 20
354.8708477857
 11
414.067122511
 21
355.3916493298
  0
LINE
  5
397
100
AcDbEntity
  8
0
100
AcDbLine
 62
7
  6
CONTINUOUS
 10
431.0883993128
 20
782.9958313944
 11
433.7479734638
 21
782.9958313944
  0
LINE
  5
398
100
AcDbEntity
  8
0
100
AcDbLine
 62
7
  6
CONTINUOUS
 10
408.7479734638
 20
791.3291649761
 11
431.0883993128
 21
791.3291649761
  0
LINE
  5
399
100
AcDbEntity
  8
0
100
AcDbLine
 62
7
  6
CONTINUOUS
 10
431.0883993128
 20
794.4541649761
 11
408.7479734638
 21
794.4541649761
  0
LINE
  5
39A
100
AcDbEntity
  8
0
100
AcDbLine
 62
7
  6
CONTINUOUS
 10
423.318120329
 20
67.0977113109
 11
423.5056201502
 21
67.4806900557
  0
LINE
  5
39B
100
AcDbEntity
  8
0
100
AcDbLine
 62
7
  6
CONTINUOUS
 10
427.8181197926
 20
67.0977113109
 11
428.0056201502
 21
67.4806900557
  0
LINE
  5
39C
100
AcDbEntity
  8
KONSTRUKTIONSELEMENTE
100
AcDbLine
 62
7
  6
CONTINUOUS
 10
421.0418701502
 20
62.883243406
 11
421.2418702456
 21
63.2662220837
  0
LINE
  5
39D
100
AcDbEntity
  8
KONSTRUKTIONSELEMENTE
100
AcDbLine
 62
7
  6
CONTINUOUS
 10
423.6418699595
 20
61.7343070151
 11
423.8418703409
 21
62.1172856929
  0
LINE
  5
39E
100
AcDbEntity
  8
KONSTRUKTIONSELEMENTE
100
AcDbLine
 62
7
  6
CONTINUOUS
 10
423.7418701502
 20
58.9257964434
 11
423.9418699595
 21
59.3087751212
  0
LINE
  5
39F
100
AcDbEntity
  8
0
100
AcDbLine
 62
7
  6
CONTINUOUS
 10
430.0245696524
 20
184.0374985577
 11
428.960739992
 21
182.4749985577
  0
LINE
  5
3A0
100
AcDbEntity
  8
0
100
AcDbLine
 62
7
  6
CONTINUOUS
 10
412.4713776478
 20
219.9749985577
 11
410.3437181407
 21
217.8916493298
  0
LINE
  5
3A1
100
AcDbEntity
  8
0
100
AcDbLine
 62
7
  6
CONTINUOUS
 10
430.5564844826
 20
230.9124985577
 11
429.4926548222
 21
229.8708477857
  0
LINE
  5
3A2
100
AcDbEntity
  8
0
100
AcDbLine
 62
7
  6
CONTINUOUS
 10
433.7479734638
 20
802.7874985577
 11
431.0883993128
 21
802.7874985577
  0
LINE
  5
3A3
100
AcDbEntity
  8
0
100
AcDbLine
 62
7
  6
CONTINUOUS
 10
422.9431201502
 20
67.5764347251
 11
422.755620329
 21
67.2892007168
  0
LINE
  5
3A4
100
AcDbEntity
  8
0
100
AcDbLine
 62
7
  6
CONTINUOUS
 10
427.4431201502
 20
67.5764347251
 11
427.2556197926
 21
67.2892007168
  0
LINE
  5
3A5
100
AcDbEntity
  8
KONSTRUKTIONSELEMENTE
100
AcDbLine
 62
7
  6
CONTINUOUS
 10
417.1418701502
 20
64.2874985577
 11
416.5418701502
 21
63.393881643
  0
LINE
  5
3A6
100
AcDbEntity
  8
KONSTRUKTIONSELEMENTE
100
AcDbLine
 62
7
  6
CONTINUOUS
 10
416.5418701502
 20
62.3726048114
 11
417.1418701502
 21
63.2662220837
  0
LINE
  5
3A7
100
AcDbEntity
  8
0
100
AcDbLine
 62
7
  6
CONTINUOUS
 10
430.0245696524
 20
179.3499985577
 11
432.1522289732
 21
181.4333477857
  0
LINE
  5
3A8
100
AcDbEntity
  8
0
100
AcDbLine
 62
7
  6
CONTINUOUS
 10
429.4926548222
 20
226.7458477857
 11
431.620314143
 21
228.3083477857
  0
LINE
  5
3A9
100
AcDbEntity
  8
0
100
AcDbLine
 62
7
  6
CONTINUOUS
 10
413.5352076808
 20
216.8499985577
 11
415.1309521714
 21
217.8916493298
  0
LINE
  5
3AA
100
AcDbEntity
  8
0
100
AcDbLine
 62
7
  6
CONTINUOUS
 10
419.0056201502
 20
68.8211155619
 11
419.2868701502
 21
69.2040942397
  0
LINE
  5
3AB
100
AcDbEntity
  8
KONSTRUKTIONSELEMENTE
100
AcDbLine
 62
7
  6
CONTINUOUS
 10
421.0418701502
 20
63.90451988
 11
420.6418702456
 21
63.393881643
  0
LINE
  5
3AC
100
AcDbEntity
  8
KONSTRUKTIONSELEMENTE
100
AcDbLine
 62
7
  6
CONTINUOUS
 10
423.2418703409
 20
62.1172856929
 11
423.0418699595
 21
61.8619665744
  0
LINE
  5
3AD
100
AcDbEntity
  8
KONSTRUKTIONSELEMENTE
100
AcDbLine
 62
7
  6
CONTINUOUS
 10
423.4418701502
 20
59.4364347698
 11
423.2418703409
 21
59.1811155619
  0
LINE
  5
3AE
100
AcDbEntity
  8
0
100
AcDbLine
 62
7
  6
CONTINUOUS
 10
414.5990373412
 20
221.0166493298
 11
412.4713776478
 21
219.9749985577
  0
LINE
  5
3AF
100
AcDbEntity
  8
0
100
AcDbLine
 62
7
  6
CONTINUOUS
 10
408.7479734638
 20
225.7041493298
 11
420.9820160487
 21
230.3916493298
  0
LINE
  5
3B0
100
AcDbEntity
  8
0
100
AcDbLine
 62
7
  6
CONTINUOUS
 10
419.9181863883
 20
233.5166493298
 11
408.7479734638
 21
229.3499985577
  0
LINE
  5
3B1
100
AcDbEntity
  8
0
100
AcDbLine
 62
7
  6
CONTINUOUS
 10
429.4926548222
 20
229.8708477857
 11
427.8969103316
 21
229.3499985577
  0
LINE
  5
3B2
100
AcDbEntity
  8
0
100
AcDbLine
 62
7
  6
CONTINUOUS
 10
418.7243701502
 20
69.2998389091
 11
418.5368700608
 21
69.1083495702
  0
LINE
  5
3B3
100
AcDbEntity
  8
0
100
AcDbLine
 62
7
  6
CONTINUOUS
 10
422.9431201502
 20
66.7147325996
 11
423.318120329
 21
67.0977113109
  0
LINE
  5
3B4
100
AcDbEntity
  8
0
100
AcDbLine
 62
7
  6
CONTINUOUS
 10
427.4431201502
 20
66.7147325996
 11
427.8181197926
 21
67.0977113109
  0
LINE
  5
3B5
100
AcDbEntity
  8
FASEN
100
AcDbLine
 62
7
  6
CONTINUOUS
 10
402.1539192938
 20
85.2874985582
 11
401.567095205
 21
84.7950946817
  0
LINE
  5
3B6
100
AcDbEntity
  8
0
100
AcDbLine
 62
7
  6
CONTINUOUS
 10
428.960739992
 20
182.4749985577
 11
427.3649940112
 21
181.4333477857
  0
LINE
  5
3B7
100
AcDbEntity
  8
0
100
AcDbLine
 62
7
  6
CONTINUOUS
 10
427.8969103316
 20
178.3083477857
 11
430.0245696524
 21
179.3499985577
  0
LINE
  5
3B8
100
AcDbEntity
  8
0
100
AcDbLine
 62
7
  6
CONTINUOUS
 10
427.8969103316
 20
226.2249985577
 11
429.4926548222
 21
226.7458477857
  0
LINE
  5
3B9
100
AcDbEntity
  8
0
100
AcDbLine
 62
7
  6
CONTINUOUS
 10
429.8918701502
 20
30.4874985577
 11
428.6918701502
 21
29.2874985577
  0
LINE
  5
3BA
100
AcDbEntity
  8
KONSTRUKTIONSELEMENTE
100
AcDbLine
 62
7
  6
CONTINUOUS
 10
423.2418703409
 20
61.3513283374
 11
423.6418699595
 21
61.7343070151
  0
LINE
  5
3BB
100
AcDbEntity
  8
KONSTRUKTIONSELEMENTE
100
AcDbLine
 62
7
  6
CONTINUOUS
 10
421.2418702456
 20
63.2662220837
 11
421.5418699595
 21
63.5215412022
  0
LINE
  5
3BC
100
AcDbEntity
  8
KONSTRUKTIONSELEMENTE
100
AcDbLine
 62
7
  6
CONTINUOUS
 10
423.4418701502
 20
58.6704772802
 11
423.7418701502
 21
58.9257964434
  0
LINE
  5
3BD
100
AcDbEntity
  8
0
100
AcDbLine
 62
7
  6
CONTINUOUS
 10
422.755620329
 20
67.2892007168
 11
422.474370329
 21
67.0977113109
  0
LINE
  5
3BE
100
AcDbEntity
  8
0
100
AcDbLine
 62
7
  6
CONTINUOUS
 10
427.2556197926
 20
67.2892007168
 11
426.9743697926
 21
67.0977113109
  0
LINE
  5
3BF
100
AcDbEntity
  8
KONSTRUKTIONSELEMENTE
100
AcDbLine
 62
7
  6
CONTINUOUS
 10
421.4418703409
 20
64.1598389985
 11
421.0418701502
 21
63.90451988
  0
LINE
  5
3C0
100
AcDbEntity
  8
KONSTRUKTIONSELEMENTE
100
AcDbLine
 62
7
  6
CONTINUOUS
 10
423.2418703409
 20
59.1811155619
 11
423.0418699595
 21
59.0534560027
  0
LINE
  5
3C1
100
AcDbEntity
  8
KONSTRUKTIONSELEMENTE
100
AcDbLine
 62
7
  6
CONTINUOUS
 10
423.0418699595
 20
58.4151581282
 11
423.4418701502
 21
58.6704772802
  0
LINE
  5
3C2
100
AcDbEntity
  8
0
100
AcDbLine
 62
7
  6
CONTINUOUS
 10
418.6306202396
 20
68.629626223
 11
419.0056201502
 21
68.8211155619
  0
LINE
  5
3C3
100
AcDbEntity
  8
0
100
AcDbLine
 62
7
  6
CONTINUOUS
 10
422.5681199714
 20
66.5232432356
 11
422.9431201502
 21
66.7147325996
  0
LINE
  5
3C4
100
AcDbEntity
  8
0
100
AcDbLine
 62
7
  6
CONTINUOUS
 10
427.0681205078
 20
66.5232432356
 11
427.4431201502
 21
66.7147325996
  0
LINE
  5
3C5
100
AcDbEntity
  8
KONSTRUKTIONSELEMENTE
100
AcDbLine
 62
7
  6
CONTINUOUS
 10
423.0418699595
 20
61.8619665744
 11
422.4418699595
 21
61.6066474559
  0
LINE
  5
3C6
100
AcDbEntity
  8
0
100
AcDbLine
 62
7
  6
CONTINUOUS
 10
418.5368700608
 20
69.1083495702
 11
418.2556200608
 21
69.0126049008
  0
LINE
  5
3C7
100
AcDbEntity
  8
KONSTRUKTIONSELEMENTE
100
AcDbLine
 62
7
  6
CONTINUOUS
 10
422.6418703409
 20
58.2874985577
 11
423.0418699595
 21
58.4151581282
  0
LINE
  5
3C8
100
AcDbEntity
  8
0
100
AcDbLine
 62
7
  6
CONTINUOUS
 10
404.3918701502
 20
1126.2874985577
 11
439.3918701502
 21
1126.2874985577
  0
LINE
  5
3C9
100
AcDbEntity
  8
0
100
AcDbLine
 62
7
  6
CONTINUOUS
 10
717.9814758179
 20
29.2874985577
 11
704.3814758179
 21
29.2874985577
  0
LINE
  5
3CA
100
AcDbEntity
  8
0
100
AcDbLine
 62
7
  6
CONTINUOUS
 10
703.1814758179
 20
30.4874985577
 11
719.1814758179
 21
30.4874985577
  0
LINE
  5
3CB
100
AcDbEntity
  8
0
100
AcDbLine
 62
7
  6
CONTINUOUS
 10
731.6814758179
 20
54.2874985577
 11
690.6814758179
 21
54.2874985577
  0
LINE
  5
3CC
100
AcDbEntity
  8
RUNDUNGEN
100
AcDbLine
 62
9
  6
CONTINUOUS
 10
729.9938420072
 20
74.1833096516
 11
730.4946520169
 21
74.2874985575
  0
LINE
  5
3CD
100
AcDbEntity
  8
RUNDUNGEN
100
AcDbLine
 62
7
  6
CONTINUOUS
 10
701.4978456077
 20
94.287666771
 11
701.4724472641
 21
94.2874985577
  0
LINE
  5
3CE
100
AcDbEntity
  8
RUNDUNGEN
100
AcDbLine
 62
7
  6
CONTINUOUS
 10
687.6814758179
 20
70.7874985577
 11
689.9144100474
 21
70.7874985577
  0
LINE
  5
3CF
100
AcDbEntity
  8
RUNDUNGEN
100
AcDbLine
 62
9
  6
CONTINUOUS
 10
731.1814758179
 20
70.9699882159
 11
731.6814758179
 21
70.969988216
  0
LINE
  5
3D0
100
AcDbEntity
  8
RUNDUNGEN
100
AcDbLine
 62
9
  6
CONTINUOUS
 10
686.6814758179
 20
71.7874985577
 11
690.6814758179
 21
71.7874985577
  0
LINE
  5
3D1
100
AcDbEntity
  8
RUNDUNGEN
100
AcDbLine
 62
9
  6
CONTINUOUS
 10
730.4946895285
 20
74.2873177285
 11
731.6814758179
 21
74.2874985577
  0
LINE
  5
3D2
100
AcDbEntity
  8
RUNDUNGEN
100
AcDbLine
 62
9
  6
CONTINUOUS
 10
686.6814758179
 20
77.7874985577
 11
689.7198830663
 21
77.7874985577
  0
LINE
  5
3D3
100
AcDbEntity
  8
RUNDUNGEN
100
AcDbLine
 62
7
  6
CONTINUOUS
 10
731.078886706
 20
84.2874985577
 11
731.6793812008
 21
84.2874985577
  0
LINE
  5
3D4
100
AcDbEntity
  8
0
100
AcDbLine
 62
7
  6
CONTINUOUS
 10
690.2992361234
 20
84.7874985577
 11
687.6814758179
 21
84.7874985577
  0
LINE
  5
3D5
100
AcDbEntity
  8
FASEN
100
AcDbLine
 62
7
  6
CONTINUOUS
 10
731.5062507636
 20
84.7950946812
 11
711.1814758179
 21
84.7950946812
  0
LINE
  5
3D6
100
AcDbEntity
  8
RUNDUNGEN
100
AcDbLine
 62
7
  6
CONTINUOUS
 10
711.1814758179
 20
84.7950946812
 11
690.9853398014
 21
84.7950946812
  0
LINE
  5
3D7
100
AcDbEntity
  8
FASEN
100
AcDbLine
 62
7
  6
CONTINUOUS
 10
730.9190816988
 20
85.2874985577
 11
691.443869937
 21
85.2874985577
  0
LINE
  5
3D8
100
AcDbEntity
  8
RUNDUNGEN
100
AcDbLine
 62
9
  6
CONTINUOUS
 10
702.8582469883
 20
92.287870079
 11
692.1814758179
 21
92.2874985577
  0
LINE
  5
3D9
100
AcDbEntity
  8
RUNDUNGEN
100
AcDbLine
 62
9
  6
CONTINUOUS
 10
730.1814758179
 20
92.2874985577
 11
719.5047117119
 21
92.287888928
  0
LINE
  5
3DA
100
AcDbEntity
  8
RUNDUNGEN
100
AcDbLine
 62
7
  6
CONTINUOUS
 10
701.4727091687
 20
94.2874985577
 11
694.1814758179
 21
94.2874985577
  0
LINE
  5
3DB
100
AcDbEntity
  8
RUNDUNGEN
100
AcDbLine
 62
7
  6
CONTINUOUS
 10
720.8902423684
 20
94.2874985577
 11
728.1814758179
 21
94.2874985577
  0
LINE
  5
3DC
100
AcDbEntity
  8
RUNDUNGEN
100
AcDbLine
 62
7
  6
CONTINUOUS
 10
720.8670243094
 20
94.2875409763
 11
720.8905043786
 21
94.2873974163
  0
LINE
  5
3DD
100
AcDbEntity
  8
RUNDUNGEN
100
AcDbLine
 62
7
  6
CONTINUOUS
 10
689.9117100616
 20
70.7875020815
 11
689.9151222442
 21
70.787451495
  0
LWPOLYLINE
  5
3DE
100
AcDbEntity
  8
RUNDUNGEN
100
AcDbPolyline
 62
7
  6
CONTINUOUS
 90
9
 70
0
 10
689.915017114
 20
70.7874530536
 10
689.9163199248
 20
70.7873756873
 10
689.9263166623
 20
70.7863394707
 10
689.9508137361
 20
70.7822636557
 10
689.9887622073
 20
70.7731653256
 10
690.0404150451
 20
70.7565449558
 10
690.1031560117
 20
70.730520714
 10
690.1743109576
 20
70.6934544892
 10
690.2511714201
 20
70.6439195904
  0
LWPOLYLINE
  5
3DF
100
AcDbEntity
  8
RUNDUNGEN
100
AcDbPolyline
 62
7
  6
CONTINUOUS
 90
7
 70
0
 10
720.8670243094
 20
94.2875409763
 10
720.377053695
 20
94.3617341534
 10
719.9571820008
 20
94.5461779138
 10
719.6205046282
 20
94.8081470612
 10
719.3896709952
 20
95.0935466026
 10
719.2553899027
 20
95.3545700446
 10
719.2110126146
 20
95.4868085665
  0
LWPOLYLINE
  5
3E0
100
AcDbEntity
  8
RUNDUNGEN
100
AcDbPolyline
 62
7
  6
CONTINUOUS
 90
3
 70
0
 10
720.3699887193
 20
94.3648376983
 10
720.3631350968
 20
94.3659059817
 10
720.1814458906
 20
94.4476619249
  0
LWPOLYLINE
  5
3E1
100
AcDbEntity
  8
RUNDUNGEN
100
AcDbPolyline
 62
7
  6
CONTINUOUS
 90
14
 70
0
 10
689.9284283532
 20
70.7860635702
 10
689.9576669948
 20
70.7808438277
 10
690.0074640485
 20
70.7676740743
 10
690.0742180258
 20
70.7432970683
 10
690.155530283
 20
70.704029886
 10
690.2450196481
 20
70.6482718511
 10
690.337332364
 20
70.5750441331
 10
690.4248823728
 20
70.4870408217
 10
690.5014541551
 20
70.3894336756
 10
690.5650239525
 20
70.2855876834
 10
690.613678172
 20
70.1812392459
 10
690.6483278534
 20
70.0789874245
 10
690.6698737591
 20
69.9826187309
 10
690.6799377154
 20
69.8963183337
  0
LINE
  5
3E2
100
AcDbEntity
  8
RUNDUNGEN
100
AcDbLine
 62
9
  6
CONTINUOUS
 10
691.0932878717
 20
77.5270284686
 11
689.7198830657
 21
77.7874985546
  0
LINE
  5
3E3
100
AcDbEntity
  8
FASEN
100
AcDbLine
 62
7
  6
CONTINUOUS
 10
730.9194266748
 20
85.2874985577
 11
731.5062507636
 21
84.7950946812
  0
LWPOLYLINE
  5
3E4
100
AcDbEntity
  8
RUNDUNGEN
100
AcDbPolyline
 62
7
  6
CONTINUOUS
 90
8
 70
0
 10
690.330820008
 20
70.5808047491
 10
690.409193656
 20
70.5044032069
 10
690.4824505627
 20
70.4159333921
 10
690.5474616515
 20
70.3170779126
 10
690.6015718744
 20
70.2102117458
 10
690.6419468374
 20
70.1008687434
 10
690.6677228614
 20
69.994900342
 10
690.6796756063
 20
69.900277944
  0
LINE
  5
3E5
100
AcDbEntity
  8
0
100
AcDbLine
 62
7
  6
CONTINUOUS
 10
703.1814758179
 20
30.4874985577
 11
704.3814758179
 21
29.2874985577
  0
LWPOLYLINE
  5
3E6
100
AcDbEntity
  8
RUNDUNGEN
100
AcDbPolyline
 62
7
  6
CONTINUOUS
 90
3
 70
0
 10
719.3145098304
 20
95.2396492712
 10
719.2495446747
 20
95.3696276091
 10
719.2276167244
 20
95.4373304881
  0
LWPOLYLINE
  5
3E7
100
AcDbEntity
  8
RUNDUNGEN
100
AcDbPolyline
 62
7
  6
CONTINUOUS
 90
4
 70
0
 10
719.2110126146
 20
95.4868085665
 10
719.1980814394
 20
95.5385906614
 10
719.1821433482
 20
95.6349605407
 10
719.181422952
 20
95.642652205
  0
LINE
  5
3E8
100
AcDbEntity
  8
RUNDUNGEN
100
AcDbLine
 62
7
  6
CONTINUOUS
 10
690.6796756063
 20
69.900277944
 11
690.6814759624
 21
69.8491755987
  0
LINE
  5
3E9
100
AcDbEntity
  8
BEZUGSACHSEN
100
AcDbLine
 62
7
  6
CONTINUOUS
 10
731.5062507636
 20
84.7950946812
 11
731.5957536555
 21
84.2874985577
  0
LINE
  5
3EA
100
AcDbEntity
  8
RUNDUNGEN
100
AcDbLine
 62
7
  6
CONTINUOUS
 10
731.6814758179
 20
84.2416953684
 11
731.6793734723
 21
84.2874985577
  0
LINE
  5
3EB
100
AcDbEntity
  8
RUNDUNGEN
100
AcDbLine
 62
7
  6
CONTINUOUS
 10
686.6814758179
 20
71.7874985577
 11
686.6814758179
 21
83.7874985577
  0
LINE
  5
3EC
100
AcDbEntity
  8
RUNDUNGEN
100
AcDbLine
 62
9
  6
CONTINUOUS
 10
687.6814758179
 20
70.7874985577
 11
687.6814758179
 21
84.7874985577
  0
LINE
  5
3ED
100
AcDbEntity
  8
0
100
AcDbLine
 62
7
  6
CONTINUOUS
 10
687.6814758179
 20
125.7874985577
 11
687.6814758179
 21
652.7874985577
  0
LINE
  5
3EE
100
AcDbEntity
  8
0
100
AcDbLine
 62
7
  6
CONTINUOUS
 10
687.6814758179
 20
655.2874985577
 11
687.6814758179
 21
1102.7874985577
  0
LINE
  5
3EF
100
AcDbEntity
  8
RUNDUNGEN
100
AcDbLine
 62
9
  6
CONTINUOUS
 10
689.1814758179
 20
71.0120555634
 11
689.1814758179
 21
74.9438628414
  0
LINE
  5
3F0
100
AcDbEntity
  8
0
100
AcDbLine
 62
7
  6
CONTINUOUS
 10
690.6814758179
 20
66.7768690912
 11
690.6814758179
 21
54.2874985577
  0
LINE
  5
3F1
100
AcDbEntity
  8
RUNDUNGEN
100
AcDbLine
 62
7
  6
CONTINUOUS
 10
690.6814758179
 20
66.7768690912
 11
690.6814758179
 21
74.2036011506
  0
LINE
  5
3F2
100
AcDbEntity
  8
0
100
AcDbLine
 62
7
  6
CONTINUOUS
 10
690.97828184
 20
66.7768690912
 11
690.97828184
 21
54.2874985577
  0
LINE
  5
3F3
100
AcDbEntity
  8
BEZUGSACHSEN
100
AcDbLine
 62
7
  6
CONTINUOUS
 10
692.1814758179
 20
92.2874985577
 11
692.1814758179
 21
85.2874985577
  0
LINE
  5
3F4
100
AcDbEntity
  8
0
100
AcDbLine
 62
7
  6
CONTINUOUS
 10
699.6814758179
 20
125.7874985577
 11
699.6814758179
 21
652.7874985577
  0
LINE
  5
3F5
100
AcDbEntity
  8
0
100
AcDbLine
 62
7
  6
CONTINUOUS
 10
699.6814758179
 20
655.2874985577
 11
699.6814758179
 21
1102.7874985577
  0
LINE
  5
3F6
100
AcDbEntity
  8
0
100
AcDbLine
 62
7
  6
CONTINUOUS
 10
703.1814758179
 20
54.2874985577
 11
703.1814758179
 21
30.4874985577
  0
LINE
  5
3F7
100
AcDbEntity
  8
BEZUGSACHSEN
100
AcDbLine
 62
7
  6
CONTINUOUS
 10
703.1814758179
 20
30.4874985577
 11
703.1814758179
 21
54.2874985577
  0
LINE
  5
3F8
100
AcDbEntity
  8
0
100
AcDbLine
 62
7
  6
CONTINUOUS
 10
703.1814758179
 20
117.5292684888
 11
703.1814758179
 21
124.2874985577
  0
LINE
  5
3F9
100
AcDbEntity
  8
0
100
AcDbLine
 62
7
  6
CONTINUOUS
 10
710.8846697957
 20
66.7768690912
 11
710.8846697957
 21
54.2874985577
  0
LINE
  5
3FA
100
AcDbEntity
  8
RUNDUNGEN
100
AcDbLine
 62
9
  6
CONTINUOUS
 10
711.1814758674
 20
86.6668905894
 11
711.1814758425
 21
85.2874985536
  0
LINE
  5
3FB
100
AcDbEntity
  8
0
100
AcDbLine
 62
7
  6
CONTINUOUS
 10
711.47828184
 20
66.7768690912
 11
711.47828184
 21
54.2874985577
  0
LINE
  5
3FC
100
AcDbEntity
  8
RUNDUNGEN
100
AcDbLine
 62
7
  6
CONTINUOUS
 10
703.1814758179
 20
95.6402546348
 11
703.1814765499
 21
95.6419088202
  0
LINE
  5
3FD
100
AcDbEntity
  8
RUNDUNGEN
100
AcDbLine
 62
7
  6
CONTINUOUS
 10
719.1814741595
 20
95.6427434879
 11
719.1814758179
 21
95.6402546348
  0
LINE
  5
3FE
100
AcDbEntity
  8
0
100
AcDbLine
 62
7
  6
CONTINUOUS
 10
719.1814758179
 20
54.2874985577
 11
719.1814758179
 21
30.4874985577
  0
LINE
  5
3FF
100
AcDbEntity
  8
BEZUGSACHSEN
100
AcDbLine
 62
7
  6
CONTINUOUS
 10
719.1814758179
 20
30.4874985577
 11
719.1814758179
 21
54.2874985577
  0
LINE
  5
400
100
AcDbEntity
  8
RUNDUNGEN
100
AcDbLine
 62
7
  6
CONTINUOUS
 10
719.1814758179
 20
117.5292684888
 11
719.1814758179
 21
124.2874985577
  0
LINE
  5
401
100
AcDbEntity
  8
0
100
AcDbLine
 62
7
  6
CONTINUOUS
 10
719.1814758179
 20
117.5292684888
 11
719.1814758179
 21
124.2874985577
  0
LINE
  5
402
100
AcDbEntity
  8
BEZUGSACHSEN
100
AcDbLine
 62
7
  6
CONTINUOUS
 10
722.6814758179
 20
125.7874985577
 11
722.6814758179
 21
1102.7874985577
  0
LINE
  5
403
100
AcDbEntity
  8
BEZUGSACHSEN
100
AcDbLine
 62
7
  6
CONTINUOUS
 10
730.1814758179
 20
92.2874985577
 11
730.1814758179
 21
85.2874985577
  0
LINE
  5
404
100
AcDbEntity
  8
RUNDUNGEN
100
AcDbLine
 62
9
  6
CONTINUOUS
 10
731.1814758179
 20
70.9699882163
 11
731.1814764458
 21
82.8316298333
  0
LINE
  5
405
100
AcDbEntity
  8
0
100
AcDbLine
 62
7
  6
CONTINUOUS
 10
731.3846697957
 20
66.7768690912
 11
731.3846697957
 21
54.2874985577
  0
LINE
  5
406
100
AcDbEntity
  8
RUNDUNGEN
100
AcDbLine
 62
7
  6
CONTINUOUS
 10
731.6814758179
 20
54.2874985577
 11
731.6814758179
 21
84.2410653399
  0
LINE
  5
407
100
AcDbEntity
  8
BEZUGSACHSEN
100
AcDbLine
 62
7
  6
CONTINUOUS
 10
734.6814758179
 20
125.7874985577
 11
734.6814758179
 21
1102.7874985577
  0
LWPOLYLINE
  5
408
100
AcDbEntity
  8
RUNDUNGEN
100
AcDbPolyline
 62
7
  6
CONTINUOUS
 90
9
 70
0
 10
703.1814758179
 20
95.6443169005
 10
703.1811451839
 20
95.6389646869
 10
703.1682347369
 20
95.5542015667
 10
703.117057768
 20
95.3793044493
 10
702.9897105974
 20
95.1197582935
 10
702.7641517393
 20
94.8301241371
 10
702.4293090604
 20
94.560571545
 10
702.0061773302
 20
94.3678530266
 10
701.497847191
 20
94.2875684623
  0
LINE
  5
409
100
AcDbEntity
  8
0
100
AcDbLine
 62
7
  6
CONTINUOUS
 10
684.0645167036
 20
641.3159698307
 11
683.7273272514
 21
641.552072427
  0
LINE
  5
40A
100
AcDbEntity
  8
0
100
AcDbLine
 62
7
  6
CONTINUOUS
 10
687.1814758179
 20
652.7874985577
 11
700.1814758179
 21
652.7874985577
  0
LINE
  5
40B
100
AcDbEntity
  8
0
100
AcDbLine
 62
7
  6
CONTINUOUS
 10
687.6814758179
 20
655.2874985577
 11
699.6814758179
 21
655.2874985577
  0
LINE
  5
40C
100
AcDbEntity
  8
FASEN
100
AcDbLine
 62
7
  6
CONTINUOUS
 10
691.443524961
 20
85.2874985577
 11
691.2621431539
 21
85.1353011503
  0
LINE
  5
40D
100
AcDbEntity
  8
0
100
AcDbLine
 62
7
  6
CONTINUOUS
 10
719.1814758179
 20
30.4874985577
 11
717.9814758179
 21
29.2874985577
  0
ARC
  5
40E
100
AcDbEntity
  8
BEZUGSACHSEN
100
AcDbCircle
 62
7
  6
CONTINUOUS
 10
664.2252240357
 20
25.2600421222
 40
234.0381530291
100
AcDbArc
 50
169.5561458357
 51
169.7820297941
  0
ARC
  5
40F
100
AcDbEntity
  8
BEZUGSACHSEN
100
AcDbCircle
 62
7
  6
CONTINUOUS
 10
179.5585590976
 20
25.260049813
 40
234.0381095112
100
AcDbArc
 50
10.2179702131
 51
10.4438542062
  0
ARC
  5
410
100
AcDbEntity
  8
0
100
AcDbCircle
 62
7
  6
CONTINUOUS
 10
421.8918701502
 20
105.2874985577
 40
27.0
100
AcDbArc
 50
130.4837366671
 51
223.6028189727
  0
ARC
  5
411
100
AcDbEntity
  8
0
100
AcDbCircle
 62
7
  6
CONTINUOUS
 10
421.8918701502
 20
105.2874985577
 40
27.0
100
AcDbArc
 50
316.3971810273
 51
49.5162633329
  0
ARC
  5
412
100
AcDbEntity
  8
RUNDUNGEN
100
AcDbCircle
 62
7
  6
CONTINUOUS
 10
447.6134979931
 20
68.7019382525
 40
14.1362204642
100
AcDbArc
 50
187.0078827186
 51
187.5526167748
  0
ARC
  5
413
100
AcDbEntity
  8
RUNDUNGEN
100
AcDbCircle
 62
7
  6
CONTINUOUS
 10
396.5521516343
 20
68.6523230649
 40
13.7511031483
100
AcDbArc
 50
352.4431641308
 51
352.7644035279
  0
ARC
  5
414
100
AcDbEntity
  8
0
100
AcDbCircle
 62
7
  6
CONTINUOUS
 10
421.8918701502
 20
105.2874985577
 40
11.0
100
AcDbArc
 50
195.8594699128
 51
344.1405300872
  0
ARC
  5
415
100
AcDbEntity
  8
RUNDUNGEN
100
AcDbCircle
 62
7
  6
CONTINUOUS
 10
423.384828595
 20
74.2874985577
 40
10.0
100
AcDbArc
 50
359.9991797697
 51
58.6954473088
  0
ARC
  5
416
100
AcDbEntity
  8
RUNDUNGEN
100
AcDbCircle
 62
7
  6
CONTINUOUS
 10
420.3989117054
 20
74.2874985577
 40
10.0
100
AcDbArc
 50
121.3050399987
 51
180.0
  0
ARC
  5
417
100
AcDbEntity
  8
0
100
AcDbCircle
 62
7
  6
CONTINUOUS
 10
433.3918701502
 20
652.7874985577
 40
6.5
100
AcDbArc
 50
0.0
 51
22.619864948
  0
ARC
  5
418
100
AcDbEntity
  8
0
100
AcDbCircle
 62
7
  6
CONTINUOUS
 10
410.3918701502
 20
652.7874985577
 40
6.5
100
AcDbArc
 50
157.380135052
 51
180.0
  0
ARC
  5
419
100
AcDbEntity
  8
RUNDUNGEN
100
AcDbCircle
 62
7
  6
CONTINUOUS
 10
433.6414563875
 20
63.6656588743
 40
3.1218443674
100
AcDbArc
 50
85.2695030654
 51
89.1416803648
  0
ARC
  5
41A
100
AcDbEntity
  8
RUNDUNGEN
100
AcDbCircle
 62
7
  6
CONTINUOUS
 10
410.1422839199
 20
63.6656589031
 40
3.1218443393
100
AcDbArc
 50
90.8583198074
 51
94.7304971058
  0
ARC
  5
41B
100
AcDbEntity
  8
RUNDUNGEN
100
AcDbCircle
 62
7
  6
CONTINUOUS
 10
417.1418701502
 20
58.7874985577
 40
3.0
100
AcDbArc
 50
179.9999998341
 51
270.0000001283
  0
ARC
  5
41C
100
AcDbEntity
  8
RUNDUNGEN
100
AcDbCircle
 62
7
  6
CONTINUOUS
 10
426.6418701502
 20
58.7874985577
 40
3.0
100
AcDbArc
 50
269.9999998341
 51
0.0000001283
  0
ARC
  5
41D
100
AcDbEntity
  8
RUNDUNGEN
100
AcDbCircle
 62
7
  6
CONTINUOUS
 10
426.6418701502
 20
76.7874985577
 40
3.0
100
AcDbArc
 50
359.9999998341
 51
90.0000001283
  0
ARC
  5
41E
100
AcDbEntity
  8
RUNDUNGEN
100
AcDbCircle
 62
7
  6
CONTINUOUS
 10
417.1418701502
 20
76.7874985577
 40
3.0
100
AcDbArc
 50
89.9999998341
 51
180.0000001283
  0
ARC
  5
41F
100
AcDbEntity
  8
RUNDUNGEN
100
AcDbCircle
 62
7
  6
CONTINUOUS
 10
400.8919887461
 20
85.2875901823
 40
1.9999693757
100
AcDbArc
 50
359.9973749857
 51
43.6032613698
  0
ARC
  5
420
100
AcDbEntity
  8
RUNDUNGEN
100
AcDbCircle
 62
7
  6
CONTINUOUS
 10
442.8917515129
 20
85.2875902197
 40
1.9999693644
100
AcDbArc
 50
136.3967385872
 51
180.0026260842
  0
ARC
  5
421
100
AcDbEntity
  8
RUNDUNGEN
100
AcDbCircle
 62
9
  6
CONTINUOUS
 10
-1241.0672402169
 20
-332.7396096819
 40
2012.6271517912
100
AcDbArc
 50
11.4498456629
 51
11.6647581009
  0
ARC
  5
422
100
AcDbEntity
  8
BEZUGSACHSEN
100
AcDbCircle
 62
7
  6
CONTINUOUS
 10
711.1814758179
 20
125.7874985577
 40
23.5
100
AcDbArc
 50
289.9059507176
 51
360.0
  0
ARC
  5
423
100
AcDbEntity
  8
BEZUGSACHSEN
100
AcDbCircle
 62
7
  6
CONTINUOUS
 10
711.1814758179
 20
125.7874985577
 40
23.5
100
AcDbArc
 50
180.0
 51
250.0940492824
  0
ARC
  5
424
100
AcDbEntity
  8
BEZUGSACHSEN
100
AcDbCircle
 62
7
  6
CONTINUOUS
 10
711.1814758179
 20
1102.7874985577
 40
23.5
100
AcDbArc
 50
0.0
 51
180.0
  0
ARC
  5
425
100
AcDbEntity
  8
0
100
AcDbCircle
 62
7
  6
CONTINUOUS
 10
667.1814758179
 20
652.7874985577
 40
20.0
100
AcDbArc
 50
325.821615884
 51
360.0
  0
ARC
  5
426
100
AcDbEntity
  8
0
100
AcDbCircle
 62
7
  6
CONTINUOUS
 10
667.6814758179
 20
652.7874985577
 40
20.0
100
AcDbArc
 50
325.0
 51
360.0
  0
ARC
  5
427
100
AcDbEntity
  8
BEZUGSACHSEN
100
AcDbCircle
 62
7
  6
CONTINUOUS
 10
711.1814758179
 20
1102.7874985577
 40
11.5
100
AcDbArc
 50
0.0
 51
180.0
  0
ARC
  5
428
100
AcDbEntity
  8
0
100
AcDbCircle
 62
7
  6
CONTINUOUS
 10
711.1814758179
 20
124.2874985577
 40
8.0
100
AcDbArc
 50
0.0
 51
180.0
  0
ARC
  5
429
100
AcDbEntity
  8
0
100
AcDbCircle
 62
7
  6
CONTINUOUS
 10
693.6814758179
 20
652.7874985577
 40
6.5
100
AcDbArc
 50
157.380135052
 51
180.0
  0
ARC
  5
42A
100
AcDbEntity
  8
0
100
AcDbCircle
 62
7
  6
CONTINUOUS
 10
693.6814758179
 20
652.7874985577
 40
6.5
100
AcDbArc
 50
0.0
 51
22.619864948
  0
ARC
  5
42B
100
AcDbEntity
  8
RUNDUNGEN
100
AcDbCircle
 62
7
  6
CONTINUOUS
 10
711.1814758179
 20
62.6275400577
 40
4.1599309181
100
AcDbArc
 50
85.9085392858
 51
94.0914607142
  0
ARC
  5
42C
100
AcDbEntity
  8
RUNDUNGEN
100
AcDbCircle
 62
7
  6
CONTINUOUS
 10
694.1814758179
 20
92.2874985577
 40
2.0
100
AcDbArc
 50
90.0
 51
180.0
  0
ARC
  5
42D
100
AcDbEntity
  8
RUNDUNGEN
100
AcDbCircle
 62
7
  6
CONTINUOUS
 10
728.1814758179
 20
92.2874985577
 40
2.0
100
AcDbArc
 50
0.0
 51
90.0
  0
ARC
  5
42E
100
AcDbEntity
  8
RUNDUNGEN
100
AcDbCircle
 62
9
  6
CONTINUOUS
 10
689.2667959542
 20
69.37293926
 40
1.625421274
100
AcDbArc
 50
60.6634049386
 51
68.501965101
  0
ARC
  5
42F
100
AcDbEntity
  8
RUNDUNGEN
100
AcDbCircle
 62
7
  6
CONTINUOUS
 10
690.3016927213
 20
86.2874978313
 40
1.4999998718
100
AcDbArc
 50
269.9999999956
 51
309.9999896487
  0
ARC
  5
430
100
AcDbEntity
  8
BEZUGSACHSEN
100
AcDbCircle
 62
7
  6
CONTINUOUS
 10
690.8298788289
 20
65.7355512101
 40
1.0518395235
100
AcDbArc
 50
81.8891317753
 51
98.1108682247
  0
ARC
  5
431
100
AcDbEntity
  8
RUNDUNGEN
100
AcDbCircle
 62
7
  6
CONTINUOUS
 10
731.5337769595
 20
65.7377236504
 40
1.0497886423
100
AcDbArc
 50
91.4991712172
 51
98.1656440072
  0
ARC
  5
432
100
AcDbEntity
  8
RUNDUNGEN
100
AcDbCircle
 62
7
  6
CONTINUOUS
 10
687.6814758179
 20
83.7874985577
 40
1.0
100
AcDbArc
 50
90.0
 51
180.0
  0
ARC
  5
433
100
AcDbEntity
  8
RUNDUNGEN
100
AcDbCircle
 62
7
  6
CONTINUOUS
 10
687.6814758179
 20
71.7874985577
 40
1.0
100
AcDbArc
 50
180.0
 51
270.0
  0
ARC
  5
434
100
AcDbEntity
  8
RUNDUNGEN
100
AcDbCircle
 62
9
  6
CONTINUOUS
 10
689.7369453283
 20
69.8412180896
 40
0.9451994783
100
AcDbArc
 50
14.4400048787
 51
15.0861025471
  0
ARC
  5
435
100
AcDbEntity
  8
RUNDUNGEN
100
AcDbCircle
 62
9
  6
CONTINUOUS
 10
689.7477726471
 20
69.8438782369
 40
0.9340508598
100
AcDbArc
 50
9.5608189132
 51
14.4476022943
  0
ARC
  5
436
100
AcDbEntity
  8
RUNDUNGEN
100
AcDbCircle
 62
9
  6
CONTINUOUS
 10
689.7750599936
 20
69.8482523495
 40
0.9064160493
100
AcDbArc
 50
0.0403745115
 51
9.5746572144
  0
SPLINE
  5
437
100
AcDbEntity
  8
RUNDUNGEN
100
AcDbSpline
 62
7
  6
CONTINUOUS
 70
0
 71
3
 72
10
 73
6
 74
0
 42
0.0000001
 43
0.0000001
 44
0.0000000001
 40
0.0
 40
0.0
 40
0.0
 40
0.0
 40
0.2500076816
 40
0.5000198715
 40
1.0
 40
1.0
 40
1.0
 40
1.0
 10
410.1937498441
 20
66.9203773159
 30
0.0
 10
410.2363419058
 20
67.2557646999
 30
0.0
 10
410.2994464149
 20
67.9293342358
 30
0.0
 10
410.378442584
 20
69.279385399
 30
0.0
 10
410.3989111732
 20
70.2938738084
 30
0.0
 10
410.3989117077
 20
70.9699882159
 30
0.0
  0
SPLINE
  5
438
100
AcDbEntity
  8
RUNDUNGEN
100
AcDbSpline
 62
7
  6
CONTINUOUS
 70
0
 71
3
 72
9
 73
5
 74
0
 42
0.0000001
 43
0.0000001
 44
0.0000000001
 40
0.0
 40
0.0
 40
0.0
 40
0.0
 40
0.4999768536
 40
1.0
 40
1.0
 40
1.0
 40
1.0
 10
433.5828839233
 20
66.9772360066
 30
0.0
 10
433.5015012409
 20
67.6387550428
 30
0.0
 10
433.412950415
 20
68.9705391237
 30
0.0
 10
433.3848286192
 20
70.3034202539
 30
0.0
 10
433.3848285927
 20
70.9699882119
 30
0.0
  0
SPLINE
  5
439
100
AcDbEntity
  8
BEZUGSACHSEN
100
AcDbSpline
 62
7
  6
CONTINUOUS
 70
0
 71
3
 72
33
 73
29
 74
0
 42
0.0000001
 43
0.0000001
 44
0.0000000001
 40
0.0
 40
0.0
 40
0.0
 40
0.0
 40
0.0691994779
 40
0.1378883349
 40
0.2058586327
 40
0.2727488863
 40
0.3055961069
 40
0.3378653709
 40
0.3693342195
 40
0.399637963
 40
0.4281558003
 40
0.4538368306
 40
0.465207595
 40
0.4754525676
 40
0.4848048045
 40
0.4939326037
 40
0.5036534977
 40
0.5144357088
 40
0.5391457311
 40
0.5670456534
 40
0.5969565047
 40
0.6281633299
 40
0.6602501121
 40
0.7261374698
 40
0.7934841617
 40
0.8617514635
 40
0.9306481579
 40
1.0
 40
1.0
 40
1.0
 40
1.0
 10
409.7193623646
 20
67.6845868533
 30
0.0
 10
409.5691039893
 20
68.4996208528
 30
0.0
 10
409.2607196583
 20
70.1220413751
 30
0.0
 10
408.7661656373
 20
72.5375148647
 30
0.0
 10
408.2323452778
 20
74.9163257857
 30
0.0
 10
407.7413813853
 20
76.8643860549
 30
0.0
 10
407.3086958064
 20
78.3851350852
 30
0.0
 10
406.9628926362
 20
79.4891998563
 30
0.0
 10
406.5885593992
 20
80.5517131073
 30
0.0
 10
406.1786102162
 20
81.5533505765
 30
0.0
 10
405.72443824
 20
82.4584008605
 30
0.0
 10
405.2840353295
 20
83.1156188758
 30
0.0
 10
404.8789230947
 20
83.5149503815
 30
0.0
 10
404.5654296239
 20
83.7197793094
 30
0.0
 10
404.2285717393
 20
83.8180662027
 30
0.0
 10
403.8844581449
 20
83.7859748934
 30
0.0
 10
403.5581735823
 20
83.6334932964
 30
0.0
 10
403.1363055305
 20
83.2884526289
 30
0.0
 10
402.6788770913
 20
82.6722954521
 30
0.0
 10
402.2119479287
 20
81.8006152438
 30
0.0
 10
401.7912671272
 20
80.8197042981
 30
0.0
 10
401.4083495649
 20
79.7708976249
 30
0.0
 10
400.9340074978
 20
78.2979506201
 30
0.0
 10
400.4065030286
 20
76.3887978543
 30
0.0
 10
399.8417336437
 20
74.042290864
 30
0.0
 10
399.3237019901
 20
71.648199128
 30
0.0
 10
398.8412735195
 20
69.2222827504
 30
0.0
 10
398.5392379204
 20
67.5942849797
 30
0.0
 10
398.3918701502
 20
66.7768690912
 30
0.0
  0
SPLINE
  5
43A
100
AcDbEntity
  8
BEZUGSACHSEN
100
AcDbSpline
 62
7
  6
CONTINUOUS
 70
0
 71
3
 72
33
 73
29
 74
0
 42
0.0000001
 43
0.0000001
 44
0.0000000001
 40
0.0
 40
0.0
 40
0.0
 40
0.0
 40
0.0693518421
 40
0.1382485363
 40
0.2065158381
 40
0.27386253
 40
0.3397498872
 40
0.3718366697
 40
0.4030434946
 40
0.4329543447
 40
0.4608542659
 40
0.4855642868
 40
0.4963464973
 40
0.5060673943
 40
0.515195193
 40
0.5245474273
 40
0.5347924016
 40
0.5461631616
 40
0.5718441959
 40
0.6003620342
 40
0.6306657791
 40
0.6621346286
 40
0.6944038927
 40
0.7272511132
 40
0.7941413671
 40
0.862111665
 40
0.9308005221
 40
1.0
 40
1.0
 40
1.0
 40
1.0
 10
445.3918701502
 20
66.7768690912
 30
0.0
 10
445.2445023802
 20
67.5942849783
 30
0.0
 10
444.9424667809
 20
69.2222827462
 30
0.0
 10
444.4600383118
 20
71.6481991198
 30
0.0
 10
443.9420066557
 20
74.0422908513
 30
0.0
 10
443.3772372861
 20
76.3887978366
 30
0.0
 10
442.8497327989
 20
78.2979505931
 30
0.0
 10
442.375390756
 20
79.770897597
 30
0.0
 10
441.9924732066
 20
80.819704262
 30
0.0
 10
441.5717923848
 20
81.8006151531
 30
0.0
 10
441.1048632859
 20
82.6722953752
 30
0.0
 10
440.6474347695
 20
83.2884523818
 30
0.0
 10
440.2255669233
 20
83.6334933345
 30
0.0
 10
439.8992822433
 20
83.7859748082
 30
0.0
 10
439.5551687076
 20
83.8180660658
 30
0.0
 10
439.2183107002
 20
83.7197795822
 30
0.0
 10
438.9048174601
 20
83.5149503665
 30
0.0
 10
438.4997049604
 20
83.1156191732
 30
0.0
 10
438.0593021536
 20
82.4584009933
 30
0.0
 10
437.6051300985
 20
81.553350703
 30
0.0
 10
437.1951809136
 20
80.5517131802
 30
0.0
 10
436.8208476872
 20
79.4891999006
 30
0.0
 10
436.4750445106
 20
78.3851351197
 30
0.0
 10
436.0423589133
 20
76.8643860921
 30
0.0
 10
435.5513950348
 20
74.9163258169
 30
0.0
 10
435.0175746689
 20
72.5375148939
 30
0.0
 10
434.5230206492
 20
70.1220414035
 30
0.0
 10
434.2146363155
 20
68.499620882
 30
0.0
 10
434.0643779407
 20
67.6845868824
 30
0.0
  0
SPLINE
  5
43B
100
AcDbEntity
  8
RUNDUNGEN
100
AcDbSpline
 62
7
  6
CONTINUOUS
 70
0
 71
3
 72
17
 73
13
 74
0
 42
0.0000001
 43
0.0000001
 44
0.0000000001
 40
0.0
 40
0.0
 40
0.0
 40
0.0
 40
0.2575276609
 40
0.3861773263
 40
0.5145652338
 40
0.6422104752
 40
0.7053152708
 40
0.7668990432
 40
0.8233897872
 40
0.8803336341
 40
0.9394866903
 40
1.0
 40
1.0
 40
1.0
 40
1.0
 10
410.3989117054
 20
66.3760017491
 30
0.0
 10
410.398911211
 20
66.4361659049
 30
0.0
 10
410.3965769522
 20
66.5264259102
 30
0.0
 10
410.3868742715
 20
66.6462975627
 30
0.0
 10
410.3749498269
 20
66.7353764794
 30
0.0
 10
410.3593956042
 20
66.80857445
 30
0.0
 10
410.3390090573
 20
66.863980814
 30
0.0
 10
410.3186719905
 20
66.901498914
 30
0.0
 10
410.2791006868
 20
66.9246958718
 30
0.0
 10
410.2389343491
 20
66.9058615743
 30
0.0
 10
410.2099318912
 20
66.8771509951
 30
0.0
 10
410.1922200955
 20
66.8552912821
 30
0.0
 10
410.1838226245
 20
66.8439183212
 30
0.0
  0
SPLINE
  5
43C
100
AcDbEntity
  8
RUNDUNGEN
100
AcDbSpline
 62
7
  6
CONTINUOUS
 70
0
 71
3
 72
8
 73
4
 74
0
 42
0.0000001
 43
0.0000001
 44
0.0000000001
 40
0.0
 40
0.0
 40
0.0
 40
0.0
 40
1.0
 40
1.0
 40
1.0
 40
1.0
 10
410.1838226245
 20
66.8439183212
 30
0.0
 10
410.1630378091
 20
66.8157683559
 30
0.0
 10
410.1305068113
 20
66.7876747851
 30
0.0
 10
410.0955188591
 20
66.7871529537
 30
0.0
  0
SPLINE
  5
43D
100
AcDbEntity
  8
RUNDUNGEN
100
AcDbSpline
 62
7
  6
CONTINUOUS
 70
0
 71
3
 72
17
 73
13
 74
0
 42
0.0000001
 43
0.0000001
 44
0.0000000001
 40
0.0
 40
0.0
 40
0.0
 40
0.0
 40
0.0605250694
 40
0.1196389252
 40
0.1762106692
 40
0.2331455896
 40
0.2946709533
 40
0.357727729
 40
0.4853945541
 40
0.6137925019
 40
0.7424519794
 40
1.0
 40
1.0
 40
1.0
 40
1.0
 10
433.5999152074
 20
66.8439212865
 30
0.0
 10
433.5915152536
 20
66.8552977977
 30
0.0
 10
433.5738856357
 20
66.8772381592
 30
0.0
 10
433.5446997796
 20
66.9056092608
 30
0.0
 10
433.5048120875
 20
66.9247886112
 30
0.0
 10
433.4648960224
 20
66.9017958833
 30
0.0
 10
433.4449454843
 20
66.8639418777
 30
0.0
 10
433.4242204208
 20
66.8087124348
 30
0.0
 10
433.4088487795
 20
66.7354251033
 30
0.0
 10
433.3968585533
 20
66.6463545868
 30
0.0
 10
433.3871717977
 20
66.5264510783
 30
0.0
 10
433.3848289098
 20
66.4361773531
 30
0.0
 10
433.384828595
 20
66.3760017025
 30
0.0
  0
SPLINE
  5
43E
100
AcDbEntity
  8
RUNDUNGEN
100
AcDbSpline
 62
7
  6
CONTINUOUS
 70
0
 71
3
 72
8
 73
4
 74
0
 42
0.0000001
 43
0.0000001
 44
0.0000000001
 40
0.0
 40
0.0
 40
0.0
 40
0.0
 40
1.0
 40
1.0
 40
1.0
 40
1.0
 10
433.6882214393
 20
66.7871529532
 30
0.0
 10
433.6532322611
 20
66.7876748026
 30
0.0
 10
433.6207007389
 20
66.8157703257
 30
0.0
 10
433.5999152074
 20
66.8439212865
 30
0.0
  0
SPLINE
  5
43F
100
AcDbEntity
  8
BEZUGSACHSEN
100
AcDbSpline
 62
7
  6
CONTINUOUS
 70
0
 71
3
 72
29
 73
25
 74
0
 42
0.0000001
 43
0.0000001
 44
0.0000000001
 40
0.0
 40
0.0
 40
0.0
 40
0.0
 40
0.0642625812
 40
0.1283895377
 40
0.1923279313
 40
0.2559888156
 40
0.3192046575
 40
0.3505581506
 40
0.3816446591
 40
0.4123394645
 40
0.4424404466
 40
0.4716704579
 40
0.4999999987
 40
0.5283295364
 40
0.5575595499
 40
0.5876605343
 40
0.6183553398
 40
0.6494418484
 40
0.6807953417
 40
0.7440111842
 40
0.8076720685
 40
0.8716104622
 40
0.9357374187
 40
1.0
 40
1.0
 40
1.0
 40
1.0
 10
731.3846697957
 20
66.7768690912
 30
0.0
 10
731.1230490298
 20
67.6146918396
 30
0.0
 10
730.586155372
 20
69.284196775
 30
0.0
 10
729.7285113386
 20
71.7673740533
 30
0.0
 10
728.8047550428
 20
74.2182228121
 30
0.0
 10
727.7929699657
 20
76.6207670971
 30
0.0
 10
726.8449988254
 20
78.5652822267
 30
0.0
 10
725.9903500222
 20
80.0544635454
 30
0.0
 10
725.2902997933
 20
81.1178257757
 30
0.0
 10
724.5116010699
 20
82.1048380755
 30
0.0
 10
723.6288067807
 20
82.9676123432
 30
0.0
 10
722.6089065197
 20
83.6207942383
 30
0.0
 10
721.4314759313
 20
83.8902066381
 30
0.0
 10
720.2540453525
 20
83.6207941944
 30
0.0
 10
719.2341449859
 20
82.9676124323
 30
0.0
 10
718.3513506501
 20
82.1048381103
 30
0.0
 10
717.5726518857
 20
81.117825802
 30
0.0
 10
716.8726016307
 20
80.0544635806
 30
0.0
 10
716.0179528042
 20
78.5652822608
 30
0.0
 10
715.0699816903
 20
76.6207671063
 30
0.0
 10
714.0581965934
 20
74.2182228204
 30
0.0
 10
713.134440298
 20
71.7673740577
 30
0.0
 10
712.2767962636
 20
69.2841967775
 30
0.0
 10
711.7399026062
 20
67.6146918403
 30
0.0
 10
711.47828184
 20
66.7768690912
 30
0.0
  0
SPLINE
  5
440
100
AcDbEntity
  8
RUNDUNGEN
100
AcDbSpline
 62
9
  6
CONTINUOUS
 70
0
 71
3
 72
11
 73
7
 74
0
 42
0.0000001
 43
0.0000001
 44
0.0000000001
 40
0.0
 40
0.0
 40
0.0
 40
0.0
 40
0.1914459367
 40
0.4307802455
 40
0.7057396394
 40
1.0
 40
1.0
 40
1.0
 40
1.0
 10
731.1814764458
 20
82.8316298333
 30
0.0
 10
730.9700507595
 20
82.3184513406
 30
0.0
 10
730.5702401177
 20
81.1316367718
 30
0.0
 10
730.1692504519
 20
79.1182061475
 30
0.0
 10
730.0823453531
 20
76.7642774468
 30
0.0
 10
730.3110097511
 20
75.1204067052
 30
0.0
 10
730.4946859155
 20
74.287317728
 30
0.0
  0
SPLINE
  5
441
100
AcDbEntity
  8
RUNDUNGEN
100
AcDbSpline
 62
9
  6
CONTINUOUS
 70
0
 71
3
 72
8
 73
4
 74
0
 42
0.0000001
 43
0.0000001
 44
0.0000000001
 40
0.0
 40
0.0
 40
0.0
 40
0.0
 40
1.0
 40
1.0
 40
1.0
 40
1.0
 10
730.4946895285
 20
74.2873177285
 30
0.0
 10
730.7246899236
 20
73.1817636259
 30
0.0
 10
730.9535824183
 20
72.0759785661
 30
0.0
 10
731.1814758179
 20
70.9699882163
 30
0.0
  0
SPLINE
  5
442
100
AcDbEntity
  8
BEZUGSACHSEN
100
AcDbSpline
 62
7
  6
CONTINUOUS
 70
0
 71
3
 72
29
 73
25
 74
0
 42
0.0000001
 43
0.0000001
 44
0.0000000001
 40
0.0
 40
0.0
 40
0.0
 40
0.0
 40
0.0642625812
 40
0.1283895377
 40
0.1923279313
 40
0.2559888156
 40
0.3192046575
 40
0.3505581506
 40
0.3816446591
 40
0.4123394645
 40
0.4424404466
 40
0.4716704579
 40
0.4999999987
 40
0.5283295364
 40
0.5575595499
 40
0.5876605343
 40
0.6183553398
 40
0.6494418484
 40
0.6807953417
 40
0.7440111842
 40
0.8076720685
 40
0.8716104622
 40
0.9357374187
 40
1.0
 40
1.0
 40
1.0
 40
1.0
 10
710.8846697957
 20
66.7768690912
 30
0.0
 10
710.6230490298
 20
67.6146918396
 30
0.0
 10
710.086155372
 20
69.284196775
 30
0.0
 10
709.2285113386
 20
71.7673740533
 30
0.0
 10
708.3047550428
 20
74.2182228121
 30
0.0
 10
707.2929699657
 20
76.6207670971
 30
0.0
 10
706.3449988254
 20
78.5652822267
 30
0.0
 10
705.4903500222
 20
80.0544635454
 30
0.0
 10
704.7902997933
 20
81.1178257757
 30
0.0
 10
704.0116010699
 20
82.1048380755
 30
0.0
 10
703.1288067807
 20
82.9676123432
 30
0.0
 10
702.1089065197
 20
83.6207942383
 30
0.0
 10
700.9314759313
 20
83.8902066381
 30
0.0
 10
699.7540453525
 20
83.6207941944
 30
0.0
 10
698.7341449859
 20
82.9676124323
 30
0.0
 10
697.8513506501
 20
82.1048381103
 30
0.0
 10
697.0726518857
 20
81.117825802
 30
0.0
 10
696.3726016307
 20
80.0544635806
 30
0.0
 10
695.5179528042
 20
78.5652822608
 30
0.0
 10
694.5699816903
 20
76.6207671063
 30
0.0
 10
693.5581965934
 20
74.2182228204
 30
0.0
 10
692.634440298
 20
71.7673740577
 30
0.0
 10
691.7767962636
 20
69.2841967775
 30
0.0
 10
691.2399026062
 20
67.6146918403
 30
0.0
 10
690.97828184
 20
66.7768690912
 30
0.0
  0
SPLINE
  5
443
100
AcDbEntity
  8
RUNDUNGEN
100
AcDbSpline
 62
9
  6
CONTINUOUS
 70
0
 71
3
 72
8
 73
4
 74
0
 42
0.0000001
 43
0.0000001
 44
0.0000000001
 40
0.0
 40
0.0
 40
0.0
 40
0.0
 40
1.0
 40
1.0
 40
1.0
 40
1.0
 10
690.5836231768
 20
74.8124926486
 30
0.0
 10
690.7533025317
 20
75.717377108
 30
0.0
 10
690.9231897691
 20
76.6222226146
 30
0.0
 10
691.0932993664
 20
77.5270262912
 30
0.0
  0
SPLINE
  5
444
100
AcDbEntity
  8
RUNDUNGEN
100
AcDbSpline
 62
9
  6
CONTINUOUS
 70
0
 71
3
 72
9
 73
5
 74
0
 42
0.0000001
 43
0.0000001
 44
0.0000000001
 40
0.0
 40
0.0
 40
0.0
 40
0.0
 40
0.5664774461
 40
1.0
 40
1.0
 40
1.0
 40
1.0
 10
691.0932993664
 20
77.5270262912
 30
0.0
 10
691.3476486973
 20
78.8807027635
 30
0.0
 10
691.5898762766
 20
81.3168045016
 30
0.0
 10
691.4202177445
 20
83.7508696246
 30
0.0
 10
691.2763393926
 20
84.7950949165
 30
0.0
  0
SPLINE
  5
445
100
AcDbEntity
  8
RUNDUNGEN
100
AcDbSpline
 62
9
  6
CONTINUOUS
 70
0
 71
3
 72
10
 73
6
 74
0
 42
0.0000001
 43
0.0000001
 44
0.0000000001
 40
0.0
 40
0.0
 40
0.0
 40
0.0
 40
0.5217282314
 40
0.7664891249
 40
1.0
 40
1.0
 40
1.0
 40
1.0
 10
731.1814758179
 20
82.8316300333
 30
0.0
 10
731.3064897155
 20
82.8316316318
 30
0.0
 10
731.500416002
 20
82.7680620421
 30
0.0
 10
731.6535668226
 20
82.5764704505
 30
0.0
 10
731.6814758102
 20
82.4603746268
 30
0.0
 10
731.6814758179
 20
82.404421924
 30
0.0
  0
SPLINE
  5
446
100
AcDbEntity
  8
RUNDUNGEN
100
AcDbSpline
 62
9
  6
CONTINUOUS
 70
0
 71
3
 72
9
 73
5
 74
0
 42
0.0000001
 43
0.0000001
 44
0.0000000001
 40
0.0
 40
0.0
 40
0.0
 40
0.0
 40
0.596762671
 40
1.0
 40
1.0
 40
1.0
 40
1.0
 10
731.181477026
 20
82.831627311
 30
0.0
 10
731.2347954651
 20
83.1230542079
 30
0.0
 10
731.3318009891
 20
83.6099321456
 30
0.0
 10
731.4415973461
 20
84.0943825927
 30
0.0
 10
731.4943371775
 20
84.2874986006
 30
0.0
  0
SPLINE
  5
447
100
AcDbEntity
  8
RUNDUNGEN
100
AcDbSpline
 62
7
  6
CONTINUOUS
 70
0
 71
3
 72
9
 73
5
 74
0
 42
0.0000001
 43
0.0000001
 44
0.0000000001
 40
0.0
 40
0.0
 40
0.0
 40
0.0
 40
0.3081716976
 40
1.0
 40
1.0
 40
1.0
 40
1.0
 10
731.5572940792
 20
66.8439183212
 30
0.0
 10
731.554165341
 20
66.8365789047
 30
0.0
 10
731.5438241611
 20
66.8141191264
 30
0.0
 10
731.5242171315
 20
66.7876154975
 30
0.0
 10
731.5063118764
 20
66.7871529537
 30
0.0
  0
SPLINE
  5
448
100
AcDbEntity
  8
RUNDUNGEN
100
AcDbSpline
 62
9
  6
CONTINUOUS
 70
0
 71
3
 72
9
 73
5
 74
0
 42
0.0000001
 43
0.0000001
 44
0.0000000001
 40
0.0
 40
0.0
 40
0.0
 40
0.0
 40
0.2491718606
 40
1.0
 40
1.0
 40
1.0
 40
1.0
 10
731.5572955342
 20
66.843920792
 30
0.0
 10
731.5262309847
 20
67.1866343948
 30
0.0
 10
731.4014115894
 20
68.5620314926
 30
0.0
 10
731.2760020557
 20
69.9373750492
 30
0.0
 10
731.1814758179
 20
70.9699882159
 30
0.0
  0
SPLINE
  5
449
100
AcDbEntity
  8
RUNDUNGEN
100
AcDbSpline
 62
9
  6
CONTINUOUS
 70
0
 71
3
 72
9
 73
5
 74
0
 42
0.0000001
 43
0.0000001
 44
0.0000000001
 40
0.0
 40
0.0
 40
0.0
 40
0.0
 40
0.4945917769
 40
1.0
 40
1.0
 40
1.0
 40
1.0
 10
690.9853396432
 20
84.795094871
 30
0.0
 10
690.8535883489
 20
84.6910786842
 30
0.0
 10
690.5440800227
 20
84.5308295722
 30
0.0
 10
690.1984395431
 20
84.4937221885
 30
0.0
 10
690.0272608537
 20
84.5047479707
 30
0.0
  0
SPLINE
  5
44A
100
AcDbEntity
  8
RUNDUNGEN
100
AcDbSpline
 62
7
  6
CONTINUOUS
 70
0
 71
3
 72
12
 73
8
 74
0
 42
0.0000001
 43
0.0000001
 44
0.0000000001
 40
0.0
 40
0.0
 40
0.0
 40
0.0
 40
0.0659309752
 40
0.1629982284
 40
0.4143706149
 40
0.6996315622
 40
1.0
 40
1.0
 40
1.0
 40
1.0
 10
690.5836231728
 20
74.8124926494
 30
0.0
 10
690.5974710978
 20
74.8111951153
 30
0.0
 10
690.6251459052
 20
74.7825873479
 30
0.0
 10
690.651033319
 20
74.7004900728
 30
0.0
 10
690.6703514185
 20
74.5665356706
 30
0.0
 10
690.6797831883
 20
74.3906396375
 30
0.0
 10
690.6814758179
 20
74.2669658844
 30
0.0
 10
690.6814758179
 20
74.2036011506
 30
0.0
  0
SPLINE
  5
44B
100
AcDbEntity
  8
RUNDUNGEN
100
AcDbSpline
 62
9
  6
CONTINUOUS
 70
0
 71
3
 72
9
 73
5
 74
0
 42
0.0000001
 43
0.0000001
 44
0.0000000001
 40
0.0
 40
0.0
 40
0.0
 40
0.0
 40
0.4774771146
 40
1.0
 40
1.0
 40
1.0
 40
1.0
 10
690.6495692528
 20
70.0872254598
 30
0.0
 10
690.6108980729
 20
70.2306871157
 30
0.0
 10
690.4552858297
 20
70.5132814504
 30
0.0
 10
690.2048009289
 20
70.7100687013
 30
0.0
 10
690.0631537906
 20
70.7899108597
 30
0.0
  0
SPLINE
  5
44C
100
AcDbEntity
  8
RUNDUNGEN
100
AcDbSpline
 62
9
  6
CONTINUOUS
 70
0
 71
3
 72
9
 73
5
 74
0
 42
0.0000001
 43
0.0000001
 44
0.0000000001
 40
0.0
 40
0.0
 40
0.0
 40
0.0
 40
0.2458599838
 40
1.0
 40
1.0
 40
1.0
 40
1.0
 10
689.8624629759
 20
70.8852801995
 30
0.0
 10
689.8094911001
 20
70.9062114112
 30
0.0
 10
689.5898678599
 20
70.980540022
 30
0.0
 10
689.3561841481
 20
71.0120555634
 30
0.0
 10
689.1814758179
 20
71.0120555634
 30
0.0
  0
SPLINE
  5
44D
100
AcDbEntity
  8
RUNDUNGEN
100
AcDbSpline
 62
9
  6
CONTINUOUS
 70
0
 71
3
 72
10
 73
6
 74
0
 42
0.0000001
 43
0.0000001
 44
0.0000000001
 40
0.0
 40
0.0
 40
0.0
 40
0.0
 40
0.2355889521
 40
0.4836882019
 40
1.0
 40
1.0
 40
1.0
 40
1.0
 10
691.2763398044
 20
84.7950946118
 30
0.0
 10
691.2342831699
 20
84.6545363215
 30
0.0
 10
691.0919411064
 20
84.3804655146
 30
0.0
 10
690.6361162223
 20
83.9452415219
 30
0.0
 10
690.1508671431
 20
83.7868155858
 30
0.0
 10
689.8296272619
 20
83.7729663521
 30
0.0
  0
LINE
  5
44E
100
AcDbEntity
  8
RUNDUNGEN
100
AcDbLine
 62
7
  6
CONTINUOUS
 10
689.1814758179
 20
74.9438628414
 11
690.5836231728
 21
74.8124926494
  0
SPLINE
  5
44F
100
AcDbEntity
  8
RUNDUNGEN
100
AcDbSpline
 62
9
  6
CONTINUOUS
 70
0
 71
3
 72
13
 73
9
 74
0
 42
0.0000001
 43
0.0000001
 44
0.0000000001
 40
0.0
 40
0.0
 40
0.0
 40
0.0
 40
0.2829360143
 40
0.5547074326
 40
0.6821564954
 40
0.7998256309
 40
0.90403383
 40
1.0
 40
1.0
 40
1.0
 40
1.0
 10
689.9117340527
 20
70.787499399
 30
0.0
 10
689.8349134681
 20
70.7875503944
 30
0.0
 10
689.6842955205
 20
70.7920588296
 30
0.0
 10
689.4997175736
 20
70.8119835737
 30
0.0
 10
689.3627625981
 20
70.8443010137
 30
0.0
 10
689.2742944518
 20
70.8789971616
 30
0.0
 10
689.2019974791
 20
70.9305890596
 30
0.0
 10
689.1814763289
 20
70.9859995701
 30
0.0
 10
689.1814758179
 20
71.0120555634
 30
0.0
  0
SPLINE
  5
450
100
AcDbEntity
  8
RUNDUNGEN
100
AcDbSpline
 62
9
  6
CONTINUOUS
 70
0
 71
3
 72
11
 73
7
 74
0
 42
0.0000001
 43
0.0000001
 44
0.0000000001
 40
0.0
 40
0.0
 40
0.0
 40
0.0
 40
0.4316447941
 40
0.7454877688
 40
0.9360695651
 40
1.0
 40
1.0
 40
1.0
 40
1.0
 10
690.9853398014
 20
84.7950946812
 30
0.0
 10
691.0260986561
 20
84.8441694319
 30
0.0
 10
691.0957533201
 20
84.9294805018
 30
0.0
 10
691.1845344155
 20
85.03575725
 30
0.0
 10
691.2348908544
 20
85.1027937148
 30
0.0
 10
691.2609979347
 20
85.13033617
 30
0.0
 10
691.2658726628
 20
85.1384299398
 30
0.0
  0
SPLINE
  5
451
100
AcDbEntity
  8
RUNDUNGEN
100
AcDbSpline
 62
7
  6
CONTINUOUS
 70
0
 71
3
 72
18
 73
14
 74
0
 42
0.0000001
 43
0.0000001
 44
0.0000000001
 40
0.0
 40
0.0
 40
0.0
 40
0.0
 40
0.2773457653
 40
0.4156148734
 40
0.5530583503
 40
0.6211178043
 40
0.6882164294
 40
0.7533054129
 40
0.8127701398
 40
0.8543232038
 40
0.8934371193
 40
0.9441626588
 40
1.0
 40
1.0
 40
1.0
 40
1.0
 10
731.6814758179
 20
66.3760017491
 30
0.0
 10
731.6814755325
 20
66.436148519
 30
0.0
 10
731.6801447361
 20
66.5262949249
 30
0.0
 10
731.674514166
 20
66.6461196205
 30
0.0
 10
731.6688626811
 20
66.7204538131
 30
0.0
 10
731.6621472932
 20
66.779249952
 30
0.0
 10
731.6559145109
 20
66.8220766925
 30
0.0
 10
731.6466426577
 20
66.8632631947
 30
0.0
 10
731.637969229
 20
66.8962435457
 30
0.0
 10
731.6133343143
 20
66.9255059045
 30
0.0
 10
731.5862383884
 20
66.9027417069
 30
0.0
 10
731.5722923945
 20
66.8762771463
 30
0.0
 10
731.5620427334
 20
66.8550575779
 30
0.0
 10
731.5572940792
 20
66.8439183212
 30
0.0
  0
SPLINE
  5
452
100
AcDbEntity
  8
RUNDUNGEN
100
AcDbSpline
 62
9
  6
CONTINUOUS
 70
0
 71
3
 72
12
 73
8
 74
0
 42
0.0000001
 43
0.0000001
 44
0.0000000001
 40
0.0
 40
0.0
 40
0.0
 40
0.0
 40
0.0679147792
 40
0.1577880442
 40
0.3920890945
 40
0.6811483405
 40
1.0
 40
1.0
 40
1.0
 40
1.0
 10
731.078886706
 20
84.2874985577
 30
0.0
 10
730.9705995304
 20
84.0802389194
 30
0.0
 10
730.7477142021
 20
83.5838422276
 30
0.0
 10
730.2802924049
 20
82.3166770055
 30
0.0
 10
729.7665301679
 20
80.2596816827
 30
0.0
 10
729.5308211581
 20
77.3536270274
 30
0.0
 10
729.771837294
 20
75.258494826
 30
0.0
 10
729.9938420048
 20
74.1833096511
 30
0.0
  0
SPLINE
  5
453
100
AcDbEntity
  8
RUNDUNGEN
100
AcDbSpline
 62
9
  6
CONTINUOUS
 70
0
 71
3
 72
8
 73
4
 74
0
 42
0.0000001
 43
0.0000001
 44
0.0000000001
 40
0.0
 40
0.0
 40
0.0
 40
0.0
 40
1.0
 40
1.0
 40
1.0
 40
1.0
 10
689.1814758179
 20
74.9438628414
 30
0.0
 10
689.3606635292
 20
75.8917946444
 30
0.0
 10
689.5401255778
 20
76.8396746371
 30
0.0
 10
689.7198830663
 20
77.7874985577
 30
0.0
  0
SPLINE
  5
454
100
AcDbEntity
  8
RUNDUNGEN
100
AcDbSpline
 62
9
  6
CONTINUOUS
 70
0
 71
3
 72
9
 73
5
 74
0
 42
0.0000001
 43
0.0000001
 44
0.0000000001
 40
0.0
 40
0.0
 40
0.0
 40
0.0
 40
0.5728597531
 40
1.0
 40
1.0
 40
1.0
 40
1.0
 10
689.7198830663
 20
77.7874985577
 30
0.0
 10
689.9777004032
 20
78.9077440178
 30
0.0
 10
690.2096653856
 20
80.9250092953
 30
0.0
 10
689.9934340066
 20
82.9316431528
 30
0.0
 10
689.8296272621
 20
83.7729666436
 30
0.0
  0
SPLINE
  5
455
100
AcDbEntity
  8
RUNDUNGEN
100
AcDbSpline
 62
9
  6
CONTINUOUS
 70
0
 71
3
 72
9
 73
5
 74
0
 42
0.0000001
 43
0.0000001
 44
0.0000000001
 40
0.0
 40
0.0
 40
0.0
 40
0.0
 40
0.5416129935
 40
1.0
 40
1.0
 40
1.0
 40
1.0
 10
689.8296272621
 20
83.7729666436
 30
0.0
 10
689.8026255079
 20
83.9115812159
 30
0.0
 10
689.8035175483
 20
84.1849259531
 30
0.0
 10
689.9432501274
 20
84.4197375804
 30
0.0
 10
690.0272608537
 20
84.5047502657
 30
0.0
  0
SPLINE
  5
456
100
AcDbEntity
  8
RUNDUNGEN
100
AcDbSpline
 62
9
  6
CONTINUOUS
 70
0
 71
3
 72
11
 73
7
 74
0
 42
0.0000001
 43
0.0000001
 44
0.0000000001
 40
0.0
 40
0.0
 40
0.0
 40
0.0
 40
0.4318714797
 40
0.7456902083
 40
0.9361429594
 40
1.0
 40
1.0
 40
1.0
 40
1.0
 10
690.0272608537
 20
84.5047502657
 30
0.0
 10
690.0671315998
 20
84.5450979213
 30
0.0
 10
690.1351300172
 20
84.6154763035
 30
0.0
 10
690.2224199837
 20
84.7024511714
 30
0.0
 10
690.270944202
 20
84.7587373198
 30
0.0
 10
690.2972421527
 20
84.7803884994
 30
0.0
 10
690.3016923141
 20
84.7874978218
 30
0.0
  0
SPLINE
  5
457
100
AcDbEntity
  8
RUNDUNGEN
100
AcDbSpline
 62
9
  6
CONTINUOUS
 70
0
 71
3
 72
10
 73
6
 74
0
 42
0.0000001
 43
0.0000001
 44
0.0000000001
 40
0.0
 40
0.0
 40
0.0
 40
0.0
 40
0.6861575527
 40
0.886102723
 40
1.0
 40
1.0
 40
1.0
 40
1.0
 10
701.7501271621
 20
93.9638765963
 30
0.0
 10
701.6929295845
 20
94.0442311381
 30
0.0
 10
701.6187844092
 20
94.150302462
 30
0.0
 10
701.5292327089
 20
94.2584597602
 30
0.0
 10
701.4888697207
 20
94.2875099363
 30
0.0
 10
701.4724973927
 20
94.2874985234
 30
0.0
  0
SPLINE
  5
458
100
AcDbEntity
  8
RUNDUNGEN
100
AcDbSpline
 62
9
  6
CONTINUOUS
 70
0
 71
3
 72
9
 73
5
 74
0
 42
0.0000001
 43
0.0000001
 44
0.0000000001
 40
0.0
 40
0.0
 40
0.0
 40
0.0
 40
0.5818073513
 40
1.0
 40
1.0
 40
1.0
 40
1.0
 10
702.8581513564
 20
92.2878700706
 30
0.0
 10
702.6767087212
 20
92.6328328294
 30
0.0
 10
702.2986792941
 20
93.1889094134
 30
0.0
 10
701.9127929554
 20
93.7357772406
 30
0.0
 10
701.7501271621
 20
93.9638765963
 30
0.0
  0
SPLINE
  5
459
100
AcDbEntity
  8
RUNDUNGEN
100
AcDbSpline
 62
9
  6
CONTINUOUS
 70
0
 71
3
 72
11
 73
7
 74
0
 42
0.0000001
 43
0.0000001
 44
0.0000000001
 40
0.0
 40
0.0
 40
0.0
 40
0.0
 40
0.2516181398
 40
0.500133701
 40
0.7485075162
 40
1.0
 40
1.0
 40
1.0
 40
1.0
 10
711.1814758179
 20
86.6668089026
 30
0.0
 10
710.3175101616
 20
86.6668822452
 30
0.0
 10
708.585732491
 20
86.9422338224
 30
0.0
 10
706.2855103119
 20
88.2158819757
 30
0.0
 10
704.6362044071
 20
90.2633434307
 30
0.0
 10
704.0386432019
 20
91.8963285219
 30
0.0
 10
703.8221129646
 20
92.7322746771
 30
0.0
  0
SPLINE
  5
45A
100
AcDbEntity
  8
RUNDUNGEN
100
AcDbSpline
 62
9
  6
CONTINUOUS
 70
0
 71
3
 72
10
 73
6
 74
0
 42
0.0000001
 43
0.0000001
 44
0.0000000001
 40
0.0
 40
0.0
 40
0.0
 40
0.0
 40
0.580528444
 40
0.8188614284
 40
1.0
 40
1.0
 40
1.0
 40
1.0
 10
703.8221129646
 20
92.7322746771
 30
0.0
 10
703.6781062982
 20
93.2913045336
 30
0.0
 10
703.4466075776
 20
94.0728745959
 30
0.0
 10
703.2336392535
 20
95.044019071
 30
0.0
 10
703.1814717853
 20
95.4601296268
 30
0.0
 10
703.1814758179
 20
95.6402546348
 30
0.0
  0
SPLINE
  5
45B
100
AcDbEntity
  8
RUNDUNGEN
100
AcDbSpline
 62
9
  6
CONTINUOUS
 70
0
 71
3
 72
11
 73
7
 74
0
 42
0.0000001
 43
0.0000001
 44
0.0000000001
 40
0.0
 40
0.0
 40
0.0
 40
0.0
 40
0.2514917027
 40
0.4998637044
 40
0.7483794906
 40
1.0
 40
1.0
 40
1.0
 40
1.0
 10
718.5408386712
 20
92.7322746771
 30
0.0
 10
718.3242942099
 20
91.8963350187
 30
0.0
 10
717.7267759452
 20
90.2633408106
 30
0.0
 10
716.0774304968
 20
88.2159242191
 30
0.0
 10
713.7772471352
 20
86.9422144057
 30
0.0
 10
712.0454495706
 20
86.6668745673
 30
0.0
 10
711.1814758179
 20
86.6668089026
 30
0.0
  0
SPLINE
  5
45C
100
AcDbEntity
  8
RUNDUNGEN
100
AcDbSpline
 62
9
  6
CONTINUOUS
 70
0
 71
3
 72
11
 73
7
 74
0
 42
0.0000001
 43
0.0000001
 44
0.0000000001
 40
0.0
 40
0.0
 40
0.0
 40
0.0
 40
0.2506605413
 40
0.4983787903
 40
0.7472453171
 40
1.0
 40
1.0
 40
1.0
 40
1.0
 10
719.5047117119
 20
92.287888928
 30
0.0
 10
719.2544675453
 20
91.3408322763
 30
0.0
 10
718.5681332495
 20
89.4929551947
 30
0.0
 10
716.728937475
 20
87.1476353872
 30
0.0
 10
714.1482281833
 20
85.6267751437
 30
0.0
 10
712.1692198298
 20
85.2878114372
 30
0.0
 10
711.1814758179
 20
85.2874985577
 30
0.0
  0
SPLINE
  5
45D
100
AcDbEntity
  8
RUNDUNGEN
100
AcDbSpline
 62
9
  6
CONTINUOUS
 70
0
 71
3
 72
9
 73
5
 74
0
 42
0.0000001
 43
0.0000001
 44
0.0000000001
 40
0.0
 40
0.0
 40
0.0
 40
0.0
 40
0.4802137146
 40
1.0
 40
1.0
 40
1.0
 40
1.0
 10
703.1815221359
 20
95.6402546349
 30
0.0
 10
703.1815571058
 20
95.2672661699
 30
0.0
 10
702.8666348124
 20
94.4742216874
 30
0.0
 10
702.1409634378
 20
94.0650980081
 30
0.0
 10
701.7501536291
 20
93.963798542
 30
0.0
  0
SPLINE
  5
45E
100
AcDbEntity
  8
RUNDUNGEN
100
AcDbSpline
 62
9
  6
CONTINUOUS
 70
0
 71
3
 72
9
 73
5
 74
0
 42
0.0000001
 43
0.0000001
 44
0.0000000001
 40
0.0
 40
0.0
 40
0.0
 40
0.0
 40
0.3920136561
 40
1.0
 40
1.0
 40
1.0
 40
1.0
 10
703.8224094164
 20
92.732345989
 30
0.0
 10
703.7123455108
 20
92.6474532919
 30
0.0
 10
703.3891788763
 20
92.491882915
 30
0.0
 10
703.0611398087
 20
92.3606816762
 30
0.0
 10
702.8583632231
 20
92.2874985531
 30
0.0
  0
SPLINE
  5
45F
100
AcDbEntity
  8
RUNDUNGEN
100
AcDbSpline
 62
9
  6
CONTINUOUS
 70
0
 71
3
 72
9
 73
5
 74
0
 42
0.0000001
 43
0.0000001
 44
0.0000000001
 40
0.0
 40
0.0
 40
0.0
 40
0.0
 40
0.39195245
 40
1.0
 40
1.0
 40
1.0
 40
1.0
 10
718.5407875341
 20
92.7322870457
 30
0.0
 10
718.6507792708
 20
92.6473852654
 30
0.0
 10
718.9738843524
 20
92.4918358404
 30
0.0
 10
719.3018487407
 20
92.3606662899
 30
0.0
 10
719.5046046755
 20
92.2874985928
 30
0.0
  0
SPLINE
  5
460
100
AcDbEntity
  8
RUNDUNGEN
100
AcDbSpline
 62
9
  6
CONTINUOUS
 70
0
 71
3
 72
9
 73
5
 74
0
 42
0.0000001
 43
0.0000001
 44
0.0000000001
 40
0.0
 40
0.0
 40
0.0
 40
0.0
 40
0.4181841747
 40
1.0
 40
1.0
 40
1.0
 40
1.0
 10
720.6128244736
 20
93.9638765963
 30
0.0
 10
720.4501902154
 20
93.7357655549
 30
0.0
 10
720.0642618717
 20
93.1889370705
 30
0.0
 10
719.6862510882
 20
92.6328552904
 30
0.0
 10
719.5048124419
 20
92.2878889187
 30
0.0
  0
SPLINE
  5
461
100
AcDbEntity
  8
RUNDUNGEN
100
AcDbSpline
 62
9
  6
CONTINUOUS
 70
0
 71
3
 72
10
 73
6
 74
0
 42
0.0000001
 43
0.0000001
 44
0.0000000001
 40
0.0
 40
0.0
 40
0.0
 40
0.0
 40
0.1139059239
 40
0.3138447159
 40
1.0
 40
1.0
 40
1.0
 40
1.0
 10
720.8904542233
 20
94.2874985233
 30
0.0
 10
720.8740806124
 20
94.2875099345
 30
0.0
 10
720.833714993
 20
94.2584633776
 30
0.0
 10
720.74416967
 20
94.1502974118
 30
0.0
 10
720.670028567
 20
94.0442263947
 30
0.0
 10
720.6128244736
 20
93.9638765963
 30
0.0
  0
SPLINE
  5
462
100
AcDbEntity
  8
RUNDUNGEN
100
AcDbSpline
 62
9
  6
CONTINUOUS
 70
0
 71
3
 72
9
 73
5
 74
0
 42
0.0000001
 43
0.0000001
 44
0.0000000001
 40
0.0
 40
0.0
 40
0.0
 40
0.0
 40
0.2292470479
 40
1.0
 40
1.0
 40
1.0
 40
1.0
 10
719.1814758179
 20
95.6402546348
 30
0.0
 10
719.1814760395
 20
95.6202633477
 30
0.0
 10
719.1800117932
 20
95.5330591865
 30
0.0
 10
719.1734794026
 20
95.4459948096
 30
0.0
 10
719.1666917597
 20
95.3791255876
 30
0.0
  0
SPLINE
  5
463
100
AcDbEntity
  8
RUNDUNGEN
100
AcDbSpline
 62
9
  6
CONTINUOUS
 70
0
 71
3
 72
9
 73
5
 74
0
 42
0.0000001
 43
0.0000001
 44
0.0000000001
 40
0.0
 40
0.0
 40
0.0
 40
0.0
 40
0.4407428257
 40
1.0
 40
1.0
 40
1.0
 40
1.0
 10
719.1666917597
 20
95.3791255876
 30
0.0
 10
719.1263174374
 20
94.9813734465
 30
0.0
 10
718.9166795355
 20
94.0942231388
 30
0.0
 10
718.667383082
 20
93.2235380419
 30
0.0
 10
718.5408386712
 20
92.7322746771
 30
0.0
  0
SPLINE
  5
464
100
AcDbEntity
  8
RUNDUNGEN
100
AcDbSpline
 62
9
  6
CONTINUOUS
 70
0
 71
3
 72
11
 73
7
 74
0
 42
0.0000001
 43
0.0000001
 44
0.0000000001
 40
0.0
 40
0.0
 40
0.0
 40
0.0
 40
0.2527532862
 40
0.5016196778
 40
0.7493388963
 40
1.0
 40
1.0
 40
1.0
 40
1.0
 10
711.1814758179
 20
85.2874985577
 30
0.0
 10
710.1937374091
 20
85.287811235
 30
0.0
 10
708.2147613462
 20
85.6267999481
 30
0.0
 10
705.6339329167
 20
87.1475056269
 30
0.0
 10
703.7949342373
 20
89.4929869391
 30
0.0
 10
703.1084564176
 20
91.340802125
 30
0.0
 10
702.8582469883
 20
92.287870079
 30
0.0
  0
ENDSEC
  0
SECTION
  2
OBJECTS
  0
DICTIONARY
  5
C
100
AcDbDictionary
280
0
281
1
  3
ACAD_GROUP
350
D
  3
ACAD_MLINESTYLE
350
17
  3
ACAD_LAYOUT
350
1A
  3
ACAD_PLOTSETTINGS
350
19
  3
ACAD_PLOTSTYLENAME
350
E
  0
DICTIONARY
  5
D
102
{ACAD_REACTORS
330
C
102
}
100
AcDbDictionary
280
0
281
1
  0
ACDBDICTIONARYWDFLT
  5
E
102
{ACAD_REACTORS
330
C
102
}
100
AcDbDictionary
281
1
  3
Normal
350
F
100
AcDbDictionaryWithDefault
340
F
  0
DICTIONARY
  5
17
102
{ACAD_REACTORS
330
C
102
}
100
AcDbDictionary
280
0
281
1
  3
Standard
350
18
  0
DICTIONARY
  5
19
102
{ACAD_REACTORS
330
C
102
}
100
AcDbDictionary
281
1
  0
DICTIONARY
  5
1A
102
{ACAD_REACTORS
330
C
102
}
100
AcDbDictionary
281
1
  3
Model
350
465
  3
Layout1
350
466
  0
ACDBPLACEHOLDER
  5
F
102
{ACAD_REACTORS
330
E
102
}
  0
MLINESTYLE
  5
18
102
{ACAD_REACTORS
330
17
102
}
100
AcDbMlineStyle
  2
STANDARD
 70
0
  3

 62
256
 51
90.0
 52
90.0
 71
2
 49
0.5
 62
256
  6
BYLAYER
 49
-0.5
 62
256
  6
BYLAYER
  0
LAYOUT
  5
465
102
{ACAD_REACTORS
330
1A
102
}
100
AcDbPlotSettings
  1

  2
none_device
  4
ISO_A0_(1189.00_x_841.00_MM)
  6

 40
0.0
 41
0.0
 42
0.0
 43
0.0
 44
1189.0
 45
841.0
 46
0.0
 47
0.0
 48
0.0
 49
0.0
140
0.0
141
0.0
142
1.0
143
1.0
 70
1024
 72
1
 73
0
 74
0
  7

 75
0
147
1.0
148
0.0
149
0.0
100
AcDbLayout
  1
Model
 70
0
 71
0
 10
0.0
 20
0.0
 11
1189.0
 21
841.0
 12
0.0
 22
0.0
 32
0.0
 14
0.0
 24
0.0
 34
0.0
 15
0.0
 25
0.0
 35
0.0
146
0.0
 13
0.0
 23
0.0
 33
0.0
 16
1.0
 26
0.0
 36
0.0
 17
0.0
 27
1.0
 37
0.0
 76
0
330
212
345
0
346
0
  0
LAYOUT
  5
466
102
{ACAD_REACTORS
330
1A
102
}
100
AcDbPlotSettings
  1

  2
none_device
  4
ISO_A0_(1189.00_x_841.00_MM)
  6

 40
0.0
 41
0.0
 42
0.0
 43
0.0
 44
1189.0
 45
841.0
 46
0.0
 47
0.0
 48
0.0
 49
0.0
140
0.0
141
0.0
142
1.0
143
1.0
 70
0
 72
1
 73
0
 74
0
  7

 75
0
147
1.0
148
0.0
149
0.0
100
AcDbLayout
  1
Layout1
 70
0
 71
1
 10
0.0
 20
0.0
 11
1189.0
 21
841.0
 12
0.0
 22
0.0
 32
0.0
 14
0.0
 24
0.0
 34
0.0
 15
0.0
 25
0.0
 35
0.0
146
0.0
 13
0.0
 23
0.0
 33
0.0
 16
1.0
 26
0.0
 36
0.0
 17
0.0
 27
1.0
 37
0.0
 76
0
330
213
345
0
346
0
  0
ENDSEC
  0
EOF
