999
DXF file: 001-m36300-p-1.dxf
999
Pro/ENGINEER 2011490 by Parametric Technology Corporation
  0
SECTION
  2
HEADER
  9
$ACADVER
  1
AC1015
  9
$DWGCODEPAGE
  3
ANSI_1252
  9
$EXTMAX
 10
1189.0
 20
841.0
 30
0.0
  9
$EXTMIN
 10
0.0
 20
0.0
 30
0.0
  9
$LIMMIN
 10
0.0
 20
0.0
  9
$LIMMAX
 10
1189.0
 20
841.0
  9
$VIEWCTR
 10
594.5
 20
420.5
  9
$VIEWSIZE
 40
841.0
  9
$CLAYER
  8
0
  9
$LTSCALE
 40
65.395
  9
$CELTYPE
  6
BYLAYER
  9
$DIMSCALE
 40
1.0
  9
$DIMASZ
 40
3.5
  9
$DIMEXO
 40
7.43125
  9
$DIMDLI
 40
45.182
  9
$DIMEXE
 40
21.402
  9
$DIMCEN
 40
10.701
  9
$DIMLFAC
 40
1.0
  9
$DIMBLK
  1
_FILLED
  9
$DIMTXT
 40
3.5
  9
$DIMTOL
 70
1
  9
$DIMLIM
 70
0
  9
$DIMTFAC
 40
1.0
  9
$DIMTP
 40
0.005
  9
$DIMTM
 40
0.005
  9
$PDMODE
 70
3
  9
$PDSIZE
 40
0.3125
  9
$HANDSEED
  5
467
  9
$TILEMODE
 70
1
  9
$MEASUREMENT
 70
1
  9
$INSUNITS
 70
4
  0
ENDSEC
  0
SECTION
  2
CLASSES
  0
CLASS
  1
ACDBDICTIONARYWDFLT
  2
AcDbDictionaryWithDefault
  3
AutoCAD 2000
 90
0
280
0
281
0
  0
CLASS
  1
ACDBPLACEHOLDER
  2
AcDbPlaceHolder
  3
AutoCAD 2000
 90
0
280
0
281
0
  0
CLASS
  1
LAYOUT
  2
AcDbLayout
  3
AutoCAD 2000
 90
0
280
0
281
0
  0
ENDSEC
  0
SECTION
  2
TABLES
  0
TABLE
  2
VPORT
  5
8
100
AcDbSymbolTable
 70
2
  0
VPORT
  5
1F4
100
AcDbSymbolTableRecord
100
AcDbViewportTableRecord
  2
*ACTIVE
 70
0
 10
0.0
 20
0.0
 11
1.0
 21
1.0
 12
594.5
 22
420.5
 13
0.0
 23
0.0
 14
1.0
 24
1.0
 15
0.0
 25
0.0
 16
0.0
 26
0.0
 36
1.0
 17
0.0
 27
0.0
 37
0.0
 40
841.0
 41
1.4137931034
 42
50.0
 43
0.0
 44
0.0
 50
0.0
 51
0.0
 71
0
 72
100
 73
1
 74
1
 75
0
 76
0
 77
0
 78
0
  0
ENDTAB
  0
TABLE
  2
LTYPE
  5
5
100
AcDbSymbolTable
 70
6
  0
LTYPE
  5
14
100
AcDbSymbolTableRecord
100
AcDbLinetypeTableRecord
  2
BYBLOCK
 70
0
  3

 72
65
 73
0
 40
0.0
  0
LTYPE
  5
15
100
AcDbSymbolTableRecord
100
AcDbLinetypeTableRecord
  2
BYLAYER
 70
0
  3

 72
65
 73
0
 40
0.0
  0
LTYPE
  5
16
100
AcDbSymbolTableRecord
100
AcDbLinetypeTableRecord
  2
CONTINUOUS
 70
64
  3
Solid line
 72
65
 73
0
 40
0.0
  0
LTYPE
  5
1F5
100
AcDbSymbolTableRecord
100
AcDbLinetypeTableRecord
  2
CENTER
 70
64
  3
____ _ ____ _ ____ _ ____ _ ____ _ ____ _ ____
 72
65
 73
4
 40
0.6
 49
0.375
 74
0
 49
-0.075
 74
0
 49
0.075
 74
0
 49
-0.075
 74
0
  0
LTYPE
  5
1F6
100
AcDbSymbolTableRecord
100
AcDbLinetypeTableRecord
  2
HIDDEN
 70
64
  3
- - - - - - - - - - - - - - - - - - - -
 72
65
 73
2
 40
0.2
 49
0.1
 74
0
 49
-0.1
 74
0
  0
LTYPE
  5
1F7
100
AcDbSymbolTableRecord
100
AcDbLinetypeTableRecord
  2
PHANTOM
 70
64
  3
_____ _ _ _____ _ _ _____ _ _ _____
 72
65
 73
6
 40
0.8
 49
0.45
 74
0
 49
-0.05
 74
0
 49
0.1
 74
0
 49
-0.05
 74
0
 49
0.1
 74
0
 49
-0.05
 74
0
  0
LTYPE
  5
1F8
100
AcDbSymbolTableRecord
100
AcDbLinetypeTableRecord
  2
DOT
 70
64
  3
. . . . . . . . . . . . . . . . . . . .
 72
65
 73
2
 40
0.2
 49
0.1
 74
0
 49
-0.1
 74
0
  0
LTYPE
  5
1F9
100
AcDbSymbolTableRecord
100
AcDbLinetypeTableRecord
  2
DASHED
 70
64
  3
- - - - - - - - - - - - - - - - - - - -
 72
65
 73
2
 40
0.2
 49
0.1
 74
0
 49
-0.1
 74
0
  0
ENDTAB
  0
TABLE
  2
LAYER
  5
2
100
AcDbSymbolTable
 70
36
  0
LAYER
  5
10
100
AcDbSymbolTableRecord
100
AcDbLayerTableRecord
  2
0
 70
0
 62
7
  6
CONTINUOUS
370
-3
390
F
  0
LAYER
  5
1FA
100
AcDbSymbolTableRecord
100
AcDbLayerTableRecord
  2
DEFAULT_1
 70
0
 62
7
  6
CENTER
370
-3
390
F
  0
LAYER
  5
1FB
100
AcDbSymbolTableRecord
100
AcDbLayerTableRecord
  2
DEFAULT_2
 70
0
 62
8
  6
HIDDEN
370
-3
390
F
  0
LAYER
  5
1FC
100
AcDbSymbolTableRecord
100
AcDbLayerTableRecord
  2
DEFAULT_3
 70
0
 62
7
  6
PHANTOM
370
-3
390
F
  0
LAYER
  5
1FD
100
AcDbSymbolTableRecord
100
AcDbLayerTableRecord
  2
AUSFORMSCHRAEGEN
 70
0
 62
7
  6
CONTINUOUS
370
-3
390
F
  0
LAYER
  5
1FE
100
AcDbSymbolTableRecord
100
AcDbLayerTableRecord
  2
BEZUGSACHSEN
 70
0
 62
7
  6
CONTINUOUS
370
-3
390
F
  0
LAYER
  5
1FF
100
AcDbSymbolTableRecord
100
AcDbLayerTableRecord
  2
BEZUGSEBENEN
 70
0
 62
7
  6
CONTINUOUS
370
-3
390
F
  0
LAYER
  5
200
100
AcDbSymbolTableRecord
100
AcDbLayerTableRecord
  2
BEZUGSPUNKTE
 70
0
 62
7
  6
CONTINUOUS
370
-3
390
F
  0
LAYER
  5
201
100
AcDbSymbolTableRecord
100
AcDbLayerTableRecord
  2
BG_STARTBEZUEGE
 70
0
 62
7
  6
CONTINUOUS
370
-3
390
F
  0
LAYER
  5
202
100
AcDbSymbolTableRecord
100
AcDbLayerTableRecord
  2
FASEN
 70
0
 62
7
  6
CONTINUOUS
370
-3
390
F
  0
LAYER
  5
203
100
AcDbSymbolTableRecord
100
AcDbLayerTableRecord
  2
FLAECHEN
 70
0
 62
7
  6
CONTINUOUS
370
-3
390
F
  0
LAYER
  5
204
100
AcDbSymbolTableRecord
100
AcDbLayerTableRecord
  2
FLAECHENVERBUND
 70
0
 62
7
  6
CONTINUOUS
370
-3
390
F
  0
LAYER
  5
205
100
AcDbSymbolTableRecord
100
AcDbLayerTableRecord
  2
GEWINDE
 70
0
 62
7
  6
CONTINUOUS
370
-3
390
F
  0
LAYER
  5
206
100
AcDbSymbolTableRecord
100
AcDbLayerTableRecord
  2
HILFEN
 70
0
 62
7
  6
CONTINUOUS
370
-3
390
F
  0
LAYER
  5
207
100
AcDbSymbolTableRecord
100
AcDbLayerTableRecord
  2
KONSTRUKTIONSELEMENTE
 70
0
 62
7
  6
CONTINUOUS
370
-3
390
F
  0
LAYER
  5
208
100
AcDbSymbolTableRecord
100
AcDbLayerTableRecord
  2
KURVEN
 70
0
 62
7
  6
CONTINUOUS
370
-3
390
F
  0
LAYER
  5
209
100
AcDbSymbolTableRecord
100
AcDbLayerTableRecord
  2
NORM
 70
0
 62
7
  6
CONTINUOUS
370
-3
390
F
  0
LAYER
  5
20A
100
AcDbSymbolTableRecord
100
AcDbLayerTableRecord
  2
PLATZIERUNG
 70
0
 62
7
  6
CONTINUOUS
370
-3
390
F
  0
LAYER
  5
20B
100
AcDbSymbolTableRecord
100
AcDbLayerTableRecord
  2
PLAZIERUNG
 70
0
 62
7
  6
CONTINUOUS
370
-3
390
F
  0
LAYER
  5
20C
100
AcDbSymbolTableRecord
100
AcDbLayerTableRecord
  2
RUNDUNGEN
 70
0
 62
7
  6
CONTINUOUS
370
-3
390
F
  0
LAYER
  5
20D
100
AcDbSymbolTableRecord
100
AcDbLayerTableRecord
  2
TEIL_STARTBEZUEGE
 70
0
 62
7
  6
CONTINUOUS
370
-3
390
F
  0
LAYER
  5
20E
100
AcDbSymbolTableRecord
100
AcDbLayerTableRecord
  2
T_STARTBEZUEGE
 70
0
 62
7
  6
CONTINUOUS
370
-3
390
F
  0
LAYER
  5
20F
100
AcDbSymbolTableRecord
100
AcDbLayerTableRecord
  2
ZEICHNUNGSBEMASSUNGEN
 70
0
 62
7
  6
CONTINUOUS
370
-3
390
F
  0
ENDTAB
  0
TABLE
  2
STYLE
  5
3
100
AcDbSymbolTable
 70
1
  0
STYLE
  5
11
100
AcDbSymbolTableRecord
100
AcDbTextStyleTableRecord
  2
STANDARD
 70
0
 40
0.0
 41
0.7
 50
0.0
 71
0
 42
0.2
  3
txt
  4

  0
STYLE
  5
210
100
AcDbSymbolTableRecord
100
AcDbTextStyleTableRecord
  2
TEXTSTYLE_1
 70
0
 40
0.0
 41
0.8
 50
0.0
 71
0
 42
0.2
  3
gdt
  4

  0
ENDTAB
  0
TABLE
  2
VIEW
  5
6
100
AcDbSymbolTable
 70
0
  0
ENDTAB
  0
TABLE
  2
UCS
  5
7
100
AcDbSymbolTable
 70
0
  0
ENDTAB
  0
TABLE
  2
APPID
  5
9
100
AcDbSymbolTable
 70
1
  0
APPID
  5
211
100
AcDbSymbolTableRecord
100
AcDbRegAppTableRecord
  2
ACAD
 70
0
  0
ENDTAB
  0
TABLE
  2
BLOCK_RECORD
  5
1
100
AcDbSymbolTable
 70
0
  0
BLOCK_RECORD
  5
212
100
AcDbSymbolTableRecord
100
AcDbBlockTableRecord
  2
*Model_Space
  0
BLOCK_RECORD
  5
213
100
AcDbSymbolTableRecord
100
AcDbBlockTableRecord
  2
*Paper_Space
  0
ENDTAB
  0
TABLE
  2
DIMSTYLE
  5
A
100
AcDbSymbolTable
 70
1
100
AcDbDimStyleTable
 71
0
  0
DIMSTYLE
105
214
100
AcDbSymbolTableRecord
100
AcDbDimStyleTableRecord
  2
STANDARD
 70
0
  3

  4

 40
1.0
 41
3.5
 42
0.0625
 43
0.38
 44
0.18
 45
0.0
 46
0.0
 47
0.005
 48
0.005
140
3.5
141
0.09
142
0.0
143
25.4
144
1.0
145
0.0
146
1.0
147
0.09
 71
1.0
 72
0.0
 73
0
 74
0
 75
0
 76
0
 77
1
 78
8
170
0
171
2
172
0
173
0
174
0
175
0
176
0
177
0
178
5
270
2
271
3
272
3
273
2
274
2
275
0
280
0
281
0
282
0
283
1
284
8
285
0
286
0
287
3
288
0
340
11
  0
ENDTAB
  0
ENDSEC
  0
SECTION
  2
BLOCKS
  0
BLOCK
  5
20
100
AcDbEntity
  8
0
100
AcDbBlockBegin
  2
*Model_Space
 70
0
 10
0.0
 20
0.0
 30
0.0
  3
*Model_Space
  1

  0
ENDBLK
  5
21
100
AcDbEntity
  8
0
100
AcDbBlockEnd
  0
BLOCK
  5
1C
100
AcDbEntity
  8
0
100
AcDbBlockBegin
  2
*Paper_Space
 70
0
 10
0.0
 20
0.0
 30
0.0
  3
*Paper_Space
  1

  0
ENDBLK
  5
1D
100
AcDbEntity
  8
0
100
AcDbBlockEnd
  0
ENDSEC
  0
SECTION
  2
ENTITIES
  0
LINE
  5
215
100
AcDbEntity
  8
0
100
AcDbLine
 62
7
  6
CONTINUOUS
 10
0.0
 20
0.0
 11
0.0
 21
841.0
  0
LINE
  5
216
100
AcDbEntity
  8
0
100
AcDbLine
 62
7
  6
CONTINUOUS
 10
0.0
 20
0.0
 11
1189.0
 21
0.0
  0
LINE
  5
217
100
AcDbEntity
  8
0
100
AcDbLine
 62
7
  6
CONTINUOUS
 10
0.0
 20
841.0
 11
1189.0
 21
841.0
  0
LINE
  5
218
100
AcDbEntity
  8
0
100
AcDbLine
 62
7
  6
CONTINUOUS
 10
1189.0
 20
0.0
 11
1189.0
 21
841.0
  0
LINE
  5
219
100
AcDbEntity
  8
0
100
AcDbLine
 62
7
  6
CONTINUOUS
 10
454.9795597651
 20
98.9151843768
 11
468.5795597651
 21
98.9151843768
  0
LINE
  5
21A
100
AcDbEntity
  8
0
100
AcDbLine
 62
7
  6
CONTINUOUS
 10
453.7795597651
 20
100.1151843768
 11
469.7795597651
 21
100.1151843768
  0
LINE
  5
21B
100
AcDbEntity
  8
KONSTRUKTIONSELEMENTE
100
AcDbLine
 62
7
  6
CONTINUOUS
 10
462.9295595744
 20
128.6811418217
 11
462.4295597651
 21
128.5534822625
  0
LINE
  5
21C
100
AcDbEntity
  8
KONSTRUKTIONSELEMENTE
100
AcDbLine
 62
7
  6
CONTINUOUS
 10
462.0295595744
 20
133.9151843768
 11
461.3295599559
 21
133.7875248176
  0
LINE
  5
21D
100
AcDbEntity
  8
0
100
AcDbLine
 62
7
  6
CONTINUOUS
 10
485.2795597651
 20
123.9151843768
 11
438.2795597651
 21
123.9151843768
  0
LINE
  5
21E
100
AcDbEntity
  8
RUNDUNGEN
100
AcDbLine
 62
7
  6
CONTINUOUS
 10
457.0295597651
 20
125.4151843768
 11
466.5295597651
 21
125.4151843768
  0
LINE
  5
21F
100
AcDbEntity
  8
KONSTRUKTIONSELEMENTE
100
AcDbLine
 62
7
  6
CONTINUOUS
 10
458.4295597174
 20
127.1492269319
 11
458.9295596698
 21
127.1492269319
  0
LINE
  5
220
100
AcDbEntity
  8
KONSTRUKTIONSELEMENTE
100
AcDbLine
 62
7
  6
CONTINUOUS
 10
457.0295597651
 20
127.9151843768
 11
457.6295597651
 21
127.9151843768
  0
LINE
  5
221
100
AcDbEntity
  8
KONSTRUKTIONSELEMENTE
100
AcDbLine
 62
7
  6
CONTINUOUS
 10
461.7295595744
 20
127.9151843768
 11
462.5295599559
 21
127.9151843768
  0
LINE
  5
222
100
AcDbEntity
  8
KONSTRUKTIONSELEMENTE
100
AcDbLine
 62
7
  6
CONTINUOUS
 10
462.4295597651
 20
128.5534822625
 11
461.8295597651
 21
128.5534822625
  0
LINE
  5
223
100
AcDbEntity
  8
KONSTRUKTIONSELEMENTE
100
AcDbLine
 62
7
  6
CONTINUOUS
 10
459.5295596698
 20
128.5534822625
 11
459.0295598605
 21
128.5534822625
  0
LINE
  5
224
100
AcDbEntity
  8
KONSTRUKTIONSELEMENTE
100
AcDbLine
 62
7
  6
CONTINUOUS
 10
460.8295598605
 20
129.3194397074
 11
460.3295597651
 21
129.3194397074
  0
LINE
  5
225
100
AcDbEntity
  8
KONSTRUKTIONSELEMENTE
100
AcDbLine
 62
7
  6
CONTINUOUS
 10
461.9295599559
 20
130.723695038
 11
462.3295595744
 21
130.723695038
  0
LINE
  5
226
100
AcDbEntity
  8
KONSTRUKTIONSELEMENTE
100
AcDbLine
 62
7
  6
CONTINUOUS
 10
462.3295595744
 20
131.234333275
 11
461.9295599559
 21
131.234333275
  0
LINE
  5
227
100
AcDbEntity
  8
KONSTRUKTIONSELEMENTE
100
AcDbLine
 62
7
  6
CONTINUOUS
 10
464.7295595744
 20
131.4896523935
 11
465.5295599559
 21
131.4896523935
  0
LINE
  5
228
100
AcDbEntity
  8
KONSTRUKTIONSELEMENTE
100
AcDbLine
 62
7
  6
CONTINUOUS
 10
466.0295597651
 20
131.4896523935
 11
467.1295601466
 21
131.4896523935
  0
LINE
  5
229
100
AcDbEntity
  8
KONSTRUKTIONSELEMENTE
100
AcDbLine
 62
7
  6
CONTINUOUS
 10
467.1295601466
 20
132.0002906305
 11
466.0295597651
 21
132.0002906305
  0
LINE
  5
22A
100
AcDbEntity
  8
KONSTRUKTIONSELEMENTE
100
AcDbLine
 62
7
  6
CONTINUOUS
 10
465.5295599559
 20
132.0002906305
 11
464.7295595744
 21
132.0002906305
  0
LINE
  5
22B
100
AcDbEntity
  8
KONSTRUKTIONSELEMENTE
100
AcDbLine
 62
7
  6
CONTINUOUS
 10
460.4295596698
 20
132.5109292251
 11
460.9295597651
 21
132.5109292251
  0
LINE
  5
22C
100
AcDbEntity
  8
KONSTRUKTIONSELEMENTE
100
AcDbLine
 62
7
  6
CONTINUOUS
 10
466.0295597651
 20
133.0215674621
 11
465.5295599559
 21
133.0215674621
  0
LINE
  5
22D
100
AcDbEntity
  8
KONSTRUKTIONSELEMENTE
100
AcDbLine
 62
7
  6
CONTINUOUS
 10
461.9295599559
 20
133.2768865806
 11
462.3295595744
 21
133.2768865806
  0
LINE
  5
22E
100
AcDbEntity
  8
KONSTRUKTIONSELEMENTE
100
AcDbLine
 62
7
  6
CONTINUOUS
 10
462.2295599559
 20
133.9151843768
 11
462.0295595744
 21
133.9151843768
  0
LINE
  5
22F
100
AcDbEntity
  8
KONSTRUKTIONSELEMENTE
100
AcDbLine
 62
7
  6
CONTINUOUS
 10
457.6295597651
 20
133.9151843768
 11
457.0295597651
 21
133.9151843768
  0
LINE
  5
230
100
AcDbEntity
  8
0
100
AcDbLine
 62
7
  6
CONTINUOUS
 10
455.7995597651
 20
136.0551843768
 11
456.3620597651
 21
136.0551843768
  0
LINE
  5
231
100
AcDbEntity
  8
0
100
AcDbLine
 62
7
  6
CONTINUOUS
 10
458.7058096757
 20
136.0551843768
 11
459.3620598545
 21
136.0551843768
  0
LINE
  5
232
100
AcDbEntity
  8
0
100
AcDbLine
 62
7
  6
CONTINUOUS
 10
461.6120595863
 20
136.0551843768
 11
461.9870597651
 21
136.0551843768
  0
LINE
  5
233
100
AcDbEntity
  8
0
100
AcDbLine
 62
7
  6
CONTINUOUS
 10
464.2370597651
 20
136.0551843768
 11
466.4870597651
 21
136.0551843768
  0
LINE
  5
234
100
AcDbEntity
  8
0
100
AcDbLine
 62
7
  6
CONTINUOUS
 10
466.4870597651
 20
136.6296524605
 11
464.7995597651
 21
136.6296524605
  0
LINE
  5
235
100
AcDbEntity
  8
0
100
AcDbLine
 62
7
  6
CONTINUOUS
 10
461.9870597651
 20
136.6296524605
 11
461.6120595863
 21
136.6296524605
  0
LINE
  5
236
100
AcDbEntity
  8
0
100
AcDbLine
 62
7
  6
CONTINUOUS
 10
456.3620597651
 20
138.0658227032
 11
457.9558097204
 21
138.0658227032
  0
LINE
  5
237
100
AcDbEntity
  8
0
100
AcDbLine
 62
7
  6
CONTINUOUS
 10
458.1433096757
 20
138.6402907199
 11
456.3620597651
 21
138.6402907199
  0
LINE
  5
238
100
AcDbEntity
  8
0
100
AcDbLine
 62
7
  6
CONTINUOUS
 10
464.7995597651
 20
139.9807163602
 11
466.4870597651
 21
139.9807163602
  0
LINE
  5
239
100
AcDbEntity
  8
0
100
AcDbLine
 62
7
  6
CONTINUOUS
 10
456.3620597651
 20
140.0764610296
 11
458.1433096757
 21
140.0764610296
  0
LINE
  5
23A
100
AcDbEntity
  8
KONSTRUKTIONSELEMENTE
100
AcDbLine
 62
7
  6
CONTINUOUS
 10
462.9295595744
 20
133.7875248176
 11
462.2295599559
 21
133.9151843768
  0
LINE
  5
23B
100
AcDbEntity
  8
KONSTRUKTIONSELEMENTE
100
AcDbLine
 62
7
  6
CONTINUOUS
 10
466.3295597651
 20
128.0428439473
 11
466.9295597651
 21
127.9151843768
  0
LINE
  5
23C
100
AcDbEntity
  8
KONSTRUKTIONSELEMENTE
100
AcDbLine
 62
7
  6
CONTINUOUS
 10
462.3295595744
 20
130.723695038
 11
462.9295595744
 21
130.5960354787
  0
LINE
  5
23D
100
AcDbEntity
  8
KONSTRUKTIONSELEMENTE
100
AcDbLine
 62
7
  6
CONTINUOUS
 10
461.8295597651
 20
128.5534822625
 11
461.3295599559
 21
128.6811418217
  0
LINE
  5
23E
100
AcDbEntity
  8
KONSTRUKTIONSELEMENTE
100
AcDbLine
 62
7
  6
CONTINUOUS
 10
466.9295597651
 20
128.4258226585
 11
466.4295593837
 21
128.5534822625
  0
LINE
  5
23F
100
AcDbEntity
  8
KONSTRUKTIONSELEMENTE
100
AcDbLine
 62
7
  6
CONTINUOUS
 10
461.4295595744
 20
133.1492270213
 11
461.9295599559
 21
133.2768865806
  0
LINE
  5
240
100
AcDbEntity
  8
0
100
AcDbLine
 62
7
  6
CONTINUOUS
 10
466.8620594075
 20
136.7253971299
 11
466.4870597651
 21
136.6296524605
  0
LINE
  5
241
100
AcDbEntity
  8
0
100
AcDbLine
 62
7
  6
CONTINUOUS
 10
462.3620599439
 20
136.7253971299
 11
461.9870597651
 21
136.6296524605
  0
LINE
  5
242
100
AcDbEntity
  8
0
100
AcDbLine
 62
7
  6
CONTINUOUS
 10
466.4870597651
 20
136.0551843768
 11
466.9558101228
 21
136.1509290546
  0
LINE
  5
243
100
AcDbEntity
  8
0
100
AcDbLine
 62
7
  6
CONTINUOUS
 10
461.9870597651
 20
136.0551843768
 11
462.4558095863
 21
136.1509290546
  0
LINE
  5
244
100
AcDbEntity
  8
0
100
AcDbLine
 62
7
  6
CONTINUOUS
 10
466.4870597651
 20
140.5551843768
 11
464.2370597651
 21
140.5551843768
  0
LINE
  5
245
100
AcDbEntity
  8
0
100
AcDbLine
 62
7
  6
CONTINUOUS
 10
463.4870599439
 20
140.5551843768
 11
462.9245599439
 21
140.5551843768
  0
LINE
  5
246
100
AcDbEntity
  8
0
100
AcDbLine
 62
7
  6
CONTINUOUS
 10
460.6745599439
 20
140.5551843768
 11
460.1120596757
 21
140.5551843768
  0
LINE
  5
247
100
AcDbEntity
  8
0
100
AcDbLine
 62
7
  6
CONTINUOUS
 10
458.0495597651
 20
140.5551843768
 11
455.7995597651
 21
140.5551843768
  0
LINE
  5
248
100
AcDbEntity
  8
RUNDUNGEN
100
AcDbLine
 62
7
  6
CONTINUOUS
 10
466.5295597651
 20
149.4151843768
 11
457.0295597651
 21
149.4151843768
  0
LINE
  5
249
100
AcDbEntity
  8
RUNDUNGEN
100
AcDbLine
 62
7
  6
CONTINUOUS
 10
457.2149371543
 20
153.9151843768
 11
466.3447428901
 21
153.9151843768
  0
LINE
  5
24A
100
AcDbEntity
  8
FASEN
100
AcDbLine
 62
7
  6
CONTINUOUS
 10
482.1043347109
 20
154.4227805003
 11
441.4547848194
 21
154.4227805003
  0
LINE
  5
24B
100
AcDbEntity
  8
FASEN
100
AcDbLine
 62
7
  6
CONTINUOUS
 10
481.5175106219
 20
154.9151843768
 11
442.0416089084
 21
154.9151843768
  0
LINE
  5
24C
100
AcDbEntity
  8
0
100
AcDbLine
 62
7
  6
CONTINUOUS
 10
461.1433097651
 20
136.1509290546
 11
461.6120595863
 21
136.0551843768
  0
LINE
  5
24D
100
AcDbEntity
  8
0
100
AcDbLine
 62
7
  6
CONTINUOUS
 10
458.5183098545
 20
140.4594397074
 11
458.0495597651
 21
140.5551843768
  0
LINE
  5
24E
100
AcDbEntity
  8
0
100
AcDbLine
 62
7
  6
CONTINUOUS
 10
466.9558101228
 20
140.4594397074
 11
466.4870597651
 21
140.5551843768
  0
LINE
  5
24F
100
AcDbEntity
  8
KONSTRUKTIONSELEMENTE
100
AcDbLine
 62
7
  6
CONTINUOUS
 10
462.3295595744
 20
133.2768865806
 11
462.8295599559
 21
133.1492270213
  0
LINE
  5
250
100
AcDbEntity
  8
0
100
AcDbLine
 62
7
  6
CONTINUOUS
 10
461.6120595863
 20
136.6296524605
 11
461.2370599439
 21
136.7253971299
  0
LINE
  5
251
100
AcDbEntity
  8
0
100
AcDbLine
 62
7
  6
CONTINUOUS
 10
466.4870597651
 20
139.9807163602
 11
466.8620594075
 21
139.8849716908
  0
LINE
  5
252
100
AcDbEntity
  8
KONSTRUKTIONSELEMENTE
100
AcDbLine
 62
7
  6
CONTINUOUS
 10
461.3295599559
 20
128.0428439473
 11
461.7295595744
 21
127.9151843768
  0
LINE
  5
253
100
AcDbEntity
  8
0
100
AcDbLine
 62
7
  6
CONTINUOUS
 10
458.1433096757
 20
140.0764610296
 11
458.4245596757
 21
139.9807163602
  0
LINE
  5
254
100
AcDbEntity
  8
KONSTRUKTIONSELEMENTE
100
AcDbLine
 62
7
  6
CONTINUOUS
 10
466.0295597651
 20
128.1705035177
 11
466.3295597651
 21
128.0428439473
  0
LINE
  5
255
100
AcDbEntity
  8
RUNDUNGEN
100
AcDbLine
 62
7
  6
CONTINUOUS
 10
447.824441116
 20
163.9151843768
 11
475.734676914
 21
163.9151843768
  0
LINE
  5
256
100
AcDbEntity
  8
0
100
AcDbLine
 62
7
  6
CONTINUOUS
 10
451.2221017811
 20
171.9151843768
 11
472.3370177491
 21
171.9151843768
  0
LINE
  5
257
100
AcDbEntity
  8
KONSTRUKTIONSELEMENTE
100
AcDbLine
 62
7
  6
CONTINUOUS
 10
463.6295597651
 20
130.723695038
 11
463.1295599559
 21
130.9790141565
  0
LINE
  5
258
100
AcDbEntity
  8
0
100
AcDbLine
 62
7
  6
CONTINUOUS
 10
460.7683095863
 20
136.3424184187
 11
461.1433097651
 21
136.1509290546
  0
LINE
  5
259
100
AcDbEntity
  8
0
100
AcDbLine
 62
7
  6
CONTINUOUS
 10
467.3308097651
 20
140.2679503685
 11
466.9558101228
 21
140.4594397074
  0
LINE
  5
25A
100
AcDbEntity
  8
KONSTRUKTIONSELEMENTE
100
AcDbLine
 62
7
  6
CONTINUOUS
 10
460.9295597651
 20
128.2981630993
 11
461.3295599559
 21
128.0428439473
  0
LINE
  5
25B
100
AcDbEntity
  8
KONSTRUKTIONSELEMENTE
100
AcDbLine
 62
7
  6
CONTINUOUS
 10
461.3295599559
 20
128.6811418217
 11
461.1295598605
 21
128.808801381
  0
LINE
  5
25C
100
AcDbEntity
  8
KONSTRUKTIONSELEMENTE
100
AcDbLine
 62
7
  6
CONTINUOUS
 10
463.3295597651
 20
133.5322056991
 11
462.9295595744
 21
133.7875248176
  0
LINE
  5
25D
100
AcDbEntity
  8
0
100
AcDbLine
 62
7
  6
CONTINUOUS
 10
461.2370599439
 20
136.7253971299
 11
460.9558099439
 21
136.9168865359
  0
LINE
  5
25E
100
AcDbEntity
  8
0
100
AcDbLine
 62
7
  6
CONTINUOUS
 10
466.8620594075
 20
139.8849716908
 11
467.1433094075
 21
139.6934823519
  0
LINE
  5
25F
100
AcDbEntity
  8
0
100
AcDbLine
 62
7
  6
CONTINUOUS
 10
458.8933097651
 20
140.1722056991
 11
458.5183098545
 21
140.4594397074
  0
LINE
  5
260
100
AcDbEntity
  8
KONSTRUKTIONSELEMENTE
100
AcDbLine
 62
7
  6
CONTINUOUS
 10
460.6295597651
 20
128.5534822625
 11
460.9295597651
 21
128.2981630993
  0
LINE
  5
261
100
AcDbEntity
  8
KONSTRUKTIONSELEMENTE
100
AcDbLine
 62
7
  6
CONTINUOUS
 10
462.9295595744
 20
130.5960354787
 11
463.2295595744
 21
130.3407163602
  0
LINE
  5
262
100
AcDbEntity
  8
KONSTRUKTIONSELEMENTE
100
AcDbLine
 62
7
  6
CONTINUOUS
 10
465.7295597651
 20
128.4258226585
 11
466.0295597651
 21
128.1705035177
  0
LINE
  5
263
100
AcDbEntity
  8
KONSTRUKTIONSELEMENTE
100
AcDbLine
 62
7
  6
CONTINUOUS
 10
466.4295593837
 20
128.5534822625
 11
466.1295593837
 21
128.808801381
  0
LINE
  5
264
100
AcDbEntity
  8
KONSTRUKTIONSELEMENTE
100
AcDbLine
 62
7
  6
CONTINUOUS
 10
462.8295599559
 20
133.1492270213
 11
463.1295599559
 21
132.8939079028
  0
LINE
  5
265
100
AcDbEntity
  8
0
100
AcDbLine
 62
7
  6
CONTINUOUS
 10
453.7795597651
 20
100.1151843768
 11
454.9795597651
 21
98.9151843768
  0
LINE
  5
266
100
AcDbEntity
  8
0
100
AcDbLine
 62
7
  6
CONTINUOUS
 10
465.7689209917
 20
217.4151843768
 11
468.4284966328
 21
217.9360097629
  0
LINE
  5
267
100
AcDbEntity
  8
0
100
AcDbLine
 62
7
  6
CONTINUOUS
 10
457.7901977935
 20
217.4151843768
 11
465.7689209917
 21
217.4151843768
  0
LINE
  5
268
100
AcDbEntity
  8
0
100
AcDbLine
 62
7
  6
CONTINUOUS
 10
455.1306236425
 20
217.9360097629
 11
457.7901977935
 21
217.4151843768
  0
LINE
  5
269
100
AcDbEntity
  8
0
100
AcDbLine
 62
7
  6
CONTINUOUS
 10
460.3933099439
 20
136.7253971299
 11
460.7683095863
 21
136.3424184187
  0
LINE
  5
26A
100
AcDbEntity
  8
0
100
AcDbLine
 62
7
  6
CONTINUOUS
 10
458.4245596757
 20
139.9807163602
 11
458.6120597651
 21
139.7892270213
  0
LINE
  5
26B
100
AcDbEntity
  8
0
100
AcDbLine
 62
7
  6
CONTINUOUS
 10
467.8965803125
 20
221.0610097629
 11
465.7689209917
 21
220.5401843768
  0
LINE
  5
26C
100
AcDbEntity
  8
0
100
AcDbLine
 62
7
  6
CONTINUOUS
 10
465.7689209917
 20
220.5401843768
 11
457.7901977935
 21
220.5401843768
  0
LINE
  5
26D
100
AcDbEntity
  8
0
100
AcDbLine
 62
7
  6
CONTINUOUS
 10
452.4710491189
 20
235.1235097629
 11
471.0880707839
 21
235.1235097629
  0
LINE
  5
26E
100
AcDbEntity
  8
0
100
AcDbLine
 62
7
  6
CONTINUOUS
 10
474.2795597651
 20
238.2485097629
 11
449.2795597651
 21
238.2485097629
  0
LINE
  5
26F
100
AcDbEntity
  8
0
100
AcDbLine
 62
7
  6
CONTINUOUS
 10
457.7901977935
 20
220.5401843768
 11
455.6625384727
 21
221.0610097629
  0
LINE
  5
270
100
AcDbEntity
  8
0
100
AcDbLine
 62
7
  6
CONTINUOUS
 10
453.0029639491
 20
218.9776843768
 11
455.1306236425
 21
217.9360097629
  0
LINE
  5
271
100
AcDbEntity
  8
FASEN
100
AcDbLine
 62
7
  6
CONTINUOUS
 10
481.5175106216
 20
154.9151843772
 11
482.1043347104
 21
154.4227805007
  0
LINE
  5
272
100
AcDbEntity
  8
0
100
AcDbLine
 62
7
  6
CONTINUOUS
 10
467.7058094075
 20
139.8849716908
 11
467.3308097651
 21
140.2679503685
  0
LINE
  5
273
100
AcDbEntity
  8
KONSTRUKTIONSELEMENTE
100
AcDbLine
 62
7
  6
CONTINUOUS
 10
461.1295598605
 20
128.808801381
 11
460.9295597651
 21
129.0641205889
  0
LINE
  5
274
100
AcDbEntity
  8
KONSTRUKTIONSELEMENTE
100
AcDbLine
 62
7
  6
CONTINUOUS
 10
463.7295599559
 20
133.0215674621
 11
463.3295597651
 21
133.5322056991
  0
LINE
  5
275
100
AcDbEntity
  8
0
100
AcDbLine
 62
7
  6
CONTINUOUS
 10
457.7901977935
 20
242.4151843768
 11
474.2795597651
 21
242.4151843768
  0
LINE
  5
276
100
AcDbEntity
  8
0
100
AcDbLine
 62
7
  6
CONTINUOUS
 10
474.2795597651
 20
245.5401843768
 11
457.7901977935
 21
245.5401843768
  0
LINE
  5
277
100
AcDbEntity
  8
0
100
AcDbLine
 62
7
  6
CONTINUOUS
 10
457.7901977935
 20
258.0401843768
 11
474.2795597651
 21
258.0401843768
  0
LINE
  5
278
100
AcDbEntity
  8
0
100
AcDbLine
 62
7
  6
CONTINUOUS
 10
455.1306236425
 20
242.9360097629
 11
457.7901977935
 21
242.4151843768
  0
LINE
  5
279
100
AcDbEntity
  8
0
100
AcDbLine
 62
7
  6
CONTINUOUS
 10
457.7901977935
 20
245.5401843768
 11
455.6625384727
 21
246.0610097629
  0
LINE
  5
27A
100
AcDbEntity
  8
0
100
AcDbLine
 62
7
  6
CONTINUOUS
 10
453.0029639491
 20
243.9776843768
 11
455.1306236425
 21
242.9360097629
  0
LINE
  5
27B
100
AcDbEntity
  8
0
100
AcDbLine
 62
7
  6
CONTINUOUS
 10
455.6625384727
 20
221.0610097629
 11
454.0667939821
 21
222.1026843768
  0
LINE
  5
27C
100
AcDbEntity
  8
0
100
AcDbLine
 62
7
  6
CONTINUOUS
 10
459.1745597651
 20
139.7892270213
 11
458.8933097651
 21
140.1722056991
  0
LINE
  5
27D
100
AcDbEntity
  8
0
100
AcDbLine
 62
7
  6
CONTINUOUS
 10
460.9558099439
 20
136.9168865359
 11
460.7683095863
 21
137.2041205442
  0
LINE
  5
27E
100
AcDbEntity
  8
0
100
AcDbLine
 62
7
  6
CONTINUOUS
 10
474.2795597651
 20
568.4568515402
 11
462.0455171802
 21
559.6026843768
  0
LINE
  5
27F
100
AcDbEntity
  8
0
100
AcDbLine
 62
7
  6
CONTINUOUS
 10
459.3859430292
 20
558.0401843768
 11
449.2795597651
 21
550.7485187036
  0
LINE
  5
280
100
AcDbEntity
  8
0
100
AcDbLine
 62
7
  6
CONTINUOUS
 10
464.1731765011
 20
558.0401843768
 11
474.2795597651
 21
565.3318500501
  0
LINE
  5
281
100
AcDbEntity
  8
0
100
AcDbLine
 62
7
  6
CONTINUOUS
 10
449.2795597651
 20
547.6235187036
 11
462.0455171802
 21
556.4776843768
  0
LINE
  5
282
100
AcDbEntity
  8
0
100
AcDbLine
 62
7
  6
CONTINUOUS
 10
470.0242411235
 20
527.8318530303
 11
468.4284966328
 21
527.3110157233
  0
LINE
  5
283
100
AcDbEntity
  8
0
100
AcDbLine
 62
7
  6
CONTINUOUS
 10
468.4284966328
 20
524.1860157233
 11
470.0242411235
 21
524.7068530303
  0
LINE
  5
284
100
AcDbEntity
  8
0
100
AcDbLine
 62
7
  6
CONTINUOUS
 10
455.6625384727
 20
257.5193589908
 11
457.7901977935
 21
258.0401843768
  0
LINE
  5
285
100
AcDbEntity
  8
0
100
AcDbLine
 62
7
  6
CONTINUOUS
 10
457.7901977935
 20
261.1651843768
 11
455.1306236425
 21
260.6443589908
  0
LINE
  5
286
100
AcDbEntity
  8
0
100
AcDbLine
 62
7
  6
CONTINUOUS
 10
474.2795597651
 20
261.1651843768
 11
457.7901977935
 21
261.1651843768
  0
LINE
  5
287
100
AcDbEntity
  8
0
100
AcDbLine
 62
7
  6
CONTINUOUS
 10
466.3008358219
 20
265.8526843768
 11
468.4284966328
 21
265.8526843768
  0
LINE
  5
288
100
AcDbEntity
  8
0
100
AcDbLine
 62
7
  6
CONTINUOUS
 10
468.4284966328
 20
268.9776843768
 11
466.8327506521
 21
268.9776843768
  0
LINE
  5
289
100
AcDbEntity
  8
0
100
AcDbLine
 62
7
  6
CONTINUOUS
 10
464.7050913313
 20
266.3735097629
 11
466.3008358219
 21
265.8526843768
  0
LINE
  5
28A
100
AcDbEntity
  8
0
100
AcDbLine
 62
7
  6
CONTINUOUS
 10
466.8327506521
 20
268.9776843768
 11
465.2370061615
 21
269.4985097629
  0
LINE
  5
28B
100
AcDbEntity
  8
0
100
AcDbLine
 62
7
  6
CONTINUOUS
 10
455.6625384727
 20
246.0610097629
 11
454.0667939821
 21
247.1026843768
  0
LINE
  5
28C
100
AcDbEntity
  8
0
100
AcDbLine
 62
7
  6
CONTINUOUS
 10
450.875304442
 20
221.0610097629
 11
453.0029639491
 21
218.9776843768
  0
LINE
  5
28D
100
AcDbEntity
  8
0
100
AcDbLine
 62
7
  6
CONTINUOUS
 10
467.1433094075
 20
139.6934823519
 11
467.3308097651
 21
139.4062480754
  0
LINE
  5
28E
100
AcDbEntity
  8
KONSTRUKTIONSELEMENTE
100
AcDbLine
 62
7
  6
CONTINUOUS
 10
460.4295596698
 20
128.9364609402
 11
460.6295597651
 21
128.5534822625
  0
LINE
  5
28F
100
AcDbEntity
  8
KONSTRUKTIONSELEMENTE
100
AcDbLine
 62
7
  6
CONTINUOUS
 10
463.8295595744
 20
130.3407163602
 11
463.6295597651
 21
130.723695038
  0
LINE
  5
290
100
AcDbEntity
  8
KONSTRUKTIONSELEMENTE
100
AcDbLine
 62
7
  6
CONTINUOUS
 10
463.1295599559
 20
132.8939079028
 11
463.3295597651
 21
132.5109292251
  0
LINE
  5
291
100
AcDbEntity
  8
0
100
AcDbLine
 62
7
  6
CONTINUOUS
 10
470.0242411235
 20
524.7068530303
 11
472.1519004443
 21
526.2693530303
  0
LINE
  5
292
100
AcDbEntity
  8
0
100
AcDbLine
 62
7
  6
CONTINUOUS
 10
449.2795597651
 20
281.9985097629
 11
460.4497726896
 21
281.9985097629
  0
LINE
  5
293
100
AcDbEntity
  8
0
100
AcDbLine
 62
7
  6
CONTINUOUS
 10
463.6412616709
 20
281.9985097629
 11
471.6199856141
 21
281.9985097629
  0
LINE
  5
294
100
AcDbEntity
  8
0
100
AcDbLine
 62
7
  6
CONTINUOUS
 10
474.2795597651
 20
285.1235097629
 11
449.2795597651
 21
285.1235097629
  0
LINE
  5
295
100
AcDbEntity
  8
0
100
AcDbLine
 62
7
  6
CONTINUOUS
 10
462.5774320104
 20
267.9360097629
 11
464.7050913313
 21
266.3735097629
  0
LINE
  5
296
100
AcDbEntity
  8
0
100
AcDbLine
 62
7
  6
CONTINUOUS
 10
450.875304442
 20
246.0610097629
 11
453.0029639491
 21
243.9776843768
  0
LINE
  5
297
100
AcDbEntity
  8
0
100
AcDbLine
 62
7
  6
CONTINUOUS
 10
454.0667939821
 20
222.1026843768
 11
453.0029639491
 21
223.6651843768
  0
LINE
  5
298
100
AcDbEntity
  8
0
100
AcDbLine
 62
7
  6
CONTINUOUS
 10
460.2058098545
 20
137.1083758748
 11
460.3933099439
 21
136.7253971299
  0
LINE
  5
299
100
AcDbEntity
  8
0
100
AcDbLine
 62
7
  6
CONTINUOUS
 10
467.8933097651
 20
139.501993013
 11
467.7058094075
 21
139.8849716908
  0
LINE
  5
29A
100
AcDbEntity
  8
KONSTRUKTIONSELEMENTE
100
AcDbLine
 62
7
  6
CONTINUOUS
 10
460.9295597651
 20
129.0641205889
 11
460.8295598605
 21
129.3194397074
  0
LINE
  5
29B
100
AcDbEntity
  8
0
100
AcDbLine
 62
7
  6
CONTINUOUS
 10
471.0880707839
 20
528.8735157233
 11
470.0242411235
 21
527.8318530303
  0
LINE
  5
29C
100
AcDbEntity
  8
0
100
AcDbLine
 62
7
  6
CONTINUOUS
 10
464.1731765011
 20
314.2901843768
 11
466.3008358219
 21
314.2901843768
  0
LINE
  5
29D
100
AcDbEntity
  8
0
100
AcDbLine
 62
7
  6
CONTINUOUS
 10
449.2795597651
 20
315.3318589908
 11
451.4072192722
 21
315.3318589908
  0
LINE
  5
29E
100
AcDbEntity
  8
0
100
AcDbLine
 62
7
  6
CONTINUOUS
 10
454.5987088123
 20
320.0193589908
 11
464.1731765011
 21
320.0193589908
  0
LINE
  5
29F
100
AcDbEntity
  8
0
100
AcDbLine
 62
7
  6
CONTINUOUS
 10
466.3008358219
 20
320.0193589908
 11
470.5561559537
 21
320.0193589908
  0
LINE
  5
2A0
100
AcDbEntity
  8
0
100
AcDbLine
 62
7
  6
CONTINUOUS
 10
465.2370061615
 20
269.4985097629
 11
464.1731765011
 21
270.5401843768
  0
LINE
  5
2A1
100
AcDbEntity
  8
0
100
AcDbLine
 62
7
  6
CONTINUOUS
 10
454.0667939821
 20
247.1026843768
 11
453.0029639491
 21
248.6651843768
  0
LINE
  5
2A2
100
AcDbEntity
  8
0
100
AcDbLine
 62
7
  6
CONTINUOUS
 10
449.8114746419
 20
223.1443589908
 11
450.875304442
 21
221.0610097629
  0
LINE
  5
2A3
100
AcDbEntity
  8
0
100
AcDbLine
 62
7
  6
CONTINUOUS
 10
449.8114746419
 20
248.1443589908
 11
450.875304442
 21
246.0610097629
  0
LINE
  5
2A4
100
AcDbEntity
  8
KONSTRUKTIONSELEMENTE
100
AcDbLine
 62
7
  6
CONTINUOUS
 10
463.2295595744
 20
130.3407163602
 11
463.4295599559
 21
129.8300779444
  0
LINE
  5
2A5
100
AcDbEntity
  8
KONSTRUKTIONSELEMENTE
100
AcDbLine
 62
7
  6
CONTINUOUS
 10
465.5295599559
 20
128.9364609402
 11
465.7295597651
 21
128.4258226585
  0
LINE
  5
2A6
100
AcDbEntity
  8
0
100
AcDbLine
 62
7
  6
CONTINUOUS
 10
459.3620598545
 20
136.0551843768
 11
458.5183098545
 21
138.2573120421
  0
LINE
  5
2A7
100
AcDbEntity
  8
0
100
AcDbLine
 62
7
  6
CONTINUOUS
 10
457.9558097204
 20
138.0658227032
 11
458.7058096757
 21
136.0551843768
  0
LINE
  5
2A8
100
AcDbEntity
  8
0
100
AcDbLine
 62
7
  6
CONTINUOUS
 10
458.6120597651
 20
139.7892270213
 11
458.7058096757
 21
139.501993013
  0
LINE
  5
2A9
100
AcDbEntity
  8
0
100
AcDbLine
 62
7
  6
CONTINUOUS
 10
459.2683096757
 20
139.501993013
 11
459.1745597651
 21
139.7892270213
  0
LINE
  5
2AA
100
AcDbEntity
  8
0
100
AcDbLine
 62
7
  6
CONTINUOUS
 10
472.1519004443
 20
526.2693530303
 11
473.7476449349
 21
528.3526843768
  0
LINE
  5
2AB
100
AcDbEntity
  8
0
100
AcDbLine
 62
7
  6
CONTINUOUS
 10
468.4284966328
 20
331.4776843768
 11
470.5561559537
 21
331.9985097629
  0
LINE
  5
2AC
100
AcDbEntity
  8
0
100
AcDbLine
 62
7
  6
CONTINUOUS
 10
457.2582829633
 20
330.9568589908
 11
459.3859430292
 21
331.4776843768
  0
LINE
  5
2AD
100
AcDbEntity
  8
0
100
AcDbLine
 62
7
  6
CONTINUOUS
 10
470.5561559537
 20
322.6235097629
 11
466.3008358219
 21
322.6235097629
  0
LINE
  5
2AE
100
AcDbEntity
  8
0
100
AcDbLine
 62
7
  6
CONTINUOUS
 10
464.1731765011
 20
322.6235097629
 11
453.5348787793
 21
322.6235097629
  0
LINE
  5
2AF
100
AcDbEntity
  8
0
100
AcDbLine
 62
7
  6
CONTINUOUS
 10
466.3008358219
 20
326.7901843768
 11
464.1731765011
 21
326.7901843768
  0
LINE
  5
2B0
100
AcDbEntity
  8
0
100
AcDbLine
 62
7
  6
CONTINUOUS
 10
455.1306236425
 20
330.9568589908
 11
457.2582829633
 21
330.9568589908
  0
LINE
  5
2B1
100
AcDbEntity
  8
0
100
AcDbLine
 62
7
  6
CONTINUOUS
 10
467.3646654823
 20
331.4776843768
 11
468.4284966328
 21
331.4776843768
  0
LINE
  5
2B2
100
AcDbEntity
  8
0
100
AcDbLine
 62
7
  6
CONTINUOUS
 10
457.2582829633
 20
333.5610097629
 11
455.1306236425
 21
333.5610097629
  0
LINE
  5
2B3
100
AcDbEntity
  8
0
100
AcDbLine
 62
7
  6
CONTINUOUS
 10
468.4284966328
 20
334.0818589908
 11
467.3646654823
 21
334.0818589908
  0
LINE
  5
2B4
100
AcDbEntity
  8
0
100
AcDbLine
 62
7
  6
CONTINUOUS
 10
465.2370061615
 20
331.9985097629
 11
467.3646654823
 21
331.4776843768
  0
LINE
  5
2B5
100
AcDbEntity
  8
0
100
AcDbLine
 62
7
  6
CONTINUOUS
 10
453.5348787793
 20
331.4776843768
 11
455.1306236425
 21
330.9568589908
  0
LINE
  5
2B6
100
AcDbEntity
  8
0
100
AcDbLine
 62
7
  6
CONTINUOUS
 10
455.1306236425
 20
333.5610097629
 11
454.0667939821
 21
334.0818589908
  0
LINE
  5
2B7
100
AcDbEntity
  8
0
100
AcDbLine
 62
7
  6
CONTINUOUS
 10
451.9391342887
 20
332.5193589908
 11
453.5348787793
 21
331.4776843768
  0
LINE
  5
2B8
100
AcDbEntity
  8
0
100
AcDbLine
 62
7
  6
CONTINUOUS
 10
461.51360235
 20
270.0193589908
 11
462.5774320104
 21
267.9360097629
  0
LINE
  5
2B9
100
AcDbEntity
  8
KONSTRUKTIONSELEMENTE
100
AcDbLine
 62
7
  6
CONTINUOUS
 10
460.3295597651
 20
129.3194397074
 11
460.4295596698
 21
128.9364609402
  0
LINE
  5
2BA
100
AcDbEntity
  8
KONSTRUKTIONSELEMENTE
100
AcDbLine
 62
7
  6
CONTINUOUS
 10
466.1295593837
 20
128.808801381
 11
466.0295597651
 21
129.1917801481
  0
LINE
  5
2BB
100
AcDbEntity
  8
0
100
AcDbLine
 62
7
  6
CONTINUOUS
 10
460.7683095863
 20
137.2041205442
 11
460.6745599439
 21
137.5870992219
  0
LINE
  5
2BC
100
AcDbEntity
  8
0
100
AcDbLine
 62
7
  6
CONTINUOUS
 10
463.1093468406
 20
341.3735097629
 11
460.9816875198
 21
341.3735097629
  0
LINE
  5
2BD
100
AcDbEntity
  8
0
100
AcDbLine
 62
7
  6
CONTINUOUS
 10
470.5561559537
 20
348.6651843768
 11
468.4284966328
 21
349.1860097629
  0
LINE
  5
2BE
100
AcDbEntity
  8
0
100
AcDbLine
 62
7
  6
CONTINUOUS
 10
467.3646654823
 20
334.0818589908
 11
465.2370061615
 21
335.1235097629
  0
LINE
  5
2BF
100
AcDbEntity
  8
0
100
AcDbLine
 62
7
  6
CONTINUOUS
 10
446.0880704114
 20
356.9985097629
 11
451.9391342887
 21
353.8735097629
  0
LINE
  5
2C0
100
AcDbEntity
  8
0
100
AcDbLine
 62
7
  6
CONTINUOUS
 10
451.9391342887
 20
356.4776843768
 11
446.0880704114
 21
359.6026843768
  0
LINE
  5
2C1
100
AcDbEntity
  8
0
100
AcDbLine
 62
7
  6
CONTINUOUS
 10
463.6412616709
 20
333.0401843768
 11
465.2370061615
 21
331.9985097629
  0
LINE
  5
2C2
100
AcDbEntity
  8
0
100
AcDbLine
 62
7
  6
CONTINUOUS
 10
468.4284966328
 20
346.5818589908
 11
470.0242411235
 21
345.5401843768
  0
LINE
  5
2C3
100
AcDbEntity
  8
0
100
AcDbLine
 62
7
  6
CONTINUOUS
 10
454.0667939821
 20
334.0818589908
 11
453.0029639491
 21
335.1235097629
  0
LINE
  5
2C4
100
AcDbEntity
  8
0
100
AcDbLine
 62
7
  6
CONTINUOUS
 10
465.2370061615
 20
335.1235097629
 11
464.1731765011
 21
336.1651843768
  0
LINE
  5
2C5
100
AcDbEntity
  8
0
100
AcDbLine
 62
7
  6
CONTINUOUS
 10
462.0455171802
 20
335.1235097629
 11
463.6412616709
 21
333.0401843768
  0
LINE
  5
2C6
100
AcDbEntity
  8
0
100
AcDbLine
 62
7
  6
CONTINUOUS
 10
450.875304442
 20
334.0818589908
 11
451.9391342887
 21
332.5193589908
  0
LINE
  5
2C7
100
AcDbEntity
  8
0
100
AcDbLine
 62
7
  6
CONTINUOUS
 10
449.8114746419
 20
336.1651843768
 11
450.875304442
 21
334.0818589908
  0
LINE
  5
2C8
100
AcDbEntity
  8
0
100
AcDbLine
 62
7
  6
CONTINUOUS
 10
464.1731765011
 20
270.5401843768
 11
463.6412616709
 21
272.1026843768
  0
LINE
  5
2C9
100
AcDbEntity
  8
0
100
AcDbLine
 62
7
  6
CONTINUOUS
 10
453.0029639491
 20
223.6651843768
 11
452.4710491189
 21
225.7485097629
  0
LINE
  5
2CA
100
AcDbEntity
  8
0
100
AcDbLine
 62
7
  6
CONTINUOUS
 10
453.0029639491
 20
248.6651843768
 11
452.4710491189
 21
250.7485097629
  0
LINE
  5
2CB
100
AcDbEntity
  8
0
100
AcDbLine
 62
7
  6
CONTINUOUS
 10
467.3308097651
 20
139.4062480754
 11
467.4245594075
 21
139.0232693976
  0
LINE
  5
2CC
100
AcDbEntity
  8
0
100
AcDbLine
 62
7
  6
CONTINUOUS
 10
449.2795597651
 20
225.7485097629
 11
449.8114746419
 21
223.1443589908
  0
LINE
  5
2CD
100
AcDbEntity
  8
0
100
AcDbLine
 62
7
  6
CONTINUOUS
 10
449.2795597651
 20
250.7485097629
 11
449.8114746419
 21
248.1443589908
  0
LINE
  5
2CE
100
AcDbEntity
  8
0
100
AcDbLine
 62
7
  6
CONTINUOUS
 10
460.1120596757
 20
137.5870992219
 11
460.2058098545
 21
137.1083758748
  0
LINE
  5
2CF
100
AcDbEntity
  8
KONSTRUKTIONSELEMENTE
100
AcDbLine
 62
7
  6
CONTINUOUS
 10
463.9295597651
 20
129.8300779444
 11
463.8295595744
 21
130.3407163602
  0
LINE
  5
2D0
100
AcDbEntity
  8
KONSTRUKTIONSELEMENTE
100
AcDbLine
 62
7
  6
CONTINUOUS
 10
463.8295595744
 20
132.5109292251
 11
463.7295599559
 21
133.0215674621
  0
LINE
  5
2D1
100
AcDbEntity
  8
0
100
AcDbLine
 62
7
  6
CONTINUOUS
 10
467.9870594075
 20
139.0232693976
 11
467.8933097651
 21
139.501993013
  0
LINE
  5
2D2
100
AcDbEntity
  8
0
100
AcDbLine
 62
7
  6
CONTINUOUS
 10
438.2795597651
 20
136.4045549103
 11
438.2795597651
 21
123.9151843768
  0
LINE
  5
2D3
100
AcDbEntity
  8
BEZUGSACHSEN
100
AcDbLine
 62
7
  6
CONTINUOUS
 10
444.2795597651
 20
171.9151843768
 11
444.2795597651
 21
695.9151843768
  0
LINE
  5
2D4
100
AcDbEntity
  8
0
100
AcDbLine
 62
7
  6
CONTINUOUS
 10
471.6199856141
 20
530.4360157233
 11
471.0880707839
 21
528.8735157233
  0
LINE
  5
2D5
100
AcDbEntity
  8
0
100
AcDbLine
 62
7
  6
CONTINUOUS
 10
449.2795597651
 20
363.7693589908
 11
474.2795597651
 21
363.7693589908
  0
LINE
  5
2D6
100
AcDbEntity
  8
0
100
AcDbLine
 62
7
  6
CONTINUOUS
 10
470.0242411235
 20
366.8943589908
 11
449.2795597651
 21
366.8943589908
  0
LINE
  5
2D7
100
AcDbEntity
  8
0
100
AcDbLine
 62
7
  6
CONTINUOUS
 10
470.5561559537
 20
370.0193589908
 11
466.3008358219
 21
370.0193589908
  0
LINE
  5
2D8
100
AcDbEntity
  8
0
100
AcDbLine
 62
7
  6
CONTINUOUS
 10
443.7795597651
 20
372.4151843768
 11
444.2795597651
 21
372.4151843768
  0
LINE
  5
2D9
100
AcDbEntity
  8
0
100
AcDbLine
 62
7
  6
CONTINUOUS
 10
479.2795597651
 20
372.4151843768
 11
479.7795597651
 21
372.4151843768
  0
LINE
  5
2DA
100
AcDbEntity
  8
0
100
AcDbLine
 62
7
  6
CONTINUOUS
 10
449.2795597651
 20
374.1860097629
 11
452.4710491189
 21
374.1860097629
  0
LINE
  5
2DB
100
AcDbEntity
  8
0
100
AcDbLine
 62
7
  6
CONTINUOUS
 10
466.3008358219
 20
370.0193589908
 11
470.0242411235
 21
366.8943589908
  0
LINE
  5
2DC
100
AcDbEntity
  8
0
100
AcDbLine
 62
7
  6
CONTINUOUS
 10
472.6838152745
 20
346.5818589908
 11
470.5561559537
 21
348.6651843768
  0
LINE
  5
2DD
100
AcDbEntity
  8
0
100
AcDbLine
 62
7
  6
CONTINUOUS
 10
470.0242411235
 20
345.5401843768
 11
471.0880707839
 21
343.9776843768
  0
LINE
  5
2DE
100
AcDbEntity
  8
0
100
AcDbLine
 62
7
  6
CONTINUOUS
 10
453.0029639491
 20
335.1235097629
 11
452.4710491189
 21
336.1651843768
  0
LINE
  5
2DF
100
AcDbEntity
  8
0
100
AcDbLine
 62
7
  6
CONTINUOUS
 10
464.1731765011
 20
336.1651843768
 11
463.1093468406
 21
339.2901843768
  0
LINE
  5
2E0
100
AcDbEntity
  8
0
100
AcDbLine
 62
7
  6
CONTINUOUS
 10
449.2795597651
 20
338.2485097629
 11
449.8114746419
 21
336.1651843768
  0
LINE
  5
2E1
100
AcDbEntity
  8
0
100
AcDbLine
 62
7
  6
CONTINUOUS
 10
452.4710491189
 20
336.1651843768
 11
451.9391342887
 21
338.7693589908
  0
LINE
  5
2E2
100
AcDbEntity
  8
BEZUGSACHSEN
100
AcDbLine
 62
7
  6
CONTINUOUS
 10
482.1043347109
 20
154.4227805003
 11
485.2797676367
 21
136.4140054784
  0
LINE
  5
2E3
100
AcDbEntity
  8
0
100
AcDbLine
 62
7
  6
CONTINUOUS
 10
446.0880704114
 20
359.6026843768
 11
446.0880704114
 21
356.9985097629
  0
LINE
  5
2E4
100
AcDbEntity
  8
0
100
AcDbLine
 62
7
  6
CONTINUOUS
 10
449.2795597651
 20
584.0818507951
 11
449.2795597651
 21
580.9568507951
  0
LINE
  5
2E5
100
AcDbEntity
  8
0
100
AcDbLine
 62
7
  6
CONTINUOUS
 10
449.2795597651
 20
568.4568515402
 11
449.2795597651
 21
565.3318500501
  0
LINE
  5
2E6
100
AcDbEntity
  8
0
100
AcDbLine
 62
7
  6
CONTINUOUS
 10
449.2795597651
 20
550.7485187036
 11
449.2795597651
 21
547.6235187036
  0
LINE
  5
2E7
100
AcDbEntity
  8
0
100
AcDbLine
 62
7
  6
CONTINUOUS
 10
449.2795597651
 20
543.4568500501
 11
449.2795597651
 21
540.3318530303
  0
LINE
  5
2E8
100
AcDbEntity
  8
0
100
AcDbLine
 62
7
  6
CONTINUOUS
 10
449.2795597651
 20
440.8526843768
 11
449.2795597651
 21
436.6860216838
  0
LINE
  5
2E9
100
AcDbEntity
  8
0
100
AcDbLine
 62
7
  6
CONTINUOUS
 10
449.2795597651
 20
428.3526843768
 11
449.2795597651
 21
424.1860216838
  0
LINE
  5
2EA
100
AcDbEntity
  8
0
100
AcDbLine
 62
7
  6
CONTINUOUS
 10
449.2795597651
 20
415.8526843768
 11
449.2795597651
 21
397.1026843768
  0
LINE
  5
2EB
100
AcDbEntity
  8
0
100
AcDbLine
 62
7
  6
CONTINUOUS
 10
449.2795597651
 20
392.9360216838
 11
449.2795597651
 21
374.1860097629
  0
LINE
  5
2EC
100
AcDbEntity
  8
0
100
AcDbLine
 62
7
  6
CONTINUOUS
 10
449.2795597651
 20
366.8943589908
 11
449.2795597651
 21
363.7693589908
  0
LINE
  5
2ED
100
AcDbEntity
  8
0
100
AcDbLine
 62
7
  6
CONTINUOUS
 10
449.2795597651
 20
342.4151843768
 11
449.2795597651
 21
338.2485097629
  0
LINE
  5
2EE
100
AcDbEntity
  8
0
100
AcDbLine
 62
7
  6
CONTINUOUS
 10
449.2795597651
 20
285.1235097629
 11
449.2795597651
 21
281.9985097629
  0
LINE
  5
2EF
100
AcDbEntity
  8
0
100
AcDbLine
 62
7
  6
CONTINUOUS
 10
449.2795597651
 20
268.9776843768
 11
449.2795597651
 21
265.3318589908
  0
LINE
  5
2F0
100
AcDbEntity
  8
0
100
AcDbLine
 62
7
  6
CONTINUOUS
 10
449.2795597651
 20
252.8318589908
 11
449.2795597651
 21
250.7485097629
  0
LINE
  5
2F1
100
AcDbEntity
  8
0
100
AcDbLine
 62
7
  6
CONTINUOUS
 10
449.2795597651
 20
238.2485097629
 11
449.2795597651
 21
225.7485097629
  0
LINE
  5
2F2
100
AcDbEntity
  8
0
100
AcDbLine
 62
7
  6
CONTINUOUS
 10
449.77251821
 20
136.4045549103
 11
449.77251821
 21
123.9151843768
  0
LINE
  5
2F3
100
AcDbEntity
  8
RUNDUNGEN
100
AcDbLine
 62
7
  6
CONTINUOUS
 10
450.2866013203
 20
136.0036875681
 11
450.2866013203
 21
123.9151843768
  0
LINE
  5
2F4
100
AcDbEntity
  8
RUNDUNGEN
100
AcDbLine
 62
7
  6
CONTINUOUS
 10
450.2866013203
 20
140.5976740354
 11
450.2866013203
 21
143.9151843768
  0
LINE
  5
2F5
100
AcDbEntity
  8
0
100
AcDbLine
 62
7
  6
CONTINUOUS
 10
451.9391342887
 20
338.7693589908
 11
451.9391342887
 21
341.8943589908
  0
LINE
  5
2F6
100
AcDbEntity
  8
0
100
AcDbLine
 62
7
  6
CONTINUOUS
 10
451.9391342887
 20
353.8735097629
 11
451.9391342887
 21
356.4776843768
  0
LINE
  5
2F7
100
AcDbEntity
  8
0
100
AcDbLine
 62
7
  6
CONTINUOUS
 10
452.4710491189
 20
225.7485097629
 11
452.4710491189
 21
235.1235097629
  0
LINE
  5
2F8
100
AcDbEntity
  8
0
100
AcDbLine
 62
7
  6
CONTINUOUS
 10
452.4710491189
 20
250.7485097629
 11
452.4710491189
 21
252.8318589908
  0
LINE
  5
2F9
100
AcDbEntity
  8
0
100
AcDbLine
 62
7
  6
CONTINUOUS
 10
452.4710491189
 20
374.1860097629
 11
452.4710491189
 21
389.8110097629
  0
LINE
  5
2FA
100
AcDbEntity
  8
0
100
AcDbLine
 62
7
  6
CONTINUOUS
 10
452.4710491189
 20
397.1026843768
 11
452.4710491189
 21
412.7276843768
  0
LINE
  5
2FB
100
AcDbEntity
  8
BEZUGSACHSEN
100
AcDbLine
 62
7
  6
CONTINUOUS
 10
453.7795597651
 20
100.1151843768
 11
453.7795597651
 21
123.9151843768
  0
LINE
  5
2FC
100
AcDbEntity
  8
RUNDUNGEN
100
AcDbLine
 62
7
  6
CONTINUOUS
 10
454.0295597651
 20
146.4151843768
 11
454.0295597651
 21
128.4151843768
  0
LINE
  5
2FD
100
AcDbEntity
  8
0
100
AcDbLine
 62
7
  6
CONTINUOUS
 10
455.1306236425
 20
347.1026843768
 11
455.1306236425
 21
349.7068589908
  0
LINE
  5
2FE
100
AcDbEntity
  8
0
100
AcDbLine
 62
7
  6
CONTINUOUS
 10
455.7995597651
 20
140.5551843768
 11
455.7995597651
 21
136.0551843768
  0
LINE
  5
2FF
100
AcDbEntity
  8
0
100
AcDbLine
 62
7
  6
CONTINUOUS
 10
456.3620597651
 20
136.0551843768
 11
456.3620597651
 21
138.0658227032
  0
LINE
  5
300
100
AcDbEntity
  8
0
100
AcDbLine
 62
7
  6
CONTINUOUS
 10
456.3620597651
 20
138.6402907199
 11
456.3620597651
 21
140.0764610296
  0
LINE
  5
301
100
AcDbEntity
  8
KONSTRUKTIONSELEMENTE
100
AcDbLine
 62
7
  6
CONTINUOUS
 10
456.4295597651
 20
133.0215674621
 11
456.4295597651
 21
132.0002906305
  0
LINE
  5
302
100
AcDbEntity
  8
KONSTRUKTIONSELEMENTE
100
AcDbLine
 62
7
  6
CONTINUOUS
 10
457.0295597651
 20
132.8939079028
 11
457.0295597651
 21
127.9151843768
  0
LINE
  5
303
100
AcDbEntity
  8
KONSTRUKTIONSELEMENTE
100
AcDbLine
 62
7
  6
CONTINUOUS
 10
457.6295597651
 20
127.9151843768
 11
457.6295597651
 21
133.9151843768
  0
LINE
  5
304
100
AcDbEntity
  8
0
100
AcDbLine
 62
7
  6
CONTINUOUS
 10
458.7058096757
 20
139.501993013
 11
458.7058096757
 21
139.2147587365
  0
LINE
  5
305
100
AcDbEntity
  8
0
100
AcDbLine
 62
7
  6
CONTINUOUS
 10
459.2683096757
 20
139.119014067
 11
459.2683096757
 21
139.501993013
  0
LINE
  5
306
100
AcDbEntity
  8
0
100
AcDbLine
 62
7
  6
CONTINUOUS
 10
460.1120596757
 20
140.5551843768
 11
460.1120596757
 21
137.5870992219
  0
LINE
  5
307
100
AcDbEntity
  8
0
100
AcDbLine
 62
7
  6
CONTINUOUS
 10
460.4497726896
 20
540.3318530303
 11
460.4497726896
 21
530.9568530303
  0
LINE
  5
308
100
AcDbEntity
  8
0
100
AcDbLine
 62
7
  6
CONTINUOUS
 10
460.4497726896
 20
281.9985097629
 11
460.4497726896
 21
273.1443589908
  0
LINE
  5
309
100
AcDbEntity
  8
0
100
AcDbLine
 62
7
  6
CONTINUOUS
 10
460.6745599439
 20
137.5870992219
 11
460.6745599439
 21
140.5551843768
  0
LINE
  5
30A
100
AcDbEntity
  8
0
100
AcDbLine
 62
7
  6
CONTINUOUS
 10
460.9816875198
 20
341.3735097629
 11
460.9816875198
 21
339.2901843768
  0
LINE
  5
30B
100
AcDbEntity
  8
KONSTRUKTIONSELEMENTE
100
AcDbLine
 62
7
  6
CONTINUOUS
 10
461.9295599559
 20
131.234333275
 11
461.9295599559
 21
130.723695038
  0
LINE
  5
30C
100
AcDbEntity
  8
0
100
AcDbLine
 62
7
  6
CONTINUOUS
 10
462.9245599439
 20
140.5551843768
 11
462.9245599439
 21
137.5870992219
  0
LINE
  5
30D
100
AcDbEntity
  8
0
100
AcDbLine
 62
7
  6
CONTINUOUS
 10
463.1093468406
 20
339.2901843768
 11
463.1093468406
 21
341.3735097629
  0
LINE
  5
30E
100
AcDbEntity
  8
KONSTRUKTIONSELEMENTE
100
AcDbLine
 62
7
  6
CONTINUOUS
 10
463.3295597651
 20
132.5109292251
 11
463.3295597651
 21
132.255609749
  0
LINE
  5
30F
100
AcDbEntity
  8
KONSTRUKTIONSELEMENTE
100
AcDbLine
 62
7
  6
CONTINUOUS
 10
463.4295599559
 20
129.8300779444
 11
463.4295599559
 21
129.3194397074
  0
LINE
  5
310
100
AcDbEntity
  8
0
100
AcDbLine
 62
7
  6
CONTINUOUS
 10
463.4870599439
 20
137.5870992219
 11
463.4870599439
 21
140.5551843768
  0
LINE
  5
311
100
AcDbEntity
  8
0
100
AcDbLine
 62
7
  6
CONTINUOUS
 10
463.6412616709
 20
272.1026843768
 11
463.6412616709
 21
281.9985097629
  0
LINE
  5
312
100
AcDbEntity
  8
0
100
AcDbLine
 62
7
  6
CONTINUOUS
 10
463.6412616709
 20
530.4360157233
 11
463.6412616709
 21
540.3318530303
  0
LINE
  5
313
100
AcDbEntity
  8
KONSTRUKTIONSELEMENTE
100
AcDbLine
 62
7
  6
CONTINUOUS
 10
463.8295595744
 20
132.255609749
 11
463.8295595744
 21
132.5109292251
  0
LINE
  5
314
100
AcDbEntity
  8
KONSTRUKTIONSELEMENTE
100
AcDbLine
 62
7
  6
CONTINUOUS
 10
463.9295597651
 20
129.3194397074
 11
463.9295597651
 21
129.8300779444
  0
LINE
  5
315
100
AcDbEntity
  8
0
100
AcDbLine
 62
7
  6
CONTINUOUS
 10
464.1731765011
 20
326.7901843768
 11
464.1731765011
 21
322.6235097629
  0
LINE
  5
316
100
AcDbEntity
  8
0
100
AcDbLine
 62
7
  6
CONTINUOUS
 10
464.1731765011
 20
320.0193589908
 11
464.1731765011
 21
314.2901843768
  0
LINE
  5
317
100
AcDbEntity
  8
0
100
AcDbLine
 62
7
  6
CONTINUOUS
 10
464.2370597651
 20
140.5551843768
 11
464.2370597651
 21
136.0551843768
  0
LINE
  5
318
100
AcDbEntity
  8
0
100
AcDbLine
 62
7
  6
CONTINUOUS
 10
449.8114746419
 20
318.4568589908
 11
449.2795597651
 21
315.3318589908
  0
LINE
  5
319
100
AcDbEntity
  8
0
100
AcDbLine
 62
7
  6
CONTINUOUS
 10
473.7476449349
 20
528.3526843768
 11
474.2795597651
 21
530.9568530303
  0
LINE
  5
31A
100
AcDbEntity
  8
0
100
AcDbLine
 62
7
  6
CONTINUOUS
 10
451.9391342887
 20
341.8943589908
 11
452.4710491189
 21
344.4985097629
  0
LINE
  5
31B
100
AcDbEntity
  8
0
100
AcDbLine
 62
7
  6
CONTINUOUS
 10
449.8114746419
 20
344.4985097629
 11
449.2795597651
 21
342.4151843768
  0
LINE
  5
31C
100
AcDbEntity
  8
0
100
AcDbLine
 62
7
  6
CONTINUOUS
 10
452.4710491189
 20
389.8110097629
 11
474.2795597651
 21
389.8110097629
  0
LINE
  5
31D
100
AcDbEntity
  8
0
100
AcDbLine
 62
7
  6
CONTINUOUS
 10
474.2795597651
 20
392.9360216838
 11
449.2795597651
 21
392.9360216838
  0
LINE
  5
31E
100
AcDbEntity
  8
0
100
AcDbLine
 62
7
  6
CONTINUOUS
 10
449.2795597651
 20
397.1026843768
 11
452.4710491189
 21
397.1026843768
  0
LINE
  5
31F
100
AcDbEntity
  8
0
100
AcDbLine
 62
7
  6
CONTINUOUS
 10
474.2795597651
 20
366.8943589908
 11
470.5561559537
 21
370.0193589908
  0
LINE
  5
320
100
AcDbEntity
  8
0
100
AcDbLine
 62
7
  6
CONTINUOUS
 10
473.7476449349
 20
344.4985097629
 11
472.6838152745
 21
346.5818589908
  0
LINE
  5
321
100
AcDbEntity
  8
0
100
AcDbLine
 62
7
  6
CONTINUOUS
 10
471.0880707839
 20
343.9776843768
 11
471.6199856141
 21
341.3735097629
  0
LINE
  5
322
100
AcDbEntity
  8
KONSTRUKTIONSELEMENTE
100
AcDbLine
 62
7
  6
CONTINUOUS
 10
464.7295595744
 20
132.0002906305
 11
464.7295595744
 21
131.4896523935
  0
LINE
  5
323
100
AcDbEntity
  8
0
100
AcDbLine
 62
7
  6
CONTINUOUS
 10
464.7995597651
 20
136.6296524605
 11
464.7995597651
 21
139.9807163602
  0
LINE
  5
324
100
AcDbEntity
  8
KONSTRUKTIONSELEMENTE
100
AcDbLine
 62
7
  6
CONTINUOUS
 10
465.5295599559
 20
133.0215674621
 11
465.5295599559
 21
132.0002906305
  0
LINE
  5
325
100
AcDbEntity
  8
KONSTRUKTIONSELEMENTE
100
AcDbLine
 62
7
  6
CONTINUOUS
 10
465.5295599559
 20
131.4896523935
 11
465.5295599559
 21
128.9364609402
  0
LINE
  5
326
100
AcDbEntity
  8
KONSTRUKTIONSELEMENTE
100
AcDbLine
 62
7
  6
CONTINUOUS
 10
466.0295597651
 20
129.1917801481
 11
466.0295597651
 21
131.4896523935
  0
LINE
  5
327
100
AcDbEntity
  8
KONSTRUKTIONSELEMENTE
100
AcDbLine
 62
7
  6
CONTINUOUS
 10
466.0295597651
 20
132.0002906305
 11
466.0295597651
 21
133.0215674621
  0
LINE
  5
328
100
AcDbEntity
  8
0
100
AcDbLine
 62
7
  6
CONTINUOUS
 10
466.3008358219
 20
314.2901843768
 11
466.3008358219
 21
320.0193589908
  0
LINE
  5
329
100
AcDbEntity
  8
0
100
AcDbLine
 62
7
  6
CONTINUOUS
 10
466.3008358219
 20
322.6235097629
 11
466.3008358219
 21
326.7901843768
  0
LINE
  5
32A
100
AcDbEntity
  8
KONSTRUKTIONSELEMENTE
100
AcDbLine
 62
7
  6
CONTINUOUS
 10
466.9295597651
 20
127.9151843768
 11
466.9295597651
 21
128.4258226585
  0
LINE
  5
32B
100
AcDbEntity
  8
KONSTRUKTIONSELEMENTE
100
AcDbLine
 62
7
  6
CONTINUOUS
 10
467.1295601466
 20
131.4896523935
 11
467.1295601466
 21
132.0002906305
  0
LINE
  5
32C
100
AcDbEntity
  8
0
100
AcDbLine
 62
7
  6
CONTINUOUS
 10
467.4245594075
 20
139.0232693976
 11
467.4245594075
 21
137.5870992219
  0
LINE
  5
32D
100
AcDbEntity
  8
0
100
AcDbLine
 62
7
  6
CONTINUOUS
 10
467.9870594075
 20
137.5870992219
 11
467.9870594075
 21
139.0232693976
  0
LINE
  5
32E
100
AcDbEntity
  8
0
100
AcDbLine
 62
7
  6
CONTINUOUS
 10
468.4284966328
 20
349.1860097629
 11
468.4284966328
 21
346.5818589908
  0
LINE
  5
32F
100
AcDbEntity
  8
RUNDUNGEN
100
AcDbLine
 62
7
  6
CONTINUOUS
 10
469.5295597651
 20
128.4151843768
 11
469.5295597651
 21
146.4151843768
  0
LINE
  5
330
100
AcDbEntity
  8
BEZUGSACHSEN
100
AcDbLine
 62
7
  6
CONTINUOUS
 10
469.7795597651
 20
100.1151843768
 11
469.7795597651
 21
123.9151843768
  0
LINE
  5
331
100
AcDbEntity
  8
0
100
AcDbLine
 62
7
  6
CONTINUOUS
 10
470.5561559537
 20
320.0193589908
 11
470.5561559537
 21
322.6235097629
  0
LINE
  5
332
100
AcDbEntity
  8
0
100
AcDbLine
 62
7
  6
CONTINUOUS
 10
471.0880707839
 20
235.1235097629
 11
471.0880707839
 21
225.7485097629
  0
LINE
  5
333
100
AcDbEntity
  8
0
100
AcDbLine
 62
7
  6
CONTINUOUS
 10
471.6199856141
 20
592.4151843768
 11
471.6199856141
 21
584.0818507951
  0
LINE
  5
334
100
AcDbEntity
  8
0
100
AcDbLine
 62
7
  6
CONTINUOUS
 10
471.6199856141
 20
580.9568507951
 11
471.6199856141
 21
572.6235172135
  0
LINE
  5
335
100
AcDbEntity
  8
0
100
AcDbLine
 62
7
  6
CONTINUOUS
 10
471.6199856141
 20
540.3318530303
 11
471.6199856141
 21
530.4360157233
  0
LINE
  5
336
100
AcDbEntity
  8
0
100
AcDbLine
 62
7
  6
CONTINUOUS
 10
471.6199856141
 20
341.3735097629
 11
471.6199856141
 21
339.2901843768
  0
LINE
  5
337
100
AcDbEntity
  8
0
100
AcDbLine
 62
7
  6
CONTINUOUS
 10
471.6199856141
 20
281.9985097629
 11
471.6199856141
 21
272.1026843768
  0
LINE
  5
338
100
AcDbEntity
  8
RUNDUNGEN
100
AcDbLine
 62
7
  6
CONTINUOUS
 10
473.27251821
 20
123.9151843768
 11
473.27251821
 21
136.0036875216
  0
LINE
  5
339
100
AcDbEntity
  8
RUNDUNGEN
100
AcDbLine
 62
7
  6
CONTINUOUS
 10
473.27251821
 20
140.5976740312
 11
473.27251821
 21
143.9151843768
  0
LINE
  5
33A
100
AcDbEntity
  8
0
100
AcDbLine
 62
7
  6
CONTINUOUS
 10
473.7866013203
 20
136.4045549103
 11
473.7866013203
 21
123.9151843768
  0
LINE
  5
33B
100
AcDbEntity
  8
0
100
AcDbLine
 62
7
  6
CONTINUOUS
 10
474.2795597651
 20
225.7485097629
 11
474.2795597651
 21
238.2485097629
  0
LINE
  5
33C
100
AcDbEntity
  8
0
100
AcDbLine
 62
7
  6
CONTINUOUS
 10
474.2795597651
 20
242.4151843768
 11
474.2795597651
 21
245.5401843768
  0
LINE
  5
33D
100
AcDbEntity
  8
0
100
AcDbLine
 62
7
  6
CONTINUOUS
 10
474.2795597651
 20
258.0401843768
 11
474.2795597651
 21
261.1651843768
  0
LINE
  5
33E
100
AcDbEntity
  8
0
100
AcDbLine
 62
7
  6
CONTINUOUS
 10
474.2795597651
 20
272.6235097629
 11
474.2795597651
 21
285.1235097629
  0
LINE
  5
33F
100
AcDbEntity
  8
0
100
AcDbLine
 62
7
  6
CONTINUOUS
 10
474.2795597651
 20
339.8110097629
 11
474.2795597651
 21
340.8526843768
  0
LINE
  5
340
100
AcDbEntity
  8
0
100
AcDbLine
 62
7
  6
CONTINUOUS
 10
474.2795597651
 20
363.7693589908
 11
474.2795597651
 21
366.8943589908
  0
LINE
  5
341
100
AcDbEntity
  8
0
100
AcDbLine
 62
7
  6
CONTINUOUS
 10
474.2795597651
 20
389.8110097629
 11
474.2795597651
 21
392.9360216838
  0
LINE
  5
342
100
AcDbEntity
  8
0
100
AcDbLine
 62
7
  6
CONTINUOUS
 10
474.2795597651
 20
412.7276843768
 11
474.2795597651
 21
415.8526843768
  0
LINE
  5
343
100
AcDbEntity
  8
0
100
AcDbLine
 62
7
  6
CONTINUOUS
 10
474.2795597651
 20
420.0193470699
 11
474.2795597651
 21
423.1443470699
  0
LINE
  5
344
100
AcDbEntity
  8
0
100
AcDbLine
 62
7
  6
CONTINUOUS
 10
474.2795597651
 20
430.4360216838
 11
474.2795597651
 21
434.6026843768
  0
LINE
  5
345
100
AcDbEntity
  8
0
100
AcDbLine
 62
7
  6
CONTINUOUS
 10
474.2795597651
 20
441.8943470699
 11
474.2795597651
 21
445.0193470699
  0
LINE
  5
346
100
AcDbEntity
  8
0
100
AcDbLine
 62
7
  6
CONTINUOUS
 10
474.2795597651
 20
530.9568530303
 11
474.2795597651
 21
543.4568500501
  0
LINE
  5
347
100
AcDbEntity
  8
0
100
AcDbLine
 62
7
  6
CONTINUOUS
 10
474.2795597651
 20
547.6235187036
 11
474.2795597651
 21
550.7485187036
  0
LINE
  5
348
100
AcDbEntity
  8
0
100
AcDbLine
 62
7
  6
CONTINUOUS
 10
474.2795597651
 20
565.3318500501
 11
474.2795597651
 21
568.4568515402
  0
LINE
  5
349
100
AcDbEntity
  8
0
100
AcDbLine
 62
7
  6
CONTINUOUS
 10
474.2795597651
 20
572.6235172135
 11
474.2795597651
 21
592.4151843768
  0
LINE
  5
34A
100
AcDbEntity
  8
BEZUGSACHSEN
100
AcDbLine
 62
7
  6
CONTINUOUS
 10
479.2795597651
 20
171.9151843768
 11
479.2795597651
 21
695.9151843768
  0
LINE
  5
34B
100
AcDbEntity
  8
0
100
AcDbLine
 62
7
  6
CONTINUOUS
 10
473.7476449349
 20
336.1651843768
 11
474.2795597651
 21
339.8110097629
  0
LINE
  5
34C
100
AcDbEntity
  8
0
100
AcDbLine
 62
7
  6
CONTINUOUS
 10
460.9816875198
 20
339.2901843768
 11
460.4497726896
 21
336.1651843768
  0
LINE
  5
34D
100
AcDbEntity
  8
BEZUGSACHSEN
100
AcDbLine
 62
7
  6
CONTINUOUS
 10
441.4547848194
 20
154.4227805003
 11
438.2793518935
 21
136.4140054784
  0
LINE
  5
34E
100
AcDbEntity
  8
0
100
AcDbLine
 62
7
  6
CONTINUOUS
 10
451.4072192722
 20
315.3318589908
 11
451.9391342887
 21
317.9360097629
  0
LINE
  5
34F
100
AcDbEntity
  8
0
100
AcDbLine
 62
7
  6
CONTINUOUS
 10
449.8114746419
 20
255.4360097629
 11
449.2795597651
 21
252.8318589908
  0
LINE
  5
350
100
AcDbEntity
  8
0
100
AcDbLine
 62
7
  6
CONTINUOUS
 10
471.6199856141
 20
339.2901843768
 11
471.0880707839
 21
336.6860097629
  0
LINE
  5
351
100
AcDbEntity
  8
0
100
AcDbLine
 62
7
  6
CONTINUOUS
 10
450.3433895187
 20
320.0193589908
 11
449.8114746419
 21
318.4568589908
  0
LINE
  5
352
100
AcDbEntity
  8
0
100
AcDbLine
 62
7
  6
CONTINUOUS
 10
450.875304442
 20
346.5818589908
 11
449.8114746419
 21
344.4985097629
  0
LINE
  5
353
100
AcDbEntity
  8
0
100
AcDbLine
 62
7
  6
CONTINUOUS
 10
452.4710491189
 20
344.4985097629
 11
453.0029639491
 21
345.5401843768
  0
LINE
  5
354
100
AcDbEntity
  8
0
100
AcDbLine
 62
7
  6
CONTINUOUS
 10
451.9391342887
 20
348.1443589908
 11
450.875304442
 21
346.5818589908
  0
LINE
  5
355
100
AcDbEntity
  8
0
100
AcDbLine
 62
7
  6
CONTINUOUS
 10
452.4710491189
 20
412.7276843768
 11
474.2795597651
 21
412.7276843768
  0
LINE
  5
356
100
AcDbEntity
  8
0
100
AcDbLine
 62
7
  6
CONTINUOUS
 10
474.2795597651
 20
415.8526843768
 11
449.2795597651
 21
415.8526843768
  0
LINE
  5
357
100
AcDbEntity
  8
0
100
AcDbLine
 62
7
  6
CONTINUOUS
 10
474.2795597651
 20
340.8526843768
 11
473.7476449349
 21
344.4985097629
  0
LINE
  5
358
100
AcDbEntity
  8
0
100
AcDbLine
 62
7
  6
CONTINUOUS
 10
485.2795597651
 20
136.4045549103
 11
485.2795597651
 21
123.9151843768
  0
LINE
  5
359
100
AcDbEntity
  8
0
100
AcDbLine
 62
7
  6
CONTINUOUS
 10
473.7476449349
 20
270.0193589908
 11
474.2795597651
 21
272.6235097629
  0
LINE
  5
35A
100
AcDbEntity
  8
0
100
AcDbLine
 62
7
  6
CONTINUOUS
 10
452.4710491189
 20
252.8318589908
 11
453.0029639491
 21
254.9151843768
  0
LINE
  5
35B
100
AcDbEntity
  8
0
100
AcDbLine
 62
7
  6
CONTINUOUS
 10
460.9816875198
 20
332.5193589908
 11
462.0455171802
 21
335.1235097629
  0
LINE
  5
35C
100
AcDbEntity
  8
0
100
AcDbLine
 62
7
  6
CONTINUOUS
 10
472.6838152745
 20
334.0818589908
 11
473.7476449349
 21
336.1651843768
  0
LINE
  5
35D
100
AcDbEntity
  8
0
100
AcDbLine
 62
7
  6
CONTINUOUS
 10
460.4497726896
 20
336.1651843768
 11
459.3859430292
 21
334.6026843768
  0
LINE
  5
35E
100
AcDbEntity
  8
0
100
AcDbLine
 62
7
  6
CONTINUOUS
 10
451.4072192722
 20
321.5818589908
 11
450.3433895187
 21
320.0193589908
  0
LINE
  5
35F
100
AcDbEntity
  8
0
100
AcDbLine
 62
7
  6
CONTINUOUS
 10
451.9391342887
 20
317.9360097629
 11
453.0029639491
 21
319.4985097629
  0
LINE
  5
360
100
AcDbEntity
  8
0
100
AcDbLine
 62
7
  6
CONTINUOUS
 10
471.0880707839
 20
336.6860097629
 11
470.0242411235
 21
335.1235097629
  0
LINE
  5
361
100
AcDbEntity
  8
0
100
AcDbLine
 62
7
  6
CONTINUOUS
 10
453.0029639491
 20
345.5401843768
 11
454.0667939821
 21
346.5818589908
  0
LINE
  5
362
100
AcDbEntity
  8
0
100
AcDbLine
 62
7
  6
CONTINUOUS
 10
453.5348787793
 20
349.1860097629
 11
451.9391342887
 21
348.1443589908
  0
LINE
  5
363
100
AcDbEntity
  8
0
100
AcDbLine
 62
7
  6
CONTINUOUS
 10
454.0667939821
 20
346.5818589908
 11
455.1306236425
 21
347.1026843768
  0
LINE
  5
364
100
AcDbEntity
  8
0
100
AcDbLine
 62
7
  6
CONTINUOUS
 10
455.1306236425
 20
426.2693470699
 11
474.2795597651
 21
430.4360216838
  0
LINE
  5
365
100
AcDbEntity
  8
0
100
AcDbLine
 62
7
  6
CONTINUOUS
 10
469.4923262933
 20
432.5193470699
 11
449.2795597651
 21
428.3526843768
  0
LINE
  5
366
100
AcDbEntity
  8
0
100
AcDbLine
 62
7
  6
CONTINUOUS
 10
455.1306236425
 20
438.7693470699
 11
474.2795597651
 21
441.8943470699
  0
LINE
  5
367
100
AcDbEntity
  8
0
100
AcDbLine
 62
7
  6
CONTINUOUS
 10
474.2795597651
 20
423.1443470699
 11
455.1306236425
 21
426.2693470699
  0
LINE
  5
368
100
AcDbEntity
  8
0
100
AcDbLine
 62
7
  6
CONTINUOUS
 10
449.2795597651
 20
424.1860216838
 11
474.2795597651
 21
420.0193470699
  0
LINE
  5
369
100
AcDbEntity
  8
0
100
AcDbLine
 62
7
  6
CONTINUOUS
 10
449.2795597651
 20
436.6860216838
 11
469.4923262933
 21
432.5193470699
  0
LINE
  5
36A
100
AcDbEntity
  8
0
100
AcDbLine
 62
7
  6
CONTINUOUS
 10
474.2795597651
 20
434.6026843768
 11
455.1306236425
 21
438.7693470699
  0
LINE
  5
36B
100
AcDbEntity
  8
0
100
AcDbLine
 62
7
  6
CONTINUOUS
 10
460.4497726896
 20
530.9568530303
 11
460.9816875198
 21
528.3526843768
  0
LINE
  5
36C
100
AcDbEntity
  8
KONSTRUKTIONSELEMENTE
100
AcDbLine
 62
7
  6
CONTINUOUS
 10
460.5295598605
 20
133.0215674621
 11
460.4295596698
 21
132.5109292251
  0
LINE
  5
36D
100
AcDbEntity
  8
0
100
AcDbLine
 62
7
  6
CONTINUOUS
 10
463.3933097651
 20
137.1083758748
 11
463.4870599439
 21
137.5870992219
  0
LINE
  5
36E
100
AcDbEntity
  8
KONSTRUKTIONSELEMENTE
100
AcDbLine
 62
7
  6
CONTINUOUS
 10
463.7295599559
 20
131.744971512
 11
463.8295595744
 21
132.255609749
  0
LINE
  5
36F
100
AcDbEntity
  8
0
100
AcDbLine
 62
7
  6
CONTINUOUS
 10
467.8933097651
 20
137.1083758748
 11
467.9870594075
 21
137.5870992219
  0
LINE
  5
370
100
AcDbEntity
  8
0
100
AcDbLine
 62
7
  6
CONTINUOUS
 10
473.7476449349
 20
223.1443589908
 11
474.2795597651
 21
225.7485097629
  0
LINE
  5
371
100
AcDbEntity
  8
0
100
AcDbLine
 62
7
  6
CONTINUOUS
 10
471.0880707839
 20
225.7485097629
 11
470.5561559537
 21
223.6651843768
  0
LINE
  5
372
100
AcDbEntity
  8
0
100
AcDbLine
 62
7
  6
CONTINUOUS
 10
471.6199856141
 20
272.1026843768
 11
471.0880707839
 21
270.5401843768
  0
LINE
  5
373
100
AcDbEntity
  8
0
100
AcDbLine
 62
7
  6
CONTINUOUS
 10
450.875304442
 20
257.5193589908
 11
449.8114746419
 21
255.4360097629
  0
LINE
  5
374
100
AcDbEntity
  8
0
100
AcDbLine
 62
7
  6
CONTINUOUS
 10
470.5561559537
 20
331.9985097629
 11
472.6838152745
 21
334.0818589908
  0
LINE
  5
375
100
AcDbEntity
  8
0
100
AcDbLine
 62
7
  6
CONTINUOUS
 10
459.3859430292
 20
331.4776843768
 11
460.9816875198
 21
332.5193589908
  0
LINE
  5
376
100
AcDbEntity
  8
0
100
AcDbLine
 62
7
  6
CONTINUOUS
 10
470.0242411235
 20
335.1235097629
 11
468.4284966328
 21
334.0818589908
  0
LINE
  5
377
100
AcDbEntity
  8
0
100
AcDbLine
 62
7
  6
CONTINUOUS
 10
459.3859430292
 20
334.6026843768
 11
457.2582829633
 21
333.5610097629
  0
LINE
  5
378
100
AcDbEntity
  8
0
100
AcDbLine
 62
7
  6
CONTINUOUS
 10
455.1306236425
 20
349.7068589908
 11
453.5348787793
 21
349.1860097629
  0
LINE
  5
379
100
AcDbEntity
  8
0
100
AcDbLine
 62
7
  6
CONTINUOUS
 10
474.2795597651
 20
445.0193470699
 11
449.2795597651
 21
440.8526843768
  0
LINE
  5
37A
100
AcDbEntity
  8
0
100
AcDbLine
 62
7
  6
CONTINUOUS
 10
464.1731765011
 20
528.8735157233
 11
463.6412616709
 21
530.4360157233
  0
LINE
  5
37B
100
AcDbEntity
  8
0
100
AcDbLine
 62
7
  6
CONTINUOUS
 10
462.9245599439
 20
137.5870992219
 11
462.8308097651
 21
137.2041205442
  0
LINE
  5
37C
100
AcDbEntity
  8
0
100
AcDbLine
 62
7
  6
CONTINUOUS
 10
467.4245594075
 20
137.5870992219
 11
467.3308097651
 21
137.2041205442
  0
LINE
  5
37D
100
AcDbEntity
  8
KONSTRUKTIONSELEMENTE
100
AcDbLine
 62
7
  6
CONTINUOUS
 10
463.8295595744
 20
128.9364609402
 11
463.9295597651
 21
129.3194397074
  0
LINE
  5
37E
100
AcDbEntity
  8
0
100
AcDbLine
 62
7
  6
CONTINUOUS
 10
458.7058096757
 20
139.2147587365
 11
458.6120597651
 21
138.9275247282
  0
LINE
  5
37F
100
AcDbEntity
  8
0
100
AcDbLine
 62
7
  6
CONTINUOUS
 10
459.1745597651
 20
138.8317800587
 11
459.2683096757
 21
139.119014067
  0
LINE
  5
380
100
AcDbEntity
  8
0
100
AcDbLine
 62
7
  6
CONTINUOUS
 10
453.0029639491
 20
254.9151843768
 11
454.0667939821
 21
256.4776843768
  0
LINE
  5
381
100
AcDbEntity
  8
0
100
AcDbLine
 62
7
  6
CONTINUOUS
 10
453.5348787793
 20
322.6235097629
 11
451.4072192722
 21
321.5818589908
  0
LINE
  5
382
100
AcDbEntity
  8
0
100
AcDbLine
 62
7
  6
CONTINUOUS
 10
453.0029639491
 20
319.4985097629
 11
454.5987088123
 21
320.0193589908
  0
LINE
  5
383
100
AcDbEntity
  8
0
100
AcDbLine
 62
7
  6
CONTINUOUS
 10
460.9816875198
 20
528.3526843768
 11
462.5774320104
 21
526.2693530303
  0
LINE
  5
384
100
AcDbEntity
  8
KONSTRUKTIONSELEMENTE
100
AcDbLine
 62
7
  6
CONTINUOUS
 10
463.3295597651
 20
132.255609749
 11
463.1295599559
 21
131.744971512
  0
LINE
  5
385
100
AcDbEntity
  8
KONSTRUKTIONSELEMENTE
100
AcDbLine
 62
7
  6
CONTINUOUS
 10
463.4295599559
 20
129.3194397074
 11
463.3295597651
 21
129.0641205889
  0
LINE
  5
386
100
AcDbEntity
  8
0
100
AcDbLine
 62
7
  6
CONTINUOUS
 10
472.6838152745
 20
221.0610097629
 11
473.7476449349
 21
223.1443589908
  0
LINE
  5
387
100
AcDbEntity
  8
0
100
AcDbLine
 62
7
  6
CONTINUOUS
 10
472.1519004443
 20
267.9360097629
 11
473.7476449349
 21
270.0193589908
  0
LINE
  5
388
100
AcDbEntity
  8
0
100
AcDbLine
 62
7
  6
CONTINUOUS
 10
453.0029639491
 20
259.6026843768
 11
450.875304442
 21
257.5193589908
  0
LINE
  5
389
100
AcDbEntity
  8
0
100
AcDbLine
 62
7
  6
CONTINUOUS
 10
471.0880707839
 20
270.5401843768
 11
470.0242411235
 21
269.4985097629
  0
LINE
  5
38A
100
AcDbEntity
  8
0
100
AcDbLine
 62
7
  6
CONTINUOUS
 10
465.2370061615
 20
527.8318530303
 11
464.1731765011
 21
528.8735157233
  0
LINE
  5
38B
100
AcDbEntity
  8
KONSTRUKTIONSELEMENTE
100
AcDbLine
 62
7
  6
CONTINUOUS
 10
459.0295598605
 20
128.5534822625
 11
458.4295597174
 21
127.1492269319
  0
LINE
  5
38C
100
AcDbEntity
  8
KONSTRUKTIONSELEMENTE
100
AcDbLine
 62
7
  6
CONTINUOUS
 10
458.9295596698
 20
127.1492269319
 11
459.5295596698
 21
128.5534822625
  0
LINE
  5
38D
100
AcDbEntity
  8
0
100
AcDbLine
 62
7
  6
CONTINUOUS
 10
463.2058099439
 20
136.7253971299
 11
463.3933097651
 21
137.1083758748
  0
LINE
  5
38E
100
AcDbEntity
  8
0
100
AcDbLine
 62
7
  6
CONTINUOUS
 10
467.7058094075
 20
136.7253971299
 11
467.8933097651
 21
137.1083758748
  0
LINE
  5
38F
100
AcDbEntity
  8
KONSTRUKTIONSELEMENTE
100
AcDbLine
 62
7
  6
CONTINUOUS
 10
460.9295597651
 20
132.5109292251
 11
461.1295598605
 21
132.8939079028
  0
LINE
  5
390
100
AcDbEntity
  8
0
100
AcDbLine
 62
7
  6
CONTINUOUS
 10
470.5561559537
 20
223.6651843768
 11
469.4923262933
 21
222.1026843768
  0
LINE
  5
391
100
AcDbEntity
  8
0
100
AcDbLine
 62
7
  6
CONTINUOUS
 10
470.0242411235
 20
266.3735097629
 11
472.1519004443
 21
267.9360097629
  0
LINE
  5
392
100
AcDbEntity
  8
0
100
AcDbLine
 62
7
  6
CONTINUOUS
 10
454.0667939821
 20
256.4776843768
 11
455.6625384727
 21
257.5193589908
  0
LINE
  5
393
100
AcDbEntity
  8
0
100
AcDbLine
 62
7
  6
CONTINUOUS
 10
455.1306236425
 20
260.6443589908
 11
453.0029639491
 21
259.6026843768
  0
LINE
  5
394
100
AcDbEntity
  8
0
100
AcDbLine
 62
7
  6
CONTINUOUS
 10
449.2795597651
 20
265.3318589908
 11
461.51360235
 21
270.0193589908
  0
LINE
  5
395
100
AcDbEntity
  8
0
100
AcDbLine
 62
7
  6
CONTINUOUS
 10
460.4497726896
 20
273.1443589908
 11
449.2795597651
 21
268.9776843768
  0
LINE
  5
396
100
AcDbEntity
  8
0
100
AcDbLine
 62
7
  6
CONTINUOUS
 10
464.7050913313
 20
524.7068530303
 11
466.3008358219
 21
524.1860157233
  0
LINE
  5
397
100
AcDbEntity
  8
0
100
AcDbLine
 62
7
  6
CONTINUOUS
 10
462.5774320104
 20
526.2693530303
 11
464.7050913313
 21
524.7068530303
  0
LINE
  5
398
100
AcDbEntity
  8
KONSTRUKTIONSELEMENTE
100
AcDbLine
 62
7
  6
CONTINUOUS
 10
463.5295595744
 20
131.3619928342
 11
463.7295599559
 21
131.744971512
  0
LINE
  5
399
100
AcDbEntity
  8
KONSTRUKTIONSELEMENTE
100
AcDbLine
 62
7
  6
CONTINUOUS
 10
463.6295597651
 20
128.5534822625
 11
463.8295595744
 21
128.9364609402
  0
LINE
  5
39A
100
AcDbEntity
  8
0
100
AcDbLine
 62
7
  6
CONTINUOUS
 10
470.5561559537
 20
218.9776843768
 11
472.6838152745
 21
221.0610097629
  0
LINE
  5
39B
100
AcDbEntity
  8
0
100
AcDbLine
 62
7
  6
CONTINUOUS
 10
470.0242411235
 20
269.4985097629
 11
468.4284966328
 21
268.9776843768
  0
LINE
  5
39C
100
AcDbEntity
  8
0
100
AcDbLine
 62
7
  6
CONTINUOUS
 10
468.4284966328
 20
265.8526843768
 11
470.0242411235
 21
266.3735097629
  0
LINE
  5
39D
100
AcDbEntity
  8
0
100
AcDbLine
 62
7
  6
CONTINUOUS
 10
466.3008358219
 20
524.1860157233
 11
468.4284966328
 21
524.1860157233
  0
LINE
  5
39E
100
AcDbEntity
  8
0
100
AcDbLine
 62
7
  6
CONTINUOUS
 10
468.4284966328
 20
527.3110157233
 11
466.8327506521
 21
527.3110157233
  0
LINE
  5
39F
100
AcDbEntity
  8
0
100
AcDbLine
 62
7
  6
CONTINUOUS
 10
466.8327506521
 20
527.3110157233
 11
465.2370061615
 21
527.8318530303
  0
LINE
  5
3A0
100
AcDbEntity
  8
0
100
AcDbLine
 62
7
  6
CONTINUOUS
 10
462.0455171802
 20
559.6026843768
 11
449.2795597651
 21
568.4568515402
  0
LINE
  5
3A1
100
AcDbEntity
  8
0
100
AcDbLine
 62
7
  6
CONTINUOUS
 10
449.2795597651
 20
565.3318500501
 11
459.3859430292
 21
558.0401843768
  0
LINE
  5
3A2
100
AcDbEntity
  8
0
100
AcDbLine
 62
7
  6
CONTINUOUS
 10
474.2795597651
 20
550.7485187036
 11
464.1731765011
 21
558.0401843768
  0
LINE
  5
3A3
100
AcDbEntity
  8
0
100
AcDbLine
 62
7
  6
CONTINUOUS
 10
462.0455171802
 20
556.4776843768
 11
474.2795597651
 21
547.6235187036
  0
LINE
  5
3A4
100
AcDbEntity
  8
0
100
AcDbLine
 62
7
  6
CONTINUOUS
 10
462.8308097651
 20
137.2041205442
 11
462.6433099439
 21
136.9168865359
  0
LINE
  5
3A5
100
AcDbEntity
  8
0
100
AcDbLine
 62
7
  6
CONTINUOUS
 10
467.3308097651
 20
137.2041205442
 11
467.1433094075
 21
136.9168865359
  0
LINE
  5
3A6
100
AcDbEntity
  8
KONSTRUKTIONSELEMENTE
100
AcDbLine
 62
7
  6
CONTINUOUS
 10
457.0295597651
 20
133.9151843768
 11
456.4295597651
 21
133.0215674621
  0
LINE
  5
3A7
100
AcDbEntity
  8
KONSTRUKTIONSELEMENTE
100
AcDbLine
 62
7
  6
CONTINUOUS
 10
456.4295597651
 20
132.0002906305
 11
457.0295597651
 21
132.8939079028
  0
LINE
  5
3A8
100
AcDbEntity
  8
0
100
AcDbLine
 62
7
  6
CONTINUOUS
 10
458.8933097651
 20
138.448801381
 11
459.1745597651
 21
138.8317800587
  0
LINE
  5
3A9
100
AcDbEntity
  8
KONSTRUKTIONSELEMENTE
100
AcDbLine
 62
7
  6
CONTINUOUS
 10
460.9295597651
 20
133.5322056991
 11
460.5295598605
 21
133.0215674621
  0
LINE
  5
3AA
100
AcDbEntity
  8
0
100
AcDbLine
 62
7
  6
CONTINUOUS
 10
469.4923262933
 20
222.1026843768
 11
467.8965803125
 21
221.0610097629
  0
LINE
  5
3AB
100
AcDbEntity
  8
0
100
AcDbLine
 62
7
  6
CONTINUOUS
 10
449.2795597651
 20
540.3318530303
 11
460.4497726896
 21
540.3318530303
  0
LINE
  5
3AC
100
AcDbEntity
  8
0
100
AcDbLine
 62
7
  6
CONTINUOUS
 10
463.6412616709
 20
540.3318530303
 11
471.6199856141
 21
540.3318530303
  0
LINE
  5
3AD
100
AcDbEntity
  8
0
100
AcDbLine
 62
7
  6
CONTINUOUS
 10
474.2795597651
 20
543.4568500501
 11
449.2795597651
 21
543.4568500501
  0
LINE
  5
3AE
100
AcDbEntity
  8
KONSTRUKTIONSELEMENTE
100
AcDbLine
 62
7
  6
CONTINUOUS
 10
463.1295599559
 20
131.744971512
 11
462.9295595744
 21
131.4896523935
  0
LINE
  5
3AF
100
AcDbEntity
  8
KONSTRUKTIONSELEMENTE
100
AcDbLine
 62
7
  6
CONTINUOUS
 10
463.3295597651
 20
129.0641205889
 11
463.1295599559
 21
128.808801381
  0
LINE
  5
3B0
100
AcDbEntity
  8
0
100
AcDbLine
 62
7
  6
CONTINUOUS
 10
458.6120597651
 20
138.9275247282
 11
458.4245596757
 21
138.7360353893
  0
LINE
  5
3B1
100
AcDbEntity
  8
FASEN
100
AcDbLine
 62
7
  6
CONTINUOUS
 10
442.0416089088
 20
154.9151843773
 11
441.4547848199
 21
154.4227805008
  0
LINE
  5
3B2
100
AcDbEntity
  8
0
100
AcDbLine
 62
7
  6
CONTINUOUS
 10
468.4284966328
 20
217.9360097629
 11
470.5561559537
 21
218.9776843768
  0
LINE
  5
3B3
100
AcDbEntity
  8
0
100
AcDbLine
 62
7
  6
CONTINUOUS
 10
471.6199856141
 20
572.6235172135
 11
474.2795597651
 21
572.6235172135
  0
LINE
  5
3B4
100
AcDbEntity
  8
0
100
AcDbLine
 62
7
  6
CONTINUOUS
 10
462.8308097651
 20
136.3424184187
 11
463.2058099439
 21
136.7253971299
  0
LINE
  5
3B5
100
AcDbEntity
  8
0
100
AcDbLine
 62
7
  6
CONTINUOUS
 10
467.3308097651
 20
136.3424184187
 11
467.7058094075
 21
136.7253971299
  0
LINE
  5
3B6
100
AcDbEntity
  8
KONSTRUKTIONSELEMENTE
100
AcDbLine
 62
7
  6
CONTINUOUS
 10
463.1295599559
 20
130.9790141565
 11
463.5295595744
 21
131.3619928342
  0
LINE
  5
3B7
100
AcDbEntity
  8
KONSTRUKTIONSELEMENTE
100
AcDbLine
 62
7
  6
CONTINUOUS
 10
461.1295598605
 20
132.8939079028
 11
461.4295595744
 21
133.1492270213
  0
LINE
  5
3B8
100
AcDbEntity
  8
0
100
AcDbLine
 62
7
  6
CONTINUOUS
 10
449.2795597651
 20
580.9568507951
 11
471.6199856141
 21
580.9568507951
  0
LINE
  5
3B9
100
AcDbEntity
  8
0
100
AcDbLine
 62
7
  6
CONTINUOUS
 10
471.6199856141
 20
584.0818507951
 11
449.2795597651
 21
584.0818507951
  0
LINE
  5
3BA
100
AcDbEntity
  8
0
100
AcDbLine
 62
7
  6
CONTINUOUS
 10
474.2795597651
 20
592.4151843768
 11
471.6199856141
 21
592.4151843768
  0
LINE
  5
3BB
100
AcDbEntity
  8
0
100
AcDbLine
 62
7
  6
CONTINUOUS
 10
469.7795597651
 20
100.1151843768
 11
468.5795597651
 21
98.9151843768
  0
LINE
  5
3BC
100
AcDbEntity
  8
KONSTRUKTIONSELEMENTE
100
AcDbLine
 62
7
  6
CONTINUOUS
 10
463.3295597651
 20
128.2981630993
 11
463.6295597651
 21
128.5534822625
  0
LINE
  5
3BD
100
AcDbEntity
  8
0
100
AcDbLine
 62
7
  6
CONTINUOUS
 10
462.6433099439
 20
136.9168865359
 11
462.3620599439
 21
136.7253971299
  0
LINE
  5
3BE
100
AcDbEntity
  8
0
100
AcDbLine
 62
7
  6
CONTINUOUS
 10
467.1433094075
 20
136.9168865359
 11
466.8620594075
 21
136.7253971299
  0
LINE
  5
3BF
100
AcDbEntity
  8
KONSTRUKTIONSELEMENTE
100
AcDbLine
 62
7
  6
CONTINUOUS
 10
461.3295599559
 20
133.7875248176
 11
460.9295597651
 21
133.5322056991
  0
LINE
  5
3C0
100
AcDbEntity
  8
KONSTRUKTIONSELEMENTE
100
AcDbLine
 62
7
  6
CONTINUOUS
 10
463.1295599559
 20
128.808801381
 11
462.9295595744
 21
128.6811418217
  0
LINE
  5
3C1
100
AcDbEntity
  8
KONSTRUKTIONSELEMENTE
100
AcDbLine
 62
7
  6
CONTINUOUS
 10
462.9295595744
 20
128.0428439473
 11
463.3295597651
 21
128.2981630993
  0
LINE
  5
3C2
100
AcDbEntity
  8
0
100
AcDbLine
 62
7
  6
CONTINUOUS
 10
458.5183098545
 20
138.2573120421
 11
458.8933097651
 21
138.448801381
  0
LINE
  5
3C3
100
AcDbEntity
  8
0
100
AcDbLine
 62
7
  6
CONTINUOUS
 10
462.4558095863
 20
136.1509290546
 11
462.8308097651
 21
136.3424184187
  0
LINE
  5
3C4
100
AcDbEntity
  8
0
100
AcDbLine
 62
7
  6
CONTINUOUS
 10
466.9558101228
 20
136.1509290546
 11
467.3308097651
 21
136.3424184187
  0
LINE
  5
3C5
100
AcDbEntity
  8
KONSTRUKTIONSELEMENTE
100
AcDbLine
 62
7
  6
CONTINUOUS
 10
462.9295595744
 20
131.4896523935
 11
462.3295595744
 21
131.234333275
  0
LINE
  5
3C6
100
AcDbEntity
  8
0
100
AcDbLine
 62
7
  6
CONTINUOUS
 10
458.4245596757
 20
138.7360353893
 11
458.1433096757
 21
138.6402907199
  0
LINE
  5
3C7
100
AcDbEntity
  8
KONSTRUKTIONSELEMENTE
100
AcDbLine
 62
7
  6
CONTINUOUS
 10
462.5295599559
 20
127.9151843768
 11
462.9295595744
 21
128.0428439473
  0
LINE
  5
3C8
100
AcDbEntity
  8
0
100
AcDbLine
 62
7
  6
CONTINUOUS
 10
444.2795597651
 20
695.9151843768
 11
479.2795597651
 21
695.9151843768
  0
LINE
  5
3C9
100
AcDbEntity
  8
0
100
AcDbLine
 62
7
  6
CONTINUOUS
 10
717.9814758179
 20
98.9151843768
 11
704.3814758179
 21
98.9151843768
  0
LINE
  5
3CA
100
AcDbEntity
  8
0
100
AcDbLine
 62
7
  6
CONTINUOUS
 10
703.1814758179
 20
100.1151843768
 11
719.1814758179
 21
100.1151843768
  0
LINE
  5
3CB
100
AcDbEntity
  8
0
100
AcDbLine
 62
7
  6
CONTINUOUS
 10
731.6814758179
 20
123.9151843768
 11
690.6814758179
 21
123.9151843768
  0
LINE
  5
3CC
100
AcDbEntity
  8
RUNDUNGEN
100
AcDbLine
 62
7
  6
CONTINUOUS
 10
687.6814758179
 20
140.4151843768
 11
689.9144100474
 21
140.4151843768
  0
LINE
  5
3CD
100
AcDbEntity
  8
RUNDUNGEN
100
AcDbLine
 62
7
  6
CONTINUOUS
 10
689.9117100616
 20
140.4151879006
 11
689.9151222442
 21
140.4151373141
  0
LWPOLYLINE
  5
3CE
100
AcDbEntity
  8
RUNDUNGEN
100
AcDbPolyline
 62
7
  6
CONTINUOUS
 90
9
 70
0
 10
689.915017114
 20
140.4151388727
 10
689.9163199248
 20
140.4150615064
 10
689.9263166623
 20
140.4140252898
 10
689.9508137361
 20
140.4099494748
 10
689.9887622073
 20
140.4008511446
 10
690.0404150451
 20
140.3842307749
 10
690.1031560117
 20
140.358206533
 10
690.1743109576
 20
140.3211403083
 10
690.2511714201
 20
140.2716054095
  0
LINE
  5
3CF
100
AcDbEntity
  8
RUNDUNGEN
100
AcDbLine
 62
9
  6
CONTINUOUS
 10
729.9938420072
 20
143.8109954707
 11
730.4946520169
 21
143.9151843766
  0
LINE
  5
3D0
100
AcDbEntity
  8
RUNDUNGEN
100
AcDbLine
 62
9
  6
CONTINUOUS
 10
731.1814758179
 20
140.597674035
 11
731.6814758179
 21
140.5976740351
  0
LINE
  5
3D1
100
AcDbEntity
  8
RUNDUNGEN
100
AcDbLine
 62
9
  6
CONTINUOUS
 10
686.6814758179
 20
141.4151843768
 11
690.6814758179
 21
141.4151843768
  0
LINE
  5
3D2
100
AcDbEntity
  8
RUNDUNGEN
100
AcDbLine
 62
9
  6
CONTINUOUS
 10
730.4946895285
 20
143.9150035476
 11
731.6814758179
 21
143.9151843768
  0
LINE
  5
3D3
100
AcDbEntity
  8
RUNDUNGEN
100
AcDbLine
 62
9
  6
CONTINUOUS
 10
686.6814758179
 20
147.4151843768
 11
689.7198830663
 21
147.4151843768
  0
LINE
  5
3D4
100
AcDbEntity
  8
RUNDUNGEN
100
AcDbLine
 62
7
  6
CONTINUOUS
 10
731.078886706
 20
153.9151843768
 11
731.6793812008
 21
153.9151843768
  0
LINE
  5
3D5
100
AcDbEntity
  8
0
100
AcDbLine
 62
7
  6
CONTINUOUS
 10
690.2992361234
 20
154.4151843768
 11
687.6814758179
 21
154.4151843768
  0
LINE
  5
3D6
100
AcDbEntity
  8
FASEN
100
AcDbLine
 62
7
  6
CONTINUOUS
 10
731.5062507636
 20
154.4227805003
 11
711.1814758179
 21
154.4227805003
  0
LINE
  5
3D7
100
AcDbEntity
  8
RUNDUNGEN
100
AcDbLine
 62
7
  6
CONTINUOUS
 10
711.1814758179
 20
154.4227805003
 11
690.9853398014
 21
154.4227805003
  0
LINE
  5
3D8
100
AcDbEntity
  8
FASEN
100
AcDbLine
 62
7
  6
CONTINUOUS
 10
730.9190816988
 20
154.9151843768
 11
691.443869937
 21
154.9151843768
  0
LWPOLYLINE
  5
3D9
100
AcDbEntity
  8
RUNDUNGEN
100
AcDbPolyline
 62
7
  6
CONTINUOUS
 90
14
 70
0
 10
689.9284283532
 20
140.4137493893
 10
689.9576669948
 20
140.4085296468
 10
690.0074640485
 20
140.3953598934
 10
690.0742180258
 20
140.3709828874
 10
690.155530283
 20
140.3317157051
 10
690.2450196481
 20
140.2759576702
 10
690.337332364
 20
140.2027299522
 10
690.4248823728
 20
140.1147266407
 10
690.5014541551
 20
140.0171194947
 10
690.5650239525
 20
139.9132735025
 10
690.613678172
 20
139.808925065
 10
690.6483278534
 20
139.7066732436
 10
690.6698737591
 20
139.6103045499
 10
690.6799377154
 20
139.5240041528
  0
LINE
  5
3DA
100
AcDbEntity
  8
RUNDUNGEN
100
AcDbLine
 62
9
  6
CONTINUOUS
 10
691.0932878717
 20
147.1547142876
 11
689.7198830657
 21
147.4151843737
  0
LINE
  5
3DB
100
AcDbEntity
  8
RUNDUNGEN
100
AcDbLine
 62
7
  6
CONTINUOUS
 10
701.4978456077
 20
163.9153525901
 11
701.4724472641
 21
163.9151843768
  0
LINE
  5
3DC
100
AcDbEntity
  8
RUNDUNGEN
100
AcDbLine
 62
9
  6
CONTINUOUS
 10
702.8582469883
 20
161.9155558981
 11
692.1814758179
 21
161.9151843768
  0
LINE
  5
3DD
100
AcDbEntity
  8
RUNDUNGEN
100
AcDbLine
 62
9
  6
CONTINUOUS
 10
730.1814758179
 20
161.9151843768
 11
719.5047117119
 21
161.9155747471
  0
LINE
  5
3DE
100
AcDbEntity
  8
RUNDUNGEN
100
AcDbLine
 62
7
  6
CONTINUOUS
 10
701.4727091687
 20
163.9151843768
 11
694.1814758179
 21
163.9151843768
  0
LINE
  5
3DF
100
AcDbEntity
  8
RUNDUNGEN
100
AcDbLine
 62
7
  6
CONTINUOUS
 10
720.8902423684
 20
163.9151843768
 11
728.1814758179
 21
163.9151843768
  0
LINE
  5
3E0
100
AcDbEntity
  8
RUNDUNGEN
100
AcDbLine
 62
7
  6
CONTINUOUS
 10
720.8670243094
 20
163.9152267954
 11
720.8905043786
 21
163.9150832354
  0
LWPOLYLINE
  5
3E1
100
AcDbEntity
  8
RUNDUNGEN
100
AcDbPolyline
 62
7
  6
CONTINUOUS
 90
7
 70
0
 10
720.8670243094
 20
163.9152267954
 10
720.377053695
 20
163.9894199725
 10
719.9571820008
 20
164.1738637329
 10
719.6205046282
 20
164.4358328803
 10
719.3896709952
 20
164.7212324217
 10
719.2553899027
 20
164.9822558637
 10
719.2110126146
 20
165.1144943856
  0
LWPOLYLINE
  5
3E2
100
AcDbEntity
  8
RUNDUNGEN
100
AcDbPolyline
 62
7
  6
CONTINUOUS
 90
3
 70
0
 10
720.3699887193
 20
163.9925235174
 10
720.3631350968
 20
163.9935918008
 10
720.1814458906
 20
164.075347744
  0
LWPOLYLINE
  5
3E3
100
AcDbEntity
  8
RUNDUNGEN
100
AcDbPolyline
 62
7
  6
CONTINUOUS
 90
8
 70
0
 10
690.330820008
 20
140.2084905681
 10
690.409193656
 20
140.132089026
 10
690.4824505627
 20
140.0436192112
 10
690.5474616515
 20
139.9447637317
 10
690.6015718744
 20
139.8378975648
 10
690.6419468374
 20
139.7285545624
 10
690.6677228614
 20
139.6225861611
 10
690.6796756063
 20
139.5279637631
  0
LINE
  5
3E4
100
AcDbEntity
  8
0
100
AcDbLine
 62
7
  6
CONTINUOUS
 10
703.1814758179
 20
100.1151843768
 11
704.3814758179
 21
98.9151843768
  0
LINE
  5
3E5
100
AcDbEntity
  8
FASEN
100
AcDbLine
 62
7
  6
CONTINUOUS
 10
730.9194266748
 20
154.9151843768
 11
731.5062507636
 21
154.4227805003
  0
LWPOLYLINE
  5
3E6
100
AcDbEntity
  8
RUNDUNGEN
100
AcDbPolyline
 62
7
  6
CONTINUOUS
 90
3
 70
0
 10
719.3145098304
 20
164.8673350902
 10
719.2495446747
 20
164.9973134282
 10
719.2276167244
 20
165.0650163072
  0
LINE
  5
3E7
100
AcDbEntity
  8
0
100
AcDbLine
 62
7
  6
CONTINUOUS
 10
684.0645167036
 20
360.9436556498
 11
683.7273272514
 21
361.1797582461
  0
LWPOLYLINE
  5
3E8
100
AcDbEntity
  8
RUNDUNGEN
100
AcDbPolyline
 62
7
  6
CONTINUOUS
 90
4
 70
0
 10
719.2110126146
 20
165.1144943856
 10
719.1980814394
 20
165.1662764805
 10
719.1821433482
 20
165.2626463598
 10
719.181422952
 20
165.2703380241
  0
LINE
  5
3E9
100
AcDbEntity
  8
RUNDUNGEN
100
AcDbLine
 62
7
  6
CONTINUOUS
 10
690.6796756063
 20
139.5279637631
 11
690.6814759624
 21
139.4768614178
  0
LINE
  5
3EA
100
AcDbEntity
  8
RUNDUNGEN
100
AcDbLine
 62
7
  6
CONTINUOUS
 10
686.6814758179
 20
141.4151843768
 11
686.6814758179
 21
153.4151843768
  0
LINE
  5
3EB
100
AcDbEntity
  8
RUNDUNGEN
100
AcDbLine
 62
9
  6
CONTINUOUS
 10
687.6814758179
 20
140.4151843768
 11
687.6814758179
 21
154.4151843768
  0
LINE
  5
3EC
100
AcDbEntity
  8
0
100
AcDbLine
 62
7
  6
CONTINUOUS
 10
687.6814758179
 20
195.4151843768
 11
687.6814758179
 21
372.4151843768
  0
LINE
  5
3ED
100
AcDbEntity
  8
0
100
AcDbLine
 62
7
  6
CONTINUOUS
 10
687.6814758179
 20
374.9151843768
 11
687.6814758179
 21
672.4151843768
  0
LINE
  5
3EE
100
AcDbEntity
  8
RUNDUNGEN
100
AcDbLine
 62
9
  6
CONTINUOUS
 10
689.1814758179
 20
140.6397413825
 11
689.1814758179
 21
144.5715486604
  0
LINE
  5
3EF
100
AcDbEntity
  8
0
100
AcDbLine
 62
7
  6
CONTINUOUS
 10
690.6814758179
 20
136.4045549103
 11
690.6814758179
 21
123.9151843768
  0
LINE
  5
3F0
100
AcDbEntity
  8
RUNDUNGEN
100
AcDbLine
 62
7
  6
CONTINUOUS
 10
690.6814758179
 20
136.4045549103
 11
690.6814758179
 21
143.8312869697
  0
LINE
  5
3F1
100
AcDbEntity
  8
0
100
AcDbLine
 62
7
  6
CONTINUOUS
 10
690.97828184
 20
136.4045549103
 11
690.97828184
 21
123.9151843768
  0
LINE
  5
3F2
100
AcDbEntity
  8
0
100
AcDbLine
 62
7
  6
CONTINUOUS
 10
687.1814758179
 20
372.4151843768
 11
700.1814758179
 21
372.4151843768
  0
LINE
  5
3F3
100
AcDbEntity
  8
0
100
AcDbLine
 62
7
  6
CONTINUOUS
 10
687.6814758179
 20
374.9151843768
 11
699.6814758179
 21
374.9151843768
  0
LINE
  5
3F4
100
AcDbEntity
  8
BEZUGSACHSEN
100
AcDbLine
 62
7
  6
CONTINUOUS
 10
731.5062507636
 20
154.4227805003
 11
731.5957536555
 21
153.9151843768
  0
LINE
  5
3F5
100
AcDbEntity
  8
BEZUGSACHSEN
100
AcDbLine
 62
7
  6
CONTINUOUS
 10
692.1814758179
 20
161.9151843768
 11
692.1814758179
 21
154.9151843768
  0
LINE
  5
3F6
100
AcDbEntity
  8
0
100
AcDbLine
 62
7
  6
CONTINUOUS
 10
699.6814758179
 20
195.4151843768
 11
699.6814758179
 21
372.4151843768
  0
LINE
  5
3F7
100
AcDbEntity
  8
0
100
AcDbLine
 62
7
  6
CONTINUOUS
 10
699.6814758179
 20
374.9151843768
 11
699.6814758179
 21
672.4151843768
  0
LINE
  5
3F8
100
AcDbEntity
  8
0
100
AcDbLine
 62
7
  6
CONTINUOUS
 10
703.1814758179
 20
123.9151843768
 11
703.1814758179
 21
100.1151843768
  0
LINE
  5
3F9
100
AcDbEntity
  8
BEZUGSACHSEN
100
AcDbLine
 62
7
  6
CONTINUOUS
 10
703.1814758179
 20
100.1151843768
 11
703.1814758179
 21
123.9151843768
  0
LINE
  5
3FA
100
AcDbEntity
  8
0
100
AcDbLine
 62
7
  6
CONTINUOUS
 10
703.1814758179
 20
187.1586232362
 11
703.1814758179
 21
193.9151843768
  0
LINE
  5
3FB
100
AcDbEntity
  8
0
100
AcDbLine
 62
7
  6
CONTINUOUS
 10
710.8846697957
 20
136.4045549103
 11
710.8846697957
 21
123.9151843768
  0
LINE
  5
3FC
100
AcDbEntity
  8
RUNDUNGEN
100
AcDbLine
 62
9
  6
CONTINUOUS
 10
711.1814758674
 20
156.2945764085
 11
711.1814758425
 21
154.9151843727
  0
LINE
  5
3FD
100
AcDbEntity
  8
0
100
AcDbLine
 62
7
  6
CONTINUOUS
 10
711.47828184
 20
136.4045549103
 11
711.47828184
 21
123.9151843768
  0
LINE
  5
3FE
100
AcDbEntity
  8
RUNDUNGEN
100
AcDbLine
 62
7
  6
CONTINUOUS
 10
703.1814758179
 20
165.2679404539
 11
703.1814765499
 21
165.2695946393
  0
LINE
  5
3FF
100
AcDbEntity
  8
RUNDUNGEN
100
AcDbLine
 62
7
  6
CONTINUOUS
 10
731.6814758179
 20
153.8693811875
 11
731.6793734723
 21
153.9151843768
  0
LINE
  5
400
100
AcDbEntity
  8
RUNDUNGEN
100
AcDbLine
 62
7
  6
CONTINUOUS
 10
719.1814741595
 20
165.270429307
 11
719.1814758179
 21
165.2679404539
  0
LINE
  5
401
100
AcDbEntity
  8
0
100
AcDbLine
 62
7
  6
CONTINUOUS
 10
719.1814758179
 20
123.9151843768
 11
719.1814758179
 21
100.1151843768
  0
LINE
  5
402
100
AcDbEntity
  8
BEZUGSACHSEN
100
AcDbLine
 62
7
  6
CONTINUOUS
 10
719.1814758179
 20
100.1151843768
 11
719.1814758179
 21
123.9151843768
  0
LINE
  5
403
100
AcDbEntity
  8
RUNDUNGEN
100
AcDbLine
 62
7
  6
CONTINUOUS
 10
719.1814758179
 20
187.1586232362
 11
719.1814758179
 21
193.9151843768
  0
LINE
  5
404
100
AcDbEntity
  8
0
100
AcDbLine
 62
7
  6
CONTINUOUS
 10
719.1814758179
 20
187.1586232362
 11
719.1814758179
 21
193.9151843768
  0
LINE
  5
405
100
AcDbEntity
  8
BEZUGSACHSEN
100
AcDbLine
 62
7
  6
CONTINUOUS
 10
722.6814758179
 20
195.4151843768
 11
722.6814758179
 21
672.4151843768
  0
LINE
  5
406
100
AcDbEntity
  8
BEZUGSACHSEN
100
AcDbLine
 62
7
  6
CONTINUOUS
 10
730.1814758179
 20
161.9151843768
 11
730.1814758179
 21
154.9151843768
  0
LINE
  5
407
100
AcDbEntity
  8
RUNDUNGEN
100
AcDbLine
 62
9
  6
CONTINUOUS
 10
731.1814758179
 20
140.5976740354
 11
731.1814764458
 21
152.4593156523
  0
LINE
  5
408
100
AcDbEntity
  8
0
100
AcDbLine
 62
7
  6
CONTINUOUS
 10
731.3846697957
 20
136.4045549103
 11
731.3846697957
 21
123.9151843768
  0
LINE
  5
409
100
AcDbEntity
  8
RUNDUNGEN
100
AcDbLine
 62
7
  6
CONTINUOUS
 10
731.6814758179
 20
123.9151843768
 11
731.6814758179
 21
153.868751159
  0
LWPOLYLINE
  5
40A
100
AcDbEntity
  8
RUNDUNGEN
100
AcDbPolyline
 62
7
  6
CONTINUOUS
 90
9
 70
0
 10
703.1814758179
 20
165.2720027196
 10
703.1811451839
 20
165.266650506
 10
703.1682347369
 20
165.1818873858
 10
703.117057768
 20
165.0069902684
 10
702.9897105974
 20
164.7474441126
 10
702.7641517393
 20
164.4578099561
 10
702.4293090604
 20
164.1882573641
 10
702.0061773302
 20
163.9955388457
 10
701.497847191
 20
163.9152542814
  0
LINE
  5
40B
100
AcDbEntity
  8
BEZUGSACHSEN
100
AcDbLine
 62
7
  6
CONTINUOUS
 10
734.6814758179
 20
195.4151843768
 11
734.6814758179
 21
672.4151843768
  0
LINE
  5
40C
100
AcDbEntity
  8
FASEN
100
AcDbLine
 62
7
  6
CONTINUOUS
 10
691.443524961
 20
154.9151843768
 11
691.2621431539
 21
154.7629869694
  0
LINE
  5
40D
100
AcDbEntity
  8
0
100
AcDbLine
 62
7
  6
CONTINUOUS
 10
719.1814758179
 20
100.1151843768
 11
717.9814758179
 21
98.9151843768
  0
ARC
  5
40E
100
AcDbEntity
  8
BEZUGSACHSEN
100
AcDbCircle
 62
7
  6
CONTINUOUS
 10
704.1129136844
 20
94.8877279351
 40
234.0381530634
100
AcDbArc
 50
169.5561458358
 51
169.7820297941
  0
ARC
  5
40F
100
AcDbEntity
  8
BEZUGSACHSEN
100
AcDbCircle
 62
7
  6
CONTINUOUS
 10
219.4462486957
 20
94.887735629
 40
234.0381095283
100
AcDbArc
 50
10.2179702131
 51
10.4438542062
  0
ARC
  5
410
100
AcDbEntity
  8
0
100
AcDbCircle
 62
7
  6
CONTINUOUS
 10
461.7795597651
 20
174.9151843768
 40
27.0
100
AcDbArc
 50
130.4837366671
 51
223.6028189727
  0
ARC
  5
411
100
AcDbEntity
  8
0
100
AcDbCircle
 62
7
  6
CONTINUOUS
 10
461.7795597651
 20
174.9151843768
 40
27.0
100
AcDbArc
 50
316.3971810273
 51
49.5162633329
  0
ARC
  5
412
100
AcDbEntity
  8
RUNDUNGEN
100
AcDbCircle
 62
7
  6
CONTINUOUS
 10
487.5011876081
 20
138.3296240716
 40
14.1362204643
100
AcDbArc
 50
187.0078827186
 51
187.5526167748
  0
ARC
  5
413
100
AcDbEntity
  8
RUNDUNGEN
100
AcDbCircle
 62
7
  6
CONTINUOUS
 10
436.439841241
 20
138.2800088851
 40
13.7511031566
100
AcDbArc
 50
352.4431641308
 51
352.7644035278
  0
ARC
  5
414
100
AcDbEntity
  8
0
100
AcDbCircle
 62
7
  6
CONTINUOUS
 10
461.7795597651
 20
174.9151843768
 40
11.0
100
AcDbArc
 50
195.8594699128
 51
344.1405300872
  0
ARC
  5
415
100
AcDbEntity
  8
RUNDUNGEN
100
AcDbCircle
 62
7
  6
CONTINUOUS
 10
463.27251821
 20
143.9151843768
 40
10.0
100
AcDbArc
 50
359.9991797697
 51
58.6954473088
  0
ARC
  5
416
100
AcDbEntity
  8
RUNDUNGEN
100
AcDbCircle
 62
7
  6
CONTINUOUS
 10
460.2866013203
 20
143.9151843768
 40
10.0
100
AcDbArc
 50
121.3050399987
 51
180.0010360784
  0
ARC
  5
417
100
AcDbEntity
  8
0
100
AcDbCircle
 62
7
  6
CONTINUOUS
 10
473.2795597651
 20
372.4151843768
 40
6.5
100
AcDbArc
 50
0.0
 51
22.619864948
  0
ARC
  5
418
100
AcDbEntity
  8
0
100
AcDbCircle
 62
7
  6
CONTINUOUS
 10
450.2795597651
 20
372.4151843768
 40
6.5
100
AcDbArc
 50
157.380135052
 51
180.0
  0
ARC
  5
419
100
AcDbEntity
  8
RUNDUNGEN
100
AcDbCircle
 62
7
  6
CONTINUOUS
 10
473.5291460024
 20
133.2933446934
 40
3.1218443674
100
AcDbArc
 50
85.2695030654
 51
89.1416803649
  0
ARC
  5
41A
100
AcDbEntity
  8
RUNDUNGEN
100
AcDbCircle
 62
7
  6
CONTINUOUS
 10
450.0299735348
 20
133.2933447221
 40
3.1218443393
100
AcDbArc
 50
90.8583198074
 51
94.7304971058
  0
ARC
  5
41B
100
AcDbEntity
  8
RUNDUNGEN
100
AcDbCircle
 62
7
  6
CONTINUOUS
 10
457.0295597651
 20
128.4151843768
 40
3.0
100
AcDbArc
 50
179.9999998341
 51
270.0000001283
  0
ARC
  5
41C
100
AcDbEntity
  8
RUNDUNGEN
100
AcDbCircle
 62
7
  6
CONTINUOUS
 10
466.5295597651
 20
128.4151843768
 40
3.0
100
AcDbArc
 50
269.9999998341
 51
0.0000001283
  0
ARC
  5
41D
100
AcDbEntity
  8
RUNDUNGEN
100
AcDbCircle
 62
7
  6
CONTINUOUS
 10
466.5295597651
 20
146.4151843768
 40
3.0
100
AcDbArc
 50
359.9999998341
 51
90.0000001283
  0
ARC
  5
41E
100
AcDbEntity
  8
RUNDUNGEN
100
AcDbCircle
 62
7
  6
CONTINUOUS
 10
457.0295597651
 20
146.4151843768
 40
3.0
100
AcDbArc
 50
89.9999998341
 51
180.0000001283
  0
ARC
  5
41F
100
AcDbEntity
  8
RUNDUNGEN
100
AcDbCircle
 62
7
  6
CONTINUOUS
 10
440.779678361
 20
154.9152760014
 40
1.9999693757
100
AcDbArc
 50
359.9973749857
 51
43.6032613698
  0
ARC
  5
420
100
AcDbEntity
  8
RUNDUNGEN
100
AcDbCircle
 62
7
  6
CONTINUOUS
 10
482.7794411279
 20
154.9152760387
 40
1.9999693644
100
AcDbArc
 50
136.3967385872
 51
180.0026260842
  0
ARC
  5
421
100
AcDbEntity
  8
RUNDUNGEN
100
AcDbCircle
 62
9
  6
CONTINUOUS
 10
-1241.067240216
 20
-263.1119238626
 40
2012.6271517903
100
AcDbArc
 50
11.4498456629
 51
11.6647581009
  0
ARC
  5
422
100
AcDbEntity
  8
BEZUGSACHSEN
100
AcDbCircle
 62
7
  6
CONTINUOUS
 10
711.1814758179
 20
195.4151843768
 40
23.5
100
AcDbArc
 50
289.9048655494
 51
360.0
  0
ARC
  5
423
100
AcDbEntity
  8
BEZUGSACHSEN
100
AcDbCircle
 62
7
  6
CONTINUOUS
 10
711.1814758179
 20
195.4151843768
 40
23.5
100
AcDbArc
 50
180.0
 51
250.0951344506
  0
ARC
  5
424
100
AcDbEntity
  8
BEZUGSACHSEN
100
AcDbCircle
 62
7
  6
CONTINUOUS
 10
711.1814758179
 20
672.4151843768
 40
23.5
100
AcDbArc
 50
0.0
 51
180.0
  0
ARC
  5
425
100
AcDbEntity
  8
0
100
AcDbCircle
 62
7
  6
CONTINUOUS
 10
667.1814758179
 20
372.4151843768
 40
20.0
100
AcDbArc
 50
325.821615884
 51
360.0
  0
ARC
  5
426
100
AcDbEntity
  8
0
100
AcDbCircle
 62
7
  6
CONTINUOUS
 10
667.6814758179
 20
372.4151843768
 40
20.0
100
AcDbArc
 50
325.0
 51
360.0
  0
ARC
  5
427
100
AcDbEntity
  8
BEZUGSACHSEN
100
AcDbCircle
 62
7
  6
CONTINUOUS
 10
711.1814758179
 20
672.4151843768
 40
11.5
100
AcDbArc
 50
0.0
 51
180.0
  0
ARC
  5
428
100
AcDbEntity
  8
0
100
AcDbCircle
 62
7
  6
CONTINUOUS
 10
711.1814758179
 20
193.9151843768
 40
8.0
100
AcDbArc
 50
0.0
 51
180.0
  0
ARC
  5
429
100
AcDbEntity
  8
0
100
AcDbCircle
 62
7
  6
CONTINUOUS
 10
693.6814758179
 20
372.4151843768
 40
6.5
100
AcDbArc
 50
157.380135052
 51
180.0
  0
ARC
  5
42A
100
AcDbEntity
  8
0
100
AcDbCircle
 62
7
  6
CONTINUOUS
 10
693.6814758179
 20
372.4151843768
 40
6.5
100
AcDbArc
 50
0.0
 51
22.619864948
  0
ARC
  5
42B
100
AcDbEntity
  8
RUNDUNGEN
100
AcDbCircle
 62
7
  6
CONTINUOUS
 10
711.1814758179
 20
132.2552258767
 40
4.1599309181
100
AcDbArc
 50
85.9085392858
 51
94.0914607142
  0
ARC
  5
42C
100
AcDbEntity
  8
RUNDUNGEN
100
AcDbCircle
 62
7
  6
CONTINUOUS
 10
694.1814758179
 20
161.9151843768
 40
2.0
100
AcDbArc
 50
90.0
 51
180.0
  0
ARC
  5
42D
100
AcDbEntity
  8
RUNDUNGEN
100
AcDbCircle
 62
7
  6
CONTINUOUS
 10
728.1814758179
 20
161.9151843768
 40
2.0
100
AcDbArc
 50
0.0
 51
90.0
  0
ARC
  5
42E
100
AcDbEntity
  8
RUNDUNGEN
100
AcDbCircle
 62
9
  6
CONTINUOUS
 10
689.2667959542
 20
139.0006250791
 40
1.625421274
100
AcDbArc
 50
60.6634049386
 51
68.5019651009
  0
ARC
  5
42F
100
AcDbEntity
  8
RUNDUNGEN
100
AcDbCircle
 62
7
  6
CONTINUOUS
 10
690.3016927213
 20
155.9151836503
 40
1.4999998718
100
AcDbArc
 50
269.9999999956
 51
309.9999896487
  0
ARC
  5
430
100
AcDbEntity
  8
BEZUGSACHSEN
100
AcDbCircle
 62
7
  6
CONTINUOUS
 10
690.8298788289
 20
135.3632370292
 40
1.0518395235
100
AcDbArc
 50
81.8891317753
 51
98.1108682247
  0
ARC
  5
431
100
AcDbEntity
  8
RUNDUNGEN
100
AcDbCircle
 62
7
  6
CONTINUOUS
 10
731.5337769595
 20
135.3654094695
 40
1.0497886423
100
AcDbArc
 50
91.4991712172
 51
98.1656440072
  0
ARC
  5
432
100
AcDbEntity
  8
RUNDUNGEN
100
AcDbCircle
 62
7
  6
CONTINUOUS
 10
687.6814758179
 20
153.4151843768
 40
1.0
100
AcDbArc
 50
90.0
 51
180.0
  0
ARC
  5
433
100
AcDbEntity
  8
RUNDUNGEN
100
AcDbCircle
 62
7
  6
CONTINUOUS
 10
687.6814758179
 20
141.4151843768
 40
1.0
100
AcDbArc
 50
180.0
 51
270.0
  0
ARC
  5
434
100
AcDbEntity
  8
RUNDUNGEN
100
AcDbCircle
 62
9
  6
CONTINUOUS
 10
689.7369453244
 20
139.4689039077
 40
0.9451994823
100
AcDbArc
 50
14.4400048806
 51
15.0861025462
  0
ARC
  5
435
100
AcDbEntity
  8
RUNDUNGEN
100
AcDbCircle
 62
9
  6
CONTINUOUS
 10
689.7477726472
 20
139.471564056
 40
0.9340508597
100
AcDbArc
 50
9.5608189129
 51
14.4476022943
  0
ARC
  5
436
100
AcDbEntity
  8
RUNDUNGEN
100
AcDbCircle
 62
9
  6
CONTINUOUS
 10
689.7750599936
 20
139.4759381686
 40
0.9064160493
100
AcDbArc
 50
0.0403745115
 51
9.5746572144
  0
SPLINE
  5
437
100
AcDbEntity
  8
RUNDUNGEN
100
AcDbSpline
 62
7
  6
CONTINUOUS
 70
0
 71
3
 72
10
 73
6
 74
0
 42
0.0000001
 43
0.0000001
 44
0.0000000001
 40
0.0
 40
0.0
 40
0.0
 40
0.0
 40
0.2500076816
 40
0.5000198715
 40
1.0
 40
1.0
 40
1.0
 40
1.0
 10
450.081439459
 20
136.548063135
 30
0.0
 10
450.1240315207
 20
136.883450519
 30
0.0
 10
450.1871360299
 20
137.5570200549
 30
0.0
 10
450.2661321989
 20
138.9070712181
 30
0.0
 10
450.2866007882
 20
139.9215596275
 30
0.0
 10
450.2866013226
 20
140.5976740349
 30
0.0
  0
SPLINE
  5
438
100
AcDbEntity
  8
RUNDUNGEN
100
AcDbSpline
 62
7
  6
CONTINUOUS
 70
0
 71
3
 72
9
 73
5
 74
0
 42
0.0000001
 43
0.0000001
 44
0.0000000001
 40
0.0
 40
0.0
 40
0.0
 40
0.0
 40
0.4999768536
 40
1.0
 40
1.0
 40
1.0
 40
1.0
 10
473.4705735382
 20
136.6049218257
 30
0.0
 10
473.3891908559
 20
137.2664408618
 30
0.0
 10
473.3006400299
 20
138.5982249428
 30
0.0
 10
473.2725182341
 20
139.931106073
 30
0.0
 10
473.2725182077
 20
140.597674031
 30
0.0
  0
SPLINE
  5
439
100
AcDbEntity
  8
BEZUGSACHSEN
100
AcDbSpline
 62
7
  6
CONTINUOUS
 70
0
 71
3
 72
33
 73
29
 74
0
 42
0.0000001
 43
0.0000001
 44
0.0000000001
 40
0.0
 40
0.0
 40
0.0
 40
0.0
 40
0.0691994779
 40
0.1378883349
 40
0.2058586327
 40
0.2727488863
 40
0.3055961069
 40
0.3378653709
 40
0.3693342195
 40
0.399637963
 40
0.4281558003
 40
0.4538368306
 40
0.465207595
 40
0.4754525676
 40
0.4848048045
 40
0.4939326037
 40
0.5036534977
 40
0.5144357088
 40
0.5391457311
 40
0.5670456534
 40
0.5969565047
 40
0.6281633299
 40
0.6602501121
 40
0.7261374698
 40
0.7934841617
 40
0.8617514635
 40
0.9306481579
 40
1.0
 40
1.0
 40
1.0
 40
1.0
 10
449.6070519795
 20
137.3122726723
 30
0.0
 10
449.4567936042
 20
138.1273066719
 30
0.0
 10
449.1484092733
 20
139.7497271941
 30
0.0
 10
448.6538552522
 20
142.1652006837
 30
0.0
 10
448.1200348927
 20
144.5440116047
 30
0.0
 10
447.6290710002
 20
146.492071874
 30
0.0
 10
447.1963854214
 20
148.0128209043
 30
0.0
 10
446.8505822511
 20
149.1168856754
 30
0.0
 10
446.4762490142
 20
150.1793989264
 30
0.0
 10
446.0662998311
 20
151.1810363956
 30
0.0
 10
445.612127855
 20
152.0860866796
 30
0.0
 10
445.1717249444
 20
152.7433046949
 30
0.0
 10
444.7666127096
 20
153.1426362006
 30
0.0
 10
444.4531192389
 20
153.3474651285
 30
0.0
 10
444.1162613542
 20
153.4457520218
 30
0.0
 10
443.7721477599
 20
153.4136607124
 30
0.0
 10
443.4458631973
 20
153.2611791155
 30
0.0
 10
443.0239951455
 20
152.916138448
 30
0.0
 10
442.5665667062
 20
152.2999812712
 30
0.0
 10
442.0996375437
 20
151.4283010629
 30
0.0
 10
441.6789567421
 20
150.4473901172
 30
0.0
 10
441.2960391798
 20
149.398583444
 30
0.0
 10
440.8216971128
 20
147.9256364392
 30
0.0
 10
440.2941926435
 20
146.0164836734
 30
0.0
 10
439.7294232586
 20
143.6699766831
 30
0.0
 10
439.211391605
 20
141.2758849471
 30
0.0
 10
438.7289631344
 20
138.8499685695
 30
0.0
 10
438.4269275353
 20
137.2219707987
 30
0.0
 10
438.2795597651
 20
136.4045549103
 30
0.0
  0
SPLINE
  5
43A
100
AcDbEntity
  8
BEZUGSACHSEN
100
AcDbSpline
 62
7
  6
CONTINUOUS
 70
0
 71
3
 72
33
 73
29
 74
0
 42
0.0000001
 43
0.0000001
 44
0.0000000001
 40
0.0
 40
0.0
 40
0.0
 40
0.0
 40
0.0693518421
 40
0.1382485363
 40
0.2065158381
 40
0.27386253
 40
0.3397498872
 40
0.3718366697
 40
0.4030434946
 40
0.4329543447
 40
0.4608542659
 40
0.4855642868
 40
0.4963464973
 40
0.5060673943
 40
0.515195193
 40
0.5245474273
 40
0.5347924016
 40
0.5461631616
 40
0.5718441959
 40
0.6003620342
 40
0.6306657791
 40
0.6621346286
 40
0.6944038927
 40
0.7272511132
 40
0.7941413671
 40
0.862111665
 40
0.9308005221
 40
1.0
 40
1.0
 40
1.0
 40
1.0
 10
485.2795597651
 20
136.4045549103
 30
0.0
 10
485.1321919951
 20
137.2219707974
 30
0.0
 10
484.8301563959
 20
138.8499685652
 30
0.0
 10
484.3477279268
 20
141.2758849389
 30
0.0
 10
483.8296962706
 20
143.6699766704
 30
0.0
 10
483.2649269011
 20
146.0164836557
 30
0.0
 10
482.7374224138
 20
147.9256364121
 30
0.0
 10
482.263080371
 20
149.3985834161
 30
0.0
 10
481.8801628216
 20
150.447390081
 30
0.0
 10
481.4594819997
 20
151.4283009722
 30
0.0
 10
480.9925529009
 20
152.2999811943
 30
0.0
 10
480.5351243845
 20
152.9161382009
 30
0.0
 10
480.1132565383
 20
153.2611791536
 30
0.0
 10
479.7869718582
 20
153.4136606273
 30
0.0
 10
479.4428583225
 20
153.4457518849
 30
0.0
 10
479.1060003152
 20
153.3474654013
 30
0.0
 10
478.7925070751
 20
153.1426361856
 30
0.0
 10
478.3873945754
 20
152.7433049923
 30
0.0
 10
477.9469917686
 20
152.0860868124
 30
0.0
 10
477.4928197134
 20
151.1810365221
 30
0.0
 10
477.0828705285
 20
150.1793989993
 30
0.0
 10
476.7085373021
 20
149.1168857197
 30
0.0
 10
476.3627341255
 20
148.0128209388
 30
0.0
 10
475.9300485282
 20
146.4920719112
 30
0.0
 10
475.4390846497
 20
144.544011636
 30
0.0
 10
474.9052642838
 20
142.165200713
 30
0.0
 10
474.4107102641
 20
139.7497272226
 30
0.0
 10
474.1023259304
 20
138.127306701
 30
0.0
 10
473.9520675556
 20
137.3122727015
 30
0.0
  0
SPLINE
  5
43B
100
AcDbEntity
  8
RUNDUNGEN
100
AcDbSpline
 62
7
  6
CONTINUOUS
 70
0
 71
3
 72
17
 73
13
 74
0
 42
0.0000001
 43
0.0000001
 44
0.0000000001
 40
0.0
 40
0.0
 40
0.0
 40
0.0
 40
0.2575276609
 40
0.3861773263
 40
0.5145652338
 40
0.6422104752
 40
0.7053152708
 40
0.7668990432
 40
0.8233897872
 40
0.8803336341
 40
0.9394866903
 40
1.0
 40
1.0
 40
1.0
 40
1.0
 10
450.2866013203
 20
136.0036875681
 30
0.0
 10
450.286600826
 20
136.063851724
 30
0.0
 10
450.2842665672
 20
136.1541117293
 30
0.0
 10
450.2745638865
 20
136.2739833818
 30
0.0
 10
450.2626394418
 20
136.3630622985
 30
0.0
 10
450.2470852191
 20
136.4362602691
 30
0.0
 10
450.2266986723
 20
136.491666633
 30
0.0
 10
450.2063616054
 20
136.5291847331
 30
0.0
 10
450.1667903017
 20
136.5523816909
 30
0.0
 10
450.1266239641
 20
136.5335473934
 30
0.0
 10
450.0976215062
 20
136.5048368142
 30
0.0
 10
450.0799097105
 20
136.4829771012
 30
0.0
 10
450.0715122395
 20
136.4716041403
 30
0.0
  0
SPLINE
  5
43C
100
AcDbEntity
  8
RUNDUNGEN
100
AcDbSpline
 62
7
  6
CONTINUOUS
 70
0
 71
3
 72
8
 73
4
 74
0
 42
0.0000001
 43
0.0000001
 44
0.0000000001
 40
0.0
 40
0.0
 40
0.0
 40
0.0
 40
1.0
 40
1.0
 40
1.0
 40
1.0
 10
450.0715122395
 20
136.4716041403
 30
0.0
 10
450.050727424
 20
136.4434541749
 30
0.0
 10
450.0181964262
 20
136.4153606042
 30
0.0
 10
449.983208474
 20
136.4148387728
 30
0.0
  0
SPLINE
  5
43D
100
AcDbEntity
  8
RUNDUNGEN
100
AcDbSpline
 62
7
  6
CONTINUOUS
 70
0
 71
3
 72
17
 73
13
 74
0
 42
0.0000001
 43
0.0000001
 44
0.0000000001
 40
0.0
 40
0.0
 40
0.0
 40
0.0
 40
0.0605250694
 40
0.1196389252
 40
0.1762106692
 40
0.2331455896
 40
0.2946709533
 40
0.357727729
 40
0.4853945541
 40
0.6137925019
 40
0.7424519794
 40
1.0
 40
1.0
 40
1.0
 40
1.0
 10
473.4876048223
 20
136.4716071056
 30
0.0
 10
473.4792048685
 20
136.4829836168
 30
0.0
 10
473.4615752506
 20
136.5049239783
 30
0.0
 10
473.4323893945
 20
136.5332950799
 30
0.0
 10
473.3925017024
 20
136.5524744303
 30
0.0
 10
473.3525856373
 20
136.5294817024
 30
0.0
 10
473.3326350993
 20
136.4916276968
 30
0.0
 10
473.3119100358
 20
136.4363982539
 30
0.0
 10
473.2965383945
 20
136.3631109224
 30
0.0
 10
473.2845481683
 20
136.2740404059
 30
0.0
 10
473.2748614126
 20
136.1541368974
 30
0.0
 10
473.2725185247
 20
136.0638631722
 30
0.0
 10
473.27251821
 20
136.0036875216
 30
0.0
  0
SPLINE
  5
43E
100
AcDbEntity
  8
RUNDUNGEN
100
AcDbSpline
 62
7
  6
CONTINUOUS
 70
0
 71
3
 72
8
 73
4
 74
0
 42
0.0000001
 43
0.0000001
 44
0.0000000001
 40
0.0
 40
0.0
 40
0.0
 40
0.0
 40
1.0
 40
1.0
 40
1.0
 40
1.0
 10
473.5759110542
 20
136.4148387722
 30
0.0
 10
473.540921876
 20
136.4153606217
 30
0.0
 10
473.5083903539
 20
136.4434561448
 30
0.0
 10
473.4876048223
 20
136.4716071056
 30
0.0
  0
SPLINE
  5
43F
100
AcDbEntity
  8
BEZUGSACHSEN
100
AcDbSpline
 62
7
  6
CONTINUOUS
 70
0
 71
3
 72
29
 73
25
 74
0
 42
0.0000001
 43
0.0000001
 44
0.0000000001
 40
0.0
 40
0.0
 40
0.0
 40
0.0
 40
0.0642625812
 40
0.1283895377
 40
0.1923279313
 40
0.2559888156
 40
0.3192046575
 40
0.3505581506
 40
0.3816446591
 40
0.4123394645
 40
0.4424404466
 40
0.4716704579
 40
0.4999999987
 40
0.5283295364
 40
0.5575595499
 40
0.5876605343
 40
0.6183553398
 40
0.6494418484
 40
0.6807953417
 40
0.7440111842
 40
0.8076720685
 40
0.8716104622
 40
0.9357374187
 40
1.0
 40
1.0
 40
1.0
 40
1.0
 10
731.3846697957
 20
136.4045549103
 30
0.0
 10
731.1230490298
 20
137.2423776587
 30
0.0
 10
730.586155372
 20
138.9118825941
 30
0.0
 10
729.7285113386
 20
141.3950598723
 30
0.0
 10
728.8047550428
 20
143.8459086312
 30
0.0
 10
727.7929699657
 20
146.2484529161
 30
0.0
 10
726.8449988254
 20
148.1929680458
 30
0.0
 10
725.9903500222
 20
149.6821493645
 30
0.0
 10
725.2902997933
 20
150.7455115948
 30
0.0
 10
724.5116010699
 20
151.7325238946
 30
0.0
 10
723.6288067807
 20
152.5952981623
 30
0.0
 10
722.6089065197
 20
153.2484800574
 30
0.0
 10
721.4314759313
 20
153.5178924572
 30
0.0
 10
720.2540453525
 20
153.2484800135
 30
0.0
 10
719.2341449859
 20
152.5952982513
 30
0.0
 10
718.3513506501
 20
151.7325239294
 30
0.0
 10
717.5726518857
 20
150.7455116211
 30
0.0
 10
716.8726016307
 20
149.6821493997
 30
0.0
 10
716.0179528042
 20
148.1929680799
 30
0.0
 10
715.0699816903
 20
146.2484529253
 30
0.0
 10
714.0581965934
 20
143.8459086395
 30
0.0
 10
713.134440298
 20
141.3950598768
 30
0.0
 10
712.2767962636
 20
138.9118825966
 30
0.0
 10
711.7399026062
 20
137.2423776594
 30
0.0
 10
711.47828184
 20
136.4045549103
 30
0.0
  0
SPLINE
  5
440
100
AcDbEntity
  8
RUNDUNGEN
100
AcDbSpline
 62
9
  6
CONTINUOUS
 70
0
 71
3
 72
11
 73
7
 74
0
 42
0.0000001
 43
0.0000001
 44
0.0000000001
 40
0.0
 40
0.0
 40
0.0
 40
0.0
 40
0.1914459367
 40
0.4307802455
 40
0.7057396394
 40
1.0
 40
1.0
 40
1.0
 40
1.0
 10
731.1814764458
 20
152.4593156523
 30
0.0
 10
730.9700507595
 20
151.9461371597
 30
0.0
 10
730.5702401177
 20
150.7593225908
 30
0.0
 10
730.1692504519
 20
148.7458919665
 30
0.0
 10
730.0823453531
 20
146.3919632659
 30
0.0
 10
730.3110097511
 20
144.7480925243
 30
0.0
 10
730.4946859155
 20
143.915003547
 30
0.0
  0
SPLINE
  5
441
100
AcDbEntity
  8
RUNDUNGEN
100
AcDbSpline
 62
9
  6
CONTINUOUS
 70
0
 71
3
 72
8
 73
4
 74
0
 42
0.0000001
 43
0.0000001
 44
0.0000000001
 40
0.0
 40
0.0
 40
0.0
 40
0.0
 40
1.0
 40
1.0
 40
1.0
 40
1.0
 10
730.4946895285
 20
143.9150035476
 30
0.0
 10
730.7246899236
 20
142.809449445
 30
0.0
 10
730.9535824183
 20
141.7036643852
 30
0.0
 10
731.1814758179
 20
140.5976740354
 30
0.0
  0
SPLINE
  5
442
100
AcDbEntity
  8
BEZUGSACHSEN
100
AcDbSpline
 62
7
  6
CONTINUOUS
 70
0
 71
3
 72
29
 73
25
 74
0
 42
0.0000001
 43
0.0000001
 44
0.0000000001
 40
0.0
 40
0.0
 40
0.0
 40
0.0
 40
0.0642625812
 40
0.1283895377
 40
0.1923279313
 40
0.2559888156
 40
0.3192046575
 40
0.3505581506
 40
0.3816446591
 40
0.4123394645
 40
0.4424404466
 40
0.4716704579
 40
0.4999999987
 40
0.5283295364
 40
0.5575595499
 40
0.5876605343
 40
0.6183553398
 40
0.6494418484
 40
0.6807953417
 40
0.7440111842
 40
0.8076720685
 40
0.8716104622
 40
0.9357374187
 40
1.0
 40
1.0
 40
1.0
 40
1.0
 10
710.8846697957
 20
136.4045549103
 30
0.0
 10
710.6230490298
 20
137.2423776587
 30
0.0
 10
710.086155372
 20
138.9118825941
 30
0.0
 10
709.2285113386
 20
141.3950598723
 30
0.0
 10
708.3047550428
 20
143.8459086312
 30
0.0
 10
707.2929699657
 20
146.2484529161
 30
0.0
 10
706.3449988254
 20
148.1929680458
 30
0.0
 10
705.4903500222
 20
149.6821493645
 30
0.0
 10
704.7902997933
 20
150.7455115948
 30
0.0
 10
704.0116010699
 20
151.7325238946
 30
0.0
 10
703.1288067807
 20
152.5952981623
 30
0.0
 10
702.1089065197
 20
153.2484800574
 30
0.0
 10
700.9314759313
 20
153.5178924572
 30
0.0
 10
699.7540453525
 20
153.2484800135
 30
0.0
 10
698.7341449859
 20
152.5952982513
 30
0.0
 10
697.8513506501
 20
151.7325239294
 30
0.0
 10
697.0726518857
 20
150.7455116211
 30
0.0
 10
696.3726016307
 20
149.6821493997
 30
0.0
 10
695.5179528042
 20
148.1929680799
 30
0.0
 10
694.5699816903
 20
146.2484529253
 30
0.0
 10
693.5581965934
 20
143.8459086395
 30
0.0
 10
692.634440298
 20
141.3950598768
 30
0.0
 10
691.7767962636
 20
138.9118825966
 30
0.0
 10
691.2399026062
 20
137.2423776594
 30
0.0
 10
690.97828184
 20
136.4045549103
 30
0.0
  0
SPLINE
  5
443
100
AcDbEntity
  8
RUNDUNGEN
100
AcDbSpline
 62
9
  6
CONTINUOUS
 70
0
 71
3
 72
8
 73
4
 74
0
 42
0.0000001
 43
0.0000001
 44
0.0000000001
 40
0.0
 40
0.0
 40
0.0
 40
0.0
 40
1.0
 40
1.0
 40
1.0
 40
1.0
 10
690.5836231768
 20
144.4401784677
 30
0.0
 10
690.7533025317
 20
145.3450629271
 30
0.0
 10
690.9231897691
 20
146.2499084337
 30
0.0
 10
691.0932993664
 20
147.1547121103
 30
0.0
  0
SPLINE
  5
444
100
AcDbEntity
  8
RUNDUNGEN
100
AcDbSpline
 62
9
  6
CONTINUOUS
 70
0
 71
3
 72
9
 73
5
 74
0
 42
0.0000001
 43
0.0000001
 44
0.0000000001
 40
0.0
 40
0.0
 40
0.0
 40
0.0
 40
0.5664774461
 40
1.0
 40
1.0
 40
1.0
 40
1.0
 10
691.0932993664
 20
147.1547121103
 30
0.0
 10
691.3476486973
 20
148.5083885826
 30
0.0
 10
691.5898762766
 20
150.9444903207
 30
0.0
 10
691.4202177445
 20
153.3785554437
 30
0.0
 10
691.2763393926
 20
154.4227807356
 30
0.0
  0
SPLINE
  5
445
100
AcDbEntity
  8
RUNDUNGEN
100
AcDbSpline
 62
9
  6
CONTINUOUS
 70
0
 71
3
 72
10
 73
6
 74
0
 42
0.0000001
 43
0.0000001
 44
0.0000000001
 40
0.0
 40
0.0
 40
0.0
 40
0.0
 40
0.5217282314
 40
0.7664891249
 40
1.0
 40
1.0
 40
1.0
 40
1.0
 10
731.1814758179
 20
152.4593158524
 30
0.0
 10
731.3064897155
 20
152.4593174509
 30
0.0
 10
731.500416002
 20
152.3957478611
 30
0.0
 10
731.6535668226
 20
152.2041562696
 30
0.0
 10
731.6814758102
 20
152.0880604459
 30
0.0
 10
731.6814758179
 20
152.0321077431
 30
0.0
  0
SPLINE
  5
446
100
AcDbEntity
  8
RUNDUNGEN
100
AcDbSpline
 62
9
  6
CONTINUOUS
 70
0
 71
3
 72
9
 73
5
 74
0
 42
0.0000001
 43
0.0000001
 44
0.0000000001
 40
0.0
 40
0.0
 40
0.0
 40
0.0
 40
0.596762671
 40
1.0
 40
1.0
 40
1.0
 40
1.0
 10
731.181477026
 20
152.4593131301
 30
0.0
 10
731.2347954651
 20
152.750740027
 30
0.0
 10
731.3318009891
 20
153.2376179647
 30
0.0
 10
731.4415973461
 20
153.7220684118
 30
0.0
 10
731.4943371775
 20
153.9151844197
 30
0.0
  0
SPLINE
  5
447
100
AcDbEntity
  8
RUNDUNGEN
100
AcDbSpline
 62
7
  6
CONTINUOUS
 70
0
 71
3
 72
9
 73
5
 74
0
 42
0.0000001
 43
0.0000001
 44
0.0000000001
 40
0.0
 40
0.0
 40
0.0
 40
0.0
 40
0.3081716976
 40
1.0
 40
1.0
 40
1.0
 40
1.0
 10
731.5572940792
 20
136.4716041403
 30
0.0
 10
731.554165341
 20
136.4642647238
 30
0.0
 10
731.5438241611
 20
136.4418049455
 30
0.0
 10
731.5242171315
 20
136.4153013165
 30
0.0
 10
731.5063118764
 20
136.4148387728
 30
0.0
  0
SPLINE
  5
448
100
AcDbEntity
  8
RUNDUNGEN
100
AcDbSpline
 62
9
  6
CONTINUOUS
 70
0
 71
3
 72
9
 73
5
 74
0
 42
0.0000001
 43
0.0000001
 44
0.0000000001
 40
0.0
 40
0.0
 40
0.0
 40
0.0
 40
0.2491718606
 40
1.0
 40
1.0
 40
1.0
 40
1.0
 10
731.5572955342
 20
136.471606611
 30
0.0
 10
731.5262309847
 20
136.8143202139
 30
0.0
 10
731.4014115894
 20
138.1897173117
 30
0.0
 10
731.2760020557
 20
139.5650608683
 30
0.0
 10
731.1814758179
 20
140.5976740349
 30
0.0
  0
SPLINE
  5
449
100
AcDbEntity
  8
RUNDUNGEN
100
AcDbSpline
 62
9
  6
CONTINUOUS
 70
0
 71
3
 72
9
 73
5
 74
0
 42
0.0000001
 43
0.0000001
 44
0.0000000001
 40
0.0
 40
0.0
 40
0.0
 40
0.0
 40
0.4945917769
 40
1.0
 40
1.0
 40
1.0
 40
1.0
 10
690.9853396432
 20
154.4227806901
 30
0.0
 10
690.8535883489
 20
154.3187645033
 30
0.0
 10
690.5440800227
 20
154.1585153913
 30
0.0
 10
690.1984395431
 20
154.1214080076
 30
0.0
 10
690.0272608537
 20
154.1324337897
 30
0.0
  0
SPLINE
  5
44A
100
AcDbEntity
  8
RUNDUNGEN
100
AcDbSpline
 62
7
  6
CONTINUOUS
 70
0
 71
3
 72
12
 73
8
 74
0
 42
0.0000001
 43
0.0000001
 44
0.0000000001
 40
0.0
 40
0.0
 40
0.0
 40
0.0
 40
0.0659309752
 40
0.1629982284
 40
0.4143706149
 40
0.6996315622
 40
1.0
 40
1.0
 40
1.0
 40
1.0
 10
690.5836231728
 20
144.4401784684
 30
0.0
 10
690.5974710978
 20
144.4388809343
 30
0.0
 10
690.6251459052
 20
144.410273167
 30
0.0
 10
690.651033319
 20
144.3281758919
 30
0.0
 10
690.6703514185
 20
144.1942214897
 30
0.0
 10
690.6797831883
 20
144.0183254565
 30
0.0
 10
690.6814758179
 20
143.8946517035
 30
0.0
 10
690.6814758179
 20
143.8312869697
 30
0.0
  0
SPLINE
  5
44B
100
AcDbEntity
  8
RUNDUNGEN
100
AcDbSpline
 62
9
  6
CONTINUOUS
 70
0
 71
3
 72
9
 73
5
 74
0
 42
0.0000001
 43
0.0000001
 44
0.0000000001
 40
0.0
 40
0.0
 40
0.0
 40
0.0
 40
0.4774771146
 40
1.0
 40
1.0
 40
1.0
 40
1.0
 10
690.6495692528
 20
139.7149112789
 30
0.0
 10
690.6108980729
 20
139.8583729348
 30
0.0
 10
690.4552858297
 20
140.1409672695
 30
0.0
 10
690.2048009289
 20
140.3377545203
 30
0.0
 10
690.0631537906
 20
140.4175966788
 30
0.0
  0
SPLINE
  5
44C
100
AcDbEntity
  8
RUNDUNGEN
100
AcDbSpline
 62
9
  6
CONTINUOUS
 70
0
 71
3
 72
9
 73
5
 74
0
 42
0.0000001
 43
0.0000001
 44
0.0000000001
 40
0.0
 40
0.0
 40
0.0
 40
0.0
 40
0.2458599838
 40
1.0
 40
1.0
 40
1.0
 40
1.0
 10
689.8624629759
 20
140.5129660186
 30
0.0
 10
689.8094911001
 20
140.5338972303
 30
0.0
 10
689.5898678599
 20
140.6082258411
 30
0.0
 10
689.3561841481
 20
140.6397413825
 30
0.0
 10
689.1814758179
 20
140.6397413825
 30
0.0
  0
SPLINE
  5
44D
100
AcDbEntity
  8
RUNDUNGEN
100
AcDbSpline
 62
9
  6
CONTINUOUS
 70
0
 71
3
 72
10
 73
6
 74
0
 42
0.0000001
 43
0.0000001
 44
0.0000000001
 40
0.0
 40
0.0
 40
0.0
 40
0.0
 40
0.2355889521
 40
0.4836882019
 40
1.0
 40
1.0
 40
1.0
 40
1.0
 10
691.2763398044
 20
154.4227804309
 30
0.0
 10
691.2342831699
 20
154.2822221406
 30
0.0
 10
691.0919411064
 20
154.0081513337
 30
0.0
 10
690.6361162223
 20
153.572927341
 30
0.0
 10
690.1508671431
 20
153.4145014049
 30
0.0
 10
689.8296272619
 20
153.4006521712
 30
0.0
  0
LINE
  5
44E
100
AcDbEntity
  8
RUNDUNGEN
100
AcDbLine
 62
7
  6
CONTINUOUS
 10
689.1814758179
 20
144.5715486604
 11
690.5836231728
 21
144.4401784684
  0
SPLINE
  5
44F
100
AcDbEntity
  8
RUNDUNGEN
100
AcDbSpline
 62
9
  6
CONTINUOUS
 70
0
 71
3
 72
13
 73
9
 74
0
 42
0.0000001
 43
0.0000001
 44
0.0000000001
 40
0.0
 40
0.0
 40
0.0
 40
0.0
 40
0.2829360143
 40
0.5547074326
 40
0.6821564954
 40
0.7998256309
 40
0.90403383
 40
1.0
 40
1.0
 40
1.0
 40
1.0
 10
689.9117340527
 20
140.415185218
 30
0.0
 10
689.8349134681
 20
140.4152362135
 30
0.0
 10
689.6842955205
 20
140.4197446487
 30
0.0
 10
689.4997175736
 20
140.4396693928
 30
0.0
 10
689.3627625981
 20
140.4719868328
 30
0.0
 10
689.2742944518
 20
140.5066829807
 30
0.0
 10
689.2019974791
 20
140.5582748787
 30
0.0
 10
689.1814763289
 20
140.6136853892
 30
0.0
 10
689.1814758179
 20
140.6397413825
 30
0.0
  0
SPLINE
  5
450
100
AcDbEntity
  8
RUNDUNGEN
100
AcDbSpline
 62
9
  6
CONTINUOUS
 70
0
 71
3
 72
11
 73
7
 74
0
 42
0.0000001
 43
0.0000001
 44
0.0000000001
 40
0.0
 40
0.0
 40
0.0
 40
0.0
 40
0.4316447941
 40
0.7454877688
 40
0.9360695651
 40
1.0
 40
1.0
 40
1.0
 40
1.0
 10
690.9853398014
 20
154.4227805003
 30
0.0
 10
691.0260986561
 20
154.471855251
 30
0.0
 10
691.0957533201
 20
154.5571663209
 30
0.0
 10
691.1845344155
 20
154.6634430691
 30
0.0
 10
691.2348908543
 20
154.7304795339
 30
0.0
 10
691.2609979347
 20
154.7580219891
 30
0.0
 10
691.2658726628
 20
154.7661157589
 30
0.0
  0
SPLINE
  5
451
100
AcDbEntity
  8
RUNDUNGEN
100
AcDbSpline
 62
7
  6
CONTINUOUS
 70
0
 71
3
 72
18
 73
14
 74
0
 42
0.0000001
 43
0.0000001
 44
0.0000000001
 40
0.0
 40
0.0
 40
0.0
 40
0.0
 40
0.2773457653
 40
0.4156148734
 40
0.5530583503
 40
0.6211178043
 40
0.6882164294
 40
0.7533054129
 40
0.8127701398
 40
0.8543232038
 40
0.8934371193
 40
0.9441626588
 40
1.0
 40
1.0
 40
1.0
 40
1.0
 10
731.6814758179
 20
136.0036875681
 30
0.0
 10
731.6814755325
 20
136.0638343381
 30
0.0
 10
731.6801447361
 20
136.1539807439
 30
0.0
 10
731.674514166
 20
136.2738054395
 30
0.0
 10
731.6688626811
 20
136.3481396322
 30
0.0
 10
731.6621472932
 20
136.4069357711
 30
0.0
 10
731.6559145109
 20
136.4497625116
 30
0.0
 10
731.6466426577
 20
136.4909490138
 30
0.0
 10
731.637969229
 20
136.5239293648
 30
0.0
 10
731.6133343143
 20
136.5531917235
 30
0.0
 10
731.5862383884
 20
136.530427526
 30
0.0
 10
731.5722923945
 20
136.5039629653
 30
0.0
 10
731.5620427334
 20
136.482743397
 30
0.0
 10
731.5572940792
 20
136.4716041403
 30
0.0
  0
SPLINE
  5
452
100
AcDbEntity
  8
RUNDUNGEN
100
AcDbSpline
 62
9
  6
CONTINUOUS
 70
0
 71
3
 72
12
 73
8
 74
0
 42
0.0000001
 43
0.0000001
 44
0.0000000001
 40
0.0
 40
0.0
 40
0.0
 40
0.0
 40
0.0679147792
 40
0.1577880442
 40
0.3920890945
 40
0.6811483405
 40
1.0
 40
1.0
 40
1.0
 40
1.0
 10
731.078886706
 20
153.9151843768
 30
0.0
 10
730.9705995304
 20
153.7079247385
 30
0.0
 10
730.7477142021
 20
153.2115280467
 30
0.0
 10
730.2802924049
 20
151.9443628246
 30
0.0
 10
729.7665301679
 20
149.8873675018
 30
0.0
 10
729.5308211581
 20
146.9813128465
 30
0.0
 10
729.771837294
 20
144.8861806451
 30
0.0
 10
729.9938420048
 20
143.8109954702
 30
0.0
  0
SPLINE
  5
453
100
AcDbEntity
  8
RUNDUNGEN
100
AcDbSpline
 62
9
  6
CONTINUOUS
 70
0
 71
3
 72
8
 73
4
 74
0
 42
0.0000001
 43
0.0000001
 44
0.0000000001
 40
0.0
 40
0.0
 40
0.0
 40
0.0
 40
1.0
 40
1.0
 40
1.0
 40
1.0
 10
689.1814758179
 20
144.5715486604
 30
0.0
 10
689.3606635292
 20
145.5194804635
 30
0.0
 10
689.5401255778
 20
146.4673604562
 30
0.0
 10
689.7198830663
 20
147.4151843768
 30
0.0
  0
SPLINE
  5
454
100
AcDbEntity
  8
RUNDUNGEN
100
AcDbSpline
 62
9
  6
CONTINUOUS
 70
0
 71
3
 72
9
 73
5
 74
0
 42
0.0000001
 43
0.0000001
 44
0.0000000001
 40
0.0
 40
0.0
 40
0.0
 40
0.0
 40
0.5728597531
 40
1.0
 40
1.0
 40
1.0
 40
1.0
 10
689.7198830663
 20
147.4151843768
 30
0.0
 10
689.9777004032
 20
148.5354298369
 30
0.0
 10
690.2096653856
 20
150.5526951144
 30
0.0
 10
689.9934340066
 20
152.5593289719
 30
0.0
 10
689.8296272621
 20
153.4006524627
 30
0.0
  0
SPLINE
  5
455
100
AcDbEntity
  8
RUNDUNGEN
100
AcDbSpline
 62
9
  6
CONTINUOUS
 70
0
 71
3
 72
9
 73
5
 74
0
 42
0.0000001
 43
0.0000001
 44
0.0000000001
 40
0.0
 40
0.0
 40
0.0
 40
0.0
 40
0.5416129935
 40
1.0
 40
1.0
 40
1.0
 40
1.0
 10
689.8296272621
 20
153.4006524627
 30
0.0
 10
689.8026255079
 20
153.5392670349
 30
0.0
 10
689.8035175483
 20
153.8126117722
 30
0.0
 10
689.9432501274
 20
154.0474233995
 30
0.0
 10
690.0272608537
 20
154.1324360847
 30
0.0
  0
SPLINE
  5
456
100
AcDbEntity
  8
RUNDUNGEN
100
AcDbSpline
 62
9
  6
CONTINUOUS
 70
0
 71
3
 72
11
 73
7
 74
0
 42
0.0000001
 43
0.0000001
 44
0.0000000001
 40
0.0
 40
0.0
 40
0.0
 40
0.0
 40
0.4318714797
 40
0.7456902083
 40
0.9361429594
 40
1.0
 40
1.0
 40
1.0
 40
1.0
 10
690.0272608537
 20
154.1324360847
 30
0.0
 10
690.0671315998
 20
154.1727837404
 30
0.0
 10
690.1351300172
 20
154.2431621226
 30
0.0
 10
690.2224199837
 20
154.3301369905
 30
0.0
 10
690.270944202
 20
154.3864231388
 30
0.0
 10
690.2972421527
 20
154.4080743185
 30
0.0
 10
690.3016923141
 20
154.4151836409
 30
0.0
  0
SPLINE
  5
457
100
AcDbEntity
  8
RUNDUNGEN
100
AcDbSpline
 62
9
  6
CONTINUOUS
 70
0
 71
3
 72
10
 73
6
 74
0
 42
0.0000001
 43
0.0000001
 44
0.0000000001
 40
0.0
 40
0.0
 40
0.0
 40
0.0
 40
0.6861575527
 40
0.886102723
 40
1.0
 40
1.0
 40
1.0
 40
1.0
 10
701.7501271621
 20
163.5915624154
 30
0.0
 10
701.6929295845
 20
163.6719169571
 30
0.0
 10
701.6187844092
 20
163.7779882811
 30
0.0
 10
701.5292327089
 20
163.8861455793
 30
0.0
 10
701.4888697207
 20
163.9151957553
 30
0.0
 10
701.4724973927
 20
163.9151843425
 30
0.0
  0
SPLINE
  5
458
100
AcDbEntity
  8
RUNDUNGEN
100
AcDbSpline
 62
9
  6
CONTINUOUS
 70
0
 71
3
 72
9
 73
5
 74
0
 42
0.0000001
 43
0.0000001
 44
0.0000000001
 40
0.0
 40
0.0
 40
0.0
 40
0.0
 40
0.5818073513
 40
1.0
 40
1.0
 40
1.0
 40
1.0
 10
702.8581513564
 20
161.9155558897
 30
0.0
 10
702.6767087212
 20
162.2605186484
 30
0.0
 10
702.2986792941
 20
162.8165952325
 30
0.0
 10
701.9127929554
 20
163.3634630596
 30
0.0
 10
701.7501271621
 20
163.5915624154
 30
0.0
  0
SPLINE
  5
459
100
AcDbEntity
  8
RUNDUNGEN
100
AcDbSpline
 62
9
  6
CONTINUOUS
 70
0
 71
3
 72
11
 73
7
 74
0
 42
0.0000001
 43
0.0000001
 44
0.0000000001
 40
0.0
 40
0.0
 40
0.0
 40
0.0
 40
0.2516181398
 40
0.500133701
 40
0.7485075162
 40
1.0
 40
1.0
 40
1.0
 40
1.0
 10
711.1814758179
 20
156.2944947217
 30
0.0
 10
710.3175101616
 20
156.2945680643
 30
0.0
 10
708.585732491
 20
156.5699196415
 30
0.0
 10
706.2855103119
 20
157.8435677948
 30
0.0
 10
704.6362044071
 20
159.8910292497
 30
0.0
 10
704.0386432019
 20
161.524014341
 30
0.0
 10
703.8221129646
 20
162.3599604962
 30
0.0
  0
SPLINE
  5
45A
100
AcDbEntity
  8
RUNDUNGEN
100
AcDbSpline
 62
9
  6
CONTINUOUS
 70
0
 71
3
 72
10
 73
6
 74
0
 42
0.0000001
 43
0.0000001
 44
0.0000000001
 40
0.0
 40
0.0
 40
0.0
 40
0.0
 40
0.580528444
 40
0.8188614284
 40
1.0
 40
1.0
 40
1.0
 40
1.0
 10
703.8221129646
 20
162.3599604962
 30
0.0
 10
703.6781062982
 20
162.9189903527
 30
0.0
 10
703.4466075776
 20
163.700560415
 30
0.0
 10
703.2336392535
 20
164.6717048901
 30
0.0
 10
703.1814717853
 20
165.0878154459
 30
0.0
 10
703.1814758179
 20
165.2679404539
 30
0.0
  0
SPLINE
  5
45B
100
AcDbEntity
  8
RUNDUNGEN
100
AcDbSpline
 62
9
  6
CONTINUOUS
 70
0
 71
3
 72
11
 73
7
 74
0
 42
0.0000001
 43
0.0000001
 44
0.0000000001
 40
0.0
 40
0.0
 40
0.0
 40
0.0
 40
0.2514917027
 40
0.4998637044
 40
0.7483794906
 40
1.0
 40
1.0
 40
1.0
 40
1.0
 10
718.5408386712
 20
162.3599604962
 30
0.0
 10
718.3242942099
 20
161.5240208378
 30
0.0
 10
717.7267759452
 20
159.8910266297
 30
0.0
 10
716.0774304968
 20
157.8436100382
 30
0.0
 10
713.7772471352
 20
156.5699002248
 30
0.0
 10
712.0454495706
 20
156.2945603864
 30
0.0
 10
711.1814758179
 20
156.2944947217
 30
0.0
  0
SPLINE
  5
45C
100
AcDbEntity
  8
RUNDUNGEN
100
AcDbSpline
 62
9
  6
CONTINUOUS
 70
0
 71
3
 72
11
 73
7
 74
0
 42
0.0000001
 43
0.0000001
 44
0.0000000001
 40
0.0
 40
0.0
 40
0.0
 40
0.0
 40
0.2506605413
 40
0.4983787903
 40
0.7472453171
 40
1.0
 40
1.0
 40
1.0
 40
1.0
 10
719.5047117119
 20
161.9155747471
 30
0.0
 10
719.2544675453
 20
160.9685180954
 30
0.0
 10
718.5681332495
 20
159.1206410137
 30
0.0
 10
716.728937475
 20
156.7753212063
 30
0.0
 10
714.1482281833
 20
155.2544609628
 30
0.0
 10
712.1692198298
 20
154.9154972563
 30
0.0
 10
711.1814758179
 20
154.9151843768
 30
0.0
  0
SPLINE
  5
45D
100
AcDbEntity
  8
RUNDUNGEN
100
AcDbSpline
 62
9
  6
CONTINUOUS
 70
0
 71
3
 72
9
 73
5
 74
0
 42
0.0000001
 43
0.0000001
 44
0.0000000001
 40
0.0
 40
0.0
 40
0.0
 40
0.0
 40
0.4802137146
 40
1.0
 40
1.0
 40
1.0
 40
1.0
 10
703.1815221359
 20
165.267940454
 30
0.0
 10
703.1815571058
 20
164.8949519889
 30
0.0
 10
702.8666348124
 20
164.1019075065
 30
0.0
 10
702.1409634378
 20
163.6927838272
 30
0.0
 10
701.7501536291
 20
163.591484361
 30
0.0
  0
SPLINE
  5
45E
100
AcDbEntity
  8
RUNDUNGEN
100
AcDbSpline
 62
9
  6
CONTINUOUS
 70
0
 71
3
 72
9
 73
5
 74
0
 42
0.0000001
 43
0.0000001
 44
0.0000000001
 40
0.0
 40
0.0
 40
0.0
 40
0.0
 40
0.3920136561
 40
1.0
 40
1.0
 40
1.0
 40
1.0
 10
703.8224094164
 20
162.3600318081
 30
0.0
 10
703.7123455108
 20
162.2751391109
 30
0.0
 10
703.3891788763
 20
162.1195687341
 30
0.0
 10
703.0611398087
 20
161.9883674953
 30
0.0
 10
702.8583632231
 20
161.9151843722
 30
0.0
  0
SPLINE
  5
45F
100
AcDbEntity
  8
RUNDUNGEN
100
AcDbSpline
 62
9
  6
CONTINUOUS
 70
0
 71
3
 72
9
 73
5
 74
0
 42
0.0000001
 43
0.0000001
 44
0.0000000001
 40
0.0
 40
0.0
 40
0.0
 40
0.0
 40
0.39195245
 40
1.0
 40
1.0
 40
1.0
 40
1.0
 10
718.5407875341
 20
162.3599728648
 30
0.0
 10
718.6507792708
 20
162.2750710844
 30
0.0
 10
718.9738843524
 20
162.1195216595
 30
0.0
 10
719.3018487407
 20
161.988352109
 30
0.0
 10
719.5046046755
 20
161.9151844118
 30
0.0
  0
SPLINE
  5
460
100
AcDbEntity
  8
RUNDUNGEN
100
AcDbSpline
 62
9
  6
CONTINUOUS
 70
0
 71
3
 72
9
 73
5
 74
0
 42
0.0000001
 43
0.0000001
 44
0.0000000001
 40
0.0
 40
0.0
 40
0.0
 40
0.0
 40
0.4181841747
 40
1.0
 40
1.0
 40
1.0
 40
1.0
 10
720.6128244736
 20
163.5915624154
 30
0.0
 10
720.4501902154
 20
163.363451374
 30
0.0
 10
720.0642618717
 20
162.8166228896
 30
0.0
 10
719.6862510882
 20
162.2605411094
 30
0.0
 10
719.5048124419
 20
161.9155747378
 30
0.0
  0
SPLINE
  5
461
100
AcDbEntity
  8
RUNDUNGEN
100
AcDbSpline
 62
9
  6
CONTINUOUS
 70
0
 71
3
 72
10
 73
6
 74
0
 42
0.0000001
 43
0.0000001
 44
0.0000000001
 40
0.0
 40
0.0
 40
0.0
 40
0.0
 40
0.1139059239
 40
0.3138447159
 40
1.0
 40
1.0
 40
1.0
 40
1.0
 10
720.8904542233
 20
163.9151843424
 30
0.0
 10
720.8740806124
 20
163.9151957536
 30
0.0
 10
720.833714993
 20
163.8861491967
 30
0.0
 10
720.74416967
 20
163.7779832309
 30
0.0
 10
720.670028567
 20
163.6719122137
 30
0.0
 10
720.6128244736
 20
163.5915624154
 30
0.0
  0
SPLINE
  5
462
100
AcDbEntity
  8
RUNDUNGEN
100
AcDbSpline
 62
9
  6
CONTINUOUS
 70
0
 71
3
 72
9
 73
5
 74
0
 42
0.0000001
 43
0.0000001
 44
0.0000000001
 40
0.0
 40
0.0
 40
0.0
 40
0.0
 40
0.2292470479
 40
1.0
 40
1.0
 40
1.0
 40
1.0
 10
719.1814758179
 20
165.2679404539
 30
0.0
 10
719.1814760395
 20
165.2479491667
 30
0.0
 10
719.1800117932
 20
165.1607450056
 30
0.0
 10
719.1734794026
 20
165.0736806287
 30
0.0
 10
719.1666917597
 20
165.0068114067
 30
0.0
  0
SPLINE
  5
463
100
AcDbEntity
  8
RUNDUNGEN
100
AcDbSpline
 62
9
  6
CONTINUOUS
 70
0
 71
3
 72
9
 73
5
 74
0
 42
0.0000001
 43
0.0000001
 44
0.0000000001
 40
0.0
 40
0.0
 40
0.0
 40
0.0
 40
0.4407428257
 40
1.0
 40
1.0
 40
1.0
 40
1.0
 10
719.1666917597
 20
165.0068114067
 30
0.0
 10
719.1263174374
 20
164.6090592656
 30
0.0
 10
718.9166795355
 20
163.7219089578
 30
0.0
 10
718.667383082
 20
162.8512238609
 30
0.0
 10
718.5408386712
 20
162.3599604962
 30
0.0
  0
SPLINE
  5
464
100
AcDbEntity
  8
RUNDUNGEN
100
AcDbSpline
 62
9
  6
CONTINUOUS
 70
0
 71
3
 72
11
 73
7
 74
0
 42
0.0000001
 43
0.0000001
 44
0.0000000001
 40
0.0
 40
0.0
 40
0.0
 40
0.0
 40
0.2527532862
 40
0.5016196778
 40
0.7493388963
 40
1.0
 40
1.0
 40
1.0
 40
1.0
 10
711.1814758179
 20
154.9151843768
 30
0.0
 10
710.1937374091
 20
154.9154970541
 30
0.0
 10
708.2147613462
 20
155.2544857672
 30
0.0
 10
705.6339329167
 20
156.775191446
 30
0.0
 10
703.7949342373
 20
159.1206727581
 30
0.0
 10
703.1084564176
 20
160.9684879441
 30
0.0
 10
702.8582469883
 20
161.9155558981
 30
0.0
  0
ENDSEC
  0
SECTION
  2
OBJECTS
  0
DICTIONARY
  5
C
100
AcDbDictionary
280
0
281
1
  3
ACAD_GROUP
350
D
  3
ACAD_MLINESTYLE
350
17
  3
ACAD_LAYOUT
350
1A
  3
ACAD_PLOTSETTINGS
350
19
  3
ACAD_PLOTSTYLENAME
350
E
  0
DICTIONARY
  5
D
102
{ACAD_REACTORS
330
C
102
}
100
AcDbDictionary
280
0
281
1
  0
ACDBDICTIONARYWDFLT
  5
E
102
{ACAD_REACTORS
330
C
102
}
100
AcDbDictionary
281
1
  3
Normal
350
F
100
AcDbDictionaryWithDefault
340
F
  0
DICTIONARY
  5
17
102
{ACAD_REACTORS
330
C
102
}
100
AcDbDictionary
280
0
281
1
  3
Standard
350
18
  0
DICTIONARY
  5
19
102
{ACAD_REACTORS
330
C
102
}
100
AcDbDictionary
281
1
  0
DICTIONARY
  5
1A
102
{ACAD_REACTORS
330
C
102
}
100
AcDbDictionary
281
1
  3
Model
350
465
  3
Layout1
350
466
  0
ACDBPLACEHOLDER
  5
F
102
{ACAD_REACTORS
330
E
102
}
  0
MLINESTYLE
  5
18
102
{ACAD_REACTORS
330
17
102
}
100
AcDbMlineStyle
  2
STANDARD
 70
0
  3

 62
256
 51
90.0
 52
90.0
 71
2
 49
0.5
 62
256
  6
BYLAYER
 49
-0.5
 62
256
  6
BYLAYER
  0
LAYOUT
  5
465
102
{ACAD_REACTORS
330
1A
102
}
100
AcDbPlotSettings
  1

  2
none_device
  4
ISO_A0_(1189.00_x_841.00_MM)
  6

 40
0.0
 41
0.0
 42
0.0
 43
0.0
 44
1189.0
 45
841.0
 46
0.0
 47
0.0
 48
0.0
 49
0.0
140
0.0
141
0.0
142
1.0
143
1.0
 70
1024
 72
1
 73
0
 74
0
  7

 75
0
147
1.0
148
0.0
149
0.0
100
AcDbLayout
  1
Model
 70
0
 71
0
 10
0.0
 20
0.0
 11
1189.0
 21
841.0
 12
0.0
 22
0.0
 32
0.0
 14
0.0
 24
0.0
 34
0.0
 15
0.0
 25
0.0
 35
0.0
146
0.0
 13
0.0
 23
0.0
 33
0.0
 16
1.0
 26
0.0
 36
0.0
 17
0.0
 27
1.0
 37
0.0
 76
0
330
212
345
0
346
0
  0
LAYOUT
  5
466
102
{ACAD_REACTORS
330
1A
102
}
100
AcDbPlotSettings
  1

  2
none_device
  4
ISO_A0_(1189.00_x_841.00_MM)
  6

 40
0.0
 41
0.0
 42
0.0
 43
0.0
 44
1189.0
 45
841.0
 46
0.0
 47
0.0
 48
0.0
 49
0.0
140
0.0
141
0.0
142
1.0
143
1.0
 70
0
 72
1
 73
0
 74
0
  7

 75
0
147
1.0
148
0.0
149
0.0
100
AcDbLayout
  1
Layout1
 70
0
 71
1
 10
0.0
 20
0.0
 11
1189.0
 21
841.0
 12
0.0
 22
0.0
 32
0.0
 14
0.0
 24
0.0
 34
0.0
 15
0.0
 25
0.0
 35
0.0
146
0.0
 13
0.0
 23
0.0
 33
0.0
 16
1.0
 26
0.0
 36
0.0
 17
0.0
 27
1.0
 37
0.0
 76
0
330
213
345
0
346
0
  0
ENDSEC
  0
EOF
