999
DXF file: 001-m35816-p-2.dxf
999
Pro/ENGINEER 2011490 by Parametric Technology Corporation
  0
SECTION
  2
HEADER
  9
$ACADVER
  1
AC1015
  9
$DWGCODEPAGE
  3
ANSI_1252
  9
$EXTMAX
 10
1189.0
 20
841.0
 30
0.0
  9
$EXTMIN
 10
0.0
 20
0.0
 30
0.0
  9
$LIMMIN
 10
0.0
 20
0.0
  9
$LIMMAX
 10
1189.0
 20
841.0
  9
$VIEWCTR
 10
594.5
 20
420.5
  9
$VIEWSIZE
 40
841.0
  9
$CLAYER
  8
0
  9
$LTSCALE
 40
65.395
  9
$CELTYPE
  6
BYLAYER
  9
$DIMSCALE
 40
1.0
  9
$DIMASZ
 40
3.5
  9
$DIMEXO
 40
7.43125
  9
$DIMDLI
 40
45.182
  9
$DIMEXE
 40
21.402
  9
$DIMCEN
 40
10.701
  9
$DIMLFAC
 40
1.0
  9
$DIMBLK
  1
_FILLED
  9
$DIMTXT
 40
3.5
  9
$DIMTOL
 70
1
  9
$DIMLIM
 70
0
  9
$DIMTFAC
 40
1.0
  9
$DIMTP
 40
0.005
  9
$DIMTM
 40
0.005
  9
$PDMODE
 70
3
  9
$PDSIZE
 40
0.3125
  9
$HANDSEED
  5
5D4
  9
$TILEMODE
 70
1
  9
$MEASUREMENT
 70
1
  9
$INSUNITS
 70
4
  0
ENDSEC
  0
SECTION
  2
CLASSES
  0
CLASS
  1
ACDBDICTIONARYWDFLT
  2
AcDbDictionaryWithDefault
  3
AutoCAD 2000
 90
0
280
0
281
0
  0
CLASS
  1
ACDBPLACEHOLDER
  2
AcDbPlaceHolder
  3
AutoCAD 2000
 90
0
280
0
281
0
  0
CLASS
  1
LAYOUT
  2
AcDbLayout
  3
AutoCAD 2000
 90
0
280
0
281
0
  0
ENDSEC
  0
SECTION
  2
TABLES
  0
TABLE
  2
VPORT
  5
8
100
AcDbSymbolTable
 70
2
  0
VPORT
  5
1F4
100
AcDbSymbolTableRecord
100
AcDbViewportTableRecord
  2
*ACTIVE
 70
0
 10
0.0
 20
0.0
 11
1.0
 21
1.0
 12
594.5
 22
420.5
 13
0.0
 23
0.0
 14
1.0
 24
1.0
 15
0.0
 25
0.0
 16
0.0
 26
0.0
 36
1.0
 17
0.0
 27
0.0
 37
0.0
 40
841.0
 41
1.4137931034
 42
50.0
 43
0.0
 44
0.0
 50
0.0
 51
0.0
 71
0
 72
100
 73
1
 74
1
 75
0
 76
0
 77
0
 78
0
  0
ENDTAB
  0
TABLE
  2
LTYPE
  5
5
100
AcDbSymbolTable
 70
6
  0
LTYPE
  5
14
100
AcDbSymbolTableRecord
100
AcDbLinetypeTableRecord
  2
BYBLOCK
 70
0
  3

 72
65
 73
0
 40
0.0
  0
LTYPE
  5
15
100
AcDbSymbolTableRecord
100
AcDbLinetypeTableRecord
  2
BYLAYER
 70
0
  3

 72
65
 73
0
 40
0.0
  0
LTYPE
  5
16
100
AcDbSymbolTableRecord
100
AcDbLinetypeTableRecord
  2
CONTINUOUS
 70
64
  3
Solid line
 72
65
 73
0
 40
0.0
  0
LTYPE
  5
1F5
100
AcDbSymbolTableRecord
100
AcDbLinetypeTableRecord
  2
CENTER
 70
64
  3
____ _ ____ _ ____ _ ____ _ ____ _ ____ _ ____
 72
65
 73
4
 40
0.6
 49
0.375
 74
0
 49
-0.075
 74
0
 49
0.075
 74
0
 49
-0.075
 74
0
  0
LTYPE
  5
1F6
100
AcDbSymbolTableRecord
100
AcDbLinetypeTableRecord
  2
HIDDEN
 70
64
  3
- - - - - - - - - - - - - - - - - - - -
 72
65
 73
2
 40
0.2
 49
0.1
 74
0
 49
-0.1
 74
0
  0
LTYPE
  5
1F7
100
AcDbSymbolTableRecord
100
AcDbLinetypeTableRecord
  2
PHANTOM
 70
64
  3
_____ _ _ _____ _ _ _____ _ _ _____
 72
65
 73
6
 40
0.8
 49
0.45
 74
0
 49
-0.05
 74
0
 49
0.1
 74
0
 49
-0.05
 74
0
 49
0.1
 74
0
 49
-0.05
 74
0
  0
LTYPE
  5
1F8
100
AcDbSymbolTableRecord
100
AcDbLinetypeTableRecord
  2
DOT
 70
64
  3
. . . . . . . . . . . . . . . . . . . .
 72
65
 73
2
 40
0.2
 49
0.1
 74
0
 49
-0.1
 74
0
  0
LTYPE
  5
1F9
100
AcDbSymbolTableRecord
100
AcDbLinetypeTableRecord
  2
DASHED
 70
64
  3
- - - - - - - - - - - - - - - - - - - -
 72
65
 73
2
 40
0.2
 49
0.1
 74
0
 49
-0.1
 74
0
  0
ENDTAB
  0
TABLE
  2
LAYER
  5
2
100
AcDbSymbolTable
 70
36
  0
LAYER
  5
10
100
AcDbSymbolTableRecord
100
AcDbLayerTableRecord
  2
0
 70
0
 62
7
  6
CONTINUOUS
370
-3
390
F
  0
LAYER
  5
1FA
100
AcDbSymbolTableRecord
100
AcDbLayerTableRecord
  2
DEFAULT_1
 70
0
 62
7
  6
CENTER
370
-3
390
F
  0
LAYER
  5
1FB
100
AcDbSymbolTableRecord
100
AcDbLayerTableRecord
  2
DEFAULT_2
 70
0
 62
8
  6
HIDDEN
370
-3
390
F
  0
LAYER
  5
1FC
100
AcDbSymbolTableRecord
100
AcDbLayerTableRecord
  2
DEFAULT_3
 70
0
 62
7
  6
PHANTOM
370
-3
390
F
  0
LAYER
  5
1FD
100
AcDbSymbolTableRecord
100
AcDbLayerTableRecord
  2
AUSFORMSCHRAEGEN
 70
0
 62
7
  6
CONTINUOUS
370
-3
390
F
  0
LAYER
  5
1FE
100
AcDbSymbolTableRecord
100
AcDbLayerTableRecord
  2
BEZUGSACHSEN
 70
0
 62
7
  6
CONTINUOUS
370
-3
390
F
  0
LAYER
  5
1FF
100
AcDbSymbolTableRecord
100
AcDbLayerTableRecord
  2
BEZUGSEBENEN
 70
0
 62
7
  6
CONTINUOUS
370
-3
390
F
  0
LAYER
  5
200
100
AcDbSymbolTableRecord
100
AcDbLayerTableRecord
  2
BG_STARTBEZUEGE
 70
0
 62
7
  6
CONTINUOUS
370
-3
390
F
  0
LAYER
  5
201
100
AcDbSymbolTableRecord
100
AcDbLayerTableRecord
  2
FASEN
 70
0
 62
7
  6
CONTINUOUS
370
-3
390
F
  0
LAYER
  5
202
100
AcDbSymbolTableRecord
100
AcDbLayerTableRecord
  2
GEWINDE
 70
0
 62
7
  6
CONTINUOUS
370
-3
390
F
  0
LAYER
  5
203
100
AcDbSymbolTableRecord
100
AcDbLayerTableRecord
  2
HILFEN
 70
0
 62
7
  6
CONTINUOUS
370
-3
390
F
  0
LAYER
  5
204
100
AcDbSymbolTableRecord
100
AcDbLayerTableRecord
  2
KONSTRUKTIONSELEMENTE
 70
0
 62
7
  6
CONTINUOUS
370
-3
390
F
  0
LAYER
  5
205
100
AcDbSymbolTableRecord
100
AcDbLayerTableRecord
  2
KURVEN
 70
0
 62
7
  6
CONTINUOUS
370
-3
390
F
  0
LAYER
  5
206
100
AcDbSymbolTableRecord
100
AcDbLayerTableRecord
  2
NORM
 70
0
 62
7
  6
CONTINUOUS
370
-3
390
F
  0
LAYER
  5
207
100
AcDbSymbolTableRecord
100
AcDbLayerTableRecord
  2
PLATZIERUNG
 70
0
 62
7
  6
CONTINUOUS
370
-3
390
F
  0
LAYER
  5
208
100
AcDbSymbolTableRecord
100
AcDbLayerTableRecord
  2
PLAZIERUNG
 70
0
 62
7
  6
CONTINUOUS
370
-3
390
F
  0
LAYER
  5
209
100
AcDbSymbolTableRecord
100
AcDbLayerTableRecord
  2
RUNDUNGEN
 70
0
 62
7
  6
CONTINUOUS
370
-3
390
F
  0
LAYER
  5
20A
100
AcDbSymbolTableRecord
100
AcDbLayerTableRecord
  2
TEIL_STARTBEZUEGE
 70
0
 62
7
  6
CONTINUOUS
370
-3
390
F
  0
LAYER
  5
20B
100
AcDbSymbolTableRecord
100
AcDbLayerTableRecord
  2
T_STARTBEZUEGE
 70
0
 62
7
  6
CONTINUOUS
370
-3
390
F
  0
LAYER
  5
20C
100
AcDbSymbolTableRecord
100
AcDbLayerTableRecord
  2
ZEICHNUNGSBEMASSUNGEN
 70
0
 62
7
  6
CONTINUOUS
370
-3
390
F
  0
ENDTAB
  0
TABLE
  2
STYLE
  5
3
100
AcDbSymbolTable
 70
1
  0
STYLE
  5
11
100
AcDbSymbolTableRecord
100
AcDbTextStyleTableRecord
  2
STANDARD
 70
0
 40
0.0
 41
0.7
 50
0.0
 71
0
 42
0.2
  3
txt
  4

  0
STYLE
  5
20D
100
AcDbSymbolTableRecord
100
AcDbTextStyleTableRecord
  2
TEXTSTYLE_1
 70
0
 40
0.0
 41
0.8
 50
0.0
 71
0
 42
0.2
  3
gdt
  4

  0
ENDTAB
  0
TABLE
  2
VIEW
  5
6
100
AcDbSymbolTable
 70
0
  0
ENDTAB
  0
TABLE
  2
UCS
  5
7
100
AcDbSymbolTable
 70
0
  0
ENDTAB
  0
TABLE
  2
APPID
  5
9
100
AcDbSymbolTable
 70
1
  0
APPID
  5
20E
100
AcDbSymbolTableRecord
100
AcDbRegAppTableRecord
  2
ACAD
 70
0
  0
ENDTAB
  0
TABLE
  2
BLOCK_RECORD
  5
1
100
AcDbSymbolTable
 70
0
  0
BLOCK_RECORD
  5
20F
100
AcDbSymbolTableRecord
100
AcDbBlockTableRecord
  2
*Model_Space
  0
BLOCK_RECORD
  5
210
100
AcDbSymbolTableRecord
100
AcDbBlockTableRecord
  2
*Paper_Space
  0
ENDTAB
  0
TABLE
  2
DIMSTYLE
  5
A
100
AcDbSymbolTable
 70
1
100
AcDbDimStyleTable
 71
0
  0
DIMSTYLE
105
211
100
AcDbSymbolTableRecord
100
AcDbDimStyleTableRecord
  2
STANDARD
 70
0
  3

  4

 40
1.0
 41
3.5
 42
0.0625
 43
0.38
 44
0.18
 45
0.0
 46
0.0
 47
0.005
 48
0.005
140
3.5
141
0.09
142
0.0
143
25.4
144
1.0
145
0.0
146
1.0
147
0.09
 71
1.0
 72
0.0
 73
0
 74
0
 75
0
 76
0
 77
1
 78
8
170
0
171
2
172
0
173
0
174
0
175
0
176
0
177
0
178
5
270
2
271
3
272
3
273
2
274
2
275
0
280
0
281
0
282
0
283
1
284
8
285
0
286
0
287
3
288
0
340
11
  0
ENDTAB
  0
ENDSEC
  0
SECTION
  2
BLOCKS
  0
BLOCK
  5
20
100
AcDbEntity
  8
0
100
AcDbBlockBegin
  2
*Model_Space
 70
0
 10
0.0
 20
0.0
 30
0.0
  3
*Model_Space
  1

  0
ENDBLK
  5
21
100
AcDbEntity
  8
0
100
AcDbBlockEnd
  0
BLOCK
  5
1C
100
AcDbEntity
  8
0
100
AcDbBlockBegin
  2
*Paper_Space
 70
0
 10
0.0
 20
0.0
 30
0.0
  3
*Paper_Space
  1

  0
ENDBLK
  5
1D
100
AcDbEntity
  8
0
100
AcDbBlockEnd
  0
ENDSEC
  0
SECTION
  2
ENTITIES
  0
MTEXT
  5
212
100
AcDbEntity
  8
0
100
AcDbMText
 62
5
  6
CONTINUOUS
  7
STANDARD
 71
1
 72
1
 10
694.6262069694
 20
601.1950794013
 30
0.0
 11
0.0
 21
1.0
 31
0.0
 44
0.9
  1
RUD ACP 8t M30
 40
8.0
 41
89.7142857143
  0
MTEXT
  5
213
100
AcDbEntity
  8
0
100
AcDbMText
 62
5
  6
CONTINUOUS
  7
STANDARD
 71
1
 72
1
 10
461.0647940866
 20
607.9237010356
 30
0.0
 11
1.0
 21
0.0
 31
0.0
 44
0.9
  1
RUD
 40
10.0
 41
26.6666666667
  0
MTEXT
  5
214
100
AcDbEntity
  8
0
100
AcDbMText
 62
5
  6
CONTINUOUS
  7
STANDARD
 71
1
 72
1
 10
429.3030770855
 20
167.364625132
 30
0.0
 11
1.0
 21
0.0
 31
0.0
 44
0.9
  1
RUD ACP 8t M30
 40
8.0
 41
89.7142857143
  0
LINE
  5
215
100
AcDbEntity
  8
0
100
AcDbLine
 62
7
  6
CONTINUOUS
 10
0.0
 20
0.0
 11
0.0
 21
841.0
  0
LINE
  5
216
100
AcDbEntity
  8
0
100
AcDbLine
 62
7
  6
CONTINUOUS
 10
0.0
 20
0.0
 11
1189.0
 21
0.0
  0
LINE
  5
217
100
AcDbEntity
  8
0
100
AcDbLine
 62
7
  6
CONTINUOUS
 10
0.0
 20
841.0
 11
1189.0
 21
841.0
  0
LINE
  5
218
100
AcDbEntity
  8
0
100
AcDbLine
 62
7
  6
CONTINUOUS
 10
1189.0
 20
0.0
 11
1189.0
 21
841.0
  0
LINE
  5
219
100
AcDbEntity
  8
BEZUGSACHSEN
100
AcDbLine
 62
7
  6
CONTINUOUS
 10
462.4596013727
 20
286.9636923516
 11
486.4596013727
 21
286.9636923516
  0
LINE
  5
21A
100
AcDbEntity
  8
BEZUGSACHSEN
100
AcDbLine
 62
7
  6
CONTINUOUS
 10
459.4596013727
 20
289.9636923516
 11
489.4596013727
 21
289.9636923516
  0
LINE
  5
21B
100
AcDbEntity
  8
RUNDUNGEN
100
AcDbLine
 62
7
  6
CONTINUOUS
 10
437.8235052459
 20
751.4004126644
 11
469.9441652085
 21
763.7303788057
  0
LINE
  5
21C
100
AcDbEntity
  8
BEZUGSACHSEN
100
AcDbLine
 62
7
  6
CONTINUOUS
 10
490.7096013727
 20
331.9636923516
 11
458.2096013727
 21
331.9636923516
  0
LINE
  5
21D
100
AcDbEntity
  8
KONSTRUKTIONSELEMENTE
100
AcDbLine
 62
7
  6
CONTINUOUS
 10
446.4596013727
 20
361.9636923516
 11
502.4596013727
 21
361.9636923516
  0
LINE
  5
21E
100
AcDbEntity
  8
BEZUGSACHSEN
100
AcDbLine
 62
7
  6
CONTINUOUS
 10
462.4596013727
 20
286.9636923516
 11
459.4596013727
 21
289.9636923516
  0
LINE
  5
21F
100
AcDbEntity
  8
KONSTRUKTIONSELEMENTE
100
AcDbLine
 62
7
  6
CONTINUOUS
 10
446.4596013727
 20
366.9636923516
 11
502.4596013727
 21
366.9636923516
  0
LINE
  5
220
100
AcDbEntity
  8
BEZUGSACHSEN
100
AcDbLine
 62
7
  6
CONTINUOUS
 10
458.2096013727
 20
331.9636923516
 11
447.90148899
 21
342.2718047343
  0
LINE
  5
221
100
AcDbEntity
  8
RUNDUNGEN
100
AcDbLine
 62
7
  6
CONTINUOUS
 10
415.4923146838
 20
714.7017123738
 11
431.1122592054
 21
745.3575795873
  0
LINE
  5
222
100
AcDbEntity
  8
0
100
AcDbLine
 62
7
  6
CONTINUOUS
 10
430.0670411765
 20
660.7810632646
 11
429.072649792
 21
660.1941647295
  0
LINE
  5
223
100
AcDbEntity
  8
0
100
AcDbLine
 62
7
  6
CONTINUOUS
 10
430.0718050288
 20
659.5433165411
 11
430.6775009464
 21
659.7929288721
  0
LINE
  5
224
100
AcDbEntity
  8
KONSTRUKTIONSELEMENTE
100
AcDbLine
 62
7
  6
CONTINUOUS
 10
497.4596013727
 20
361.9636923516
 11
501.0177137555
 21
359.9094152096
  0
LINE
  5
225
100
AcDbEntity
  8
0
100
AcDbLine
 62
7
  6
CONTINUOUS
 10
429.5972625451
 20
658.9935515142
 11
430.0718050288
 21
659.5433165411
  0
LINE
  5
226
100
AcDbEntity
  8
0
100
AcDbLine
 62
7
  6
CONTINUOUS
 10
425.9010627231
 20
651.0946735989
 11
425.1236722806
 21
650.4201024065
  0
LINE
  5
227
100
AcDbEntity
  8
0
100
AcDbLine
 62
7
  6
CONTINUOUS
 10
426.3398274769
 20
649.6815791292
 11
427.0313704113
 21
650.1436702829
  0
LINE
  5
228
100
AcDbEntity
  8
0
100
AcDbLine
 62
7
  6
CONTINUOUS
 10
432.0414387251
 20
643.1761875251
 11
431.3498956387
 21
642.7140964327
  0
LINE
  5
229
100
AcDbEntity
  8
0
100
AcDbLine
 62
7
  6
CONTINUOUS
 10
427.1124535758
 20
651.5938958292
 11
425.9010627231
 21
651.0946735989
  0
LINE
  5
22A
100
AcDbEntity
  8
0
100
AcDbLine
 62
7
  6
CONTINUOUS
 10
431.2688126262
 20
641.2638708251
 11
432.4802040461
 21
641.7630942405
  0
LINE
  5
22B
100
AcDbEntity
  8
RUNDUNGEN
100
AcDbLine
 62
7
  6
CONTINUOUS
 10
402.2270593267
 20
616.3379682233
 11
422.4558676908
 21
666.4060258656
  0
LINE
  5
22C
100
AcDbEntity
  8
0
100
AcDbLine
 62
7
  6
CONTINUOUS
 10
429.072649792
 20
660.1941647295
 11
428.4264132746
 21
659.219442057
  0
LINE
  5
22D
100
AcDbEntity
  8
0
100
AcDbLine
 62
7
  6
CONTINUOUS
 10
425.1236722806
 20
650.4201024065
 11
424.4774352719
 21
649.4453785181
  0
LINE
  5
22E
100
AcDbEntity
  8
0
100
AcDbLine
 62
7
  6
CONTINUOUS
 10
425.7794379763
 20
648.9193352795
 11
426.3398274769
 21
649.6815791292
  0
LINE
  5
22F
100
AcDbEntity
  8
0
100
AcDbLine
 62
7
  6
CONTINUOUS
 10
432.6018287169
 20
643.9384325906
 11
432.0414387251
 21
643.1761875251
  0
LINE
  5
230
100
AcDbEntity
  8
0
100
AcDbLine
 62
7
  6
CONTINUOUS
 10
432.4802040461
 20
641.7630942405
 11
433.2575940544
 21
642.4376641941
  0
LINE
  5
231
100
AcDbEntity
  8
BEZUGSACHSEN
100
AcDbLine
 62
7
  6
CONTINUOUS
 10
447.90148899
 20
643.6094152096
 11
451.4596013727
 21
645.6636923516
  0
LINE
  5
232
100
AcDbEntity
  8
0
100
AcDbLine
 62
7
  6
CONTINUOUS
 10
428.4264132746
 20
659.219442057
 11
426.3660765196
 21
654.119929641
  0
LINE
  5
233
100
AcDbEntity
  8
0
100
AcDbLine
 62
7
  6
CONTINUOUS
 10
420.2709152363
 20
639.0338760793
 11
419.5841365226
 21
637.3340391139
  0
LINE
  5
234
100
AcDbEntity
  8
0
100
AcDbLine
 62
7
  6
CONTINUOUS
 10
423.704809173
 20
647.5330618181
 11
424.4774352719
 21
649.4453785181
  0
LINE
  5
235
100
AcDbEntity
  8
0
100
AcDbLine
 62
7
  6
CONTINUOUS
 10
427.9661633304
 20
654.9564392913
 11
429.5972625451
 21
658.9935515142
  0
LINE
  5
236
100
AcDbEntity
  8
0
100
AcDbLine
 62
7
  6
CONTINUOUS
 10
425.0068118774
 20
647.0070185794
 11
425.7794379763
 21
648.9193352795
  0
LINE
  5
237
100
AcDbEntity
  8
0
100
AcDbLine
 62
7
  6
CONTINUOUS
 10
427.7682198795
 20
650.0931284566
 11
428.2833039454
 21
651.3680062566
  0
LINE
  5
238
100
AcDbEntity
  8
0
100
AcDbLine
 62
7
  6
CONTINUOUS
 10
432.852269914
 20
657.6784431719
 11
431.2211706993
 21
653.641330949
  0
LINE
  5
239
100
AcDbEntity
  8
0
100
AcDbLine
 62
7
  6
CONTINUOUS
 10
432.5231734037
 20
653.1152877103
 11
434.0684256016
 21
656.9399211104
  0
LINE
  5
23A
100
AcDbEntity
  8
0
100
AcDbLine
 62
7
  6
CONTINUOUS
 10
427.4271669244
 20
637.3783840137
 11
425.8819146651
 21
633.5537504616
  0
LINE
  5
23B
100
AcDbEntity
  8
0
100
AcDbLine
 62
7
  6
CONTINUOUS
 10
426.6640690828
 20
632.9905752345
 11
428.3810159897
 21
637.2401679519
  0
LINE
  5
23C
100
AcDbEntity
  8
0
100
AcDbLine
 62
7
  6
CONTINUOUS
 10
432.7592305503
 20
648.0766292522
 11
433.2743146162
 21
649.3515070522
  0
LINE
  5
23D
100
AcDbEntity
  8
0
100
AcDbLine
 62
7
  6
CONTINUOUS
 10
433.2575940544
 20
642.4376641941
 11
433.9038315733
 21
643.4123892905
  0
LINE
  5
23E
100
AcDbEntity
  8
0
100
AcDbLine
 62
7
  6
CONTINUOUS
 10
515.2844188527
 20
652.0511839165
 11
514.639455417
 21
651.7736856294
  0
LINE
  5
23F
100
AcDbEntity
  8
0
100
AcDbLine
 62
7
  6
CONTINUOUS
 10
519.6747477634
 20
653.6906636959
 11
519.0297843276
 21
653.4131654089
  0
LINE
  5
240
100
AcDbEntity
  8
0
100
AcDbLine
 62
7
  6
CONTINUOUS
 10
515.0923172481
 20
650.7211410332
 11
515.7372806838
 21
650.9986393202
  0
LINE
  5
241
100
AcDbEntity
  8
0
100
AcDbLine
 62
7
  6
CONTINUOUS
 10
519.6976339788
 20
652.4531202228
 11
520.1276096026
 21
652.6381190809
  0
LINE
  5
242
100
AcDbEntity
  8
0
100
AcDbLine
 62
7
  6
CONTINUOUS
 10
522.3013464437
 20
647.5859048984
 11
521.8713708199
 21
647.4009060403
  0
LINE
  5
243
100
AcDbEntity
  8
0
100
AcDbLine
 62
7
  6
CONTINUOUS
 10
518.0921621861
 20
645.5254074649
 11
517.4471987504
 21
645.2479091778
  0
LINE
  5
244
100
AcDbEntity
  8
0
100
AcDbLine
 62
7
  6
CONTINUOUS
 10
522.1092449362
 20
646.2558617892
 11
522.754208372
 21
646.5333600763
  0
LINE
  5
245
100
AcDbEntity
  8
0
100
AcDbLine
 62
7
  6
CONTINUOUS
 10
517.9000606786
 20
644.1953643557
 11
518.5450241144
 21
644.4728626428
  0
LINE
  5
246
100
AcDbEntity
  8
0
100
AcDbLine
 62
7
  6
CONTINUOUS
 10
522.9243962517
 20
644.3612814708
 11
522.064445004
 21
643.9912837547
  0
LINE
  5
247
100
AcDbEntity
  8
0
100
AcDbLine
 62
7
  6
CONTINUOUS
 10
525.3688783827
 20
643.4172055672
 11
523.6489752851
 21
642.6772098759
  0
LINE
  5
248
100
AcDbEntity
  8
0
100
AcDbLine
 62
7
  6
CONTINUOUS
 10
522.7890240374
 20
642.3072121598
 11
518.4892673472
 21
640.457223385
  0
LINE
  5
249
100
AcDbEntity
  8
0
100
AcDbLine
 62
7
  6
CONTINUOUS
 10
519.3721047908
 20
639.589678088
 11
523.2418857065
 21
641.25466794
  0
LINE
  5
24A
100
AcDbEntity
  8
0
100
AcDbLine
 62
7
  6
CONTINUOUS
 10
524.1018369542
 20
641.6246656561
 11
525.8217400519
 21
642.3646613473
  0
LINE
  5
24B
100
AcDbEntity
  8
0
100
AcDbLine
 62
7
  6
CONTINUOUS
 10
518.0373776858
 20
636.7701033498
 11
518.8973290088
 21
637.1401010983
  0
LINE
  5
24C
100
AcDbEntity
  8
0
100
AcDbLine
 62
7
  6
CONTINUOUS
 10
423.704809173
 20
647.5330618181
 11
423.4925725746
 21
646.3829889678
  0
LINE
  5
24D
100
AcDbEntity
  8
0
100
AcDbLine
 62
7
  6
CONTINUOUS
 10
433.3744548158
 20
645.8507492907
 11
432.6018287169
 21
643.9384325906
  0
LINE
  5
24E
100
AcDbEntity
  8
0
100
AcDbLine
 62
7
  6
CONTINUOUS
 10
428.4096013727
 20
629.8136923516
 11
428.9246854387
 21
631.0885701516
  0
LINE
  5
24F
100
AcDbEntity
  8
0
100
AcDbLine
 62
7
  6
CONTINUOUS
 10
431.3284109979
 20
637.0379996825
 11
431.8434950639
 21
638.3128774825
  0
LINE
  5
250
100
AcDbEntity
  8
0
100
AcDbLine
 62
7
  6
CONTINUOUS
 10
433.9038315733
 20
643.4123892905
 11
434.6764576722
 21
645.3247059906
  0
LINE
  5
251
100
AcDbEntity
  8
0
100
AcDbLine
 62
7
  6
CONTINUOUS
 10
436.5650989198
 20
649.9992571135
 11
437.080183477
 21
651.2741361293
  0
LINE
  5
252
100
AcDbEntity
  8
RUNDUNGEN
100
AcDbLine
 62
7
  6
CONTINUOUS
 10
441.0882432642
 20
642.5827870332
 11
436.1635135518
 21
630.3936532654
  0
LINE
  5
253
100
AcDbEntity
  8
0
100
AcDbLine
 62
7
  6
CONTINUOUS
 10
524.238181586
 20
638.9390701745
 11
525.0981328337
 21
639.3090678906
  0
LINE
  5
254
100
AcDbEntity
  8
0
100
AcDbLine
 62
7
  6
CONTINUOUS
 10
416.9756802364
 20
591.4074994537
 11
416.9756802364
 21
593.0694185812
  0
LINE
  5
255
100
AcDbEntity
  8
0
100
AcDbLine
 62
7
  6
CONTINUOUS
 10
416.9756802364
 20
600.6904421345
 11
416.9756802364
 21
602.3523612619
  0
LINE
  5
256
100
AcDbEntity
  8
0
100
AcDbLine
 62
7
  6
CONTINUOUS
 10
425.2256802364
 20
596.0499303578
 11
425.2256802364
 21
597.7118494852
  0
LINE
  5
257
100
AcDbEntity
  8
0
100
AcDbLine
 62
7
  6
CONTINUOUS
 10
432.8928114962
 20
658.403555945
 11
432.852269914
 21
657.6784431719
  0
LINE
  5
258
100
AcDbEntity
  8
0
100
AcDbLine
 62
7
  6
CONTINUOUS
 10
424.8804227871
 20
646.0694257677
 11
425.0068118774
 21
647.0070185794
  0
LINE
  5
259
100
AcDbEntity
  8
0
100
AcDbLine
 62
7
  6
CONTINUOUS
 10
433.5008434149
 20
646.7883408866
 11
433.3744548158
 21
645.8507492907
  0
LINE
  5
25A
100
AcDbEntity
  8
0
100
AcDbLine
 62
7
  6
CONTINUOUS
 10
434.0684256016
 20
656.9399211104
 11
434.2806612175
 21
658.0899915291
  0
LINE
  5
25B
100
AcDbEntity
  8
0
100
AcDbLine
 62
7
  6
CONTINUOUS
 10
434.6764576722
 20
645.3247059906
 11
434.8886937603
 21
646.4747776328
  0
LWPOLYLINE
  5
25C
100
AcDbEntity
  8
RUNDUNGEN
100
AcDbPolyline
 62
7
  6
CONTINUOUS
 90
13
 70
0
 10
432.4687320895
 20
570.9856664497
 10
432.5604146251
 20
571.1759025254
 10
432.6716450309
 20
571.3554114579
 10
432.8011833184
 20
571.5221918074
 10
432.9475854561
 20
571.6743841236
 10
433.1092194137
 20
571.8102915536
 10
433.2842831987
 20
571.9283986602
 10
433.4708250742
 20
572.0273884793
 10
433.6667653381
 20
572.1061571981
 10
433.8699194657
 20
572.1638264341
 10
434.0780224725
 20
572.1997530391
 10
434.2887541658
 20
572.2135362747
 10
434.3137404746
 20
572.2136923597
  0
LINE
  5
25D
100
AcDbEntity
  8
0
100
AcDbLine
 62
7
  6
CONTINUOUS
 10
514.639455417
 20
651.7736856294
 11
513.7456609489
 21
650.8901705585
  0
LINE
  5
25E
100
AcDbEntity
  8
0
100
AcDbLine
 62
7
  6
CONTINUOUS
 10
518.5450241144
 20
644.4728626428
 11
519.438818652
 21
645.3563779668
  0
LINE
  5
25F
100
AcDbEntity
  8
0
100
AcDbLine
 62
7
  6
CONTINUOUS
 10
522.754208372
 20
646.5333600763
 11
523.6480032108
 21
647.4168755298
  0
LINE
  5
260
100
AcDbEntity
  8
0
100
AcDbLine
 62
7
  6
CONTINUOUS
 10
518.8177137456
 20
639.1016704104
 11
519.3721047908
 21
639.589678088
  0
LINE
  5
261
100
AcDbEntity
  8
0
100
AcDbLine
 62
7
  6
CONTINUOUS
 10
423.4925725746
 20
646.3829889678
 11
423.5831844263
 21
645.3577234987
  0
LINE
  5
262
100
AcDbEntity
  8
0
100
AcDbLine
 62
7
  6
CONTINUOUS
 10
426.3256802364
 20
591.4074994537
 11
426.3256802364
 21
593.0694185812
  0
LINE
  5
263
100
AcDbEntity
  8
0
100
AcDbLine
 62
7
  6
CONTINUOUS
 10
426.3256802364
 20
600.6904421345
 11
426.3256802364
 21
602.3523612619
  0
LINE
  5
264
100
AcDbEntity
  8
RUNDUNGEN
100
AcDbLine
 62
7
  6
CONTINUOUS
 10
432.9596013727
 20
577.8511926976
 11
432.9596013727
 21
573.4636923516
  0
LINE
  5
265
100
AcDbEntity
  8
RUNDUNGEN
100
AcDbLine
 62
7
  6
CONTINUOUS
 10
432.9596013727
 20
594.0761920776
 11
432.9596013727
 21
613.9108549766
  0
LINE
  5
266
100
AcDbEntity
  8
RUNDUNGEN
100
AcDbLine
 62
7
  6
CONTINUOUS
 10
434.9596013727
 20
612.4636923516
 11
434.9596013727
 21
571.7136923516
  0
LINE
  5
267
100
AcDbEntity
  8
0
100
AcDbLine
 62
7
  6
CONTINUOUS
 10
436.9596013727
 20
571.4636923516
 11
436.9596013727
 21
558.4636923516
  0
LINE
  5
268
100
AcDbEntity
  8
0
100
AcDbLine
 62
7
  6
CONTINUOUS
 10
437.9596013727
 20
626.9636923516
 11
437.9596013727
 21
618.9636923516
  0
LINE
  5
269
100
AcDbEntity
  8
0
100
AcDbLine
 62
7
  6
CONTINUOUS
 10
441.2025236426
 20
615.4636923516
 11
441.2025236426
 21
618.4636923516
  0
LINE
  5
26A
100
AcDbEntity
  8
0
100
AcDbLine
 62
7
  6
CONTINUOUS
 10
519.0297843276
 20
653.4131654089
 11
518.350977814
 21
652.6221498505
  0
LINE
  5
26B
100
AcDbEntity
  8
0
100
AcDbLine
 62
7
  6
CONTINUOUS
 10
518.4892673472
 20
640.457223385
 11
517.8104605882
 21
639.6662081895
  0
LINE
  5
26C
100
AcDbEntity
  8
RUNDUNGEN
100
AcDbLine
 62
7
  6
CONTINUOUS
 10
413.7785759731
 20
570.9239400164
 11
402.3892254738
 21
597.7555683354
  0
LINE
  5
26D
100
AcDbEntity
  8
0
100
AcDbLine
 62
7
  6
CONTINUOUS
 10
434.8886937603
 20
646.4747776328
 11
434.7980823429
 21
647.5000443407
  0
LINE
  5
26E
100
AcDbEntity
  8
0
100
AcDbLine
 62
7
  6
CONTINUOUS
 10
443.3750392269
 20
618.4636923516
 11
443.3750392269
 21
615.4636923516
  0
LINE
  5
26F
100
AcDbEntity
  8
KONSTRUKTIONSELEMENTE
100
AcDbLine
 62
7
  6
CONTINUOUS
 10
446.4596013727
 20
361.9636923516
 11
446.4596013727
 21
366.9636923516
  0
LINE
  5
270
100
AcDbEntity
  8
KONSTRUKTIONSELEMENTE
100
AcDbLine
 62
7
  6
CONTINUOUS
 10
447.90148899
 20
359.9094152096
 11
447.90148899
 21
342.2718047343
  0
LINE
  5
271
100
AcDbEntity
  8
BEZUGSACHSEN
100
AcDbLine
 62
7
  6
CONTINUOUS
 10
447.90148899
 20
627.4636923516
 11
447.90148899
 21
643.6094152096
  0
LINE
  5
272
100
AcDbEntity
  8
KONSTRUKTIONSELEMENTE
100
AcDbLine
 62
7
  6
CONTINUOUS
 10
453.1096013727
 20
626.9636923516
 11
453.1096013727
 21
627.4636923516
  0
LINE
  5
273
100
AcDbEntity
  8
BEZUGSACHSEN
100
AcDbLine
 62
7
  6
CONTINUOUS
 10
453.1096013727
 20
626.9636923516
 11
453.1096013727
 21
627.4636923516
  0
LINE
  5
274
100
AcDbEntity
  8
0
100
AcDbLine
 62
7
  6
CONTINUOUS
 10
454.0846013727
 20
618.9636923516
 11
454.0846013727
 21
618.7136923516
  0
LINE
  5
275
100
AcDbEntity
  8
0
100
AcDbLine
 62
7
  6
CONTINUOUS
 10
454.0846013727
 20
571.7136923516
 11
454.0846013727
 21
571.4636923516
  0
LINE
  5
276
100
AcDbEntity
  8
KONSTRUKTIONSELEMENTE
100
AcDbLine
 62
7
  6
CONTINUOUS
 10
455.4027281193
 20
645.6636923516
 11
455.4027281193
 21
645.8636923516
  0
LINE
  5
277
100
AcDbEntity
  8
BEZUGSACHSEN
100
AcDbLine
 62
7
  6
CONTINUOUS
 10
459.4596013727
 20
558.4636923516
 11
459.4596013727
 21
366.9636923516
  0
LINE
  5
278
100
AcDbEntity
  8
BEZUGSACHSEN
100
AcDbLine
 62
7
  6
CONTINUOUS
 10
459.4596013727
 20
331.9636923516
 11
459.4596013727
 21
289.9636923516
  0
LINE
  5
279
100
AcDbEntity
  8
0
100
AcDbLine
 62
7
  6
CONTINUOUS
 10
514.5040829873
 20
649.7196164042
 11
515.0923172481
 21
650.7211410332
  0
LINE
  5
27A
100
AcDbEntity
  8
0
100
AcDbLine
 62
7
  6
CONTINUOUS
 10
518.6803966298
 20
646.5269320834
 11
518.0921621861
 21
645.5254074649
  0
LINE
  5
27B
100
AcDbEntity
  8
0
100
AcDbLine
 62
7
  6
CONTINUOUS
 10
519.2338153013
 20
651.754604037
 11
519.6976339788
 21
652.4531202228
  0
LINE
  5
27C
100
AcDbEntity
  8
0
100
AcDbLine
 62
7
  6
CONTINUOUS
 10
522.7651656586
 20
648.2844214939
 11
522.3013464437
 21
647.5859048984
  0
LINE
  5
27D
100
AcDbEntity
  8
0
100
AcDbLine
 62
7
  6
CONTINUOUS
 10
425.0568816556
 20
645.2566391214
 11
424.8804227871
 21
646.0694257677
  0
LINE
  5
27E
100
AcDbEntity
  8
0
100
AcDbLine
 62
7
  6
CONTINUOUS
 10
433.3243843944
 20
647.6011275942
 11
433.5008434149
 21
646.7883408866
  0
LINE
  5
27F
100
AcDbEntity
  8
KONSTRUKTIONSELEMENTE
100
AcDbLine
 62
7
  6
CONTINUOUS
 10
461.1805451814
 20
359.9094152096
 11
461.1805451814
 21
342.2718047343
  0
LINE
  5
280
100
AcDbEntity
  8
BEZUGSACHSEN
100
AcDbLine
 62
7
  6
CONTINUOUS
 10
461.1805451814
 20
627.4636923516
 11
461.1805451814
 21
643.6094152096
  0
LINE
  5
281
100
AcDbEntity
  8
KONSTRUKTIONSELEMENTE
100
AcDbLine
 62
7
  6
CONTINUOUS
 10
461.353731523
 20
645.6636923516
 11
461.353731523
 21
645.8636923516
  0
LINE
  5
282
100
AcDbEntity
  8
KONSTRUKTIONSELEMENTE
100
AcDbLine
 62
7
  6
CONTINUOUS
 10
461.4206880924
 20
645.6636923516
 11
461.4206880924
 21
645.8636923516
  0
LINE
  5
283
100
AcDbEntity
  8
KONSTRUKTIONSELEMENTE
100
AcDbLine
 62
7
  6
CONTINUOUS
 10
461.6996737873
 20
645.6636923516
 11
461.6996737873
 21
645.8636923516
  0
LINE
  5
284
100
AcDbEntity
  8
KONSTRUKTIONSELEMENTE
100
AcDbLine
 62
7
  6
CONTINUOUS
 10
461.7777898062
 20
645.6636923516
 11
461.7777898062
 21
645.8636923516
  0
LINE
  5
285
100
AcDbEntity
  8
KONSTRUKTIONSELEMENTE
100
AcDbLine
 62
7
  6
CONTINUOUS
 10
461.8973161169
 20
645.6636923516
 11
461.8973161169
 21
645.8636923516
  0
LINE
  5
286
100
AcDbEntity
  8
KONSTRUKTIONSELEMENTE
100
AcDbLine
 62
7
  6
CONTINUOUS
 10
462.2754600691
 20
645.6636923516
 11
462.2754600691
 21
645.8636923516
  0
LINE
  5
287
100
AcDbEntity
  8
KONSTRUKTIONSELEMENTE
100
AcDbLine
 62
7
  6
CONTINUOUS
 10
462.5741440308
 20
645.6636923516
 11
462.5741440308
 21
645.8636923516
  0
LINE
  5
288
100
AcDbEntity
  8
KONSTRUKTIONSELEMENTE
100
AcDbLine
 62
7
  6
CONTINUOUS
 10
462.7202935607
 20
645.6636923516
 11
462.7202935607
 21
645.8636923516
  0
LINE
  5
289
100
AcDbEntity
  8
KONSTRUKTIONSELEMENTE
100
AcDbLine
 62
7
  6
CONTINUOUS
 10
462.7869831103
 20
645.6636923516
 11
462.7869831103
 21
645.8636923516
  0
LINE
  5
28A
100
AcDbEntity
  8
KONSTRUKTIONSELEMENTE
100
AcDbLine
 62
7
  6
CONTINUOUS
 10
463.6823814712
 20
645.6636923516
 11
463.6823814712
 21
645.8636923516
  0
LINE
  5
28B
100
AcDbEntity
  8
KONSTRUKTIONSELEMENTE
100
AcDbLine
 62
7
  6
CONTINUOUS
 10
465.0989824163
 20
645.6636923516
 11
465.0989824163
 21
645.8636923516
  0
LINE
  5
28C
100
AcDbEntity
  8
KONSTRUKTIONSELEMENTE
100
AcDbLine
 62
7
  6
CONTINUOUS
 10
465.2998683727
 20
645.6636923516
 11
465.2998683727
 21
645.8636923516
  0
LINE
  5
28D
100
AcDbEntity
  8
KONSTRUKTIONSELEMENTE
100
AcDbLine
 62
7
  6
CONTINUOUS
 10
465.3474893654
 20
645.6636923516
 11
465.3474893654
 21
645.8636923516
  0
LINE
  5
28E
100
AcDbEntity
  8
KONSTRUKTIONSELEMENTE
100
AcDbLine
 62
7
  6
CONTINUOUS
 10
469.4084967368
 20
645.6636923516
 11
469.4084967368
 21
645.8636923516
  0
LINE
  5
28F
100
AcDbEntity
  8
KONSTRUKTIONSELEMENTE
100
AcDbLine
 62
7
  6
CONTINUOUS
 10
470.3486155821
 20
645.6636923516
 11
470.3486155821
 21
645.8636923516
  0
LINE
  5
290
100
AcDbEntity
  8
KONSTRUKTIONSELEMENTE
100
AcDbLine
 62
7
  6
CONTINUOUS
 10
470.8671309886
 20
645.6636923516
 11
470.8671309886
 21
645.8636923516
  0
LINE
  5
291
100
AcDbEntity
  8
KONSTRUKTIONSELEMENTE
100
AcDbLine
 62
7
  6
CONTINUOUS
 10
472.076999611
 20
645.6636923516
 11
472.076999611
 21
645.8636923516
  0
LINE
  5
292
100
AcDbEntity
  8
KONSTRUKTIONSELEMENTE
100
AcDbLine
 62
7
  6
CONTINUOUS
 10
472.768354805
 20
645.6636923516
 11
472.768354805
 21
645.8636923516
  0
LINE
  5
293
100
AcDbEntity
  8
KONSTRUKTIONSELEMENTE
100
AcDbLine
 62
7
  6
CONTINUOUS
 10
473.2381298446
 20
645.6636923516
 11
473.2381298446
 21
645.8636923516
  0
LINE
  5
294
100
AcDbEntity
  8
KONSTRUKTIONSELEMENTE
100
AcDbLine
 62
7
  6
CONTINUOUS
 10
473.9782234275
 20
645.6636923516
 11
473.9782234275
 21
645.8636923516
  0
LINE
  5
295
100
AcDbEntity
  8
KONSTRUKTIONSELEMENTE
100
AcDbLine
 62
7
  6
CONTINUOUS
 10
474.496738834
 20
645.6636923516
 11
474.496738834
 21
645.8636923516
  0
LINE
  5
296
100
AcDbEntity
  8
KONSTRUKTIONSELEMENTE
100
AcDbLine
 62
7
  6
CONTINUOUS
 10
475.4773244614
 20
645.6636923516
 11
475.4773244614
 21
645.8636923516
  0
LINE
  5
297
100
AcDbEntity
  8
KONSTRUKTIONSELEMENTE
100
AcDbLine
 62
7
  6
CONTINUOUS
 10
475.4951594541
 20
645.6636923516
 11
475.4951594541
 21
645.8636923516
  0
LINE
  5
298
100
AcDbEntity
  8
KONSTRUKTIONSELEMENTE
100
AcDbLine
 62
7
  6
CONTINUOUS
 10
475.5990919202
 20
645.6636923516
 11
475.5990919202
 21
645.8636923516
  0
LINE
  5
299
100
AcDbEntity
  8
KONSTRUKTIONSELEMENTE
100
AcDbLine
 62
7
  6
CONTINUOUS
 10
475.8118786128
 20
645.6636923516
 11
475.8118786128
 21
645.8636923516
  0
LINE
  5
29A
100
AcDbEntity
  8
KONSTRUKTIONSELEMENTE
100
AcDbLine
 62
7
  6
CONTINUOUS
 10
476.1107647354
 20
645.6636923516
 11
476.1107647354
 21
645.8636923516
  0
LINE
  5
29B
100
AcDbEntity
  8
KONSTRUKTIONSELEMENTE
100
AcDbLine
 62
7
  6
CONTINUOUS
 10
476.4324056685
 20
645.6636923516
 11
476.4324056685
 21
645.8636923516
  0
LINE
  5
29C
100
AcDbEntity
  8
0
100
AcDbLine
 62
7
  6
CONTINUOUS
 10
513.7456609489
 20
650.8901705585
 11
513.3724145268
 21
649.9811455038
  0
LINE
  5
29D
100
AcDbEntity
  8
0
100
AcDbLine
 62
7
  6
CONTINUOUS
 10
518.350977814
 20
652.6221498505
 11
517.9777314834
 21
651.7131247906
  0
LINE
  5
29E
100
AcDbEntity
  8
0
100
AcDbLine
 62
7
  6
CONTINUOUS
 10
523.6480032108
 20
647.4168755298
 11
524.0212495414
 21
648.3259005897
  0
LINE
  5
29F
100
AcDbEntity
  8
0
100
AcDbLine
 62
7
  6
CONTINUOUS
 10
423.5831844263
 20
645.3577234987
 11
424.1077966882
 21
644.1571090676
  0
LINE
  5
2A0
100
AcDbEntity
  8
0
100
AcDbLine
 62
7
  6
CONTINUOUS
 10
434.2806612175
 20
658.0899915291
 11
433.9730498975
 21
659.2029333029
  0
LINE
  5
2A1
100
AcDbEntity
  8
RUNDUNGEN
100
AcDbLine
 62
7
  6
CONTINUOUS
 10
422.9440165345
 20
674.387188911
 11
414.5483314774
 21
705.7203121087
  0
LINE
  5
2A2
100
AcDbEntity
  8
KONSTRUKTIONSELEMENTE
100
AcDbLine
 62
7
  6
CONTINUOUS
 10
477.1211951808
 20
645.6636923516
 11
477.1211951808
 21
645.8636923516
  0
LINE
  5
2A3
100
AcDbEntity
  8
KONSTRUKTIONSELEMENTE
100
AcDbLine
 62
7
  6
CONTINUOUS
 10
477.4883457307
 20
645.6636923516
 11
477.4883457307
 21
645.8636923516
  0
LINE
  5
2A4
100
AcDbEntity
  8
KONSTRUKTIONSELEMENTE
100
AcDbLine
 62
7
  6
CONTINUOUS
 10
477.8782491205
 20
645.6636923516
 11
477.8782491205
 21
645.8636923516
  0
LINE
  5
2A5
100
AcDbEntity
  8
KONSTRUKTIONSELEMENTE
100
AcDbLine
 62
7
  6
CONTINUOUS
 10
478.1820550548
 20
645.6636923516
 11
478.1820550548
 21
645.8636923516
  0
LINE
  5
2A6
100
AcDbEntity
  8
KONSTRUKTIONSELEMENTE
100
AcDbLine
 62
7
  6
CONTINUOUS
 10
478.4225183302
 20
645.6636923516
 11
478.4225183302
 21
645.8636923516
  0
LINE
  5
2A7
100
AcDbEntity
  8
KONSTRUKTIONSELEMENTE
100
AcDbLine
 62
7
  6
CONTINUOUS
 10
478.5768802229
 20
645.6636923516
 11
478.5768802229
 21
645.8636923516
  0
LINE
  5
2A8
100
AcDbEntity
  8
KONSTRUKTIONSELEMENTE
100
AcDbLine
 62
7
  6
CONTINUOUS
 10
478.6678994487
 20
645.6636923516
 11
478.6678994487
 21
645.8636923516
  0
LINE
  5
2A9
100
AcDbEntity
  8
KONSTRUKTIONSELEMENTE
100
AcDbLine
 62
7
  6
CONTINUOUS
 10
478.672821249
 20
645.6636923516
 11
478.672821249
 21
645.8636923516
  0
LINE
  5
2AA
100
AcDbEntity
  8
KONSTRUKTIONSELEMENTE
100
AcDbLine
 62
7
  6
CONTINUOUS
 10
478.8370246919
 20
645.6636923516
 11
478.8370246919
 21
645.8636923516
  0
LINE
  5
2AB
100
AcDbEntity
  8
KONSTRUKTIONSELEMENTE
100
AcDbLine
 62
7
  6
CONTINUOUS
 10
479.0141433458
 20
645.6636923516
 11
479.0141433458
 21
645.8636923516
  0
LINE
  5
2AC
100
AcDbEntity
  8
KONSTRUKTIONSELEMENTE
100
AcDbLine
 62
7
  6
CONTINUOUS
 10
479.0596530224
 20
645.6636923516
 11
479.0596530224
 21
645.8636923516
  0
LINE
  5
2AD
100
AcDbEntity
  8
KONSTRUKTIONSELEMENTE
100
AcDbLine
 62
7
  6
CONTINUOUS
 10
479.0645728202
 20
645.6636923516
 11
479.0645728202
 21
645.8636923516
  0
LINE
  5
2AE
100
AcDbEntity
  8
KONSTRUKTIONSELEMENTE
100
AcDbLine
 62
7
  6
CONTINUOUS
 10
479.7289197789
 20
645.6636923516
 11
479.7289197789
 21
645.8636923516
  0
LINE
  5
2AF
100
AcDbEntity
  8
KONSTRUKTIONSELEMENTE
100
AcDbLine
 62
7
  6
CONTINUOUS
 10
479.787043512
 20
645.6636923516
 11
479.787043512
 21
645.8636923516
  0
LINE
  5
2B0
100
AcDbEntity
  8
KONSTRUKTIONSELEMENTE
100
AcDbLine
 62
7
  6
CONTINUOUS
 10
480.0007660358
 20
645.6636923516
 11
480.0007660358
 21
645.8636923516
  0
LINE
  5
2B1
100
AcDbEntity
  8
KONSTRUKTIONSELEMENTE
100
AcDbLine
 62
7
  6
CONTINUOUS
 10
480.4091346113
 20
645.6636923516
 11
480.4091346113
 21
645.8636923516
  0
LINE
  5
2B2
100
AcDbEntity
  8
KONSTRUKTIONSELEMENTE
100
AcDbLine
 62
7
  6
CONTINUOUS
 10
480.9343516264
 20
645.6636923516
 11
480.9343516264
 21
645.8636923516
  0
LINE
  5
2B3
100
AcDbEntity
  8
KONSTRUKTIONSELEMENTE
100
AcDbLine
 62
7
  6
CONTINUOUS
 10
481.4986176884
 20
645.6636923516
 11
481.4986176884
 21
645.8636923516
  0
LINE
  5
2B4
100
AcDbEntity
  8
KONSTRUKTIONSELEMENTE
100
AcDbLine
 62
7
  6
CONTINUOUS
 10
481.9072867506
 20
645.6636923516
 11
481.9072867506
 21
645.8636923516
  0
LINE
  5
2B5
100
AcDbEntity
  8
KONSTRUKTIONSELEMENTE
100
AcDbLine
 62
7
  6
CONTINUOUS
 10
482.2965806551
 20
645.6636923516
 11
482.2965806551
 21
645.8636923516
  0
LINE
  5
2B6
100
AcDbEntity
  8
KONSTRUKTIONSELEMENTE
100
AcDbLine
 62
7
  6
CONTINUOUS
 10
482.549652692
 20
645.6636923516
 11
482.549652692
 21
645.8636923516
  0
LINE
  5
2B7
100
AcDbEntity
  8
KONSTRUKTIONSELEMENTE
100
AcDbLine
 62
7
  6
CONTINUOUS
 10
482.91957324
 20
645.6636923516
 11
482.91957324
 21
645.8636923516
  0
LINE
  5
2B8
100
AcDbEntity
  8
KONSTRUKTIONSELEMENTE
100
AcDbLine
 62
7
  6
CONTINUOUS
 10
483.4453911723
 20
645.6636923516
 11
483.4453911723
 21
645.8636923516
  0
LINE
  5
2B9
100
AcDbEntity
  8
KONSTRUKTIONSELEMENTE
100
AcDbLine
 62
7
  6
CONTINUOUS
 10
483.6597128529
 20
645.6636923516
 11
483.6597128529
 21
645.8636923516
  0
LINE
  5
2BA
100
AcDbEntity
  8
KONSTRUKTIONSELEMENTE
100
AcDbLine
 62
7
  6
CONTINUOUS
 10
483.7571862679
 20
645.6636923516
 11
483.7571862679
 21
645.8636923516
  0
LINE
  5
2BB
100
AcDbEntity
  8
KONSTRUKTIONSELEMENTE
100
AcDbLine
 62
7
  6
CONTINUOUS
 10
483.8352861218
 20
645.6636923516
 11
483.8352861218
 21
645.8636923516
  0
LINE
  5
2BC
100
AcDbEntity
  8
KONSTRUKTIONSELEMENTE
100
AcDbLine
 62
7
  6
CONTINUOUS
 10
487.7386575641
 20
359.9094152096
 11
487.7386575641
 21
342.2718047343
  0
LINE
  5
2BD
100
AcDbEntity
  8
BEZUGSACHSEN
100
AcDbLine
 62
7
  6
CONTINUOUS
 10
487.7386575641
 20
627.4636923516
 11
487.7386575641
 21
643.6094152096
  0
LINE
  5
2BE
100
AcDbEntity
  8
BEZUGSACHSEN
100
AcDbLine
 62
7
  6
CONTINUOUS
 10
489.4596013727
 20
289.9636923516
 11
489.4596013727
 21
331.9636923516
  0
LINE
  5
2BF
100
AcDbEntity
  8
BEZUGSACHSEN
100
AcDbLine
 62
7
  6
CONTINUOUS
 10
489.4596013727
 20
366.9636923516
 11
489.4596013727
 21
558.4636923516
  0
LINE
  5
2C0
100
AcDbEntity
  8
0
100
AcDbLine
 62
7
  6
CONTINUOUS
 10
518.9511413175
 20
650.6350701031
 11
519.2338153013
 21
651.754604037
  0
LINE
  5
2C1
100
AcDbEntity
  8
0
100
AcDbLine
 62
7
  6
CONTINUOUS
 10
519.438818652
 20
645.3563779668
 11
519.7214927007
 21
646.4759117501
  0
LINE
  5
2C2
100
AcDbEntity
  8
0
100
AcDbLine
 62
7
  6
CONTINUOUS
 10
522.7651656586
 20
648.2844214939
 11
523.0478397073
 21
649.4039552773
  0
LINE
  5
2C3
100
AcDbEntity
  8
RUNDUNGEN
100
AcDbLine
 62
7
  6
CONTINUOUS
 10
534.3708712681
 20
705.7203121087
 11
525.9751862109
 21
674.387188911
  0
LINE
  5
2C4
100
AcDbEntity
  8
0
100
AcDbLine
 62
7
  6
CONTINUOUS
 10
434.7980823429
 20
647.5000443407
 11
434.2734695138
 21
648.7006575866
  0
LINE
  5
2C5
100
AcDbEntity
  8
0
100
AcDbLine
 62
7
  6
CONTINUOUS
 10
432.6305056109
 20
659.0038637685
 11
432.8928114962
 21
658.403555945
  0
LINE
  5
2C6
100
AcDbEntity
  8
0
100
AcDbLine
 62
7
  6
CONTINUOUS
 10
494.8346013727
 20
618.9636923516
 11
494.8346013727
 21
618.7136923516
  0
LINE
  5
2C7
100
AcDbEntity
  8
0
100
AcDbLine
 62
7
  6
CONTINUOUS
 10
494.8346013727
 20
571.7136923516
 11
494.8346013727
 21
571.4636923516
  0
LINE
  5
2C8
100
AcDbEntity
  8
KONSTRUKTIONSELEMENTE
100
AcDbLine
 62
7
  6
CONTINUOUS
 10
495.8096013727
 20
626.9636923516
 11
495.8096013727
 21
627.4636923516
  0
LINE
  5
2C9
100
AcDbEntity
  8
BEZUGSACHSEN
100
AcDbLine
 62
7
  6
CONTINUOUS
 10
495.8096013727
 20
626.9636923516
 11
495.8096013727
 21
627.4636923516
  0
LINE
  5
2CA
100
AcDbEntity
  8
KONSTRUKTIONSELEMENTE
100
AcDbLine
 62
7
  6
CONTINUOUS
 10
501.0177137555
 20
359.9094152096
 11
501.0177137555
 21
342.2718047343
  0
LINE
  5
2CB
100
AcDbEntity
  8
BEZUGSACHSEN
100
AcDbLine
 62
7
  6
CONTINUOUS
 10
501.0177137555
 20
627.4636923516
 11
501.0177137555
 21
643.6094152096
  0
LINE
  5
2CC
100
AcDbEntity
  8
KONSTRUKTIONSELEMENTE
100
AcDbLine
 62
7
  6
CONTINUOUS
 10
502.4596013727
 20
361.9636923516
 11
502.4596013727
 21
366.9636923516
  0
LINE
  5
2CD
100
AcDbEntity
  8
0
100
AcDbLine
 62
7
  6
CONTINUOUS
 10
505.5441635186
 20
618.4636923516
 11
505.5441635186
 21
615.4636923516
  0
LINE
  5
2CE
100
AcDbEntity
  8
0
100
AcDbLine
 62
7
  6
CONTINUOUS
 10
507.7166791029
 20
615.4636923516
 11
507.7166791029
 21
618.4636923516
  0
LINE
  5
2CF
100
AcDbEntity
  8
0
100
AcDbLine
 62
7
  6
CONTINUOUS
 10
514.4363968154
 20
648.6925818993
 11
514.5040829873
 21
649.7196164042
  0
LINE
  5
2D0
100
AcDbEntity
  8
0
100
AcDbLine
 62
7
  6
CONTINUOUS
 10
517.9777314834
 20
651.7131247906
 11
517.9438884298
 21
651.1996074629
  0
LINE
  5
2D1
100
AcDbEntity
  8
0
100
AcDbLine
 62
7
  6
CONTINUOUS
 10
513.1803128657
 20
648.6511025962
 11
513.3724145268
 21
649.9811455038
  0
LINE
  5
2D2
100
AcDbEntity
  8
0
100
AcDbLine
 62
7
  6
CONTINUOUS
 10
524.0212495414
 20
648.3259005897
 11
524.2133510489
 21
649.6559436989
  0
LINE
  5
2D3
100
AcDbEntity
  8
0
100
AcDbLine
 62
7
  6
CONTINUOUS
 10
517.8104605882
 20
639.6662081895
 11
517.6522020319
 21
638.8496825425
  0
LINE
  5
2D4
100
AcDbEntity
  8
0
100
AcDbLine
 62
7
  6
CONTINUOUS
 10
518.6594552269
 20
638.2851447795
 11
518.8177137456
 21
639.1016704104
  0
LINE
  5
2D5
100
AcDbEntity
  8
0
100
AcDbLine
 62
7
  6
CONTINUOUS
 10
511.9596013727
 20
558.4636923516
 11
436.9596013727
 21
558.4636923516
  0
LINE
  5
2D6
100
AcDbEntity
  8
0
100
AcDbLine
 62
7
  6
CONTINUOUS
 10
425.5361890908
 20
644.5686583951
 11
425.0568816556
 21
645.2566391214
  0
LINE
  5
2D7
100
AcDbEntity
  8
0
100
AcDbLine
 62
7
  6
CONTINUOUS
 10
433.9730498975
 20
659.2029333029
 11
433.3625901276
 21
660.1910676954
  0
LINE
  5
2D8
100
AcDbEntity
  8
0
100
AcDbLine
 62
7
  6
CONTINUOUS
 10
517.6522020319
 20
638.8496825425
 11
517.7089313063
 21
638.1256563326
  0
LINE
  5
2D9
100
AcDbEntity
  8
0
100
AcDbLine
 62
7
  6
CONTINUOUS
 10
510.9596013727
 20
626.9636923516
 11
510.9596013727
 21
618.9636923516
  0
LINE
  5
2DA
100
AcDbEntity
  8
0
100
AcDbLine
 62
7
  6
CONTINUOUS
 10
511.9596013727
 20
571.4636923516
 11
511.9596013727
 21
558.4636923516
  0
LINE
  5
2DB
100
AcDbEntity
  8
RUNDUNGEN
100
AcDbLine
 62
7
  6
CONTINUOUS
 10
513.9596013727
 20
612.4636923516
 11
513.9596013727
 21
571.7136923516
  0
LINE
  5
2DC
100
AcDbEntity
  8
RUNDUNGEN
100
AcDbLine
 62
7
  6
CONTINUOUS
 10
515.9596013727
 20
573.4636923516
 11
515.9596013727
 21
577.8511924671
  0
LINE
  5
2DD
100
AcDbEntity
  8
RUNDUNGEN
100
AcDbLine
 62
7
  6
CONTINUOUS
 10
515.9596013727
 20
594.076191858
 11
515.9596013727
 21
613.9108530883
  0
LINE
  5
2DE
100
AcDbEntity
  8
0
100
AcDbLine
 62
7
  6
CONTINUOUS
 10
518.7480828665
 20
647.5539664377
 11
518.6803966298
 21
646.5269320834
  0
LINE
  5
2DF
100
AcDbEntity
  8
0
100
AcDbLine
 62
7
  6
CONTINUOUS
 10
519.7214927007
 20
646.4759117501
 11
519.7553356894
 21
646.9894292285
  0
LINE
  5
2E0
100
AcDbEntity
  8
RUNDUNGEN
100
AcDbLine
 62
7
  6
CONTINUOUS
 10
546.5299772717
 20
597.7555683354
 11
535.1406267724
 21
570.9239400164
  0
LINE
  5
2E1
100
AcDbEntity
  8
RUNDUNGEN
100
AcDbLine
 62
7
  6
CONTINUOUS
 10
529.157345225
 20
566.9636923516
 11
522.4596013727
 21
566.9636923516
  0
LINE
  5
2E2
100
AcDbEntity
  8
RUNDUNGEN
100
AcDbLine
 62
7
  6
CONTINUOUS
 10
426.4596013727
 20
566.9636923516
 11
419.7618575205
 21
566.9636923516
  0
LINE
  5
2E3
100
AcDbEntity
  8
0
100
AcDbLine
 62
7
  6
CONTINUOUS
 10
511.9596013727
 20
571.4636923516
 11
436.9596013727
 21
571.4636923516
  0
LINE
  5
2E4
100
AcDbEntity
  8
RUNDUNGEN
100
AcDbLine
 62
7
  6
CONTINUOUS
 10
434.9596013727
 20
571.7136923516
 11
513.9596013727
 21
571.7136923516
  0
LINE
  5
2E5
100
AcDbEntity
  8
0
100
AcDbLine
 62
7
  6
CONTINUOUS
 10
514.6048408492
 20
572.2136923516
 11
513.9596013727
 21
572.2136923516
  0
LINE
  5
2E6
100
AcDbEntity
  8
BEZUGSACHSEN
100
AcDbLine
 62
7
  6
CONTINUOUS
 10
434.9596013727
 20
572.2136923516
 11
434.3140964184
 21
572.2136923516
  0
LWPOLYLINE
  5
2E7
100
AcDbEntity
  8
RUNDUNGEN
100
AcDbPolyline
 62
7
  6
CONTINUOUS
 90
13
 70
0
 10
514.6054621238
 20
572.2136923791
 10
514.6305056694
 20
572.2135355781
 10
514.8412926238
 20
572.1997397028
 10
515.0494470824
 20
572.1637891317
 10
515.2526471368
 20
572.1060854496
 10
515.4486262423
 20
572.0272728779
 10
515.6351984967
 20
571.9282310742
 10
515.8102830434
 20
571.8100652872
 10
515.971927148
 20
571.6740941118
 10
516.1183280356
 20
571.5218347979
 10
516.2478533956
 20
571.3549858269
 10
516.3590590941
 20
571.1754082742
 10
516.4507051143
 20
570.9851054331
  0
LINE
  5
2E8
100
AcDbEntity
  8
0
100
AcDbLine
 62
7
  6
CONTINUOUS
 10
425.8819146651
 20
633.5537504616
 11
420.795527621
 21
637.8332619522
  0
LINE
  5
2E9
100
AcDbEntity
  8
0
100
AcDbLine
 62
7
  6
CONTINUOUS
 10
428.9246854387
 20
631.0885701516
 11
426.6640690828
 21
632.9905752345
  0
LINE
  5
2EA
100
AcDbEntity
  8
0
100
AcDbLine
 62
7
  6
CONTINUOUS
 10
419.5841365226
 20
637.3340391139
 11
428.4096013727
 21
629.8136923516
  0
LINE
  5
2EB
100
AcDbEntity
  8
0
100
AcDbLine
 62
7
  6
CONTINUOUS
 10
424.1077966882
 20
644.1571090676
 11
424.8041039662
 21
643.3814547138
  0
LINE
  5
2EC
100
AcDbEntity
  8
0
100
AcDbLine
 62
7
  6
CONTINUOUS
 10
422.0162121889
 20
596.0499303578
 11
425.2256802364
 21
596.0499303578
  0
LINE
  5
2ED
100
AcDbEntity
  8
0
100
AcDbLine
 62
7
  6
CONTINUOUS
 10
425.2256802364
 20
597.7118494852
 11
422.0166363998
 21
597.7118494852
  0
LINE
  5
2EE
100
AcDbEntity
  8
0
100
AcDbLine
 62
7
  6
CONTINUOUS
 10
424.8041039662
 20
643.3814547138
 11
425.8032593197
 21
642.730605064
  0
LINE
  5
2EF
100
AcDbEntity
  8
0
100
AcDbLine
 62
7
  6
CONTINUOUS
 10
426.3183433857
 20
644.005482864
 11
425.5361890908
 21
644.5686583951
  0
LINE
  5
2F0
100
AcDbEntity
  8
0
100
AcDbLine
 62
7
  6
CONTINUOUS
 10
432.7592305503
 20
648.0766292522
 11
433.3243843944
 21
647.6011275942
  0
LINE
  5
2F1
100
AcDbEntity
  8
0
100
AcDbLine
 62
7
  6
CONTINUOUS
 10
517.7089313063
 20
638.1256563326
 11
518.0373776858
 21
636.7701033498
  0
LINE
  5
2F2
100
AcDbEntity
  8
0
100
AcDbLine
 62
7
  6
CONTINUOUS
 10
513.1803128657
 20
648.6511025962
 11
513.4181868984
 21
647.5060584876
  0
LINE
  5
2F3
100
AcDbEntity
  8
0
100
AcDbLine
 62
7
  6
CONTINUOUS
 10
518.8973290088
 20
637.1401010983
 11
518.6594552269
 21
638.2851447795
  0
LINE
  5
2F4
100
AcDbEntity
  8
0
100
AcDbLine
 62
7
  6
CONTINUOUS
 10
514.5836985202
 20
647.7580466728
 11
514.4363968154
 21
648.6925818993
  0
LINE
  5
2F5
100
AcDbEntity
  8
0
100
AcDbLine
 62
7
  6
CONTINUOUS
 10
518.6007811617
 20
648.4885016642
 11
518.7480828665
 21
647.5539664377
  0
LINE
  5
2F6
100
AcDbEntity
  8
0
100
AcDbLine
 62
7
  6
CONTINUOUS
 10
519.0984430223
 20
649.7005348766
 11
518.9511413175
 21
650.6350701031
  0
LINE
  5
2F7
100
AcDbEntity
  8
0
100
AcDbLine
 62
7
  6
CONTINUOUS
 10
522.9005380025
 20
650.3384905037
 11
523.0478397073
 21
649.4039552773
  0
LINE
  5
2F8
100
AcDbEntity
  8
RUNDUNGEN
100
AcDbLine
 62
7
  6
CONTINUOUS
 10
428.2439588749
 20
607.1636923516
 11
430.9596013727
 21
607.1636923516
  0
LINE
  5
2F9
100
AcDbEntity
  8
RUNDUNGEN
100
AcDbLine
 62
7
  6
CONTINUOUS
 10
517.9596013727
 20
607.1636923516
 11
520.6752438706
 21
607.1636923516
  0
LINE
  5
2FA
100
AcDbEntity
  8
0
100
AcDbLine
 62
7
  6
CONTINUOUS
 10
434.2734695138
 20
648.7006575866
 11
433.2743146162
 21
649.3515070522
  0
LINE
  5
2FB
100
AcDbEntity
  8
0
100
AcDbLine
 62
7
  6
CONTINUOUS
 10
432.0653512756
 20
659.4793642106
 11
432.6305056109
 21
659.0038637685
  0
LINE
  5
2FC
100
AcDbEntity
  8
0
100
AcDbLine
 62
7
  6
CONTINUOUS
 10
433.3625901276
 20
660.1910676954
 11
432.7974357922
 21
660.6665681375
  0
LINE
  5
2FD
100
AcDbEntity
  8
0
100
AcDbLine
 62
7
  6
CONTINUOUS
 10
513.4181868984
 20
647.5060584876
 11
513.9616211087
 21
646.243004942
  0
LINE
  5
2FE
100
AcDbEntity
  8
0
100
AcDbLine
 62
7
  6
CONTINUOUS
 10
514.9459879073
 20
646.9160111765
 11
514.5836985202
 21
647.7580466728
  0
LINE
  5
2FF
100
AcDbEntity
  8
RUNDUNGEN
100
AcDbLine
 62
7
  6
CONTINUOUS
 10
512.7556864185
 20
630.3936601342
 11
507.8309594817
 21
642.5827870322
  0
LINE
  5
300
100
AcDbEntity
  8
0
100
AcDbLine
 62
7
  6
CONTINUOUS
 10
524.2133510489
 20
649.6559436989
 11
523.9754770621
 21
650.8009876488
  0
LINE
  5
301
100
AcDbEntity
  8
0
100
AcDbLine
 62
7
  6
CONTINUOUS
 10
518.8412043022
 20
615.4636923516
 11
510.9596013727
 21
615.4636923516
  0
LINE
  5
302
100
AcDbEntity
  8
RUNDUNGEN
100
AcDbLine
 62
7
  6
CONTINUOUS
 10
510.9596013727
 20
615.4636923516
 11
496.5095288108
 21
615.4636923516
  0
LINE
  5
303
100
AcDbEntity
  8
RUNDUNGEN
100
AcDbLine
 62
7
  6
CONTINUOUS
 10
452.4095481347
 20
615.4636923516
 11
437.9596013727
 21
615.4636923516
  0
LINE
  5
304
100
AcDbEntity
  8
0
100
AcDbLine
 62
7
  6
CONTINUOUS
 10
437.9596013727
 20
615.4636923516
 11
430.0779984433
 21
615.4636923516
  0
LINE
  5
305
100
AcDbEntity
  8
0
100
AcDbLine
 62
7
  6
CONTINUOUS
 10
430.0779984433
 20
618.4636923516
 11
449.5524842734
 21
618.4636923516
  0
LINE
  5
306
100
AcDbEntity
  8
0
100
AcDbLine
 62
7
  6
CONTINUOUS
 10
499.3667184721
 20
618.4636923516
 11
518.8412043022
 21
618.4636923516
  0
LINE
  5
307
100
AcDbEntity
  8
0
100
AcDbLine
 62
7
  6
CONTINUOUS
 10
449.537260855
 20
618.7136923516
 11
449.7405570142
 21
618.7136923516
  0
LINE
  5
308
100
AcDbEntity
  8
RUNDUNGEN
100
AcDbLine
 62
7
  6
CONTINUOUS
 10
449.7405570142
 20
618.7136923516
 11
499.1786457313
 21
618.7136923516
  0
LINE
  5
309
100
AcDbEntity
  8
0
100
AcDbLine
 62
7
  6
CONTINUOUS
 10
499.1786457313
 20
618.7136923516
 11
499.3819418905
 21
618.7136923516
  0
LINE
  5
30A
100
AcDbEntity
  8
0
100
AcDbLine
 62
7
  6
CONTINUOUS
 10
510.9596013727
 20
618.9636923516
 11
437.9596013727
 21
618.9636923516
  0
LINE
  5
30B
100
AcDbEntity
  8
RUNDUNGEN
100
AcDbLine
 62
7
  6
CONTINUOUS
 10
520.1883001758
 20
622.7636923516
 11
516.6610349927
 21
622.7636923516
  0
LINE
  5
30C
100
AcDbEntity
  8
RUNDUNGEN
100
AcDbLine
 62
7
  6
CONTINUOUS
 10
432.2581676929
 20
622.7636923516
 11
428.7309025697
 21
622.7636923516
  0
LINE
  5
30D
100
AcDbEntity
  8
0
100
AcDbLine
 62
7
  6
CONTINUOUS
 10
510.9596013727
 20
626.9636923516
 11
437.9596013727
 21
626.9636923516
  0
LINE
  5
30E
100
AcDbEntity
  8
KONSTRUKTIONSELEMENTE
100
AcDbLine
 62
7
  6
CONTINUOUS
 10
447.90148899
 20
627.4636923516
 11
501.0177137555
 21
627.4636923516
  0
LINE
  5
30F
100
AcDbEntity
  8
0
100
AcDbLine
 62
7
  6
CONTINUOUS
 10
429.0582663846
 20
641.4154968445
 11
430.2291161464
 21
641.1896075175
  0
LINE
  5
310
100
AcDbEntity
  8
0
100
AcDbLine
 62
7
  6
CONTINUOUS
 10
425.8032593197
 20
642.730605064
 11
429.0582663846
 21
641.4154968445
  0
LINE
  5
311
100
AcDbEntity
  8
0
100
AcDbLine
 62
7
  6
CONTINUOUS
 10
429.5733504506
 20
642.6903746445
 11
426.3183433857
 21
644.005482864
  0
LINE
  5
312
100
AcDbEntity
  8
0
100
AcDbLine
 62
7
  6
CONTINUOUS
 10
426.3660765196
 20
654.119929641
 11
436.5650989198
 21
649.9992571135
  0
LINE
  5
313
100
AcDbEntity
  8
0
100
AcDbLine
 62
7
  6
CONTINUOUS
 10
437.080183477
 20
651.2741361293
 11
432.5231734037
 21
653.1152877103
  0
LINE
  5
314
100
AcDbEntity
  8
0
100
AcDbLine
 62
7
  6
CONTINUOUS
 10
431.2211706993
 20
653.641330949
 11
427.9661633304
 21
654.9564392913
  0
LINE
  5
315
100
AcDbEntity
  8
0
100
AcDbLine
 62
7
  6
CONTINUOUS
 10
513.9616211087
 20
646.243004942
 11
514.6294708677
 21
645.282959557
  0
LINE
  5
316
100
AcDbEntity
  8
0
100
AcDbLine
 62
7
  6
CONTINUOUS
 10
518.6007811617
 20
648.4885016642
 11
518.2384917746
 21
649.3305371605
  0
LINE
  5
317
100
AcDbEntity
  8
0
100
AcDbLine
 62
7
  6
CONTINUOUS
 10
519.4607324094
 20
648.8584993803
 11
519.0984430223
 21
649.7005348766
  0
LINE
  5
318
100
AcDbEntity
  8
0
100
AcDbLine
 62
7
  6
CONTINUOUS
 10
522.064445004
 20
643.9912837547
 11
522.7890240374
 21
642.3072121598
  0
LINE
  5
319
100
AcDbEntity
  8
0
100
AcDbLine
 62
7
  6
CONTINUOUS
 10
523.2418857065
 20
641.25466794
 11
524.238181586
 21
638.9390701745
  0
LINE
  5
31A
100
AcDbEntity
  8
0
100
AcDbLine
 62
7
  6
CONTINUOUS
 10
525.0981328337
 20
639.3090678906
 11
524.1018369542
 21
641.6246656561
  0
LINE
  5
31B
100
AcDbEntity
  8
0
100
AcDbLine
 62
7
  6
CONTINUOUS
 10
523.6489752851
 20
642.6772098759
 11
522.9243962517
 21
644.3612814708
  0
LINE
  5
31C
100
AcDbEntity
  8
0
100
AcDbLine
 62
7
  6
CONTINUOUS
 10
525.8217400519
 20
642.3646613473
 11
525.3688783827
 21
643.4172055672
  0
LINE
  5
31D
100
AcDbEntity
  8
0
100
AcDbLine
 62
7
  6
CONTINUOUS
 10
522.5382486153
 20
651.1805260001
 11
522.9005380025
 21
650.3384905037
  0
LINE
  5
31E
100
AcDbEntity
  8
0
100
AcDbLine
 62
7
  6
CONTINUOUS
 10
523.9754770621
 20
650.8009876488
 11
523.613187675
 21
651.6430231452
  0
LINE
  5
31F
100
AcDbEntity
  8
RUNDUNGEN
100
AcDbLine
 62
7
  6
CONTINUOUS
 10
526.4633350546
 20
666.4060258656
 11
546.6921434188
 21
616.3379682233
  0
LINE
  5
320
100
AcDbEntity
  8
0
100
AcDbLine
 62
7
  6
CONTINUOUS
 10
431.3498956387
 20
642.7140964327
 11
430.5271997616
 21
642.5521591907
  0
LINE
  5
321
100
AcDbEntity
  8
0
100
AcDbLine
 62
7
  6
CONTINUOUS
 10
430.2291161464
 20
641.1896075175
 11
431.2688126262
 21
641.2638708251
  0
LINE
  5
322
100
AcDbEntity
  8
0
100
AcDbLine
 62
7
  6
CONTINUOUS
 10
516.6439766453
 20
644.1538851951
 11
517.9000606786
 21
644.1953643557
  0
LINE
  5
323
100
AcDbEntity
  8
BEZUGSACHSEN
100
AcDbLine
 62
7
  6
CONTINUOUS
 10
451.4598883463
 20
645.6636923516
 11
497.4593143992
 21
645.6636923516
  0
LINE
  5
324
100
AcDbEntity
  8
KONSTRUKTIONSELEMENTE
100
AcDbLine
 62
7
  6
CONTINUOUS
 10
455.4027281193
 20
645.8636923516
 11
465.3474893654
 21
645.8636923516
  0
LINE
  5
325
100
AcDbEntity
  8
KONSTRUKTIONSELEMENTE
100
AcDbLine
 62
7
  6
CONTINUOUS
 10
469.4084967368
 20
645.8636923516
 11
474.496738834
 21
645.8636923516
  0
LINE
  5
326
100
AcDbEntity
  8
KONSTRUKTIONSELEMENTE
100
AcDbLine
 62
7
  6
CONTINUOUS
 10
475.4773244614
 20
645.8636923516
 11
479.0645728202
 21
645.8636923516
  0
LINE
  5
327
100
AcDbEntity
  8
KONSTRUKTIONSELEMENTE
100
AcDbLine
 62
7
  6
CONTINUOUS
 10
479.7289197789
 20
645.8636923516
 11
483.8352861218
 21
645.8636923516
  0
LINE
  5
328
100
AcDbEntity
  8
0
100
AcDbLine
 62
7
  6
CONTINUOUS
 10
521.0681488654
 20
646.3068821224
 11
522.1092449362
 21
646.2558617892
  0
LINE
  5
329
100
AcDbEntity
  8
0
100
AcDbLine
 62
7
  6
CONTINUOUS
 10
431.8434950639
 20
638.3128774825
 11
420.2709152363
 21
639.0338760793
  0
LINE
  5
32A
100
AcDbEntity
  8
0
100
AcDbLine
 62
7
  6
CONTINUOUS
 10
428.3810159897
 20
637.2401679519
 11
431.3284109979
 21
637.0379996825
  0
LINE
  5
32B
100
AcDbEntity
  8
0
100
AcDbLine
 62
7
  6
CONTINUOUS
 10
420.795527621
 20
637.8332619522
 11
427.4271669244
 21
637.3783840137
  0
LINE
  5
32C
100
AcDbEntity
  8
0
100
AcDbLine
 62
7
  6
CONTINUOUS
 10
427.0313704113
 20
650.1436702829
 11
427.7682198795
 21
650.0931284566
  0
LINE
  5
32D
100
AcDbEntity
  8
0
100
AcDbLine
 62
7
  6
CONTINUOUS
 10
430.5271997616
 20
642.5521591907
 11
429.5733504506
 21
642.6903746445
  0
LINE
  5
32E
100
AcDbEntity
  8
0
100
AcDbLine
 62
7
  6
CONTINUOUS
 10
428.2833039454
 20
651.3680062566
 11
427.1124535758
 21
651.5938958292
  0
LINE
  5
32F
100
AcDbEntity
  8
0
100
AcDbLine
 62
7
  6
CONTINUOUS
 10
431.4143493154
 20
659.7423860756
 11
432.0653512756
 21
659.4793642106
  0
LINE
  5
330
100
AcDbEntity
  8
0
100
AcDbLine
 62
7
  6
CONTINUOUS
 10
432.7974357922
 20
660.6665681375
 11
431.9294333814
 21
661.0172638756
  0
LINE
  5
331
100
AcDbEntity
  8
BEZUGSACHSEN
100
AcDbLine
 62
7
  6
CONTINUOUS
 10
501.0177137555
 20
643.6094152096
 11
497.4596013727
 21
645.6636923516
  0
LINE
  5
332
100
AcDbEntity
  8
0
100
AcDbLine
 62
7
  6
CONTINUOUS
 10
514.6294708677
 20
645.282959557
 11
515.7272960291
 21
644.5079136485
  0
LINE
  5
333
100
AcDbEntity
  8
0
100
AcDbLine
 62
7
  6
CONTINUOUS
 10
516.315530247
 20
645.5094381698
 11
515.523265236
 21
646.1664748081
  0
LINE
  5
334
100
AcDbEntity
  8
0
100
AcDbLine
 62
7
  6
CONTINUOUS
 10
519.7553356894
 20
646.9894292285
 11
520.1514683245
 21
646.6609106082
  0
LINE
  5
335
100
AcDbEntity
  8
0
100
AcDbLine
 62
7
  6
CONTINUOUS
 10
515.523265236
 20
646.1664748081
 11
514.9459879073
 21
646.9160111765
  0
LINE
  5
336
100
AcDbEntity
  8
0
100
AcDbLine
 62
7
  6
CONTINUOUS
 10
517.661214446
 20
650.0800735289
 11
518.2384917746
 21
649.3305371605
  0
LINE
  5
337
100
AcDbEntity
  8
0
100
AcDbLine
 62
7
  6
CONTINUOUS
 10
520.0380097381
 20
648.1089630118
 11
519.4607324094
 21
648.8584993803
  0
LINE
  5
338
100
AcDbEntity
  8
0
100
AcDbLine
 62
7
  6
CONTINUOUS
 10
521.9609712867
 20
651.9300623685
 11
522.5382486153
 21
651.1805260001
  0
LINE
  5
339
100
AcDbEntity
  8
0
100
AcDbLine
 62
7
  6
CONTINUOUS
 10
523.613187675
 20
651.6430231452
 11
522.9453379995
 21
652.6030683877
  0
LINE
  5
33A
100
AcDbEntity
  8
KONSTRUKTIONSELEMENTE
100
AcDbLine
 62
7
  6
CONTINUOUS
 10
451.4596013727
 20
361.9636923516
 11
447.90148899
 21
359.9094152096
  0
LINE
  5
33B
100
AcDbEntity
  8
0
100
AcDbLine
 62
7
  6
CONTINUOUS
 10
516.5405029556
 20
652.0926633301
 11
515.2844188527
 21
652.0511839165
  0
LINE
  5
33C
100
AcDbEntity
  8
0
100
AcDbLine
 62
7
  6
CONTINUOUS
 10
520.9308321594
 20
653.7321432579
 11
519.6747477634
 21
653.6906636959
  0
LINE
  5
33D
100
AcDbEntity
  8
0
100
AcDbLine
 62
7
  6
CONTINUOUS
 10
524.1209268754
 20
649.0160313072
 11
522.9498917571
 21
649.0160313072
  0
LINE
  5
33E
100
AcDbEntity
  8
0
100
AcDbLine
 62
7
  6
CONTINUOUS
 10
519.3929536216
 20
649.0160313072
 11
518.3738092682
 21
649.0160313072
  0
LINE
  5
33F
100
AcDbEntity
  8
0
100
AcDbLine
 62
7
  6
CONTINUOUS
 10
514.4577135795
 20
649.0160313072
 11
513.2330204973
 21
649.0160313072
  0
LINE
  5
340
100
AcDbEntity
  8
0
100
AcDbLine
 62
7
  6
CONTINUOUS
 10
433.7893219281
 20
649.0160313072
 11
433.1387736171
 21
649.0160313072
  0
LINE
  5
341
100
AcDbEntity
  8
0
100
AcDbLine
 62
7
  6
CONTINUOUS
 10
425.8505273511
 20
649.0160313072
 11
424.3039677387
 21
649.0160313072
  0
LINE
  5
342
100
AcDbEntity
  8
RUNDUNGEN
100
AcDbLine
 62
7
  6
CONTINUOUS
 10
493.923199958
 20
651.9636923516
 11
454.9960027875
 21
651.9636923516
  0
LINE
  5
343
100
AcDbEntity
  8
0
100
AcDbLine
 62
7
  6
CONTINUOUS
 10
430.6775009464
 20
659.7929288721
 11
431.4143493154
 21
659.7423860756
  0
LINE
  5
344
100
AcDbEntity
  8
0
100
AcDbLine
 62
7
  6
CONTINUOUS
 10
431.9294333814
 20
661.0172638756
 11
431.1925850124
 21
661.0678066721
  0
LINE
  5
345
100
AcDbEntity
  8
0
100
AcDbLine
 62
7
  6
CONTINUOUS
 10
521.8713708199
 20
647.4009060403
 11
521.045262561
 21
647.5444258026
  0
LINE
  5
346
100
AcDbEntity
  8
0
100
AcDbLine
 62
7
  6
CONTINUOUS
 10
520.1276096026
 20
652.6381190809
 11
520.953718399
 21
652.4945997283
  0
LINE
  5
347
100
AcDbEntity
  8
0
100
AcDbLine
 62
7
  6
CONTINUOUS
 10
517.4471987504
 20
645.2479091778
 11
516.315530247
 21
645.5094381698
  0
LINE
  5
348
100
AcDbEntity
  8
0
100
AcDbLine
 62
7
  6
CONTINUOUS
 10
515.7372806838
 20
650.9986393202
 11
516.8689493702
 21
650.7371103178
  0
LINE
  5
349
100
AcDbEntity
  8
0
100
AcDbLine
 62
7
  6
CONTINUOUS
 10
515.7272960291
 20
644.5079136485
 11
516.6439766453
 21
644.1538851951
  0
LINE
  5
34A
100
AcDbEntity
  8
0
100
AcDbLine
 62
7
  6
CONTINUOUS
 10
520.1514683245
 20
646.6609106082
 11
521.0681488654
 21
646.3068821224
  0
LINE
  5
34B
100
AcDbEntity
  8
0
100
AcDbLine
 62
7
  6
CONTINUOUS
 10
521.8475127003
 20
653.3781147722
 11
520.9308321594
 21
653.7321432579
  0
LINE
  5
34C
100
AcDbEntity
  8
0
100
AcDbLine
 62
7
  6
CONTINUOUS
 10
521.045262561
 20
647.5444258026
 11
520.0380097381
 21
648.1089630118
  0
LINE
  5
34D
100
AcDbEntity
  8
0
100
AcDbLine
 62
7
  6
CONTINUOUS
 10
517.5477558595
 20
651.5281259326
 11
516.5405029556
 21
652.0926633301
  0
LINE
  5
34E
100
AcDbEntity
  8
0
100
AcDbLine
 62
7
  6
CONTINUOUS
 10
520.953718399
 20
652.4945997283
 11
521.9609712867
 21
651.9300623685
  0
LINE
  5
34F
100
AcDbEntity
  8
0
100
AcDbLine
 62
7
  6
CONTINUOUS
 10
522.9453379995
 20
652.6030683877
 11
521.8475127003
 21
653.3781147722
  0
LINE
  5
350
100
AcDbEntity
  8
0
100
AcDbLine
 62
7
  6
CONTINUOUS
 10
516.8689493702
 20
650.7371103178
 11
517.661214446
 21
650.0800735289
  0
LINE
  5
351
100
AcDbEntity
  8
0
100
AcDbLine
 62
7
  6
CONTINUOUS
 10
517.9438884298
 20
651.1996074629
 11
517.5477558595
 21
651.5281259326
  0
LINE
  5
352
100
AcDbEntity
  8
RUNDUNGEN
100
AcDbLine
 62
7
  6
CONTINUOUS
 10
517.80694354
 20
745.3575795873
 11
533.4268880617
 21
714.7017123738
  0
LINE
  5
353
100
AcDbEntity
  8
BEZUGSACHSEN
100
AcDbLine
 62
7
  6
CONTINUOUS
 10
501.0177137555
 20
342.2718047343
 11
490.7096013727
 21
331.9636923516
  0
LINE
  5
354
100
AcDbEntity
  8
0
100
AcDbLine
 62
7
  6
CONTINUOUS
 10
431.1925850124
 20
661.0678066721
 11
430.0670411765
 21
660.7810632646
  0
LINE
  5
355
100
AcDbEntity
  8
BEZUGSACHSEN
100
AcDbLine
 62
7
  6
CONTINUOUS
 10
489.4596013727
 20
289.9636923516
 11
486.4596013727
 21
286.9636923516
  0
LINE
  5
356
100
AcDbEntity
  8
RUNDUNGEN
100
AcDbLine
 62
7
  6
CONTINUOUS
 10
478.975037537
 20
763.7303788057
 11
511.0956974995
 21
751.4004126644
  0
LINE
  5
357
100
AcDbEntity
  8
BEZUGSACHSEN
100
AcDbLine
 62
7
  6
CONTINUOUS
 10
686.4279203662
 20
286.9636923516
 11
710.4279203662
 21
286.9636923516
  0
LINE
  5
358
100
AcDbEntity
  8
BEZUGSACHSEN
100
AcDbLine
 62
7
  6
CONTINUOUS
 10
683.4279203662
 20
289.9636923516
 11
713.4279203662
 21
289.9636923516
  0
LINE
  5
359
100
AcDbEntity
  8
BEZUGSACHSEN
100
AcDbLine
 62
7
  6
CONTINUOUS
 10
714.6779203662
 20
331.9636923516
 11
682.1779203662
 21
331.9636923516
  0
LINE
  5
35A
100
AcDbEntity
  8
BEZUGSACHSEN
100
AcDbLine
 62
7
  6
CONTINUOUS
 10
686.4279203662
 20
286.9636923516
 11
683.4279203662
 21
289.9636923516
  0
LINE
  5
35B
100
AcDbEntity
  8
KONSTRUKTIONSELEMENTE
100
AcDbLine
 62
7
  6
CONTINUOUS
 10
670.4279203662
 20
361.9636923516
 11
726.4279203662
 21
361.9636923516
  0
LINE
  5
35C
100
AcDbEntity
  8
KONSTRUKTIONSELEMENTE
100
AcDbLine
 62
7
  6
CONTINUOUS
 10
670.4279203662
 20
366.9636923516
 11
726.4279203662
 21
366.9636923516
  0
LINE
  5
35D
100
AcDbEntity
  8
BEZUGSACHSEN
100
AcDbLine
 62
7
  6
CONTINUOUS
 10
675.3855591965
 20
338.7560535213
 11
682.1779203662
 21
331.9636923516
  0
LINE
  5
35E
100
AcDbEntity
  8
0
100
AcDbLine
 62
7
  6
CONTINUOUS
 10
658.9279203662
 20
571.7136923516
 11
658.9279203662
 21
615.7136923516
  0
LINE
  5
35F
100
AcDbEntity
  8
0
100
AcDbLine
 62
7
  6
CONTINUOUS
 10
660.9279203662
 20
571.4636923516
 11
660.9279203662
 21
558.4636923516
  0
LINE
  5
360
100
AcDbEntity
  8
0
100
AcDbLine
 62
7
  6
CONTINUOUS
 10
661.9279203662
 20
626.9636923516
 11
661.9279203662
 21
618.9636923516
  0
LINE
  5
361
100
AcDbEntity
  8
KONSTRUKTIONSELEMENTE
100
AcDbLine
 62
7
  6
CONTINUOUS
 10
670.4279203662
 20
361.9636923516
 11
670.4279203662
 21
366.9636923516
  0
LINE
  5
362
100
AcDbEntity
  8
0
100
AcDbLine
 62
7
  6
CONTINUOUS
 10
673.0529203662
 20
615.4636923516
 11
673.0529203662
 21
618.7136923516
  0
LINE
  5
363
100
AcDbEntity
  8
0
100
AcDbLine
 62
7
  6
CONTINUOUS
 10
673.6979203662
 20
615.4636923516
 11
673.6979203662
 21
618.4636923516
  0
LINE
  5
364
100
AcDbEntity
  8
0
100
AcDbLine
 62
7
  6
CONTINUOUS
 10
681.7261000102
 20
628.7046481035
 11
683.9829203662
 21
649.0160313072
  0
LINE
  5
365
100
AcDbEntity
  8
RUNDUNGEN
100
AcDbLine
 62
7
  6
CONTINUOUS
 10
681.519664346
 20
618.2893881707
 11
684.836175546
 21
648.1379889699
  0
LINE
  5
366
100
AcDbEntity
  8
BEZUGSACHSEN
100
AcDbLine
 62
7
  6
CONTINUOUS
 10
675.4279203662
 20
342.2718047343
 11
675.4279203662
 21
338.7136705375
  0
LINE
  5
367
100
AcDbEntity
  8
KONSTRUKTIONSELEMENTE
100
AcDbLine
 62
7
  6
CONTINUOUS
 10
675.4279203662
 20
342.2718047343
 11
675.4279203662
 21
361.9636923518
  0
LINE
  5
368
100
AcDbEntity
  8
BEZUGSACHSEN
100
AcDbLine
 62
7
  6
CONTINUOUS
 10
675.4279203662
 20
627.4636923516
 11
675.4279203662
 21
645.6636923516
  0
LINE
  5
369
100
AcDbEntity
  8
BEZUGSACHSEN
100
AcDbLine
 62
7
  6
CONTINUOUS
 10
677.0779203662
 20
626.9636923516
 11
677.0779203662
 21
627.4636923516
  0
LINE
  5
36A
100
AcDbEntity
  8
0
100
AcDbLine
 62
7
  6
CONTINUOUS
 10
678.0529203662
 20
618.9636923516
 11
678.0529203662
 21
618.4636923516
  0
LINE
  5
36B
100
AcDbEntity
  8
0
100
AcDbLine
 62
7
  6
CONTINUOUS
 10
678.0529203662
 20
571.7136923516
 11
678.0529203662
 21
571.4636923516
  0
LINE
  5
36C
100
AcDbEntity
  8
KONSTRUKTIONSELEMENTE
100
AcDbLine
 62
7
  6
CONTINUOUS
 10
679.3335592975
 20
645.6636923516
 11
679.3335592975
 21
645.8636923516
  0
LINE
  5
36D
100
AcDbEntity
  8
KONSTRUKTIONSELEMENTE
100
AcDbLine
 62
7
  6
CONTINUOUS
 10
679.4569498959
 20
645.6636923516
 11
679.4569498959
 21
645.8636923516
  0
LINE
  5
36E
100
AcDbEntity
  8
KONSTRUKTIONSELEMENTE
100
AcDbLine
 62
7
  6
CONTINUOUS
 10
679.8682518907
 20
645.6636923516
 11
679.8682518907
 21
645.8636923516
  0
LINE
  5
36F
100
AcDbEntity
  8
KONSTRUKTIONSELEMENTE
100
AcDbLine
 62
7
  6
CONTINUOUS
 10
679.9916424892
 20
645.6636923516
 11
679.9916424892
 21
645.8636923516
  0
LINE
  5
370
100
AcDbEntity
  8
RUNDUNGEN
100
AcDbLine
 62
7
  6
CONTINUOUS
 10
681.4279203662
 20
570.4636923516
 11
681.4279203662
 21
616.6329152796
  0
LINE
  5
371
100
AcDbEntity
  8
BEZUGSACHSEN
100
AcDbLine
 62
7
  6
CONTINUOUS
 10
683.4279203662
 20
289.9636923516
 11
683.4279203662
 21
331.9636923516
  0
LINE
  5
372
100
AcDbEntity
  8
BEZUGSACHSEN
100
AcDbLine
 62
7
  6
CONTINUOUS
 10
683.4279203662
 20
366.9636923516
 11
683.4279203662
 21
558.4636923516
  0
LINE
  5
373
100
AcDbEntity
  8
0
100
AcDbLine
 62
7
  6
CONTINUOUS
 10
683.9829203662
 20
649.0160313072
 11
683.9829203662
 21
659.8845965236
  0
LINE
  5
374
100
AcDbEntity
  8
RUNDUNGEN
100
AcDbLine
 62
7
  6
CONTINUOUS
 10
684.9279203662
 20
649.794472508
 11
684.9279203662
 21
763.5672654318
  0
LINE
  5
375
100
AcDbEntity
  8
RUNDUNGEN
100
AcDbLine
 62
7
  6
CONTINUOUS
 10
687.4279203662
 20
766.9636923516
 11
687.4279203662
 21
662.6964789441
  0
LINE
  5
376
100
AcDbEntity
  8
KONSTRUKTIONSELEMENTE
100
AcDbLine
 62
7
  6
CONTINUOUS
 10
698.4279203662
 20
359.9094152096
 11
698.4279203662
 21
342.2718047343
  0
LINE
  5
377
100
AcDbEntity
  8
RUNDUNGEN
100
AcDbLine
 62
7
  6
CONTINUOUS
 10
709.4279203662
 20
766.9635075553
 11
709.4279203662
 21
662.6964789441
  0
LINE
  5
378
100
AcDbEntity
  8
RUNDUNGEN
100
AcDbLine
 62
7
  6
CONTINUOUS
 10
711.9279203662
 20
649.7944728642
 11
711.9279203662
 21
763.5672654318
  0
LINE
  5
379
100
AcDbEntity
  8
0
100
AcDbLine
 62
7
  6
CONTINUOUS
 10
712.8729203662
 20
661.0678066721
 11
712.8729203662
 21
649.0160313072
  0
LINE
  5
37A
100
AcDbEntity
  8
BEZUGSACHSEN
100
AcDbLine
 62
7
  6
CONTINUOUS
 10
713.4279203662
 20
289.9636923516
 11
713.4279203662
 21
331.9636923516
  0
LINE
  5
37B
100
AcDbEntity
  8
BEZUGSACHSEN
100
AcDbLine
 62
7
  6
CONTINUOUS
 10
713.4279203662
 20
366.9636923516
 11
713.4279203662
 21
558.4636923516
  0
LINE
  5
37C
100
AcDbEntity
  8
RUNDUNGEN
100
AcDbLine
 62
7
  6
CONTINUOUS
 10
715.4279203662
 20
570.4636923516
 11
715.4279203662
 21
616.6329152796
  0
LINE
  5
37D
100
AcDbEntity
  8
0
100
AcDbLine
 62
7
  6
CONTINUOUS
 10
715.4623496818
 20
615.4636923516
 11
715.4623496818
 21
618.4636923516
  0
LINE
  5
37E
100
AcDbEntity
  8
0
100
AcDbLine
 62
7
  6
CONTINUOUS
 10
715.9279203662
 20
602.3797433802
 11
715.9279203662
 21
591.3801173355
  0
LINE
  5
37F
100
AcDbEntity
  8
0
100
AcDbLine
 62
7
  6
CONTINUOUS
 10
718.8029203662
 20
618.9636923516
 11
718.8029203662
 21
618.7136923516
  0
LINE
  5
380
100
AcDbEntity
  8
0
100
AcDbLine
 62
7
  6
CONTINUOUS
 10
718.8029203662
 20
571.7136923516
 11
718.8029203662
 21
571.4636923516
  0
LINE
  5
381
100
AcDbEntity
  8
BEZUGSACHSEN
100
AcDbLine
 62
7
  6
CONTINUOUS
 10
719.7779203662
 20
626.9636923516
 11
719.7779203662
 21
627.4636923516
  0
LINE
  5
382
100
AcDbEntity
  8
KONSTRUKTIONSELEMENTE
100
AcDbLine
 62
7
  6
CONTINUOUS
 10
721.4279203662
 20
361.9636923518
 11
721.4279203662
 21
342.2718047343
  0
LINE
  5
383
100
AcDbEntity
  8
BEZUGSACHSEN
100
AcDbLine
 62
7
  6
CONTINUOUS
 10
721.4279203662
 20
338.7136705375
 11
721.4279203662
 21
342.2718047343
  0
LINE
  5
384
100
AcDbEntity
  8
BEZUGSACHSEN
100
AcDbLine
 62
7
  6
CONTINUOUS
 10
721.4279203662
 20
627.4636923516
 11
721.4279203662
 21
645.6636923516
  0
LINE
  5
385
100
AcDbEntity
  8
KONSTRUKTIONSELEMENTE
100
AcDbLine
 62
7
  6
CONTINUOUS
 10
726.4279203662
 20
361.9636923516
 11
726.4279203662
 21
366.9636923516
  0
LINE
  5
386
100
AcDbEntity
  8
0
100
AcDbLine
 62
7
  6
CONTINUOUS
 10
734.9279203662
 20
626.9636923516
 11
734.9279203662
 21
618.9636923516
  0
LINE
  5
387
100
AcDbEntity
  8
0
100
AcDbLine
 62
7
  6
CONTINUOUS
 10
735.9279203662
 20
571.4636923516
 11
735.9279203662
 21
558.4636923516
  0
LINE
  5
388
100
AcDbEntity
  8
0
100
AcDbLine
 62
7
  6
CONTINUOUS
 10
737.9279203662
 20
571.7136923516
 11
737.9279203662
 21
615.7136923516
  0
LINE
  5
389
100
AcDbEntity
  8
0
100
AcDbLine
 62
7
  6
CONTINUOUS
 10
660.9279203662
 20
558.4636923516
 11
735.9279203662
 21
558.4636923516
  0
LINE
  5
38A
100
AcDbEntity
  8
RUNDUNGEN
100
AcDbLine
 62
7
  6
CONTINUOUS
 10
715.3361763863
 20
618.2893881707
 11
712.0196651014
 21
648.1379897342
  0
LINE
  5
38B
100
AcDbEntity
  8
0
100
AcDbLine
 62
7
  6
CONTINUOUS
 10
713.9820487248
 20
639.0338760793
 11
715.0065135834
 21
629.8136923516
  0
LINE
  5
38C
100
AcDbEntity
  8
0
100
AcDbLine
 62
7
  6
CONTINUOUS
 10
713.7425230094
 20
641.1896075175
 11
712.8729203662
 21
649.0160313072
  0
LINE
  5
38D
100
AcDbEntity
  8
RUNDUNGEN
100
AcDbLine
 62
7
  6
CONTINUOUS
 10
711.9279203662
 20
566.9636923516
 11
684.9279203662
 21
566.9636923516
  0
LINE
  5
38E
100
AcDbEntity
  8
0
100
AcDbLine
 62
7
  6
CONTINUOUS
 10
735.9279203662
 20
571.4636923516
 11
715.4279203662
 21
571.4636923516
  0
LINE
  5
38F
100
AcDbEntity
  8
0
100
AcDbLine
 62
7
  6
CONTINUOUS
 10
660.9279203662
 20
571.4636923516
 11
681.4279203662
 21
571.4636923516
  0
LINE
  5
390
100
AcDbEntity
  8
RUNDUNGEN
100
AcDbLine
 62
7
  6
CONTINUOUS
 10
658.9279203662
 20
571.7136923516
 11
681.4279203662
 21
571.7136923516
  0
LINE
  5
391
100
AcDbEntity
  8
RUNDUNGEN
100
AcDbLine
 62
7
  6
CONTINUOUS
 10
715.4279203662
 20
571.7136923516
 11
737.9279203662
 21
571.7136923516
  0
LINE
  5
392
100
AcDbEntity
  8
0
100
AcDbLine
 62
7
  6
CONTINUOUS
 10
715.4279203662
 20
591.3799303578
 11
715.9279203662
 21
591.3799303578
  0
LINE
  5
393
100
AcDbEntity
  8
0
100
AcDbLine
 62
7
  6
CONTINUOUS
 10
715.4279203662
 20
602.3799303578
 11
715.9279203662
 21
602.3799303578
  0
LINE
  5
394
100
AcDbEntity
  8
RUNDUNGEN
100
AcDbLine
 62
7
  6
CONTINUOUS
 10
731.6588971485
 20
615.4636923516
 11
715.4279203662
 21
615.4636923516
  0
LINE
  5
395
100
AcDbEntity
  8
RUNDUNGEN
100
AcDbLine
 62
7
  6
CONTINUOUS
 10
681.4279203662
 20
615.4636923516
 11
667.5410166802
 21
615.4636923516
  0
LINE
  5
396
100
AcDbEntity
  8
0
100
AcDbLine
 62
7
  6
CONTINUOUS
 10
715.4623496818
 20
618.4636923516
 11
715.316809255
 21
618.4636923516
  0
LINE
  5
397
100
AcDbEntity
  8
0
100
AcDbLine
 62
7
  6
CONTINUOUS
 10
681.5390314773
 20
618.4636923516
 11
673.6979203662
 21
618.4636923516
  0
LINE
  5
398
100
AcDbEntity
  8
0
100
AcDbLine
 62
7
  6
CONTINUOUS
 10
666.1271596274
 20
618.7136923516
 11
673.0529203662
 21
618.7136923516
  0
LINE
  5
399
100
AcDbEntity
  8
RUNDUNGEN
100
AcDbLine
 62
7
  6
CONTINUOUS
 10
661.9328458485
 20
618.7136923516
 11
673.0529203662
 21
618.7136923516
  0
LINE
  5
39A
100
AcDbEntity
  8
RUNDUNGEN
100
AcDbLine
 62
7
  6
CONTINUOUS
 10
678.3699282721
 20
618.7136923516
 11
681.566809255
 21
618.7136923516
  0
LINE
  5
39B
100
AcDbEntity
  8
0
100
AcDbLine
 62
7
  6
CONTINUOUS
 10
678.0529203662
 20
618.7136923516
 11
678.3699282721
 21
618.7136923516
  0
LINE
  5
39C
100
AcDbEntity
  8
RUNDUNGEN
100
AcDbLine
 62
7
  6
CONTINUOUS
 10
715.2890314773
 20
618.7136923516
 11
734.9255435975
 21
618.7136923516
  0
LINE
  5
39D
100
AcDbEntity
  8
0
100
AcDbLine
 62
7
  6
CONTINUOUS
 10
734.9279203662
 20
618.9636923516
 11
715.2612536995
 21
618.9636923516
  0
LINE
  5
39E
100
AcDbEntity
  8
0
100
AcDbLine
 62
7
  6
CONTINUOUS
 10
661.9279203662
 20
618.9636923516
 11
681.5945870328
 21
618.9636923516
  0
LINE
  5
39F
100
AcDbEntity
  8
0
100
AcDbLine
 62
7
  6
CONTINUOUS
 10
734.9279203662
 20
626.9636923516
 11
714.3723648106
 21
626.9636923516
  0
LINE
  5
3A0
100
AcDbEntity
  8
0
100
AcDbLine
 62
7
  6
CONTINUOUS
 10
661.9279203662
 20
626.9636923516
 11
682.4834759217
 21
626.9636923516
  0
LINE
  5
3A1
100
AcDbEntity
  8
KONSTRUKTIONSELEMENTE
100
AcDbLine
 62
7
  6
CONTINUOUS
 10
675.4279203662
 20
627.4636923516
 11
682.5390314773
 21
627.4636923516
  0
LINE
  5
3A2
100
AcDbEntity
  8
KONSTRUKTIONSELEMENTE
100
AcDbLine
 62
7
  6
CONTINUOUS
 10
714.316809255
 20
627.4636923516
 11
721.4279203662
 21
627.4636923516
  0
LINE
  5
3A3
100
AcDbEntity
  8
0
100
AcDbLine
 62
7
  6
CONTINUOUS
 10
681.7260945039
 20
628.7045985465
 11
682.6769099434
 21
628.7045985465
  0
LINE
  5
3A4
100
AcDbEntity
  8
0
100
AcDbLine
 62
7
  6
CONTINUOUS
 10
715.0065135834
 20
629.8136923516
 11
714.0556981439
 21
629.8136923516
  0
LINE
  5
3A5
100
AcDbEntity
  8
0
100
AcDbLine
 62
7
  6
CONTINUOUS
 10
714.1709194987
 20
637.3340391139
 11
713.2201040592
 21
637.3340391139
  0
LINE
  5
3A6
100
AcDbEntity
  8
0
100
AcDbLine
 62
7
  6
CONTINUOUS
 10
713.9820487248
 20
639.0338760793
 11
713.0312332853
 21
639.0338760793
  0
LINE
  5
3A7
100
AcDbEntity
  8
0
100
AcDbLine
 62
7
  6
CONTINUOUS
 10
683.8736873071
 20
639.47559482
 11
682.9228718676
 21
639.47559482
  0
LINE
  5
3A8
100
AcDbEntity
  8
0
100
AcDbLine
 62
7
  6
CONTINUOUS
 10
713.7425230094
 20
641.1896075175
 11
712.7917075699
 21
641.1896075175
  0
LINE
  5
3A9
100
AcDbEntity
  8
0
100
AcDbLine
 62
7
  6
CONTINUOUS
 10
713.7174241953
 20
641.4154968445
 11
712.7666087558
 21
641.4154968445
  0
LINE
  5
3AA
100
AcDbEntity
  8
0
100
AcDbLine
 62
7
  6
CONTINUOUS
 10
684.1037215242
 20
641.5459027738
 11
683.1529060847
 21
641.5459027738
  0
LINE
  5
3AB
100
AcDbEntity
  8
0
100
AcDbLine
 62
7
  6
CONTINUOUS
 10
713.5713010598
 20
642.730605064
 11
712.6204856203
 21
642.730605064
  0
LINE
  5
3AC
100
AcDbEntity
  8
0
100
AcDbLine
 62
7
  6
CONTINUOUS
 10
713.4989844321
 20
643.3814547138
 11
712.5481689926
 21
643.3814547138
  0
LINE
  5
3AD
100
AcDbEntity
  8
0
100
AcDbLine
 62
7
  6
CONTINUOUS
 10
684.3337557413
 20
643.6162107276
 11
683.3829403018
 21
643.6162107276
  0
LINE
  5
3AE
100
AcDbEntity
  8
0
100
AcDbLine
 62
7
  6
CONTINUOUS
 10
713.412800615
 20
644.1571090676
 11
712.4619851755
 21
644.1571090676
  0
LINE
  5
3AF
100
AcDbEntity
  8
0
100
AcDbLine
 62
7
  6
CONTINUOUS
 10
713.2793990115
 20
645.3577234987
 11
712.328583572
 21
645.3577234987
  0
LINE
  5
3B0
100
AcDbEntity
  8
BEZUGSACHSEN
100
AcDbLine
 62
7
  6
CONTINUOUS
 10
675.4279203661
 20
645.6636923516
 11
683.61043826
 21
645.6636923516
  0
LINE
  5
3B1
100
AcDbEntity
  8
BEZUGSACHSEN
100
AcDbLine
 62
7
  6
CONTINUOUS
 10
713.2454024723
 20
645.6636923516
 11
721.4279203662
 21
645.6636923516
  0
LINE
  5
3B2
100
AcDbEntity
  8
KONSTRUKTIONSELEMENTE
100
AcDbLine
 62
7
  6
CONTINUOUS
 10
679.3335592975
 20
645.8636923516
 11
683.6326604822
 21
645.8636923516
  0
LINE
  5
3B3
100
AcDbEntity
  8
0
100
AcDbLine
 62
7
  6
CONTINUOUS
 10
713.1654806261
 20
646.3829889678
 11
712.2146651866
 21
646.3829889678
  0
LINE
  5
3B4
100
AcDbEntity
  8
0
100
AcDbLine
 62
7
  6
CONTINUOUS
 10
713.0376947538
 20
647.5330618181
 11
712.0868793143
 21
647.5330618181
  0
LINE
  5
3B5
100
AcDbEntity
  8
0
100
AcDbLine
 62
7
  6
CONTINUOUS
 10
684.7768330117
 20
647.6039061613
 11
683.8260175722
 21
647.6039061613
  0
LINE
  5
3B6
100
AcDbEntity
  8
0
100
AcDbLine
 62
7
  6
CONTINUOUS
 10
712.8729203662
 20
649.4453785181
 11
711.931983065
 21
649.4453785181
  0
LINE
  5
3B7
100
AcDbEntity
  8
0
100
AcDbLine
 62
7
  6
CONTINUOUS
 10
684.9274383138
 20
649.6742141151
 11
683.9829203662
 21
649.6742141151
  0
LINE
  5
3B8
100
AcDbEntity
  8
0
100
AcDbLine
 62
7
  6
CONTINUOUS
 10
684.9279203662
 20
650.3780620638
 11
683.9829203662
 21
650.3780620638
  0
LINE
  5
3B9
100
AcDbEntity
  8
0
100
AcDbLine
 62
7
  6
CONTINUOUS
 10
712.8729203662
 20
650.4201024065
 11
711.9279203662
 21
650.4201024065
  0
LINE
  5
3BA
100
AcDbEntity
  8
0
100
AcDbLine
 62
7
  6
CONTINUOUS
 10
712.8729203662
 20
651.0946735989
 11
711.9279203662
 21
651.0946735989
  0
LINE
  5
3BB
100
AcDbEntity
  8
0
100
AcDbLine
 62
7
  6
CONTINUOUS
 10
712.8729203662
 20
651.5938958292
 11
711.9279203662
 21
651.5938958292
  0
LINE
  5
3BC
100
AcDbEntity
  8
0
100
AcDbLine
 62
7
  6
CONTINUOUS
 10
712.8729203662
 20
654.119929641
 11
711.9279203662
 21
654.119929641
  0
LINE
  5
3BD
100
AcDbEntity
  8
0
100
AcDbLine
 62
7
  6
CONTINUOUS
 10
712.8729203662
 20
659.219442057
 11
711.9279203662
 21
659.219442057
  0
LINE
  5
3BE
100
AcDbEntity
  8
0
100
AcDbLine
 62
7
  6
CONTINUOUS
 10
684.9279203662
 20
659.8845965236
 11
683.9829203662
 21
659.8845965236
  0
LINE
  5
3BF
100
AcDbEntity
  8
0
100
AcDbLine
 62
7
  6
CONTINUOUS
 10
712.8729203662
 20
660.1941647295
 11
711.9279203662
 21
660.1941647295
  0
LINE
  5
3C0
100
AcDbEntity
  8
0
100
AcDbLine
 62
7
  6
CONTINUOUS
 10
712.8729203662
 20
660.7810632646
 11
711.9279203662
 21
660.7810632646
  0
LINE
  5
3C1
100
AcDbEntity
  8
0
100
AcDbLine
 62
7
  6
CONTINUOUS
 10
712.8729203662
 20
661.0678066721
 11
711.9279203662
 21
661.0678066721
  0
LINE
  5
3C2
100
AcDbEntity
  8
BEZUGSACHSEN
100
AcDbLine
 62
7
  6
CONTINUOUS
 10
721.4702815358
 20
338.7560535213
 11
714.6779203662
 21
331.9636923516
  0
LINE
  5
3C3
100
AcDbEntity
  8
BEZUGSACHSEN
100
AcDbLine
 62
7
  6
CONTINUOUS
 10
710.4279203662
 20
286.9636923516
 11
713.4279203662
 21
289.9636923516
  0
LINE
  5
3C4
100
AcDbEntity
  8
RUNDUNGEN
100
AcDbLine
 62
7
  6
CONTINUOUS
 10
685.9279203662
 20
764.5672654318
 11
686.4279203662
 21
764.5672654318
  0
LINE
  5
3C5
100
AcDbEntity
  8
RUNDUNGEN
100
AcDbLine
 62
7
  6
CONTINUOUS
 10
710.4279203662
 20
764.5672654318
 11
710.9279203662
 21
764.5672654318
  0
LINE
  5
3C6
100
AcDbEntity
  8
0
100
AcDbLine
 62
7
  6
CONTINUOUS
 10
690.9279203662
 20
770.4636923516
 11
705.9279203662
 21
770.4636923516
  0
LINE
  5
3C7
100
AcDbEntity
  8
BEZUGSACHSEN
100
AcDbLine
 62
7
  6
CONTINUOUS
 10
400.4590833156
 20
177.7117079123
 11
400.4590833156
 21
150.7117079123
  0
LINE
  5
3C8
100
AcDbEntity
  8
0
100
AcDbLine
 62
7
  6
CONTINUOUS
 10
407.9596013727
 20
171.7117079123
 11
407.9596013727
 21
156.7117079123
  0
LINE
  5
3C9
100
AcDbEntity
  8
0
100
AcDbLine
 62
7
  6
CONTINUOUS
 10
410.9256802364
 20
147.2117079123
 11
410.9256802364
 21
146.7117079123
  0
LINE
  5
3CA
100
AcDbEntity
  8
RUNDUNGEN
100
AcDbLine
 62
7
  6
CONTINUOUS
 10
414.1189968886
 20
176.7117079123
 11
414.1189968886
 21
176.2117079123
  0
LINE
  5
3CB
100
AcDbEntity
  8
RUNDUNGEN
100
AcDbLine
 62
7
  6
CONTINUOUS
 10
414.1189968886
 20
152.2117079123
 11
414.1189968886
 21
151.7117079123
  0
LINE
  5
3CC
100
AcDbEntity
  8
0
100
AcDbLine
 62
7
  6
CONTINUOUS
 10
416.9756802364
 20
147.2117079123
 11
416.9756802364
 21
146.7117079123
  0
LINE
  5
3CD
100
AcDbEntity
  8
0
100
AcDbLine
 62
7
  6
CONTINUOUS
 10
417.7903550687
 20
180.3592961037
 11
417.7903550687
 21
179.4084806642
  0
LINE
  5
3CE
100
AcDbEntity
  8
0
100
AcDbLine
 62
7
  6
CONTINUOUS
 10
419.5841365226
 20
148.4687087797
 11
419.5841365226
 21
149.4195242192
  0
LINE
  5
3CF
100
AcDbEntity
  8
0
100
AcDbLine
 62
7
  6
CONTINUOUS
 10
419.821065865
 20
178.7659409713
 11
419.821065865
 21
179.7167564108
  0
LINE
  5
3D0
100
AcDbEntity
  8
0
100
AcDbLine
 62
7
  6
CONTINUOUS
 10
420.2709152363
 20
148.6575795536
 11
420.2709152363
 21
149.6083949931
  0
LINE
  5
3D1
100
AcDbEntity
  8
0
100
AcDbLine
 62
7
  6
CONTINUOUS
 10
420.2756802364
 20
147.2117079123
 11
420.2756802364
 21
146.7117079123
  0
LINE
  5
3D2
100
AcDbEntity
  8
0
100
AcDbLine
 62
7
  6
CONTINUOUS
 10
420.6157826299
 20
178.5359067543
 11
420.6157826299
 21
179.4867221938
  0
LINE
  5
3D3
100
AcDbEntity
  8
0
100
AcDbLine
 62
7
  6
CONTINUOUS
 10
421.4104993948
 20
178.3058725372
 11
421.4104993948
 21
179.2566879767
  0
LINE
  5
3D4
100
AcDbEntity
  8
0
100
AcDbLine
 62
7
  6
CONTINUOUS
 10
421.4495504551
 20
179.8196545827
 11
421.4495504551
 21
180.0501439446
  0
LINE
  5
3D5
100
AcDbEntity
  8
0
100
AcDbLine
 62
7
  6
CONTINUOUS
 10
421.550243531
 20
179.5265784084
 11
421.550243531
 21
179.7905085349
  0
LINE
  5
3D6
100
AcDbEntity
  8
0
100
AcDbLine
 62
7
  6
CONTINUOUS
 10
422.24426722
 20
179.5561796011
 11
422.24426722
 21
179.8201097275
  0
LINE
  5
3D7
100
AcDbEntity
  8
0
100
AcDbLine
 62
7
  6
CONTINUOUS
 10
422.9412322545
 20
177.8627952667
 11
422.9412322545
 21
178.8136107063
  0
LINE
  5
3D8
100
AcDbEntity
  8
0
100
AcDbLine
 62
7
  6
CONTINUOUS
 10
423.4925725746
 20
149.4741476523
 11
423.4925725746
 21
150.4249630918
  0
LINE
  5
3D9
100
AcDbEntity
  8
0
100
AcDbLine
 62
7
  6
CONTINUOUS
 10
423.704809173
 20
149.6019335246
 11
423.704809173
 21
150.5527489641
  0
LINE
  5
3DA
100
AcDbEntity
  8
0
100
AcDbLine
 62
7
  6
CONTINUOUS
 10
423.7359490194
 20
177.7121899647
 11
423.7359490194
 21
178.6567079123
  0
LINE
  5
3DB
100
AcDbEntity
  8
0
100
AcDbLine
 62
7
  6
CONTINUOUS
 10
424.4774352719
 20
149.7667079123
 11
424.4774352719
 21
150.7076452134
  0
LINE
  5
3DC
100
AcDbEntity
  8
0
100
AcDbLine
 62
7
  6
CONTINUOUS
 10
425.0568816556
 20
149.3489976694
 11
425.0568816556
 21
149.5572539481
  0
LINE
  5
3DD
100
AcDbEntity
  8
0
100
AcDbLine
 62
7
  6
CONTINUOUS
 10
425.1236722806
 20
149.7667079123
 11
425.1236722806
 21
150.7117079123
  0
LINE
  5
3DE
100
AcDbEntity
  8
0
100
AcDbLine
 62
7
  6
CONTINUOUS
 10
425.4824077266
 20
177.7117079123
 11
425.4824077266
 21
178.6567079123
  0
LINE
  5
3DF
100
AcDbEntity
  8
0
100
AcDbLine
 62
7
  6
CONTINUOUS
 10
425.5361890908
 20
149.2725553665
 11
425.5361890908
 21
149.6890681182
  0
LINE
  5
3E0
100
AcDbEntity
  8
0
100
AcDbLine
 62
7
  6
CONTINUOUS
 10
425.8819146651
 20
148.0486767072
 11
425.8819146651
 21
148.4854128872
  0
LINE
  5
3E1
100
AcDbEntity
  8
0
100
AcDbLine
 62
7
  6
CONTINUOUS
 10
425.9010627231
 20
149.7667079123
 11
425.9010627231
 21
150.7117079123
  0
LINE
  5
3E2
100
AcDbEntity
  8
0
100
AcDbLine
 62
7
  6
CONTINUOUS
 10
426.3183433857
 20
149.2099803075
 11
426.3183433857
 21
149.7667079123
  0
LINE
  5
3E3
100
AcDbEntity
  8
0
100
AcDbLine
 62
7
  6
CONTINUOUS
 10
426.3256802364
 20
147.2117079123
 11
426.3256802364
 21
146.7117079123
  0
LINE
  5
3E4
100
AcDbEntity
  8
0
100
AcDbLine
 62
7
  6
CONTINUOUS
 10
426.3660765196
 20
149.7667079123
 11
426.3660765196
 21
150.7117079123
  0
LINE
  5
3E5
100
AcDbEntity
  8
RUNDUNGEN
100
AcDbLine
 62
7
  6
CONTINUOUS
 10
444.6630882148
 20
197.8770535592
 11
442.739904403
 21
197.064045982
  0
LINE
  5
3E6
100
AcDbEntity
  8
0
100
AcDbLine
 62
7
  6
CONTINUOUS
 10
427.65534761
 20
177.7117079123
 11
427.65534761
 21
178.6567079123
  0
LINE
  5
3E7
100
AcDbEntity
  8
0
100
AcDbLine
 62
7
  6
CONTINUOUS
 10
428.4264132746
 20
149.7667079123
 11
428.4264132746
 21
150.7117079123
  0
LINE
  5
3E8
100
AcDbEntity
  8
0
100
AcDbLine
 62
7
  6
CONTINUOUS
 10
428.9246854387
 20
147.7747677839
 11
428.9246854387
 21
148.4541351532
  0
LINE
  5
3E9
100
AcDbEntity
  8
0
100
AcDbLine
 62
7
  6
CONTINUOUS
 10
429.072649792
 20
149.7667079123
 11
429.072649792
 21
150.7117079123
  0
LINE
  5
3EA
100
AcDbEntity
  8
0
100
AcDbLine
 62
7
  6
CONTINUOUS
 10
429.384525276
 20
177.7117079123
 11
429.384525276
 21
178.6567079123
  0
LINE
  5
3EB
100
AcDbEntity
  8
0
100
AcDbLine
 62
7
  6
CONTINUOUS
 10
429.5733504506
 20
149.063857172
 11
429.5733504506
 21
149.7667079123
  0
LINE
  5
3EC
100
AcDbEntity
  8
0
100
AcDbLine
 62
7
  6
CONTINUOUS
 10
429.9961589334
 20
179.7403589644
 11
429.9961589334
 21
180.1507399977
  0
LINE
  5
3ED
100
AcDbEntity
  8
0
100
AcDbLine
 62
7
  6
CONTINUOUS
 10
430.0670411765
 20
149.7667079123
 11
430.0670411765
 21
150.7117079123
  0
LINE
  5
3EE
100
AcDbEntity
  8
0
100
AcDbLine
 62
7
  6
CONTINUOUS
 10
430.078548965
 20
177.7117079123
 11
430.078548965
 21
178.6567079123
  0
LINE
  5
3EF
100
AcDbEntity
  8
0
100
AcDbLine
 62
7
  6
CONTINUOUS
 10
430.5271997616
 20
149.0484998993
 11
430.5271997616
 21
149.7667079123
  0
LINE
  5
3F0
100
AcDbEntity
  8
0
100
AcDbLine
 62
7
  6
CONTINUOUS
 10
431.1925850124
 20
149.7667079123
 11
431.1925850124
 21
150.7117079123
  0
LINE
  5
3F1
100
AcDbEntity
  8
0
100
AcDbLine
 62
7
  6
CONTINUOUS
 10
431.3498956387
 20
149.0664929262
 11
431.3498956387
 21
149.7667079123
  0
LINE
  5
3F2
100
AcDbEntity
  8
0
100
AcDbLine
 62
7
  6
CONTINUOUS
 10
431.8434950639
 20
148.5774685984
 11
431.8434950639
 21
148.9316712929
  0
LINE
  5
3F3
100
AcDbEntity
  8
0
100
AcDbLine
 62
7
  6
CONTINUOUS
 10
431.9294333814
 20
149.7667079123
 11
431.9294333814
 21
150.7117079123
  0
LINE
  5
3F4
100
AcDbEntity
  8
0
100
AcDbLine
 62
7
  6
CONTINUOUS
 10
432.0414387251
 20
149.1178363809
 11
432.0414387251
 21
149.7667079123
  0
LINE
  5
3F5
100
AcDbEntity
  8
0
100
AcDbLine
 62
7
  6
CONTINUOUS
 10
432.6018287169
 20
149.2025302771
 11
432.6018287169
 21
149.7667079123
  0
LINE
  5
3F6
100
AcDbEntity
  8
0
100
AcDbLine
 62
7
  6
CONTINUOUS
 10
432.6401032224
 20
178.670494184
 11
432.6401032224
 21
179.2957393986
  0
LINE
  5
3F7
100
AcDbEntity
  8
0
100
AcDbLine
 62
7
  6
CONTINUOUS
 10
432.7592305503
 20
149.6623299062
 11
432.7592305503
 21
149.7667079123
  0
LINE
  5
3F8
100
AcDbEntity
  8
0
100
AcDbLine
 62
7
  6
CONTINUOUS
 10
432.7974357922
 20
149.7667079123
 11
432.7974357922
 21
150.7117079123
  0
LINE
  5
3F9
100
AcDbEntity
  8
0
100
AcDbLine
 62
7
  6
CONTINUOUS
 10
433.3625901276
 20
149.7667079123
 11
433.3625901276
 21
150.7117079123
  0
LINE
  5
3FA
100
AcDbEntity
  8
0
100
AcDbLine
 62
7
  6
CONTINUOUS
 10
433.3744548158
 20
149.4150099104
 11
433.3744548158
 21
149.5838709407
  0
LINE
  5
3FB
100
AcDbEntity
  8
0
100
AcDbLine
 62
7
  6
CONTINUOUS
 10
423.4925725746
 20
149.4741476523
 11
423.5831844263
 21
149.3602292669
  0
LINE
  5
3FC
100
AcDbEntity
  8
0
100
AcDbLine
 62
7
  6
CONTINUOUS
 10
433.9730498975
 20
149.7667079123
 11
433.9730498975
 21
150.7117079123
  0
LINE
  5
3FD
100
AcDbEntity
  8
0
100
AcDbLine
 62
7
  6
CONTINUOUS
 10
434.2734695138
 20
149.7316663878
 11
434.2734695138
 21
149.7667079123
  0
LINE
  5
3FE
100
AcDbEntity
  8
0
100
AcDbLine
 62
7
  6
CONTINUOUS
 10
434.2806612175
 20
149.7667079123
 11
434.2806612175
 21
150.7117079123
  0
LINE
  5
3FF
100
AcDbEntity
  8
0
100
AcDbLine
 62
7
  6
CONTINUOUS
 10
434.7980823429
 20
149.598264916
 11
434.7980823429
 21
149.7667079123
  0
LINE
  5
400
100
AcDbEntity
  8
0
100
AcDbLine
 62
7
  6
CONTINUOUS
 10
434.8886937603
 20
149.4843463929
 11
434.8886937603
 21
149.7667079123
  0
LINE
  5
401
100
AcDbEntity
  8
RUNDUNGEN
100
AcDbLine
 62
7
  6
CONTINUOUS
 10
434.9596013727
 20
143.2654507908
 11
434.9596013727
 21
149.2470066063
  0
LINE
  5
402
100
AcDbEntity
  8
RUNDUNGEN
100
AcDbLine
 62
7
  6
CONTINUOUS
 10
434.9596013727
 20
179.1764092182
 11
434.9596013727
 21
185.1579650338
  0
LINE
  5
403
100
AcDbEntity
  8
0
100
AcDbLine
 62
7
  6
CONTINUOUS
 10
437.080183477
 20
149.7667079123
 11
437.080183477
 21
150.7117079123
  0
LINE
  5
404
100
AcDbEntity
  8
0
100
AcDbLine
 62
7
  6
CONTINUOUS
 10
437.8304406784
 20
177.7117079123
 11
437.8304406784
 21
178.6567079123
  0
LINE
  5
405
100
AcDbEntity
  8
0
100
AcDbLine
 62
7
  6
CONTINUOUS
 10
439.6940864266
 20
177.9221221046
 11
441.4587516196
 21
179.7752031102
  0
LINE
  5
406
100
AcDbEntity
  8
0
100
AcDbLine
 62
7
  6
CONTINUOUS
 10
434.8886937603
 20
149.4843463929
 11
434.7980823429
 21
149.598264916
  0
LINE
  5
407
100
AcDbEntity
  8
0
100
AcDbLine
 62
7
  6
CONTINUOUS
 10
425.0568816556
 20
149.3489976694
 11
424.8804227871
 21
149.4393072968
  0
LINE
  5
408
100
AcDbEntity
  8
0
100
AcDbLine
 62
7
  6
CONTINUOUS
 10
441.2025236426
 20
147.1772785967
 11
438.3449623658
 21
150.1780135494
  0
LINE
  5
409
100
AcDbEntity
  8
BEZUGSACHSEN
100
AcDbLine
 62
7
  6
CONTINUOUS
 10
461.1805451814
 20
187.2117079123
 11
455.6957176241
 21
177.7117079123
  0
LINE
  5
40A
100
AcDbEntity
  8
0
100
AcDbLine
 62
7
  6
CONTINUOUS
 10
424.8804227871
 20
149.4393072968
 11
425.0068118774
 21
149.5434842759
  0
LINE
  5
40B
100
AcDbEntity
  8
0
100
AcDbLine
 62
7
  6
CONTINUOUS
 10
433.3243843944
 20
149.6094963886
 11
433.5008434149
 21
149.5191867544
  0
LINE
  5
40C
100
AcDbEntity
  8
0
100
AcDbLine
 62
7
  6
CONTINUOUS
 10
433.5008434149
 20
149.5191867544
 11
433.3744548158
 21
149.4150099104
  0
LINE
  5
40D
100
AcDbEntity
  8
KONSTRUKTIONSELEMENTE
100
AcDbLine
 62
7
  6
CONTINUOUS
 10
476.8032506207
 20
182.0584843856
 11
477.107056547
 21
182.2629252362
  0
LINE
  5
40E
100
AcDbEntity
  8
0
100
AcDbLine
 62
7
  6
CONTINUOUS
 10
423.704809173
 20
150.5527489641
 11
423.4925725746
 21
150.4249630918
  0
LINE
  5
40F
100
AcDbEntity
  8
0
100
AcDbLine
 62
7
  6
CONTINUOUS
 10
423.704809173
 20
149.6019335246
 11
423.4925725746
 21
149.4741476523
  0
LINE
  5
410
100
AcDbEntity
  8
KONSTRUKTIONSELEMENTE
100
AcDbLine
 62
7
  6
CONTINUOUS
 10
477.1347311512
 20
182.9065979479
 11
476.7448257968
 21
182.7177537418
  0
LINE
  5
411
100
AcDbEntity
  8
KONSTRUKTIONSELEMENTE
100
AcDbLine
 62
7
  6
CONTINUOUS
 10
482.0652877307
 20
180.5174748834
 11
482.4155325577
 21
180.6243517444
  0
LINE
  5
412
100
AcDbEntity
  8
0
100
AcDbLine
 62
7
  6
CONTINUOUS
 10
523.6480032108
 20
149.589023937
 11
524.0212495414
 21
149.6900267214
  0
LINE
  5
413
100
AcDbEntity
  8
0
100
AcDbLine
 62
7
  6
CONTINUOUS
 10
423.5831844263
 20
149.3602292669
 11
424.1077966882
 21
149.2268276634
  0
LINE
  5
414
100
AcDbEntity
  8
0
100
AcDbLine
 62
7
  6
CONTINUOUS
 10
434.7980823429
 20
149.598264916
 11
434.2734695138
 21
149.7316663878
  0
LINE
  5
415
100
AcDbEntity
  8
BEZUGSACHSEN
100
AcDbLine
 62
7
  6
CONTINUOUS
 10
455.6957176241
 20
150.7117079123
 11
461.1805451814
 21
141.2117079123
  0
LINE
  5
416
100
AcDbEntity
  8
KONSTRUKTIONSELEMENTE
100
AcDbLine
 62
7
  6
CONTINUOUS
 10
476.5627873452
 20
181.7128320342
 11
476.8032506207
 21
182.0584843856
  0
LINE
  5
417
100
AcDbEntity
  8
KONSTRUKTIONSELEMENTE
100
AcDbLine
 62
7
  6
CONTINUOUS
 10
476.7448257968
 20
182.7177537418
 11
476.3094128002
 21
182.2776787518
  0
LINE
  5
418
100
AcDbEntity
  8
KONSTRUKTIONSELEMENTE
100
AcDbLine
 62
7
  6
CONTINUOUS
 10
478.320432065
 20
180.6160167227
 11
478.1027255667
 21
180.3959792277
  0
LINE
  5
419
100
AcDbEntity
  8
KONSTRUKTIONSELEMENTE
100
AcDbLine
 62
7
  6
CONTINUOUS
 10
478.0147779831
 20
177.9469041323
 11
477.7970714688
 21
177.7268665493
  0
LINE
  5
41A
100
AcDbEntity
  8
KONSTRUKTIONSELEMENTE
100
AcDbLine
 62
7
  6
CONTINUOUS
 10
481.6569191501
 20
180.8712503284
 11
481.2676252864
 21
180.4973165599
  0
LINE
  5
41B
100
AcDbEntity
  8
0
100
AcDbLine
 62
7
  6
CONTINUOUS
 10
441.2025236426
 20
147.1772785967
 11
441.8747518437
 21
147.8174328611
  0
LINE
  5
41C
100
AcDbEntity
  8
KONSTRUKTIONSELEMENTE
100
AcDbLine
 62
7
  6
CONTINUOUS
 10
481.4035482691
 20
179.9966186953
 11
482.0652877307
 21
180.5174748834
  0
LINE
  5
41D
100
AcDbEntity
  8
KONSTRUKTIONSELEMENTE
100
AcDbLine
 62
7
  6
CONTINUOUS
 10
478.1839032263
 20
179.862325442
 11
478.5965633871
 21
180.1767848615
  0
LINE
  5
41E
100
AcDbEntity
  8
0
100
AcDbLine
 62
7
  6
CONTINUOUS
 10
434.6764576722
 20
149.3565606549
 11
434.8886937603
 21
149.4843463929
  0
LINE
  5
41F
100
AcDbEntity
  8
KONSTRUKTIONSELEMENTE
100
AcDbLine
 62
7
  6
CONTINUOUS
 10
482.0655881918
 20
181.0916330226
 11
481.6569191501
 21
180.8712503284
  0
LINE
  5
420
100
AcDbEntity
  8
0
100
AcDbLine
 62
7
  6
CONTINUOUS
 10
518.6803966298
 20
149.4901413319
 11
518.0921621861
 21
149.3788608187
  0
LINE
  5
421
100
AcDbEntity
  8
0
100
AcDbLine
 62
7
  6
CONTINUOUS
 10
522.7651656586
 20
149.685417933
 11
522.3013464437
 21
149.607804978
  0
LINE
  5
422
100
AcDbEntity
  8
0
100
AcDbLine
 62
7
  6
CONTINUOUS
 10
518.4892673472
 20
148.8157292543
 11
517.8104605882
 21
148.727838677
  0
LINE
  5
423
100
AcDbEntity
  8
0
100
AcDbLine
 62
7
  6
CONTINUOUS
 10
522.754208372
 20
149.4908555533
 11
523.6480032108
 21
149.589023937
  0
LINE
  5
424
100
AcDbEntity
  8
0
100
AcDbLine
 62
7
  6
CONTINUOUS
 10
518.5450241144
 20
149.261911394
 11
519.438818652
 21
149.3600797633
  0
LINE
  5
425
100
AcDbEntity
  8
0
100
AcDbLine
 62
7
  6
CONTINUOUS
 10
518.8177137456
 20
148.6651122571
 11
519.3721047908
 21
148.7193353324
  0
LINE
  5
426
100
AcDbEntity
  8
0
100
AcDbLine
 62
7
  6
CONTINUOUS
 10
524.238181586
 20
148.6470455642
 11
525.0981328337
 21
148.6881564215
  0
LINE
  5
427
100
AcDbEntity
  8
0
100
AcDbLine
 62
7
  6
CONTINUOUS
 10
518.0373776858
 20
148.4060492503
 11
518.8973290088
 21
148.4471601113
  0
LINE
  5
428
100
AcDbEntity
  8
0
100
AcDbLine
 62
7
  6
CONTINUOUS
 10
519.3721047908
 20
148.7193353324
 11
523.2418857065
 21
148.9043342048
  0
LINE
  5
429
100
AcDbEntity
  8
0
100
AcDbLine
 62
7
  6
CONTINUOUS
 10
524.1018369542
 20
148.9454450622
 11
525.8217400519
 21
149.0276668056
  0
LINE
  5
42A
100
AcDbEntity
  8
BEZUGSACHSEN
100
AcDbLine
 62
7
  6
CONTINUOUS
 10
461.1805451814
 20
141.2117079123
 11
487.7386575641
 21
141.2117079123
  0
LINE
  5
42B
100
AcDbEntity
  8
0
100
AcDbLine
 62
7
  6
CONTINUOUS
 10
424.8041039662
 20
149.1406438463
 11
425.8032593197
 21
149.0683272186
  0
LINE
  5
42C
100
AcDbEntity
  8
0
100
AcDbLine
 62
7
  6
CONTINUOUS
 10
426.3183433857
 20
149.2099803075
 11
425.5361890908
 21
149.2725553665
  0
LINE
  5
42D
100
AcDbEntity
  8
0
100
AcDbLine
 62
7
  6
CONTINUOUS
 10
425.8819146651
 20
148.0486767072
 11
420.795527621
 21
148.5241779839
  0
LINE
  5
42E
100
AcDbEntity
  8
0
100
AcDbLine
 62
7
  6
CONTINUOUS
 10
428.9246854387
 20
147.7747677839
 11
426.6640690828
 21
147.986101682
  0
LINE
  5
42F
100
AcDbEntity
  8
0
100
AcDbLine
 62
7
  6
CONTINUOUS
 10
432.787431532
 20
149.6596935319
 11
433.3243843944
 21
149.6094963886
  0
LINE
  5
430
100
AcDbEntity
  8
0
100
AcDbLine
 62
7
  6
CONTINUOUS
 10
419.5841365226
 20
148.4687087797
 11
428.4096013727
 21
147.633114695
  0
LINE
  5
431
100
AcDbEntity
  8
0
100
AcDbLine
 62
7
  6
CONTINUOUS
 10
424.1077966882
 20
149.2268276634
 11
424.8041039662
 21
149.1406438463
  0
LINE
  5
432
100
AcDbEntity
  8
0
100
AcDbLine
 62
7
  6
CONTINUOUS
 10
425.5361890908
 20
149.2725553665
 11
425.0568816556
 21
149.3489976694
  0
LINE
  5
433
100
AcDbEntity
  8
KONSTRUKTIONSELEMENTE
100
AcDbLine
 62
7
  6
CONTINUOUS
 10
476.3094128002
 20
182.2776787518
 11
476.1322941463
 21
181.7908145424
  0
LINE
  5
434
100
AcDbEntity
  8
KONSTRUKTIONSELEMENTE
100
AcDbLine
 62
7
  6
CONTINUOUS
 10
478.5836481762
 20
181.0872846446
 11
478.320432065
 21
180.6160167227
  0
LINE
  5
435
100
AcDbEntity
  8
KONSTRUKTIONSELEMENTE
100
AcDbLine
 62
7
  6
CONTINUOUS
 10
478.146387024
 20
178.1825379148
 11
478.0147779831
 21
177.9469041323
  0
LINE
  5
436
100
AcDbEntity
  8
KONSTRUKTIONSELEMENTE
100
AcDbLine
 62
7
  6
CONTINUOUS
 10
480.9752035882
 20
179.355628936
 11
481.4035482691
 21
179.9966186953
  0
LINE
  5
437
100
AcDbEntity
  8
KONSTRUKTIONSELEMENTE
100
AcDbLine
 62
7
  6
CONTINUOUS
 10
478.5965633871
 20
180.1767848615
 11
478.8370246919
 21
180.52243757
  0
LINE
  5
438
100
AcDbEntity
  8
KONSTRUKTIONSELEMENTE
100
AcDbLine
 62
7
  6
CONTINUOUS
 10
478.4005362104
 20
177.7117079123
 11
478.4225183302
 21
177.7433059656
  0
LINE
  5
439
100
AcDbEntity
  8
KONSTRUKTIONSELEMENTE
100
AcDbLine
 62
7
  6
CONTINUOUS
 10
481.0145530859
 20
180.1968439827
 11
480.6446344003
 21
179.6693591401
  0
LINE
  5
43A
100
AcDbEntity
  8
KONSTRUKTIONSELEMENTE
100
AcDbLine
 62
7
  6
CONTINUOUS
 10
481.2676252864
 20
180.4973165599
 11
481.0145530859
 21
180.1968439827
  0
LINE
  5
43B
100
AcDbEntity
  8
RUNDUNGEN
100
AcDbLine
 62
7
  6
CONTINUOUS
 10
432.2146751385
 20
148.3814391444
 11
432.214222072
 21
148.3812245094
  0
LWPOLYLINE
  5
43C
100
AcDbEntity
  8
RUNDUNGEN
100
AcDbPolyline
 62
7
  6
CONTINUOUS
 90
4
 70
0
 10
432.2142303443
 20
148.3812284246
 10
432.3149800571
 20
148.427133307
 10
432.5092760029
 20
148.5081317721
 10
432.7635301318
 20
148.6039657478
  0
LWPOLYLINE
  5
43D
100
AcDbEntity
  8
RUNDUNGEN
100
AcDbPolyline
 62
7
  6
CONTINUOUS
 90
4
 70
0
 10
516.1595016512
 20
179.8208267196
 10
515.8432265995
 20
179.712558538
 10
515.4616611951
 20
179.5937163673
 10
515.0729426951
 20
179.4825888455
  0
LWPOLYLINE
  5
43E
100
AcDbEntity
  8
RUNDUNGEN
100
AcDbPolyline
 62
7
  6
CONTINUOUS
 90
28
 70
0
 10
524.2865156024
 20
180.6297728967
 10
524.3006473552
 20
180.6343566119
 10
524.3091944794
 20
180.6369109082
 10
524.2993231163
 20
180.6343960722
 10
524.2731502417
 20
180.6283796775
 10
524.2312636336
 20
180.6197179206
 10
524.175072863
 20
180.6092290173
 10
524.1051906978
 20
180.5974015291
 10
524.0227195006
 20
180.5846952471
 10
523.9281119535
 20
180.5713909195
 10
523.8223037923
 20
180.5577909943
 10
523.7051978077
 20
180.5440278982
 10
523.5768645708
 20
180.5302187506
 10
523.437487265
 20
180.5164787472
 10
523.287231191
 20
180.5029287331
 10
523.1262039455
 20
180.4896950889
 10
522.9544303072
 20
180.4768646939
 10
522.7723929424
 20
180.4645294094
 10
522.5805838031
 20
180.4527954813
 10
522.3793010269
 20
180.4417790176
 10
522.1688998506
 20
180.4315716056
 10
521.9499052134
 20
180.4222327172
 10
521.722879618
 20
180.4138473749
 10
521.4883407773
 20
180.4065293296
 10
521.2468536341
 20
180.4003531612
 10
520.999045971
 20
180.3953558909
 10
520.7456005242
 20
180.3916151249
 10
520.4871815701
 20
180.3892475557
  0
LWPOLYLINE
  5
43F
100
AcDbEntity
  8
RUNDUNGEN
100
AcDbPolyline
 62
7
  6
CONTINUOUS
 90
15
 70
0
 10
424.6326871431
 20
147.7936429279
 10
424.6185553903
 20
147.7890592126
 10
424.6100082661
 20
147.7865049163
 10
424.6198796292
 20
147.7890197523
 10
424.6460525038
 20
147.7950361471
 10
424.6879391119
 20
147.8036979039
 10
424.7441298825
 20
147.8141868073
 10
424.8140120476
 20
147.8260142954
 10
424.8964832448
 20
147.8387205774
 10
424.991090792
 20
147.8520249051
 10
425.0968989532
 20
147.8656248302
 10
425.2140049378
 20
147.8793879263
 10
425.3423381747
 20
147.8931970739
 10
425.4817154804
 20
147.9069370774
 10
425.5000512903
 20
147.9085905911
  0
LINE
  5
440
100
AcDbEntity
  8
0
100
AcDbLine
 62
7
  6
CONTINUOUS
 10
432.0414387251
 20
149.1178363809
 11
431.3498956387
 21
149.0664929262
  0
LINE
  5
441
100
AcDbEntity
  8
0
100
AcDbLine
 62
7
  6
CONTINUOUS
 10
525.3688783827
 20
149.1446161634
 11
523.6489752851
 21
149.0623944199
  0
LINE
  5
442
100
AcDbEntity
  8
0
100
AcDbLine
 62
7
  6
CONTINUOUS
 10
522.7890240374
 20
149.0212835626
 11
518.4892673472
 21
148.8157292543
  0
LINE
  5
443
100
AcDbEntity
  8
0
100
AcDbLine
 62
7
  6
CONTINUOUS
 10
522.9243962517
 20
149.249513486
 11
522.064445004
 21
149.2084026287
  0
LINE
  5
444
100
AcDbEntity
  8
0
100
AcDbLine
 62
7
  6
CONTINUOUS
 10
517.9000606786
 20
149.231078251
 11
518.5450241144
 21
149.261911394
  0
LINE
  5
445
100
AcDbEntity
  8
0
100
AcDbLine
 62
7
  6
CONTINUOUS
 10
522.1092449362
 20
149.4600224103
 11
522.754208372
 21
149.4908555533
  0
LINE
  5
446
100
AcDbEntity
  8
0
100
AcDbLine
 62
7
  6
CONTINUOUS
 10
518.0921621861
 20
149.3788608187
 11
517.4471987504
 21
149.3480276757
  0
LINE
  5
447
100
AcDbEntity
  8
0
100
AcDbLine
 62
7
  6
CONTINUOUS
 10
522.3013464437
 20
149.607804978
 11
521.8713708199
 21
149.5872495493
  0
LINE
  5
448
100
AcDbEntity
  8
0
100
AcDbLine
 62
7
  6
CONTINUOUS
 10
525.3688783827
 20
150.0954316029
 11
524.2133510489
 21
150.0401904256
  0
LINE
  5
449
100
AcDbEntity
  8
0
100
AcDbLine
 62
7
  6
CONTINUOUS
 10
431.2688126262
 20
148.9053567476
 11
432.4802040461
 21
148.960826016
  0
LWPOLYLINE
  5
44A
100
AcDbEntity
  8
RUNDUNGEN
100
AcDbPolyline
 62
7
  6
CONTINUOUS
 90
6
 70
0
 10
430.677464656
 20
148.0351613888
 10
430.8389339112
 20
148.0388128324
 10
431.2172334466
 20
148.0760984891
 10
431.5901596625
 20
148.1534464482
 10
431.9532314716
 20
148.2699789408
 10
432.2146965314
 20
148.3814679664
  0
LINE
  5
44B
100
AcDbEntity
  8
0
100
AcDbLine
 62
7
  6
CONTINUOUS
 10
431.3498956387
 20
149.0664929262
 11
430.5271997616
 21
149.0484998993
  0
LINE
  5
44C
100
AcDbEntity
  8
0
100
AcDbLine
 62
7
  6
CONTINUOUS
 10
430.2291161464
 20
148.897105269
 11
431.2688126262
 21
148.9053567476
  0
LINE
  5
44D
100
AcDbEntity
  8
0
100
AcDbLine
 62
7
  6
CONTINUOUS
 10
516.6439766453
 20
149.2264694554
 11
517.9000606786
 21
149.231078251
  0
LINE
  5
44E
100
AcDbEntity
  8
0
100
AcDbLine
 62
7
  6
CONTINUOUS
 10
426.3256802364
 20
146.7117079123
 11
420.2758721332
 21
146.7117079123
  0
LINE
  5
44F
100
AcDbEntity
  8
0
100
AcDbLine
 62
7
  6
CONTINUOUS
 10
416.9756802364
 20
146.7117079123
 11
410.9258721332
 21
146.7117079123
  0
LINE
  5
450
100
AcDbEntity
  8
RUNDUNGEN
100
AcDbLine
 62
7
  6
CONTINUOUS
 10
403.9590921545
 20
147.2117079123
 11
429.4596013727
 21
147.2117079123
  0
LINE
  5
451
100
AcDbEntity
  8
RUNDUNGEN
100
AcDbLine
 62
7
  6
CONTINUOUS
 10
519.4596013727
 20
147.2117079123
 11
544.9601105909
 21
147.2117079123
  0
LINE
  5
452
100
AcDbEntity
  8
RUNDUNGEN
100
AcDbLine
 62
7
  6
CONTINUOUS
 10
430.677464657
 20
148.0351268319
 11
428.9246854387
 21
148.0351268319
  0
LINE
  5
453
100
AcDbEntity
  8
0
100
AcDbLine
 62
7
  6
CONTINUOUS
 10
524.2133510489
 20
149.7667079123
 11
513.2330204973
 21
149.7667079123
  0
LINE
  5
454
100
AcDbEntity
  8
0
100
AcDbLine
 62
7
  6
CONTINUOUS
 10
437.080183477
 20
149.7667079123
 11
424.3039677387
 21
149.7667079123
  0
LINE
  5
455
100
AcDbEntity
  8
RUNDUNGEN
100
AcDbLine
 62
7
  6
CONTINUOUS
 10
415.1190546743
 20
150.7117079123
 11
533.7984391207
 21
150.7117079123
  0
LWPOLYLINE
  5
456
100
AcDbEntity
  8
RUNDUNGEN
100
AcDbPolyline
 62
7
  6
CONTINUOUS
 90
29
 70
0
 10
518.2417386683
 20
148.0351268319
 10
520.4546922368
 20
148.0343631589
 10
520.6887019129
 20
148.0324481858
 10
520.9188799913
 20
148.0293931423
 10
521.1447090259
 20
148.0252836964
 10
521.3656501809
 20
148.0201898635
 10
521.5811965209
 20
148.0141507282
 10
521.7909282066
 20
148.0071904259
 10
521.9944540537
 20
147.9993847818
 10
522.1912877213
 20
147.9908174868
 10
522.3809684668
 20
147.9815507651
 10
522.5632280283
 20
147.9716215085
 10
522.7378124291
 20
147.9610944884
 10
522.9043377173
 20
147.950068526
 10
523.0624863738
 20
147.9386246873
 10
523.2120201946
 20
147.9268250628
 10
523.3526360353
 20
147.9147394134
 10
523.4843854282
 20
147.9024475824
 10
523.6072425798
 20
147.8900358075
 10
523.7211791502
 20
147.8775802009
 10
523.8261031147
 20
147.8651569642
 10
523.9220368089
 20
147.8528397155
 10
524.0091172386
 20
147.8407096137
 10
524.0865702856
 20
147.8289883537
 10
524.1540460014
 20
147.8178676443
 10
524.2104489447
 20
147.8077082116
 10
524.2550862111
 20
147.7988846593
 10
524.2868394677
 20
147.7919707254
 10
524.3009841895
 20
147.7886119263
  0
LINE
  5
457
100
AcDbEntity
  8
0
100
AcDbLine
 62
7
  6
CONTINUOUS
 10
521.0681488654
 20
149.4656913362
 11
522.1092449362
 21
149.4600224103
  0
LINE
  5
458
100
AcDbEntity
  8
0
100
AcDbLine
 62
7
  6
CONTINUOUS
 10
431.8434950639
 20
148.5774685984
 11
420.2709152363
 21
148.6575795536
  0
LINE
  5
459
100
AcDbEntity
  8
0
100
AcDbLine
 62
7
  6
CONTINUOUS
 10
423.4933474779
 20
149.5860877696
 11
420.2709152363
 21
149.6083949931
  0
LINE
  5
45A
100
AcDbEntity
  8
0
100
AcDbLine
 62
7
  6
CONTINUOUS
 10
428.3810159897
 20
148.4582786506
 11
431.3284109979
 21
148.4358155095
  0
LINE
  5
45B
100
AcDbEntity
  8
0
100
AcDbLine
 62
7
  6
CONTINUOUS
 10
420.795527621
 20
148.5241779839
 11
427.4271669244
 21
148.4736359908
  0
LINE
  5
45C
100
AcDbEntity
  8
0
100
AcDbLine
 62
7
  6
CONTINUOUS
 10
430.5271997616
 20
149.0484998993
 11
429.5733504506
 21
149.063857172
  0
LINE
  5
45D
100
AcDbEntity
  8
0
100
AcDbLine
 62
7
  6
CONTINUOUS
 10
521.8713708199
 20
149.5872495493
 11
521.045262561
 21
149.6031961895
  0
LINE
  5
45E
100
AcDbEntity
  8
0
100
AcDbLine
 62
7
  6
CONTINUOUS
 10
429.0582663846
 20
148.9222040831
 11
430.2291161464
 21
148.897105269
  0
LINE
  5
45F
100
AcDbEntity
  8
0
100
AcDbLine
 62
7
  6
CONTINUOUS
 10
517.4471987504
 20
149.3480276757
 11
516.315530247
 21
149.3770864526
  0
LINE
  5
460
100
AcDbEntity
  8
0
100
AcDbLine
 62
7
  6
CONTINUOUS
 10
515.7272960291
 20
149.2658059502
 11
516.6439766453
 21
149.2264694554
  0
LINE
  5
461
100
AcDbEntity
  8
0
100
AcDbLine
 62
7
  6
CONTINUOUS
 10
520.1514683245
 20
149.5050278346
 11
521.0681488654
 21
149.4656913362
  0
LINE
  5
462
100
AcDbEntity
  8
0
100
AcDbLine
 62
7
  6
CONTINUOUS
 10
425.8032593197
 20
149.0683272186
 11
429.0582663846
 21
148.9222040831
  0
LINE
  5
463
100
AcDbEntity
  8
0
100
AcDbLine
 62
7
  6
CONTINUOUS
 10
429.5733504506
 20
149.063857172
 11
426.3183433857
 21
149.2099803075
  0
LINE
  5
464
100
AcDbEntity
  8
0
100
AcDbLine
 62
7
  6
CONTINUOUS
 10
521.045262561
 20
149.6031961895
 11
520.0380097381
 21
149.6659225461
  0
LINE
  5
465
100
AcDbEntity
  8
0
100
AcDbLine
 62
7
  6
CONTINUOUS
 10
434.2734695138
 20
149.7316663878
 11
433.9720924465
 21
149.753479389
  0
LINE
  5
466
100
AcDbEntity
  8
0
100
AcDbLine
 62
7
  6
CONTINUOUS
 10
514.6294708677
 20
149.3519221623
 11
515.7272960291
 21
149.2658059502
  0
LINE
  5
467
100
AcDbEntity
  8
KONSTRUKTIONSELEMENTE
100
AcDbLine
 62
7
  6
CONTINUOUS
 10
472.778846879
 20
183.1826783825
 11
472.3251653398
 21
177.7117079123
  0
LINE
  5
468
100
AcDbEntity
  8
KONSTRUKTIONSELEMENTE
100
AcDbLine
 62
7
  6
CONTINUOUS
 10
472.8269417654
 20
177.7117079123
 11
473.2381298446
 21
181.9629809961
  0
LINE
  5
469
100
AcDbEntity
  8
KONSTRUKTIONSELEMENTE
100
AcDbLine
 62
7
  6
CONTINUOUS
 10
477.1962275854
 20
180.3007141742
 11
477.1052083596
 21
179.7982533204
  0
LINE
  5
46A
100
AcDbEntity
  8
KONSTRUKTIONSELEMENTE
100
AcDbLine
 62
7
  6
CONTINUOUS
 10
478.6291578529
 20
181.3385154234
 11
478.5836481762
 21
181.0872846446
  0
LINE
  5
46B
100
AcDbEntity
  8
KONSTRUKTIONSELEMENTE
100
AcDbLine
 62
7
  6
CONTINUOUS
 10
478.2374062498
 20
178.6849987686
 11
478.146387024
 21
178.1825379148
  0
LINE
  5
46C
100
AcDbEntity
  8
KONSTRUKTIONSELEMENTE
100
AcDbLine
 62
7
  6
CONTINUOUS
 10
479.0141433458
 20
181.0093017794
 11
479.0596530224
 21
181.2605325582
  0
LINE
  5
46D
100
AcDbEntity
  8
KONSTRUKTIONSELEMENTE
100
AcDbLine
 62
7
  6
CONTINUOUS
 10
478.5768802229
 20
178.1045554065
 11
478.6678994487
 21
178.6070162603
  0
LINE
  5
46E
100
AcDbEntity
  8
KONSTRUKTIONSELEMENTE
100
AcDbLine
 62
7
  6
CONTINUOUS
 10
479.9044929249
 20
178.0402329899
 11
479.8203480416
 21
177.7117079123
  0
LINE
  5
46F
100
AcDbEntity
  8
KONSTRUKTIONSELEMENTE
100
AcDbLine
 62
7
  6
CONTINUOUS
 10
480.1188164681
 20
178.6478066399
 11
479.9044929249
 21
178.0402329899
  0
LINE
  5
470
100
AcDbEntity
  8
KONSTRUKTIONSELEMENTE
100
AcDbLine
 62
7
  6
CONTINUOUS
 10
478.8370246919
 20
180.52243757
 11
479.0141433458
 21
181.0093017794
  0
LINE
  5
471
100
AcDbEntity
  8
KONSTRUKTIONSELEMENTE
100
AcDbLine
 62
7
  6
CONTINUOUS
 10
480.2934881082
 20
177.8400077026
 11
480.5662340854
 21
178.5610881025
  0
LINE
  5
472
100
AcDbEntity
  8
KONSTRUKTIONSELEMENTE
100
AcDbLine
 62
7
  6
CONTINUOUS
 10
483.2707194504
 20
179.0355402491
 11
482.9979717744
 21
178.3144609248
  0
LINE
  5
473
100
AcDbEntity
  8
KONSTRUKTIONSELEMENTE
100
AcDbLine
 62
7
  6
CONTINUOUS
 10
478.4225183302
 20
177.7433059656
 11
478.5768802229
 21
178.1045554065
  0
LINE
  5
474
100
AcDbEntity
  8
KONSTRUKTIONSELEMENTE
100
AcDbLine
 62
7
  6
CONTINUOUS
 10
480.6446344003
 20
179.6693591401
 11
480.1188164681
 21
178.6478066399
  0
LINE
  5
475
100
AcDbEntity
  8
KONSTRUKTIONSELEMENTE
100
AcDbLine
 62
7
  6
CONTINUOUS
 10
480.5662340854
 20
178.5610881025
 11
480.9752035882
 21
179.355628936
  0
LINE
  5
476
100
AcDbEntity
  8
KONSTRUKTIONSELEMENTE
100
AcDbLine
 62
7
  6
CONTINUOUS
 10
482.9979717744
 20
178.3144609248
 11
482.6877201303
 21
177.7117079123
  0
LINE
  5
477
100
AcDbEntity
  8
KONSTRUKTIONSELEMENTE
100
AcDbLine
 62
7
  6
CONTINUOUS
 10
483.1797761416
 20
177.7117079123
 11
483.4453911723
 21
178.2277414708
  0
LINE
  5
478
100
AcDbEntity
  8
RUNDUNGEN
100
AcDbLine
 62
7
  6
CONTINUOUS
 10
516.7049599675
 20
180.042181506
 11
516.7073212549
 21
180.0432988608
  0
LWPOLYLINE
  5
479
100
AcDbEntity
  8
RUNDUNGEN
100
AcDbPolyline
 62
7
  6
CONTINUOUS
 90
4
 70
0
 10
516.7049525859
 20
180.0421780124
 10
516.6066801094
 20
179.9973645847
 10
516.413080686
 20
179.9165368129
 10
516.1595016512
 20
179.8208267196
  0
LWPOLYLINE
  5
47A
100
AcDbEntity
  8
RUNDUNGEN
100
AcDbPolyline
 62
7
  6
CONTINUOUS
 90
3
 70
0
 10
432.7635301318
 20
148.6039657478
 10
433.0804646278
 20
148.7123228659
 10
433.4626795125
 20
148.8312279009
  0
LINE
  5
47B
100
AcDbEntity
  8
RUNDUNGEN
100
AcDbLine
 62
7
  6
CONTINUOUS
 10
433.4626795125
 20
148.8312279009
 11
433.846245406
 21
148.9408229652
  0
LWPOLYLINE
  5
47C
100
AcDbEntity
  8
RUNDUNGEN
100
AcDbPolyline
 62
7
  6
CONTINUOUS
 90
3
 70
0
 10
439.7647775738
 20
150.515089396
 10
440.1648796733
 20
150.5854830676
 10
440.5021188139
 20
150.6397196524
  0
LINE
  5
47D
100
AcDbEntity
  8
0
100
AcDbLine
 62
7
  6
CONTINUOUS
 10
433.2575940544
 20
149.035778233
 11
433.9038315733
 21
149.1440810215
  0
LINE
  5
47E
100
AcDbEntity
  8
0
100
AcDbLine
 62
7
  6
CONTINUOUS
 10
432.6018287169
 20
149.2025302771
 11
432.0414387251
 21
149.1178363809
  0
LINE
  5
47F
100
AcDbEntity
  8
0
100
AcDbLine
 62
7
  6
CONTINUOUS
 10
432.4802040461
 20
148.960826016
 11
433.2575940544
 21
149.035778233
  0
LINE
  5
480
100
AcDbEntity
  8
RUNDUNGEN
100
AcDbLine
 62
7
  6
CONTINUOUS
 10
537.4594500508
 20
153.2117079123
 11
411.4597527214
 21
153.2117079123
  0
LINE
  5
481
100
AcDbEntity
  8
0
100
AcDbLine
 62
7
  6
CONTINUOUS
 10
516.315530247
 20
149.3770864526
 11
515.523265236
 21
149.4500905235
  0
LINE
  5
482
100
AcDbEntity
  8
0
100
AcDbLine
 62
7
  6
CONTINUOUS
 10
519.7553356894
 20
149.5415299035
 11
520.1514683245
 21
149.5050278346
  0
LINE
  5
483
100
AcDbEntity
  8
0
100
AcDbLine
 62
7
  6
CONTINUOUS
 10
515.523265236
 20
149.4500905235
 11
514.9459879073
 21
149.5333723422
  0
LINE
  5
484
100
AcDbEntity
  8
0
100
AcDbLine
 62
7
  6
CONTINUOUS
 10
520.0380097381
 20
149.6659225461
 11
519.4607324094
 21
149.7492043648
  0
LINE
  5
485
100
AcDbEntity
  8
0
100
AcDbLine
 62
7
  6
CONTINUOUS
 10
513.9616211087
 20
149.4585938717
 11
514.6294708677
 21
149.3519221623
  0
LWPOLYLINE
  5
486
100
AcDbEntity
  8
RUNDUNGEN
100
AcDbPolyline
 62
7
  6
CONTINUOUS
 90
3
 70
0
 10
508.4170709952
 20
150.6397216537
 10
508.7640380465
 20
150.5838567165
 10
509.1633091832
 20
150.5134398946
  0
LWPOLYLINE
  5
487
100
AcDbEntity
  8
RUNDUNGEN
100
AcDbPolyline
 62
7
  6
CONTINUOUS
 90
5
 70
0
 10
509.1633091832
 20
150.5134398946
 10
509.5048279485
 20
150.4466204583
 10
509.7902128226
 20
150.3846144718
 10
510.0211934867
 20
150.3288060431
 10
510.1475483975
 20
150.2953580087
  0
LINE
  5
488
100
AcDbEntity
  8
KONSTRUKTIONSELEMENTE
100
AcDbLine
 62
7
  6
CONTINUOUS
 10
469.4084967368
 20
182.6479857892
 11
470.1916175129
 21
177.7117079123
  0
LINE
  5
489
100
AcDbEntity
  8
KONSTRUKTIONSELEMENTE
100
AcDbLine
 62
7
  6
CONTINUOUS
 10
470.7231832032
 20
177.7117079123
 11
470.1270374057
 21
181.4694186024
  0
LINE
  5
48A
100
AcDbEntity
  8
KONSTRUKTIONSELEMENTE
100
AcDbLine
 62
7
  6
CONTINUOUS
 10
475.4773244614
 20
178.6660303226
 11
475.4951594541
 21
178.2735879499
  0
LINE
  5
48B
100
AcDbEntity
  8
KONSTRUKTIONSELEMENTE
100
AcDbLine
 62
7
  6
CONTINUOUS
 10
478.6678994487
 20
178.6070162603
 11
478.672821249
 21
179.1250735776
  0
LINE
  5
48C
100
AcDbEntity
  8
KONSTRUKTIONSELEMENTE
100
AcDbLine
 62
7
  6
CONTINUOUS
 10
479.0596530224
 20
181.2605325582
 11
479.0645728202
 21
181.7785900564
  0
LINE
  5
48D
100
AcDbEntity
  8
KONSTRUKTIONSELEMENTE
100
AcDbLine
 62
7
  6
CONTINUOUS
 10
480.2874863479
 20
177.7117079123
 11
480.2934881082
 21
177.8400077026
  0
LINE
  5
48E
100
AcDbEntity
  8
KONSTRUKTIONSELEMENTE
100
AcDbLine
 62
7
  6
CONTINUOUS
 10
483.7571862679
 20
179.2158789371
 11
483.8352861218
 21
179.7499918356
  0
LINE
  5
48F
100
AcDbEntity
  8
KONSTRUKTIONSELEMENTE
100
AcDbLine
 62
7
  6
CONTINUOUS
 10
483.6597128529
 20
178.8353158783
 11
483.7571862679
 21
179.2158789371
  0
LINE
  5
490
100
AcDbEntity
  8
KONSTRUKTIONSELEMENTE
100
AcDbLine
 62
7
  6
CONTINUOUS
 10
483.4453911723
 20
178.2277414708
 11
483.6597128529
 21
178.8353158783
  0
LINE
  5
491
100
AcDbEntity
  8
RUNDUNGEN
100
AcDbLine
 62
7
  6
CONTINUOUS
 10
438.7716259185
 20
150.2953501812
 11
437.080183477
 21
149.8301871494
  0
LINE
  5
492
100
AcDbEntity
  8
RUNDUNGEN
100
AcDbLine
 62
7
  6
CONTINUOUS
 10
436.8493579876
 20
149.7667079123
 11
433.8464462489
 21
148.9408782049
  0
LINE
  5
493
100
AcDbEntity
  8
0
100
AcDbLine
 62
7
  6
CONTINUOUS
 10
428.4096013727
 20
147.633114695
 11
428.9246854387
 21
147.7747677839
  0
LINE
  5
494
100
AcDbEntity
  8
0
100
AcDbLine
 62
7
  6
CONTINUOUS
 10
431.3284109979
 20
148.4358155095
 11
431.8434950639
 21
148.5774685984
  0
LINE
  5
495
100
AcDbEntity
  8
0
100
AcDbLine
 62
7
  6
CONTINUOUS
 10
433.9038315733
 20
149.1440810215
 11
434.6764576722
 21
149.3565606549
  0
LINE
  5
496
100
AcDbEntity
  8
0
100
AcDbLine
 62
7
  6
CONTINUOUS
 10
433.3744548158
 20
149.4150099104
 11
432.6018287169
 21
149.2025302771
  0
LINE
  5
497
100
AcDbEntity
  8
0
100
AcDbLine
 62
7
  6
CONTINUOUS
 10
426.6640690828
 20
147.986101682
 11
428.3810159897
 21
148.4582786506
  0
LINE
  5
498
100
AcDbEntity
  8
0
100
AcDbLine
 62
7
  6
CONTINUOUS
 10
432.7592305503
 20
149.6623299062
 11
433.1387736171
 21
149.7667079123
  0
LINE
  5
499
100
AcDbEntity
  8
0
100
AcDbLine
 62
7
  6
CONTINUOUS
 10
427.4271669244
 20
148.4736359908
 11
425.8819146651
 21
148.0486767072
  0
LINE
  5
49A
100
AcDbEntity
  8
0
100
AcDbLine
 62
7
  6
CONTINUOUS
 10
425.0068118774
 20
149.5434842759
 11
425.7794379763
 21
149.7559639092
  0
LINE
  5
49B
100
AcDbEntity
  8
0
100
AcDbLine
 62
7
  6
CONTINUOUS
 10
420.2709152363
 20
148.6575795536
 11
419.5841365226
 21
148.4687087797
  0
LINE
  5
49C
100
AcDbEntity
  8
0
100
AcDbLine
 62
7
  6
CONTINUOUS
 10
423.704809173
 20
149.6019335246
 11
424.3039677387
 21
149.7667079123
  0
LINE
  5
49D
100
AcDbEntity
  8
0
100
AcDbLine
 62
7
  6
CONTINUOUS
 10
423.9492186626
 20
150.6199639324
 11
423.704809173
 21
150.5527489641
  0
LINE
  5
49E
100
AcDbEntity
  8
0
100
AcDbLine
 62
7
  6
CONTINUOUS
 10
420.2709152363
 20
149.6083949931
 11
419.5841365226
 21
149.4195242192
  0
LWPOLYLINE
  5
49F
100
AcDbEntity
  8
RUNDUNGEN
100
AcDbPolyline
 62
7
  6
CONTINUOUS
 90
5
 70
0
 10
438.7716259175
 20
150.2953501852
 10
438.9035771222
 20
150.3302259382
 10
439.1357737654
 20
150.3861683857
 10
439.4222729698
 20
150.4482482153
 10
439.7647775738
 20
150.515089396
  0
LINE
  5
4A0
100
AcDbEntity
  8
0
100
AcDbLine
 62
7
  6
CONTINUOUS
 10
513.4181868984
 20
149.5989331545
 11
513.9616211087
 21
149.4585938717
  0
LINE
  5
4A1
100
AcDbEntity
  8
0
100
AcDbLine
 62
7
  6
CONTINUOUS
 10
514.9459879073
 20
149.5333723422
 11
514.5836985202
 21
149.6269318418
  0
LINE
  5
4A2
100
AcDbEntity
  8
0
100
AcDbLine
 62
7
  6
CONTINUOUS
 10
518.6007811617
 20
149.7080935075
 11
518.3738092682
 21
149.7667079123
  0
LINE
  5
4A3
100
AcDbEntity
  8
0
100
AcDbLine
 62
7
  6
CONTINUOUS
 10
522.064445004
 20
149.2084026287
 11
522.7890240374
 21
149.0212835626
  0
LINE
  5
4A4
100
AcDbEntity
  8
0
100
AcDbLine
 62
7
  6
CONTINUOUS
 10
523.2418857065
 20
148.9043342048
 11
524.238181586
 21
148.6470455642
  0
LINE
  5
4A5
100
AcDbEntity
  8
0
100
AcDbLine
 62
7
  6
CONTINUOUS
 10
525.0981328337
 20
148.6881564215
 11
524.1018369542
 21
148.9454450622
  0
LINE
  5
4A6
100
AcDbEntity
  8
0
100
AcDbLine
 62
7
  6
CONTINUOUS
 10
523.6489752851
 20
149.0623944199
 11
522.9243962517
 21
149.249513486
  0
LINE
  5
4A7
100
AcDbEntity
  8
0
100
AcDbLine
 62
7
  6
CONTINUOUS
 10
525.8217400519
 20
149.0276668056
 11
525.3688783827
 21
149.1446161634
  0
LINE
  5
4A8
100
AcDbEntity
  8
0
100
AcDbLine
 62
7
  6
CONTINUOUS
 10
525.8217400519
 20
149.9784822451
 11
525.3688783827
 21
150.0954316029
  0
LINE
  5
4A9
100
AcDbEntity
  8
RUNDUNGEN
100
AcDbLine
 62
7
  6
CONTINUOUS
 10
515.0729428923
 20
148.9408269508
 11
510.1480232994
 21
150.2952273596
  0
LWPOLYLINE
  5
4AA
100
AcDbEntity
  8
RUNDUNGEN
100
AcDbPolyline
 62
7
  6
CONTINUOUS
 90
4
 70
0
 10
515.0729428882
 20
148.9408269357
 10
515.4616610894
 20
148.8296994817
 10
515.8432271363
 20
148.7108571105
 10
516.1595018178
 20
148.6025890395
  0
LINE
  5
4AB
100
AcDbEntity
  8
0
100
AcDbLine
 62
7
  6
CONTINUOUS
 10
417.9607061653
 20
179.3044301613
 11
419.821065865
 21
178.7659409713
  0
LINE
  5
4AC
100
AcDbEntity
  8
0
100
AcDbLine
 62
7
  6
CONTINUOUS
 10
420.6157826299
 20
178.5359067543
 11
421.4104993948
 21
178.3058725372
  0
LINE
  5
4AD
100
AcDbEntity
  8
0
100
AcDbLine
 62
7
  6
CONTINUOUS
 10
422.9412322545
 20
177.8627952667
 11
423.1462503395
 21
177.8034518922
  0
LINE
  5
4AE
100
AcDbEntity
  8
0
100
AcDbLine
 62
7
  6
CONTINUOUS
 10
417.9607061653
 20
180.2552456009
 11
419.821065865
 21
179.7167564108
  0
LINE
  5
4AF
100
AcDbEntity
  8
0
100
AcDbLine
 62
7
  6
CONTINUOUS
 10
420.6157826299
 20
179.4867221938
 11
421.4104993948
 21
179.2566879767
  0
LINE
  5
4B0
100
AcDbEntity
  8
0
100
AcDbLine
 62
7
  6
CONTINUOUS
 10
422.9412322545
 20
178.8136107063
 11
423.483296311
 21
178.6567079123
  0
LINE
  5
4B1
100
AcDbEntity
  8
0
100
AcDbLine
 62
7
  6
CONTINUOUS
 10
421.550243531
 20
179.7905085349
 11
419.956294565
 21
180.2518839816
  0
LINE
  5
4B2
100
AcDbEntity
  8
0
100
AcDbLine
 62
7
  6
CONTINUOUS
 10
421.4495504551
 20
180.0501439446
 11
422.24426722
 21
179.8201097275
  0
LWPOLYLINE
  5
4B3
100
AcDbEntity
  8
RUNDUNGEN
100
AcDbPolyline
 62
7
  6
CONTINUOUS
 90
4
 70
0
 10
432.7635303011
 20
179.8194500158
 10
432.5092760989
 20
179.9152840088
 10
432.3149799982
 20
179.9962825384
 10
432.2142292139
 20
180.0421879428
  0
LWPOLYLINE
  5
4B4
100
AcDbEntity
  8
RUNDUNGEN
100
AcDbPolyline
 62
7
  6
CONTINUOUS
 90
4
 70
0
 10
516.1595018178
 20
148.6025890395
 10
516.4130806111
 20
148.5068790408
 10
516.6066801125
 20
148.4260512434
 10
516.7049517635
 20
148.3812381959
  0
LWPOLYLINE
  5
4B5
100
AcDbEntity
  8
RUNDUNGEN
100
AcDbPolyline
 62
7
  6
CONTINUOUS
 90
6
 70
0
 10
432.2118455376
 20
180.0432977188
 10
431.9326115217
 20
180.1612161944
 10
431.5693905881
 20
180.2753745647
 10
431.1965771201
 20
180.350402156
 10
430.8186341397
 20
180.3854610314
 10
430.6774642624
 20
180.388262152
  0
LINE
  5
4B6
100
AcDbEntity
  8
RUNDUNGEN
100
AcDbLine
 62
7
  6
CONTINUOUS
 10
432.2118833515
 20
180.0432979905
 11
432.2142218316
 21
180.0421914368
  0
LINE
  5
4B7
100
AcDbEntity
  8
KONSTRUKTIONSELEMENTE
100
AcDbLine
 62
7
  6
CONTINUOUS
 10
470.1270374057
 20
181.4694186024
 11
471.7651313164
 21
177.7117079123
  0
LINE
  5
4B8
100
AcDbEntity
  8
KONSTRUKTIONSELEMENTE
100
AcDbLine
 62
7
  6
CONTINUOUS
 10
472.3100065123
 20
177.7117079123
 11
470.1862698465
 21
182.7713763877
  0
LINE
  5
4B9
100
AcDbEntity
  8
KONSTRUKTIONSELEMENTE
100
AcDbLine
 62
7
  6
CONTINUOUS
 10
475.4951594541
 20
178.2735879499
 11
475.5990919202
 21
177.8655493776
  0
LINE
  5
4BA
100
AcDbEntity
  8
KONSTRUKTIONSELEMENTE
100
AcDbLine
 62
7
  6
CONTINUOUS
 10
473.2381298446
 20
181.9629809961
 11
473.9125773453
 21
177.7117079123
  0
LINE
  5
4BB
100
AcDbEntity
  8
KONSTRUKTIONSELEMENTE
100
AcDbLine
 62
7
  6
CONTINUOUS
 10
474.4445225479
 20
177.7093157169
 11
473.5566199887
 21
183.3060689809
  0
LINE
  5
4BC
100
AcDbEntity
  8
KONSTRUKTIONSELEMENTE
100
AcDbLine
 62
7
  6
CONTINUOUS
 10
475.9484074754
 20
178.321220743
 11
475.9078196309
 21
178.5880474574
  0
LINE
  5
4BD
100
AcDbEntity
  8
KONSTRUKTIONSELEMENTE
100
AcDbLine
 62
7
  6
CONTINUOUS
 10
483.3100691118
 20
179.8767556138
 11
483.2707194504
 21
179.0355402491
  0
LINE
  5
4BE
100
AcDbEntity
  8
RUNDUNGEN
100
AcDbLine
 62
7
  6
CONTINUOUS
 10
515.0727564966
 20
179.4825376197
 11
510.1480232994
 21
178.1281884649
  0
LWPOLYLINE
  5
4BF
100
AcDbEntity
  8
RUNDUNGEN
100
AcDbPolyline
 62
7
  6
CONTINUOUS
 90
5
 70
0
 10
510.1475484855
 20
178.1280578405
 10
510.0211929081
 20
178.0946096336
 10
509.7902116328
 20
178.0388010802
 10
509.5048265516
 20
177.9767950782
 10
509.1633079185
 20
177.9099756951
  0
LINE
  5
4C0
100
AcDbEntity
  8
RUNDUNGEN
100
AcDbLine
 62
7
  6
CONTINUOUS
 10
438.771625841
 20
178.1280656646
 11
437.8304406784
 21
178.3869007045
  0
LINE
  5
4C1
100
AcDbEntity
  8
RUNDUNGEN
100
AcDbLine
 62
7
  6
CONTINUOUS
 10
436.8493579876
 20
178.6567079123
 11
433.8464462489
 21
179.4825376197
  0
LWPOLYLINE
  5
4C2
100
AcDbEntity
  8
RUNDUNGEN
100
AcDbPolyline
 62
7
  6
CONTINUOUS
 90
4
 70
0
 10
433.846245452
 20
179.48259285
 10
433.4626796419
 20
179.5921878894
 10
433.080464801
 20
179.711092906
 10
432.7635303011
 20
179.8194500158
  0
LINE
  5
4C3
100
AcDbEntity
  8
0
100
AcDbLine
 62
7
  6
CONTINUOUS
 10
426.6730323015
 20
180.5383633205
 11
427.4722645025
 21
180.3070220908
  0
LINE
  5
4C4
100
AcDbEntity
  8
0
100
AcDbLine
 62
7
  6
CONTINUOUS
 10
429.9961589334
 20
180.1507399977
 11
428.1357992337
 21
180.6892291877
  0
LINE
  5
4C5
100
AcDbEntity
  8
0
100
AcDbLine
 62
7
  6
CONTINUOUS
 10
434.3157607894
 20
178.9004124912
 11
435.1577055966
 21
178.6567079123
  0
LWPOLYLINE
  5
4C6
100
AcDbEntity
  8
RUNDUNGEN
100
AcDbPolyline
 62
7
  6
CONTINUOUS
 90
6
 70
0
 10
516.704507677
 20
148.3814672764
 10
516.9851099972
 20
148.2627581613
 10
517.3486735916
 20
148.1483352355
 10
517.7218506553
 20
148.0731223147
 10
518.1001651849
 20
148.0379693737
 10
518.2417387046
 20
148.0351613883
  0
LINE
  5
4C7
100
AcDbEntity
  8
0
100
AcDbLine
 62
7
  6
CONTINUOUS
 10
517.7089313063
 20
148.5566662484
 11
518.0373776858
 21
148.4060492503
  0
LINE
  5
4C8
100
AcDbEntity
  8
RUNDUNGEN
100
AcDbLine
 62
7
  6
CONTINUOUS
 10
516.7049600358
 20
148.3812342807
 11
516.7045290787
 21
148.3814384433
  0
LINE
  5
4C9
100
AcDbEntity
  8
0
100
AcDbLine
 62
7
  6
CONTINUOUS
 10
513.1803128657
 20
149.7261602777
 11
513.4181868984
 21
149.5989331545
  0
LINE
  5
4CA
100
AcDbEntity
  8
KONSTRUKTIONSELEMENTE
100
AcDbLine
 62
7
  6
CONTINUOUS
 10
475.5990919202
 20
177.8655493776
 11
475.708934922
 21
177.7117079123
  0
LINE
  5
4CB
100
AcDbEntity
  8
KONSTRUKTIONSELEMENTE
100
AcDbLine
 62
7
  6
CONTINUOUS
 10
476.0750967026
 20
178.0387969393
 11
475.9484074754
 21
178.321220743
  0
LINE
  5
4CC
100
AcDbEntity
  8
KONSTRUKTIONSELEMENTE
100
AcDbLine
 62
7
  6
CONTINUOUS
 10
478.672821249
 20
179.1250735776
 11
478.5688868123
 21
179.5331125068
  0
LINE
  5
4CD
100
AcDbEntity
  8
KONSTRUKTIONSELEMENTE
100
AcDbLine
 62
7
  6
CONTINUOUS
 10
478.5252253868
 20
181.7465539957
 11
478.6291578529
 21
181.3385154234
  0
LINE
  5
4CE
100
AcDbEntity
  8
KONSTRUKTIONSELEMENTE
100
AcDbLine
 62
7
  6
CONTINUOUS
 10
478.1562286221
 20
179.2186527303
 11
478.2374062498
 21
178.6849987686
  0
LINE
  5
4CF
100
AcDbEntity
  8
KONSTRUKTIONSELEMENTE
100
AcDbLine
 62
7
  6
CONTINUOUS
 10
483.8352861218
 20
179.7499918356
 11
483.7771623682
 21
180.2106441414
  0
LWPOLYLINE
  5
4D0
100
AcDbEntity
  8
RUNDUNGEN
100
AcDbPolyline
 62
7
  6
CONTINUOUS
 90
3
 70
0
 10
509.1633079185
 20
177.9099756951
 10
508.7640371519
 20
177.8395589583
 10
508.4170709465
 20
177.7836941647
  0
LINE
  5
4D1
100
AcDbEntity
  8
RUNDUNGEN
100
AcDbLine
 62
7
  6
CONTINUOUS
 10
411.4597527215
 20
175.2117079123
 11
537.4594500509
 21
175.2117079123
  0
LWPOLYLINE
  5
4D2
100
AcDbEntity
  8
RUNDUNGEN
100
AcDbPolyline
 62
7
  6
CONTINUOUS
 90
3
 70
0
 10
440.5021188765
 20
177.7836961639
 10
440.1648807419
 20
177.8379325784
 10
439.764779074
 20
177.9083261507
  0
LWPOLYLINE
  5
4D3
100
AcDbEntity
  8
RUNDUNGEN
100
AcDbPolyline
 62
7
  6
CONTINUOUS
 90
5
 70
0
 10
439.764779074
 20
177.9083261507
 10
439.4222745985
 20
177.9751672742
 10
439.1357751359
 20
178.0372471258
 10
438.9035778077
 20
178.0931897117
 10
438.77162584
 20
178.1280656612
  0
LINE
  5
4D4
100
AcDbEntity
  8
0
100
AcDbLine
 62
7
  6
CONTINUOUS
 10
518.8973290088
 20
148.4471601113
 11
518.6594552269
 21
148.574387187
  0
LINE
  5
4D5
100
AcDbEntity
  8
0
100
AcDbLine
 62
7
  6
CONTINUOUS
 10
514.5836985202
 20
149.6269318418
 11
514.4363968154
 21
149.7307690892
  0
LINE
  5
4D6
100
AcDbEntity
  8
0
100
AcDbLine
 62
7
  6
CONTINUOUS
 10
507.7166791029
 20
147.1772785967
 11
507.0444509018
 21
147.8174328611
  0
LINE
  5
4D7
100
AcDbEntity
  8
KONSTRUKTIONSELEMENTE
100
AcDbLine
 62
7
  6
CONTINUOUS
 10
476.2245387816
 20
177.8819887939
 11
476.0750967026
 21
178.0387969393
  0
LINE
  5
4D8
100
AcDbEntity
  8
KONSTRUKTIONSELEMENTE
100
AcDbLine
 62
7
  6
CONTINUOUS
 10
477.9434419215
 20
179.5166727335
 11
478.1562286221
 21
179.2186527303
  0
LINE
  5
4D9
100
AcDbEntity
  8
KONSTRUKTIONSELEMENTE
100
AcDbLine
 62
7
  6
CONTINUOUS
 10
478.3124386863
 20
182.0445739989
 11
478.5252253868
 21
181.7465539957
  0
LINE
  5
4DA
100
AcDbEntity
  8
KONSTRUKTIONSELEMENTE
100
AcDbLine
 62
7
  6
CONTINUOUS
 10
479.0645728202
 20
181.7785900564
 11
478.8111963045
 21
182.343437131
  0
LINE
  5
4DB
100
AcDbEntity
  8
KONSTRUKTIONSELEMENTE
100
AcDbLine
 62
7
  6
CONTINUOUS
 10
483.7771623682
 20
180.2106441414
 11
483.5634416097
 21
180.7513860123
  0
LINE
  5
4DC
100
AcDbEntity
  8
KONSTRUKTIONSELEMENTE
100
AcDbLine
 62
7
  6
CONTINUOUS
 10
483.1935211435
 20
180.2239020863
 11
483.3100691118
 21
179.8767556138
  0
LINE
  5
4DD
100
AcDbEntity
  8
BEZUGSACHSEN
100
AcDbLine
 62
7
  6
CONTINUOUS
 10
487.7386575641
 20
141.2117079123
 11
493.2234851214
 21
150.7117079123
  0
LINE
  5
4DE
100
AcDbEntity
  8
KONSTRUKTIONSELEMENTE
100
AcDbLine
 62
7
  6
CONTINUOUS
 10
478.1027255667
 20
180.3959792277
 11
477.5406233269
 21
180.2383279535
  0
LINE
  5
4DF
100
AcDbEntity
  8
KONSTRUKTIONSELEMENTE
100
AcDbLine
 62
7
  6
CONTINUOUS
 10
482.6298560191
 20
181.2319252354
 11
482.0655881918
 21
181.0916330226
  0
LINE
  5
4E0
100
AcDbEntity
  8
KONSTRUKTIONSELEMENTE
100
AcDbLine
 62
7
  6
CONTINUOUS
 10
477.107056547
 20
182.2629252362
 11
477.5603045523
 21
182.3105579414
  0
LINE
  5
4E1
100
AcDbEntity
  8
0
100
AcDbLine
 62
7
  6
CONTINUOUS
 10
421.4104993948
 20
178.3058725372
 11
422.9412322545
 21
178.3711606807
  0
LINE
  5
4E2
100
AcDbEntity
  8
0
100
AcDbLine
 62
7
  6
CONTINUOUS
 10
429.8468864172
 20
178.8442174989
 11
425.6974569141
 21
178.6672378597
  0
LINE
  5
4E3
100
AcDbEntity
  8
0
100
AcDbLine
 62
7
  6
CONTINUOUS
 10
425.4824890182
 20
178.6580691438
 11
425.4505738551
 21
178.6567079123
  0
LINE
  5
4E4
100
AcDbEntity
  8
0
100
AcDbLine
 62
7
  6
CONTINUOUS
 10
429.0521696522
 20
179.074251716
 11
422.9412322545
 21
178.8136107063
  0
LINE
  5
4E5
100
AcDbEntity
  8
0
100
AcDbLine
 62
7
  6
CONTINUOUS
 10
419.821065865
 20
178.7659409713
 11
420.6157826299
 21
178.7998368807
  0
LINE
  5
4E6
100
AcDbEntity
  8
0
100
AcDbLine
 62
7
  6
CONTINUOUS
 10
421.4104993948
 20
179.2566879767
 11
427.5214367926
 21
179.5173289864
  0
LINE
  5
4E7
100
AcDbEntity
  8
0
100
AcDbLine
 62
7
  6
CONTINUOUS
 10
426.7267200277
 20
179.7473632035
 11
420.6157826299
 21
179.4867221938
  0
LINE
  5
4E8
100
AcDbEntity
  8
0
100
AcDbLine
 62
7
  6
CONTINUOUS
 10
419.821065865
 20
179.7167564108
 11
421.550243531
 21
179.7905085349
  0
LINE
  5
4E9
100
AcDbEntity
  8
0
100
AcDbLine
 62
7
  6
CONTINUOUS
 10
422.24426722
 20
179.8201097275
 11
429.9961589334
 21
180.1507399977
  0
LINE
  5
4EA
100
AcDbEntity
  8
0
100
AcDbLine
 62
7
  6
CONTINUOUS
 10
427.4722645025
 20
180.3070220908
 11
421.4495504551
 21
180.0501439446
  0
LWPOLYLINE
  5
4EB
100
AcDbEntity
  8
RUNDUNGEN
100
AcDbPolyline
 62
7
  6
CONTINUOUS
 90
6
 70
0
 10
518.241738164
 20
180.3882621699
 10
518.080676582
 20
180.3846186425
 10
517.7027450398
 20
180.347431679
 10
517.3301886779
 20
180.2702718822
 10
516.9674644142
 20
180.1540099524
 10
516.7073590642
 20
180.043298594
  0
LINE
  5
4EC
100
AcDbEntity
  8
0
100
AcDbLine
 62
7
  6
CONTINUOUS
 10
424.3585966436
 20
177.7160109635
 11
424.3733220246
 21
177.7161474533
  0
LINE
  5
4ED
100
AcDbEntity
  8
RUNDUNGEN
100
AcDbLine
 62
7
  6
CONTINUOUS
 10
415.1190546763
 20
177.7117079123
 11
533.7984391207
 21
177.7117079123
  0
LINE
  5
4EE
100
AcDbEntity
  8
0
100
AcDbLine
 62
7
  6
CONTINUOUS
 10
423.483296311
 20
178.6567079123
 11
425.4505738551
 21
178.6567079123
  0
LINE
  5
4EF
100
AcDbEntity
  8
0
100
AcDbLine
 62
7
  6
CONTINUOUS
 10
425.4825470769
 20
178.6567079123
 11
437.8304406784
 21
178.6567079123
  0
LINE
  5
4F0
100
AcDbEntity
  8
RUNDUNGEN
100
AcDbLine
 62
7
  6
CONTINUOUS
 10
429.175480292
 20
180.3882889927
 11
430.6774642897
 21
180.3882889927
  0
LINE
  5
4F1
100
AcDbEntity
  8
RUNDUNGEN
100
AcDbLine
 62
7
  6
CONTINUOUS
 10
518.2417381622
 20
180.3882889927
 11
520.4871815701
 21
180.3892475557
  0
LINE
  5
4F2
100
AcDbEntity
  8
RUNDUNGEN
100
AcDbLine
 62
7
  6
CONTINUOUS
 10
403.9590921544
 20
181.2117079123
 11
429.4596013727
 21
181.2117079123
  0
LINE
  5
4F3
100
AcDbEntity
  8
RUNDUNGEN
100
AcDbLine
 62
7
  6
CONTINUOUS
 10
519.4596013727
 20
181.2117079123
 11
544.9601105906
 21
181.2117079123
  0
LINE
  5
4F4
100
AcDbEntity
  8
KONSTRUKTIONSELEMENTE
100
AcDbLine
 62
7
  6
CONTINUOUS
 10
475.9078196309
 20
178.5880474574
 11
475.4773244614
 21
178.6660303226
  0
LINE
  5
4F5
100
AcDbEntity
  8
KONSTRUKTIONSELEMENTE
100
AcDbLine
 62
7
  6
CONTINUOUS
 10
477.1052083596
 20
179.7982533204
 11
477.4496041011
 21
179.7358670996
  0
LINE
  5
4F6
100
AcDbEntity
  8
KONSTRUKTIONSELEMENTE
100
AcDbLine
 62
7
  6
CONTINUOUS
 10
477.5406233269
 20
180.2383279535
 11
477.1962275854
 21
180.3007141742
  0
LINE
  5
4F7
100
AcDbEntity
  8
KONSTRUKTIONSELEMENTE
100
AcDbLine
 62
7
  6
CONTINUOUS
 10
476.1322941463
 20
181.7908145424
 11
476.5627873452
 21
181.7128320342
  0
LINE
  5
4F8
100
AcDbEntity
  8
KONSTRUKTIONSELEMENTE
100
AcDbLine
 62
7
  6
CONTINUOUS
 10
482.4155325577
 20
180.6243517444
 11
482.8629519556
 21
180.5376322904
  0
LINE
  5
4F9
100
AcDbEntity
  8
KONSTRUKTIONSELEMENTE
100
AcDbLine
 62
7
  6
CONTINUOUS
 10
478.5123121466
 20
182.6570534218
 11
477.9323748981
 21
182.8918444323
  0
LINE
  5
4FA
100
AcDbEntity
  8
KONSTRUKTIONSELEMENTE
100
AcDbLine
 62
7
  6
CONTINUOUS
 10
477.4496041011
 20
179.7358670996
 11
477.9434419215
 21
179.5166727335
  0
LINE
  5
4FB
100
AcDbEntity
  8
KONSTRUKTIONSELEMENTE
100
AcDbLine
 62
7
  6
CONTINUOUS
 10
476.5655546455
 20
177.7117079123
 11
476.2245387816
 21
177.8819887939
  0
LINE
  5
4FC
100
AcDbEntity
  8
KONSTRUKTIONSELEMENTE
100
AcDbLine
 62
7
  6
CONTINUOUS
 10
477.9047002938
 20
182.2481717206
 11
478.3124386863
 21
182.0445739989
  0
LINE
  5
4FD
100
AcDbEntity
  8
0
100
AcDbLine
 62
7
  6
CONTINUOUS
 10
518.6007811617
 20
149.7080935075
 11
518.7480828665
 21
149.6042562601
  0
LINE
  5
4FE
100
AcDbEntity
  8
KONSTRUKTIONSELEMENTE
100
AcDbLine
 62
7
  6
CONTINUOUS
 10
478.5688868123
 20
179.5331125068
 11
478.1839032263
 21
179.862325442
  0
LINE
  5
4FF
100
AcDbEntity
  8
KONSTRUKTIONSELEMENTE
100
AcDbLine
 62
7
  6
CONTINUOUS
 10
483.5634416097
 20
180.7513860123
 11
483.1550730291
 21
181.1051614572
  0
LINE
  5
500
100
AcDbEntity
  8
KONSTRUKTIONSELEMENTE
100
AcDbLine
 62
7
  6
CONTINUOUS
 10
482.8629519556
 20
180.5376322904
 11
483.1935211435
 21
180.2239020863
  0
LINE
  5
501
100
AcDbEntity
  8
KONSTRUKTIONSELEMENTE
100
AcDbLine
 62
7
  6
CONTINUOUS
 10
478.8111963045
 20
182.343437131
 11
478.5123121466
 21
182.6570534218
  0
LINE
  5
502
100
AcDbEntity
  8
0
100
AcDbLine
 62
7
  6
CONTINUOUS
 10
513.1803128657
 20
149.7261602777
 11
513.2330204973
 21
149.7667079123
  0
LINE
  5
503
100
AcDbEntity
  8
0
100
AcDbLine
 62
7
  6
CONTINUOUS
 10
517.8104605882
 20
148.727838677
 11
517.6522020319
 21
148.6371136051
  0
LINE
  5
504
100
AcDbEntity
  8
0
100
AcDbLine
 62
7
  6
CONTINUOUS
 10
518.6594552269
 20
148.574387187
 11
518.8177137456
 21
148.6651122571
  0
LINE
  5
505
100
AcDbEntity
  8
0
100
AcDbLine
 62
7
  6
CONTINUOUS
 10
519.438818652
 20
149.3600797633
 11
519.7214927007
 21
149.4844724059
  0
LINE
  5
506
100
AcDbEntity
  8
0
100
AcDbLine
 62
7
  6
CONTINUOUS
 10
522.7651656586
 20
149.685417933
 11
522.9498917571
 21
149.7667079123
  0
LINE
  5
507
100
AcDbEntity
  8
KONSTRUKTIONSELEMENTE
100
AcDbLine
 62
7
  6
CONTINUOUS
 10
473.5566199887
 20
183.3060689809
 11
472.778846879
 21
183.1826783825
  0
LINE
  5
508
100
AcDbEntity
  8
KONSTRUKTIONSELEMENTE
100
AcDbLine
 62
7
  6
CONTINUOUS
 10
470.1862698465
 20
182.7713763877
 11
469.4084967368
 21
182.6479857892
  0
LINE
  5
509
100
AcDbEntity
  8
0
100
AcDbLine
 62
7
  6
CONTINUOUS
 10
434.3157607894
 20
178.9004124912
 11
432.6813793926
 21
178.6761577201
  0
LINE
  5
50A
100
AcDbEntity
  8
0
100
AcDbLine
 62
7
  6
CONTINUOUS
 10
421.2318857539
 20
180.5702200615
 11
423.8080075828
 21
180.6800956748
  0
LINE
  5
50B
100
AcDbEntity
  8
KONSTRUKTIONSELEMENTE
100
AcDbLine
 62
7
  6
CONTINUOUS
 10
477.7601780126
 20
182.9230373643
 11
477.1347311512
 21
182.9065979479
  0
LINE
  5
50C
100
AcDbEntity
  8
BEZUGSACHSEN
100
AcDbLine
 62
7
  6
CONTINUOUS
 10
487.7386575641
 20
187.2117079123
 11
461.1805451814
 21
187.2117079123
  0
LINE
  5
50D
100
AcDbEntity
  8
KONSTRUKTIONSELEMENTE
100
AcDbLine
 62
7
  6
CONTINUOUS
 10
477.5603045523
 20
182.3105579414
 11
477.9047002938
 21
182.2481717206
  0
LINE
  5
50E
100
AcDbEntity
  8
KONSTRUKTIONSELEMENTE
100
AcDbLine
 62
7
  6
CONTINUOUS
 10
477.9323748981
 20
182.8918444323
 11
477.7601780126
 21
182.9230373643
  0
LINE
  5
50F
100
AcDbEntity
  8
KONSTRUKTIONSELEMENTE
100
AcDbLine
 62
7
  6
CONTINUOUS
 10
483.1550730291
 20
181.1051614572
 11
482.6298560191
 21
181.2319252354
  0
LINE
  5
510
100
AcDbEntity
  8
0
100
AcDbLine
 62
7
  6
CONTINUOUS
 10
517.6522020319
 20
148.6371136051
 11
517.7089313063
 21
148.5566662484
  0
LINE
  5
511
100
AcDbEntity
  8
BEZUGSACHSEN
100
AcDbLine
 62
7
  6
CONTINUOUS
 10
493.2234851214
 20
177.7117079123
 11
487.7386575641
 21
187.2117079123
  0
LINE
  5
512
100
AcDbEntity
  8
0
100
AcDbLine
 62
7
  6
CONTINUOUS
 10
510.5742403797
 20
150.1780135494
 11
507.7166791029
 21
147.1772785967
  0
LINE
  5
513
100
AcDbEntity
  8
0
100
AcDbLine
 62
7
  6
CONTINUOUS
 10
445.7946013727
 20
189.5867079123
 11
448.2461399373
 21
189.5867079123
  0
LINE
  5
514
100
AcDbEntity
  8
0
100
AcDbLine
 62
7
  6
CONTINUOUS
 10
500.6730628082
 20
189.5867079123
 11
503.1246013727
 21
189.5867079123
  0
LINE
  5
515
100
AcDbEntity
  8
0
100
AcDbLine
 62
7
  6
CONTINUOUS
 10
513.1803128657
 20
150.6680681746
 11
513.1803128657
 21
149.7261602777
  0
LINE
  5
516
100
AcDbEntity
  8
0
100
AcDbLine
 62
7
  6
CONTINUOUS
 10
513.3724145268
 20
150.7117079123
 11
513.3724145268
 21
149.7667079123
  0
LINE
  5
517
100
AcDbEntity
  8
0
100
AcDbLine
 62
7
  6
CONTINUOUS
 10
513.7456609489
 20
150.7117079123
 11
513.7456609489
 21
149.7667079123
  0
LINE
  5
518
100
AcDbEntity
  8
RUNDUNGEN
100
AcDbLine
 62
7
  6
CONTINUOUS
 10
513.9596013727
 20
185.1579650338
 11
513.9596013727
 21
179.1764092182
  0
LINE
  5
519
100
AcDbEntity
  8
RUNDUNGEN
100
AcDbLine
 62
7
  6
CONTINUOUS
 10
513.9596013727
 20
149.2470066063
 11
513.9596013727
 21
143.2654507908
  0
LINE
  5
51A
100
AcDbEntity
  8
0
100
AcDbLine
 62
7
  6
CONTINUOUS
 10
514.5836985202
 20
149.7667079123
 11
514.5836985202
 21
149.6269318418
  0
LINE
  5
51B
100
AcDbEntity
  8
0
100
AcDbLine
 62
7
  6
CONTINUOUS
 10
514.639455417
 20
150.7117079123
 11
514.639455417
 21
149.7667079123
  0
LINE
  5
51C
100
AcDbEntity
  8
0
100
AcDbLine
 62
7
  6
CONTINUOUS
 10
514.9459879073
 20
149.7667079123
 11
514.9459879073
 21
149.5333723422
  0
LINE
  5
51D
100
AcDbEntity
  8
0
100
AcDbLine
 62
7
  6
CONTINUOUS
 10
515.2844188527
 20
150.7117079123
 11
515.2844188527
 21
149.7667079123
  0
LINE
  5
51E
100
AcDbEntity
  8
0
100
AcDbLine
 62
7
  6
CONTINUOUS
 10
515.523265236
 20
149.7667079123
 11
515.523265236
 21
149.4500905235
  0
LINE
  5
51F
100
AcDbEntity
  8
0
100
AcDbLine
 62
7
  6
CONTINUOUS
 10
516.315530247
 20
149.7667079123
 11
516.315530247
 21
149.3770864526
  0
LINE
  5
520
100
AcDbEntity
  8
0
100
AcDbLine
 62
7
  6
CONTINUOUS
 10
516.5405029556
 20
150.7117079123
 11
516.5405029556
 21
149.7667079123
  0
LINE
  5
521
100
AcDbEntity
  8
0
100
AcDbLine
 62
7
  6
CONTINUOUS
 10
514.4363968154
 20
149.7307690892
 11
514.4577135795
 21
149.7667079123
  0
LINE
  5
522
100
AcDbEntity
  8
0
100
AcDbLine
 62
7
  6
CONTINUOUS
 10
518.7480828665
 20
149.6042562601
 11
518.6803966298
 21
149.4901413319
  0
LINE
  5
523
100
AcDbEntity
  8
0
100
AcDbLine
 62
7
  6
CONTINUOUS
 10
524.0212495414
 20
149.6900267214
 11
524.1209268754
 21
149.7667079123
  0
LINE
  5
524
100
AcDbEntity
  8
0
100
AcDbLine
 62
7
  6
CONTINUOUS
 10
507.4604511259
 20
179.7752031102
 11
509.2251591583
 21
177.9220771188
  0
LINE
  5
525
100
AcDbEntity
  8
0
100
AcDbLine
 62
7
  6
CONTINUOUS
 10
517.4471987504
 20
149.7667079123
 11
517.4471987504
 21
149.3480276757
  0
LINE
  5
526
100
AcDbEntity
  8
0
100
AcDbLine
 62
7
  6
CONTINUOUS
 10
517.5477558595
 20
150.7117079123
 11
517.5477558595
 21
149.7667079123
  0
LINE
  5
527
100
AcDbEntity
  8
0
100
AcDbLine
 62
7
  6
CONTINUOUS
 10
517.6522020319
 20
149.2301688136
 11
517.6522020319
 21
148.6371136051
  0
LINE
  5
528
100
AcDbEntity
  8
0
100
AcDbLine
 62
7
  6
CONTINUOUS
 10
517.8104605882
 20
149.231078251
 11
517.8104605882
 21
148.727838677
  0
LINE
  5
529
100
AcDbEntity
  8
0
100
AcDbLine
 62
7
  6
CONTINUOUS
 10
517.9438884298
 20
150.7117079123
 11
517.9438884298
 21
149.7667079123
  0
LINE
  5
52A
100
AcDbEntity
  8
0
100
AcDbLine
 62
7
  6
CONTINUOUS
 10
517.9777314834
 20
150.7117079123
 11
517.9777314834
 21
149.7667079123
  0
LINE
  5
52B
100
AcDbEntity
  8
0
100
AcDbLine
 62
7
  6
CONTINUOUS
 10
518.0921621861
 20
149.7667079123
 11
518.0921621861
 21
149.3788608187
  0
LINE
  5
52C
100
AcDbEntity
  8
0
100
AcDbLine
 62
7
  6
CONTINUOUS
 10
518.350977814
 20
150.7117079123
 11
518.350977814
 21
149.7667079123
  0
LINE
  5
52D
100
AcDbEntity
  8
0
100
AcDbLine
 62
7
  6
CONTINUOUS
 10
518.4892673472
 20
149.261911394
 11
518.4892673472
 21
148.8157292543
  0
LINE
  5
52E
100
AcDbEntity
  8
0
100
AcDbLine
 62
7
  6
CONTINUOUS
 10
518.6803966298
 20
149.6519702531
 11
518.6803966298
 21
149.4901413319
  0
LINE
  5
52F
100
AcDbEntity
  8
0
100
AcDbLine
 62
7
  6
CONTINUOUS
 10
518.8973290088
 20
148.6651122571
 11
518.8973290088
 21
148.4471601113
  0
LINE
  5
530
100
AcDbEntity
  8
0
100
AcDbLine
 62
7
  6
CONTINUOUS
 10
519.0297843276
 20
150.7117079123
 11
519.0297843276
 21
149.7667079123
  0
LINE
  5
531
100
AcDbEntity
  8
0
100
AcDbLine
 62
7
  6
CONTINUOUS
 10
519.6747477634
 20
150.7117079123
 11
519.6747477634
 21
149.7667079123
  0
LINE
  5
532
100
AcDbEntity
  8
0
100
AcDbLine
 62
7
  6
CONTINUOUS
 10
520.0380097381
 20
149.7667079123
 11
520.0380097381
 21
149.6659225461
  0
LINE
  5
533
100
AcDbEntity
  8
0
100
AcDbLine
 62
7
  6
CONTINUOUS
 10
520.9308321594
 20
150.7117079123
 11
520.9308321594
 21
149.7667079123
  0
LINE
  5
534
100
AcDbEntity
  8
0
100
AcDbLine
 62
7
  6
CONTINUOUS
 10
521.045262561
 20
149.7667079123
 11
521.045262561
 21
149.6031961895
  0
LINE
  5
535
100
AcDbEntity
  8
0
100
AcDbLine
 62
7
  6
CONTINUOUS
 10
521.8475127003
 20
150.7117079123
 11
521.8475127003
 21
149.7667079123
  0
LINE
  5
536
100
AcDbEntity
  8
0
100
AcDbLine
 62
7
  6
CONTINUOUS
 10
521.8713708199
 20
149.7667079123
 11
521.8713708199
 21
149.5872495493
  0
LINE
  5
537
100
AcDbEntity
  8
0
100
AcDbLine
 62
7
  6
CONTINUOUS
 10
522.064445004
 20
149.4600224103
 11
522.064445004
 21
149.2084026287
  0
LINE
  5
538
100
AcDbEntity
  8
0
100
AcDbLine
 62
7
  6
CONTINUOUS
 10
522.3013464437
 20
149.7667079123
 11
522.3013464437
 21
149.607804978
  0
LINE
  5
539
100
AcDbEntity
  8
0
100
AcDbLine
 62
7
  6
CONTINUOUS
 10
522.7651656586
 20
149.7667079123
 11
522.7651656586
 21
149.685417933
  0
LINE
  5
53A
100
AcDbEntity
  8
0
100
AcDbLine
 62
7
  6
CONTINUOUS
 10
522.9243962517
 20
149.5095478397
 11
522.9243962517
 21
149.249513486
  0
LINE
  5
53B
100
AcDbEntity
  8
0
100
AcDbLine
 62
7
  6
CONTINUOUS
 10
522.9453379995
 20
150.7117079123
 11
522.9453379995
 21
149.7667079123
  0
LINE
  5
53C
100
AcDbEntity
  8
0
100
AcDbLine
 62
7
  6
CONTINUOUS
 10
519.7214927007
 20
149.4844724059
 11
519.7553356894
 21
149.5415299035
  0
LINE
  5
53D
100
AcDbEntity
  8
0
100
AcDbLine
 62
7
  6
CONTINUOUS
 10
523.613187675
 20
150.7117079123
 11
523.613187675
 21
149.7667079123
  0
LINE
  5
53E
100
AcDbEntity
  8
0
100
AcDbLine
 62
7
  6
CONTINUOUS
 10
523.6489752851
 20
149.589023937
 11
523.6489752851
 21
149.0623944199
  0
LINE
  5
53F
100
AcDbEntity
  8
0
100
AcDbLine
 62
7
  6
CONTINUOUS
 10
523.9754770621
 20
150.7117079123
 11
523.9754770621
 21
149.7667079123
  0
LINE
  5
540
100
AcDbEntity
  8
0
100
AcDbLine
 62
7
  6
CONTINUOUS
 10
524.2133510489
 20
150.7110682528
 11
524.2133510489
 21
149.7667079123
  0
LINE
  5
541
100
AcDbEntity
  8
0
100
AcDbLine
 62
7
  6
CONTINUOUS
 10
525.0981328337
 20
148.9930740154
 11
525.0981328337
 21
148.6881564215
  0
LINE
  5
542
100
AcDbEntity
  8
0
100
AcDbLine
 62
7
  6
CONTINUOUS
 10
525.3688783827
 20
150.0954316029
 11
525.3688783827
 21
149.1446161634
  0
LINE
  5
543
100
AcDbEntity
  8
0
100
AcDbLine
 62
7
  6
CONTINUOUS
 10
525.8217400519
 20
149.9784822451
 11
525.8217400519
 21
149.0276668056
  0
LINE
  5
544
100
AcDbEntity
  8
RUNDUNGEN
100
AcDbLine
 62
7
  6
CONTINUOUS
 10
506.1792983424
 20
197.064045982
 11
504.2561145306
 21
197.8770535592
  0
LINE
  5
545
100
AcDbEntity
  8
RUNDUNGEN
100
AcDbLine
 62
7
  6
CONTINUOUS
 10
534.8002058569
 20
176.7117079123
 11
534.8002058569
 21
176.2117079123
  0
LINE
  5
546
100
AcDbEntity
  8
RUNDUNGEN
100
AcDbLine
 62
7
  6
CONTINUOUS
 10
534.8002058569
 20
152.2117079123
 11
534.8002058569
 21
151.7117079123
  0
LINE
  5
547
100
AcDbEntity
  8
0
100
AcDbLine
 62
7
  6
CONTINUOUS
 10
540.9596013727
 20
171.7117079123
 11
540.9596013727
 21
156.7117079123
  0
LINE
  5
548
100
AcDbEntity
  8
RUNDUNGEN
100
AcDbLine
 62
7
  6
CONTINUOUS
 10
548.4601194299
 20
150.7117079123
 11
548.4601194299
 21
177.7117079123
  0
ARC
  5
549
100
AcDbEntity
  8
RUNDUNGEN
100
AcDbCircle
 62
7
  6
CONTINUOUS
 10
419.7618575205
 20
573.4636923516
 40
6.5
100
AcDbArc
 50
203.0
 51
270.0
  0
ARC
  5
54A
100
AcDbEntity
  8
0
100
AcDbCircle
 62
7
  6
CONTINUOUS
 10
416.4256802364
 20
596.8799303578
 40
5.5
100
AcDbArc
 50
84.2608295227
 51
275.7391704773
  0
ARC
  5
54B
100
AcDbEntity
  8
0
100
AcDbCircle
 62
7
  6
CONTINUOUS
 10
416.4256802364
 20
596.8799303578
 40
3.85
100
AcDbArc
 50
81.7867892983
 51
278.2132107017
  0
ARC
  5
54C
100
AcDbEntity
  8
RUNDUNGEN
100
AcDbCircle
 62
7
  6
CONTINUOUS
 10
368.4141564013
 20
660.7825205193
 40
48.0
100
AcDbArc
 50
338.0
 51
22.1559059897
  0
ARC
  5
54D
100
AcDbEntity
  8
RUNDUNGEN
100
AcDbCircle
 62
7
  6
CONTINUOUS
 10
426.4596013727
 20
573.4636923516
 40
6.5
100
AcDbArc
 50
270.0
 51
360.0
  0
ARC
  5
54E
100
AcDbEntity
  8
RUNDUNGEN
100
AcDbCircle
 62
7
  6
CONTINUOUS
 10
424.7390833156
 20
607.2425201351
 40
24.28
100
AcDbArc
 50
158.0
 51
203.0
  0
ARC
  5
54F
100
AcDbEntity
  8
0
100
AcDbCircle
 62
7
  6
CONTINUOUS
 10
425.7756802364
 20
596.8799303578
 40
5.5
100
AcDbArc
 50
84.2608295227
 51
275.7391704773
  0
ARC
  5
550
100
AcDbEntity
  8
0
100
AcDbCircle
 62
7
  6
CONTINUOUS
 10
425.7756802364
 20
596.8799303578
 40
3.85
100
AcDbArc
 50
192.4498159314
 51
278.2132107017
  0
ARC
  5
551
100
AcDbEntity
  8
0
100
AcDbCircle
 62
7
  6
CONTINUOUS
 10
425.7756802364
 20
596.8799303578
 40
3.85
100
AcDbArc
 50
81.7867892983
 51
167.520934158
  0
ARC
  5
552
100
AcDbEntity
  8
RUNDUNGEN
100
AcDbCircle
 62
7
  6
CONTINUOUS
 10
437.9596013727
 20
612.4636923516
 40
3.0
100
AcDbArc
 50
90.0
 51
180.0
  0
ARC
  5
553
100
AcDbEntity
  8
RUNDUNGEN
100
AcDbCircle
 62
7
  6
CONTINUOUS
 10
434.9596013727
 20
601.7136923516
 40
2.0
100
AcDbArc
 50
180.0
 51
270.0
  0
ARC
  5
554
100
AcDbEntity
  8
RUNDUNGEN
100
AcDbCircle
 62
7
  6
CONTINUOUS
 10
430.9596013727
 20
605.1636923516
 40
2.0
100
AcDbArc
 50
0.0
 51
90.0
  0
ARC
  5
555
100
AcDbEntity
  8
RUNDUNGEN
100
AcDbCircle
 62
7
  6
CONTINUOUS
 10
471.9596013727
 20
613.9109587496
 40
44.0
100
AcDbArc
 50
5.9359879674
 51
22.0000158342
  0
ARC
  5
556
100
AcDbEntity
  8
RUNDUNGEN
100
AcDbCircle
 62
7
  6
CONTINUOUS
 10
471.9596013727
 20
613.9109587496
 40
44.0
100
AcDbArc
 50
359.9998624103
 51
2.0180360714
  0
ARC
  5
557
100
AcDbEntity
  8
RUNDUNGEN
100
AcDbCircle
 62
7
  6
CONTINUOUS
 10
452.372260855
 20
616.8236923516
 40
1.89
100
AcDbArc
 50
90.0
 51
171.939906865
  0
ARC
  5
558
100
AcDbEntity
  8
0
100
AcDbCircle
 62
7
  6
CONTINUOUS
 10
449.537260855
 20
616.8236923516
 40
1.89
100
AcDbArc
 50
90.0
 51
119.5727349656
  0
ARC
  5
559
100
AcDbEntity
  8
RUNDUNGEN
100
AcDbCircle
 62
7
  6
CONTINUOUS
 10
456.152260855
 20
616.8236923516
 40
1.89
100
AcDbArc
 50
90.0
 51
171.9401582537
  0
ARC
  5
55A
100
AcDbEntity
  8
RUNDUNGEN
100
AcDbCircle
 62
7
  6
CONTINUOUS
 10
454.9960027875
 20
636.9636923516
 40
15.0
100
AcDbArc
 50
90.0
 51
158.0000173837
  0
ARC
  5
55B
100
AcDbEntity
  8
RUNDUNGEN
100
AcDbCircle
 62
7
  6
CONTINUOUS
 10
432.2581676892
 20
624.7636923516
 40
2.0
100
AcDbArc
 50
270.0
 51
346.3536100488
  0
ARC
  5
55C
100
AcDbEntity
  8
RUNDUNGEN
100
AcDbCircle
 62
7
  6
CONTINUOUS
 10
448.6296013727
 20
617.3536923516
 40
1.89
100
AcDbArc
 50
270.0
 51
351.939906865
  0
ARC
  5
55D
100
AcDbEntity
  8
RUNDUNGEN
100
AcDbCircle
 62
7
  6
CONTINUOUS
 10
452.4096013727
 20
617.3536923516
 40
1.89
100
AcDbArc
 50
269.9983860797
 51
351.480875991
  0
ARC
  5
55E
100
AcDbEntity
  8
RUNDUNGEN
100
AcDbCircle
 62
7
  6
CONTINUOUS
 10
410.7733511233
 20
671.1260689427
 40
12.6
100
AcDbArc
 50
338.0
 51
15.0
  0
ARC
  5
55F
100
AcDbEntity
  8
RUNDUNGEN
100
AcDbCircle
 62
7
  6
CONTINUOUS
 10
426.7189968886
 20
708.981432077
 40
12.6
100
AcDbArc
 50
153.0
 51
195.0
  0
ARC
  5
560
100
AcDbEntity
  8
RUNDUNGEN
100
AcDbCircle
 62
7
  6
CONTINUOUS
 10
442.3389414102
 20
739.6372992906
 40
12.6
100
AcDbArc
 50
111.0
 51
153.0
  0
ARC
  5
561
100
AcDbEntity
  8
RUNDUNGEN
100
AcDbCircle
 62
7
  6
CONTINUOUS
 10
476.9596013727
 20
613.9109587496
 40
44.0
100
AcDbArc
 50
177.981963994
 51
180.0001351307
  0
ARC
  5
562
100
AcDbEntity
  8
RUNDUNGEN
100
AcDbCircle
 62
7
  6
CONTINUOUS
 10
476.9596013727
 20
613.9109587496
 40
44.0
100
AcDbArc
 50
157.9999938126
 51
174.0640120332
  0
ARC
  5
563
100
AcDbEntity
  8
RUNDUNGEN
100
AcDbCircle
 62
7
  6
CONTINUOUS
 10
524.1801194299
 20
607.2425201351
 40
24.28
100
AcDbArc
 50
337.0
 51
22.0
  0
ARC
  5
564
100
AcDbEntity
  8
RUNDUNGEN
100
AcDbCircle
 62
7
  6
CONTINUOUS
 10
522.4596013727
 20
573.4636923516
 40
6.5
100
AcDbArc
 50
179.9999829651
 51
270.0
  0
ARC
  5
565
100
AcDbEntity
  8
RUNDUNGEN
100
AcDbCircle
 62
7
  6
CONTINUOUS
 10
510.9596013727
 20
612.4636923516
 40
3.0
100
AcDbArc
 50
0.0
 51
90.0
  0
ARC
  5
566
100
AcDbEntity
  8
RUNDUNGEN
100
AcDbCircle
 62
7
  6
CONTINUOUS
 10
513.9596013727
 20
601.7136923516
 40
2.0
100
AcDbArc
 50
270.0
 51
360.0
  0
ARC
  5
567
100
AcDbEntity
  8
RUNDUNGEN
100
AcDbCircle
 62
7
  6
CONTINUOUS
 10
517.9596013727
 20
605.1636923516
 40
2.0
100
AcDbArc
 50
90.0
 51
180.0
  0
ARC
  5
568
100
AcDbEntity
  8
0
100
AcDbCircle
 62
7
  6
CONTINUOUS
 10
499.3819418905
 20
616.8236923516
 40
1.89
100
AcDbArc
 50
60.4272650344
 51
90.0
  0
ARC
  5
569
100
AcDbEntity
  8
RUNDUNGEN
100
AcDbCircle
 62
7
  6
CONTINUOUS
 10
496.5469418905
 20
616.8236923516
 40
1.89
100
AcDbArc
 50
8.060093135
 51
90.0
  0
ARC
  5
56A
100
AcDbEntity
  8
RUNDUNGEN
100
AcDbCircle
 62
7
  6
CONTINUOUS
 10
492.7669418905
 20
616.8236923516
 40
1.89
100
AcDbArc
 50
8.0598413951
 51
90.0
  0
ARC
  5
56B
100
AcDbEntity
  8
RUNDUNGEN
100
AcDbCircle
 62
7
  6
CONTINUOUS
 10
493.923199958
 20
636.9636923516
 40
15.0
100
AcDbArc
 50
21.9999826121
 51
90.0
  0
ARC
  5
56C
100
AcDbEntity
  8
RUNDUNGEN
100
AcDbCircle
 62
7
  6
CONTINUOUS
 10
516.6610350563
 20
624.7636923516
 40
2.0
100
AcDbArc
 50
193.6463916704
 51
269.9999981783
  0
ARC
  5
56D
100
AcDbEntity
  8
RUNDUNGEN
100
AcDbCircle
 62
7
  6
CONTINUOUS
 10
496.5096013727
 20
617.3536923516
 40
1.89
100
AcDbArc
 50
188.5186252827
 51
269.9978002647
  0
ARC
  5
56E
100
AcDbEntity
  8
RUNDUNGEN
100
AcDbCircle
 62
7
  6
CONTINUOUS
 10
500.2896013727
 20
617.3536923516
 40
1.89
100
AcDbArc
 50
188.060093135
 51
270.0
  0
ARC
  5
56F
100
AcDbEntity
  8
RUNDUNGEN
100
AcDbCircle
 62
7
  6
CONTINUOUS
 10
529.157345225
 20
573.4636923516
 40
6.5
100
AcDbArc
 50
270.0
 51
337.0
  0
ARC
  5
570
100
AcDbEntity
  8
RUNDUNGEN
100
AcDbCircle
 62
7
  6
CONTINUOUS
 10
580.5050463442
 20
660.7825205193
 40
48.0
100
AcDbArc
 50
157.8440940103
 51
202.0
  0
ARC
  5
571
100
AcDbEntity
  8
RUNDUNGEN
100
AcDbCircle
 62
7
  6
CONTINUOUS
 10
474.4596013727
 20
703.9636923516
 40
66.5
100
AcDbArc
 50
337.8440940103
 51
202.1559059897
  0
CIRCLE
  5
572
100
AcDbEntity
  8
RUNDUNGEN
100
AcDbCircle
 62
7
  6
CONTINUOUS
 10
474.4596013727
 20
703.9636923516
 40
37.5
  0
ARC
  5
573
100
AcDbEntity
  8
RUNDUNGEN
100
AcDbCircle
 62
7
  6
CONTINUOUS
 10
538.1458516222
 20
671.1260689427
 40
12.6
100
AcDbArc
 50
165.0
 51
202.0
  0
ARC
  5
574
100
AcDbEntity
  8
RUNDUNGEN
100
AcDbCircle
 62
7
  6
CONTINUOUS
 10
474.4596013727
 20
751.9672654318
 40
12.6
100
AcDbArc
 50
69.0
 51
111.0
  0
ARC
  5
575
100
AcDbEntity
  8
RUNDUNGEN
100
AcDbCircle
 62
7
  6
CONTINUOUS
 10
506.5802613353
 20
739.6372992906
 40
12.6
100
AcDbArc
 50
27.0
 51
69.0
  0
ARC
  5
576
100
AcDbEntity
  8
RUNDUNGEN
100
AcDbCircle
 62
7
  6
CONTINUOUS
 10
522.2002058569
 20
708.981432077
 40
12.6
100
AcDbArc
 50
345.0
 51
27.0
  0
ARC
  5
577
100
AcDbEntity
  8
KONSTRUKTIONSELEMENTE
100
AcDbCircle
 62
7
  6
CONTINUOUS
 10
687.0831264765
 20
330.0789124051
 40
31.8914807733
100
AcDbArc
 50
96.3719208703
 51
96.5919479527
  0
ARC
  5
578
100
AcDbEntity
  8
KONSTRUKTIONSELEMENTE
100
AcDbCircle
 62
7
  6
CONTINUOUS
 10
709.7727662547
 20
330.0793546671
 40
31.8910354733
100
AcDbArc
 50
83.4080564252
 51
83.6294635294
  0
ARC
  5
579
100
AcDbEntity
  8
KONSTRUKTIONSELEMENTE
100
AcDbCircle
 62
7
  6
CONTINUOUS
 10
686.9466783475
 20
331.4457871383
 40
30.5179109782
100
AcDbArc
 50
90.0352171256
 51
96.4021349063
  0
ARC
  5
57A
100
AcDbEntity
  8
KONSTRUKTIONSELEMENTE
100
AcDbCircle
 62
7
  6
CONTINUOUS
 10
709.9091748116
 20
331.4460729454
 40
30.5176251635
100
AcDbArc
 50
83.5992702772
 51
89.964805867
  0
ARC
  5
57B
100
AcDbEntity
  8
RUNDUNGEN
100
AcDbCircle
 62
7
  6
CONTINUOUS
 10
669.9279203662
 20
649.7944694237
 40
15.0
100
AcDbArc
 50
353.659779189
 51
0.0000117812
  0
ARC
  5
57C
100
AcDbEntity
  8
RUNDUNGEN
100
AcDbCircle
 62
7
  6
CONTINUOUS
 10
726.9279203662
 20
649.7944694237
 40
15.0
100
AcDbArc
 50
179.9999868583
 51
186.3402178736
  0
ARC
  5
57D
100
AcDbEntity
  8
RUNDUNGEN
100
AcDbCircle
 62
7
  6
CONTINUOUS
 10
696.4279203662
 20
616.6329152796
 40
15.0
100
AcDbArc
 50
173.659649524
 51
180.0
  0
ARC
  5
57E
100
AcDbEntity
  8
RUNDUNGEN
100
AcDbCircle
 62
7
  6
CONTINUOUS
 10
700.4279203662
 20
616.6329152796
 40
15.0
100
AcDbArc
 50
0.0
 51
6.3401917459
  0
ARC
  5
57F
100
AcDbEntity
  8
RUNDUNGEN
100
AcDbCircle
 62
7
  6
CONTINUOUS
 10
684.9279203662
 20
570.4636923516
 40
3.5
100
AcDbArc
 50
180.0
 51
270.0
  0
ARC
  5
580
100
AcDbEntity
  8
RUNDUNGEN
100
AcDbCircle
 62
7
  6
CONTINUOUS
 10
705.9279203662
 20
766.9636923516
 40
3.5
100
AcDbArc
 50
0.0
 51
90.0
  0
ARC
  5
581
100
AcDbEntity
  8
RUNDUNGEN
100
AcDbCircle
 62
7
  6
CONTINUOUS
 10
690.9279203662
 20
766.9636923516
 40
3.5
100
AcDbArc
 50
90.0
 51
180.0
  0
ARC
  5
582
100
AcDbEntity
  8
RUNDUNGEN
100
AcDbCircle
 62
7
  6
CONTINUOUS
 10
711.9279203662
 20
570.4636923516
 40
3.5
100
AcDbArc
 50
270.0
 51
360.0
  0
ARC
  5
583
100
AcDbEntity
  8
RUNDUNGEN
100
AcDbCircle
 62
7
  6
CONTINUOUS
 10
734.9279203662
 20
615.7136923516
 40
3.0
100
AcDbArc
 50
0.0
 51
90.0
  0
ARC
  5
584
100
AcDbEntity
  8
RUNDUNGEN
100
AcDbCircle
 62
7
  6
CONTINUOUS
 10
661.9279203662
 20
615.7136923516
 40
3.0
100
AcDbArc
 50
90.0
 51
180.0
  0
ARC
  5
585
100
AcDbEntity
  8
RUNDUNGEN
100
AcDbCircle
 62
7
  6
CONTINUOUS
 10
685.9279203662
 20
763.5672654318
 40
1.0
100
AcDbArc
 50
90.0
 51
180.0
  0
ARC
  5
586
100
AcDbEntity
  8
RUNDUNGEN
100
AcDbCircle
 62
7
  6
CONTINUOUS
 10
710.9279203662
 20
763.5672654318
 40
1.0
100
AcDbArc
 50
0.0
 51
90.0
  0
ARC
  5
587
100
AcDbEntity
  8
RUNDUNGEN
100
AcDbCircle
 62
7
  6
CONTINUOUS
 10
710.4279203662
 20
765.5672654318
 40
1.0
100
AcDbArc
 50
180.0
 51
270.0
  0
ARC
  5
588
100
AcDbEntity
  8
RUNDUNGEN
100
AcDbCircle
 62
7
  6
CONTINUOUS
 10
686.4279203662
 20
765.5672654318
 40
1.0
100
AcDbArc
 50
270.0
 51
360.0
  0
ARC
  5
589
100
AcDbEntity
  8
RUNDUNGEN
100
AcDbCircle
 62
7
  6
CONTINUOUS
 10
447.9596013727
 20
143.2654507908
 40
13.0
100
AcDbArc
 50
180.0
 51
246.3270678587
  0
ARC
  5
58A
100
AcDbEntity
  8
RUNDUNGEN
100
AcDbCircle
 62
7
  6
CONTINUOUS
 10
403.9590833156
 20
150.7117079123
 40
3.5
100
AcDbArc
 50
180.0
 51
270.0
  0
ARC
  5
58B
100
AcDbEntity
  8
RUNDUNGEN
100
AcDbCircle
 62
7
  6
CONTINUOUS
 10
411.4596013727
 20
156.7117079123
 40
3.5
100
AcDbArc
 50
180.0
 51
270.0
  0
ARC
  5
58C
100
AcDbEntity
  8
RUNDUNGEN
100
AcDbCircle
 62
7
  6
CONTINUOUS
 10
429.4596013727
 20
150.7117079123
 40
3.5
100
AcDbArc
 50
270.0
 51
315.9059172866
  0
ARC
  5
58D
100
AcDbEntity
  8
RUNDUNGEN
100
AcDbCircle
 62
7
  6
CONTINUOUS
 10
423.5969174162
 20
149.2117079123
 40
1.9999784375
100
AcDbArc
 50
269.9985647677
 51
317.44477528
  0
ARC
  5
58E
100
AcDbEntity
  8
RUNDUNGEN
100
AcDbCircle
 62
7
  6
CONTINUOUS
 10
415.1189968886
 20
151.7117079123
 40
1.0
100
AcDbArc
 50
180.0
 51
270.0
  0
ARC
  5
58F
100
AcDbEntity
  8
RUNDUNGEN
100
AcDbCircle
 62
7
  6
CONTINUOUS
 10
413.1189968886
 20
152.2117079123
 40
1.0
100
AcDbArc
 50
0.0
 51
90.0
  0
ARC
  5
590
100
AcDbEntity
  8
RUNDUNGEN
100
AcDbCircle
 62
7
  6
CONTINUOUS
 10
447.9596013727
 20
185.1579650338
 40
13.0
100
AcDbArc
 50
113.6729321413
 51
180.0
  0
ARC
  5
591
100
AcDbEntity
  8
RUNDUNGEN
100
AcDbCircle
 62
7
  6
CONTINUOUS
 10
403.9590833156
 20
177.7117079123
 40
3.5
100
AcDbArc
 50
90.0
 51
180.0
  0
ARC
  5
592
100
AcDbEntity
  8
RUNDUNGEN
100
AcDbCircle
 62
7
  6
CONTINUOUS
 10
411.4596013727
 20
171.7117079123
 40
3.5
100
AcDbArc
 50
90.0
 51
180.0
  0
ARC
  5
593
100
AcDbEntity
  8
RUNDUNGEN
100
AcDbCircle
 62
7
  6
CONTINUOUS
 10
429.4596013727
 20
177.7117079123
 40
3.5
100
AcDbArc
 50
44.0635469369
 51
90.0
  0
ARC
  5
594
100
AcDbEntity
  8
RUNDUNGEN
100
AcDbCircle
 62
7
  6
CONTINUOUS
 10
423.5968673147
 20
179.2117079123
 40
2.0
100
AcDbArc
 50
58.4122797386
 51
90.0
  0
ARC
  5
595
100
AcDbEntity
  8
RUNDUNGEN
100
AcDbCircle
 62
7
  6
CONTINUOUS
 10
415.1189968886
 20
176.7117079123
 40
1.0
100
AcDbArc
 50
90.0
 51
180.0
  0
ARC
  5
596
100
AcDbEntity
  8
RUNDUNGEN
100
AcDbCircle
 62
7
  6
CONTINUOUS
 10
413.1189968886
 20
176.2117079123
 40
1.0
100
AcDbArc
 50
270.0
 51
360.0
  0
ARC
  5
597
100
AcDbEntity
  8
RUNDUNGEN
100
AcDbCircle
 62
7
  6
CONTINUOUS
 10
474.4596013727
 20
124.7117079123
 40
79.0
100
AcDbArc
 50
66.3270678587
 51
113.6729321413
  0
ARC
  5
598
100
AcDbEntity
  8
RUNDUNGEN
100
AcDbCircle
 62
7
  6
CONTINUOUS
 10
500.9596013727
 20
143.2654507908
 40
13.0
100
AcDbArc
 50
293.6729321413
 51
360.0
  0
ARC
  5
599
100
AcDbEntity
  8
RUNDUNGEN
100
AcDbCircle
 62
7
  6
CONTINUOUS
 10
544.9601194299
 20
150.7117079123
 40
3.5
100
AcDbArc
 50
270.0
 51
360.0
  0
ARC
  5
59A
100
AcDbEntity
  8
RUNDUNGEN
100
AcDbCircle
 62
7
  6
CONTINUOUS
 10
537.4596013727
 20
156.7117079123
 40
3.5
100
AcDbArc
 50
270.0
 51
360.0
  0
ARC
  5
59B
100
AcDbEntity
  8
RUNDUNGEN
100
AcDbCircle
 62
7
  6
CONTINUOUS
 10
519.4596013727
 20
150.7117079123
 40
3.5
100
AcDbArc
 50
224.0648935659
 51
270.0
  0
ARC
  5
59C
100
AcDbEntity
  8
RUNDUNGEN
100
AcDbCircle
 62
7
  6
CONTINUOUS
 10
525.3223354308
 20
149.2117079123
 40
2.0
100
AcDbArc
 50
222.5532169351
 51
270.0
  0
ARC
  5
59D
100
AcDbEntity
  8
RUNDUNGEN
100
AcDbCircle
 62
7
  6
CONTINUOUS
 10
533.8002058569
 20
151.7117079123
 40
1.0
100
AcDbArc
 50
270.0
 51
360.0
  0
ARC
  5
59E
100
AcDbEntity
  8
RUNDUNGEN
100
AcDbCircle
 62
7
  6
CONTINUOUS
 10
535.8002058569
 20
152.2117079123
 40
1.0
100
AcDbArc
 50
90.0
 51
180.0
  0
ARC
  5
59F
100
AcDbEntity
  8
0
100
AcDbCircle
 62
7
  6
CONTINUOUS
 10
474.4596013727
 20
164.2117079123
 40
36.5
100
AcDbArc
 50
201.8223696042
 51
338.1774581924
  0
ARC
  5
5A0
100
AcDbEntity
  8
0
100
AcDbCircle
 62
7
  6
CONTINUOUS
 10
474.4596013727
 20
164.2117079123
 40
36.5
100
AcDbArc
 50
21.8225414681
 51
158.1776387349
  0
ARC
  5
5A1
100
AcDbEntity
  8
BEZUGSACHSEN
100
AcDbCircle
 62
7
  6
CONTINUOUS
 10
474.4596013727
 20
164.2117079123
 40
23.0
100
AcDbArc
 50
35.9709044432
 51
144.0290955567
  0
ARC
  5
5A2
100
AcDbEntity
  8
BEZUGSACHSEN
100
AcDbCircle
 62
7
  6
CONTINUOUS
 10
474.4596013727
 20
164.2117079123
 40
23.0
100
AcDbArc
 50
215.9709044432
 51
324.0290955568
  0
ARC
  5
5A3
100
AcDbEntity
  8
RUNDUNGEN
100
AcDbCircle
 62
7
  6
CONTINUOUS
 10
474.4596013727
 20
203.7117079123
 40
79.0
100
AcDbArc
 50
246.3270678587
 51
293.6729321413
  0
ARC
  5
5A4
100
AcDbEntity
  8
RUNDUNGEN
100
AcDbCircle
 62
7
  6
CONTINUOUS
 10
500.9596013727
 20
185.1579650338
 40
13.0
100
AcDbArc
 50
0.0
 51
66.3270678587
  0
ARC
  5
5A5
100
AcDbEntity
  8
RUNDUNGEN
100
AcDbCircle
 62
7
  6
CONTINUOUS
 10
544.9601194299
 20
177.7117079123
 40
3.5
100
AcDbArc
 50
0.0
 51
90.0
  0
ARC
  5
5A6
100
AcDbEntity
  8
RUNDUNGEN
100
AcDbCircle
 62
7
  6
CONTINUOUS
 10
537.4596013727
 20
171.7117079123
 40
3.5
100
AcDbArc
 50
0.0
 51
90.0
  0
ARC
  5
5A7
100
AcDbEntity
  8
RUNDUNGEN
100
AcDbCircle
 62
7
  6
CONTINUOUS
 10
519.4596013727
 20
177.7117079123
 40
3.5
100
AcDbArc
 50
90.0
 51
135.9076617807
  0
ARC
  5
5A8
100
AcDbEntity
  8
RUNDUNGEN
100
AcDbCircle
 62
7
  6
CONTINUOUS
 10
525.3222853293
 20
179.2117079123
 40
1.9999784375
100
AcDbArc
 50
89.9985647679
 51
137.4447752802
  0
ARC
  5
5A9
100
AcDbEntity
  8
RUNDUNGEN
100
AcDbCircle
 62
7
  6
CONTINUOUS
 10
533.8002058569
 20
176.7117079123
 40
1.0
100
AcDbArc
 50
0.0
 51
90.0
  0
ARC
  5
5AA
100
AcDbEntity
  8
RUNDUNGEN
100
AcDbCircle
 62
7
  6
CONTINUOUS
 10
535.8002058569
 20
176.2117079123
 40
1.0
100
AcDbArc
 50
180.0
 51
270.0
  0
SPLINE
  5
5AB
100
AcDbEntity
  8
KONSTRUKTIONSELEMENTE
100
AcDbSpline
 62
7
  6
CONTINUOUS
 70
0
 71
3
 72
11
 73
7
 74
0
 42
0.0000001
 43
0.0000001
 44
0.0000000001
 40
0.0
 40
0.0
 40
0.0
 40
0.0
 40
0.2404052908
 40
0.4855030404
 40
0.7383571263
 40
1.0
 40
1.0
 40
1.0
 40
1.0
 10
454.541017087
 20
361.9636923517
 30
0.0
 10
453.9779009399
 20
361.9636923517
 30
0.0
 10
452.8385676191
 20
361.8655156451
 30
0.0
 10
451.1556544823
 20
361.4414282606
 30
0.0
 10
449.5000137492
 20
360.778594121
 30
0.0
 10
448.4322432657
 20
360.2158463336
 30
0.0
 10
447.90148899
 20
359.9094152096
 30
0.0
  0
SPLINE
  5
5AC
100
AcDbEntity
  8
KONSTRUKTIONSELEMENTE
100
AcDbSpline
 62
7
  6
CONTINUOUS
 70
0
 71
3
 72
11
 73
7
 74
0
 42
0.0000001
 43
0.0000001
 44
0.0000000001
 40
0.0
 40
0.0
 40
0.0
 40
0.0
 40
0.2616428802
 40
0.5144969823
 40
0.7595947272
 40
1.0
 40
1.0
 40
1.0
 40
1.0
 10
501.0177137555
 20
359.9094152096
 30
0.0
 10
500.4869594669
 20
360.215846341
 30
0.0
 10
499.4191889334
 20
360.7785941441
 30
0.0
 10
497.7635481615
 20
361.4414283027
 30
0.0
 10
496.0806350287
 20
361.8655156298
 30
0.0
 10
494.9413017653
 20
361.9636923517
 30
0.0
 10
494.3781856608
 20
361.9636923517
 30
0.0
  0
SPLINE
  5
5AD
100
AcDbEntity
  8
BEZUGSACHSEN
100
AcDbSpline
 62
7
  6
CONTINUOUS
 70
0
 71
3
 72
15
 73
11
 74
0
 42
0.0000001
 43
0.0000001
 44
0.0000000001
 40
0.0
 40
0.0
 40
0.0
 40
0.0
 40
0.1380464771
 40
0.2670742596
 40
0.3867762744
 40
0.5000000634
 40
0.6132238294
 40
0.7329257977
 40
0.8619535277
 40
1.0
 40
1.0
 40
1.0
 40
1.0
 10
501.0177137555
 20
342.2718047343
 30
0.0
 10
500.5155507328
 20
341.7696417116
 30
0.0
 10
499.5025135647
 20
340.8373953097
 30
0.0
 10
497.8733943285
 20
339.6820110511
 30
0.0
 10
496.1637673291
 20
338.9039125011
 30
0.0
 10
494.3781847896
 20
338.6213824992
 30
0.0
 10
492.5926026541
 20
338.9039131902
 30
0.0
 10
490.8829763045
 20
339.6820115514
 30
0.0
 10
489.2538575185
 20
340.8373955277
 30
0.0
 10
488.2408205692
 20
341.7696417292
 30
0.0
 10
487.7386575641
 20
342.2718047343
 30
0.0
  0
SPLINE
  5
5AE
100
AcDbEntity
  8
KONSTRUKTIONSELEMENTE
100
AcDbSpline
 62
7
  6
CONTINUOUS
 70
0
 71
3
 72
11
 73
7
 74
0
 42
0.0000001
 43
0.0000001
 44
0.0000000001
 40
0.0
 40
0.0
 40
0.0
 40
0.0
 40
0.2404052908
 40
0.4855030404
 40
0.7383571263
 40
1.0
 40
1.0
 40
1.0
 40
1.0
 10
494.3781856608
 20
361.9636923517
 30
0.0
 10
493.8150695138
 20
361.9636923517
 30
0.0
 10
492.675736193
 20
361.8655156451
 30
0.0
 10
490.9928230562
 20
361.4414282606
 30
0.0
 10
489.3371823232
 20
360.7785941209
 30
0.0
 10
488.2694118397
 20
360.2158463335
 30
0.0
 10
487.7386575641
 20
359.9094152096
 30
0.0
  0
SPLINE
  5
5AF
100
AcDbEntity
  8
KONSTRUKTIONSELEMENTE
100
AcDbSpline
 62
7
  6
CONTINUOUS
 70
0
 71
3
 72
10
 73
6
 74
0
 42
0.0000001
 43
0.0000001
 44
0.0000000001
 40
0.0
 40
0.0
 40
0.0
 40
0.0
 40
0.4999007835
 40
0.7499513908
 40
1.0
 40
1.0
 40
1.0
 40
1.0
 10
487.7386575641
 20
359.9094152096
 30
0.0
 10
485.5811081751
 20
360.5322460699
 30
0.0
 10
482.2918626251
 20
361.310869058
 30
0.0
 10
477.8305972548
 20
361.8678316169
 30
0.0
 10
475.5828668855
 20
361.9636923517
 30
0.0
 10
474.4596013727
 20
361.9636923518
 30
0.0
  0
SPLINE
  5
5B0
100
AcDbEntity
  8
BEZUGSACHSEN
100
AcDbSpline
 62
7
  6
CONTINUOUS
 70
0
 71
3
 72
15
 73
11
 74
0
 42
0.0000001
 43
0.0000001
 44
0.0000000001
 40
0.0
 40
0.0
 40
0.0
 40
0.0
 40
0.1250196637
 40
0.2500285919
 40
0.3750218188
 40
0.5000000697
 40
0.6249782901
 40
0.7499714641
 40
0.8749803406
 40
1.0
 40
1.0
 40
1.0
 40
1.0
 10
487.7386575641
 20
342.2718047343
 30
0.0
 10
486.7049323814
 20
341.754942143
 30
0.0
 10
484.6003152394
 20
340.7926497105
 30
0.0
 10
481.3225445907
 20
339.6445944955
 30
0.0
 10
477.9287971443
 20
338.8905676154
 30
0.0
 10
474.459599718
 20
338.6254164482
 30
0.0
 10
470.9904028598
 20
338.8905682927
 30
0.0
 10
467.5966566832
 20
339.6445950265
 30
0.0
 10
464.3188869983
 20
340.7926499428
 30
0.0
 10
462.2142703286
 20
341.7549421607
 30
0.0
 10
461.1805451814
 20
342.2718047343
 30
0.0
  0
SPLINE
  5
5B1
100
AcDbEntity
  8
KONSTRUKTIONSELEMENTE
100
AcDbSpline
 62
7
  6
CONTINUOUS
 70
0
 71
3
 72
10
 73
6
 74
0
 42
0.0000001
 43
0.0000001
 44
0.0000000001
 40
0.0
 40
0.0
 40
0.0
 40
0.0
 40
0.2500490075
 40
0.5000997294
 40
1.0
 40
1.0
 40
1.0
 40
1.0
 10
474.4596013727
 20
361.9636923518
 30
0.0
 10
473.3363340678
 20
361.9636923518
 30
0.0
 10
471.0886013563
 20
361.8678318558
 30
0.0
 10
466.62733612
 20
361.3108679608
 30
0.0
 10
463.3380923627
 20
360.5322454326
 30
0.0
 10
461.1805451814
 20
359.9094152096
 30
0.0
  0
SPLINE
  5
5B2
100
AcDbEntity
  8
KONSTRUKTIONSELEMENTE
100
AcDbSpline
 62
7
  6
CONTINUOUS
 70
0
 71
3
 72
11
 73
7
 74
0
 42
0.0000001
 43
0.0000001
 44
0.0000000001
 40
0.0
 40
0.0
 40
0.0
 40
0.0
 40
0.2616428802
 40
0.5144969823
 40
0.7595947272
 40
1.0
 40
1.0
 40
1.0
 40
1.0
 10
461.1805451814
 20
359.9094152096
 30
0.0
 10
460.6497908929
 20
360.215846341
 30
0.0
 10
459.5820203594
 20
360.7785941441
 30
0.0
 10
457.9263795875
 20
361.4414283027
 30
0.0
 10
456.2434664548
 20
361.8655156298
 30
0.0
 10
455.1041331915
 20
361.9636923516
 30
0.0
 10
454.541017087
 20
361.9636923517
 30
0.0
  0
SPLINE
  5
5B3
100
AcDbEntity
  8
BEZUGSACHSEN
100
AcDbSpline
 62
7
  6
CONTINUOUS
 70
0
 71
3
 72
15
 73
11
 74
0
 42
0.0000001
 43
0.0000001
 44
0.0000000001
 40
0.0
 40
0.0
 40
0.0
 40
0.0
 40
0.1380464771
 40
0.2670742596
 40
0.3867762744
 40
0.5000000634
 40
0.6132238294
 40
0.7329257977
 40
0.8619535277
 40
1.0
 40
1.0
 40
1.0
 40
1.0
 10
461.1805451814
 20
342.2718047343
 30
0.0
 10
460.6783821587
 20
341.7696417116
 30
0.0
 10
459.6653449906
 20
340.8373953097
 30
0.0
 10
458.0362257544
 20
339.6820110511
 30
0.0
 10
456.3265987551
 20
338.9039125011
 30
0.0
 10
454.5410162156
 20
338.6213824992
 30
0.0
 10
452.75543408
 20
338.9039131902
 30
0.0
 10
451.0458077304
 20
339.6820115514
 30
0.0
 10
449.4166889444
 20
340.8373955277
 30
0.0
 10
448.4036519952
 20
341.7696417292
 30
0.0
 10
447.90148899
 20
342.2718047343
 30
0.0
  0
SPLINE
  5
5B4
100
AcDbEntity
  8
0
100
AcDbSpline
 62
7
  6
CONTINUOUS
 70
0
 71
3
 72
8
 73
4
 74
0
 42
0.0000001
 43
0.0000001
 44
0.0000000001
 40
0.0
 40
0.0
 40
0.0
 40
0.0
 40
1.0
 40
1.0
 40
1.0
 40
1.0
 10
500.2527686889
 20
618.4644720835
 30
0.0
 10
499.9634067416
 20
618.6267063802
 30
0.0
 10
499.6210019402
 20
618.7136923516
 30
0.0
 10
499.2892636343
 20
618.7136923516
 30
0.0
  0
SPLINE
  5
5B5
100
AcDbEntity
  8
0
100
AcDbSpline
 62
7
  6
CONTINUOUS
 70
0
 71
3
 72
8
 73
4
 74
0
 42
0.0000001
 43
0.0000001
 44
0.0000000001
 40
0.0
 40
0.0
 40
0.0
 40
0.0
 40
1.0
 40
1.0
 40
1.0
 40
1.0
 10
449.6299391111
 20
618.7136923516
 30
0.0
 10
449.2982919885
 20
618.7136923516
 30
0.0
 10
448.955988032
 20
618.6267557862
 30
0.0
 10
448.6666808843
 20
618.4646102088
 30
0.0
  0
SPLINE
  5
5B6
100
AcDbEntity
  8
BEZUGSACHSEN
100
AcDbSpline
 62
7
  6
CONTINUOUS
 70
0
 71
3
 72
11
 73
7
 74
0
 42
0.0000001
 43
0.0000001
 44
0.0000000001
 40
0.0
 40
0.0
 40
0.0
 40
0.0
 40
0.2616428782
 40
0.5144969794
 40
0.7595947265
 40
1.0
 40
1.0
 40
1.0
 40
1.0
 10
447.90148899
 20
643.6094152096
 30
0.0
 10
448.4322432746
 20
643.9158463387
 30
0.0
 10
449.500013801
 20
644.4785941417
 30
0.0
 10
451.1556545734
 20
645.1414282944
 30
0.0
 10
452.8385677088
 20
645.5655156303
 30
0.0
 10
453.9779009792
 20
645.6636923516
 30
0.0
 10
454.5410170855
 20
645.6636923516
 30
0.0
  0
SPLINE
  5
5B7
100
AcDbEntity
  8
BEZUGSACHSEN
100
AcDbSpline
 62
7
  6
CONTINUOUS
 70
0
 71
3
 72
11
 73
7
 74
0
 42
0.0000001
 43
0.0000001
 44
0.0000000001
 40
0.0
 40
0.0
 40
0.0
 40
0.0
 40
0.2404052896
 40
0.4855030392
 40
0.7383571262
 40
1.0
 40
1.0
 40
1.0
 40
1.0
 10
454.5410170855
 20
645.6636923516
 30
0.0
 10
455.1041332297
 20
645.6636923516
 30
0.0
 10
456.2434665475
 20
645.5655156444
 30
0.0
 10
457.926379684
 20
645.1414282616
 30
0.0
 10
459.58202042
 20
644.4785941223
 30
0.0
 10
460.6497909056
 20
643.9158463336
 30
0.0
 10
461.1805451814
 20
643.6094152096
 30
0.0
  0
SPLINE
  5
5B8
100
AcDbEntity
  8
BEZUGSACHSEN
100
AcDbSpline
 62
7
  6
CONTINUOUS
 70
0
 71
3
 72
10
 73
6
 74
0
 42
0.0000001
 43
0.0000001
 44
0.0000000001
 40
0.0
 40
0.0
 40
0.0
 40
0.0
 40
0.4999007783
 40
0.7499513871
 40
1.0
 40
1.0
 40
1.0
 40
1.0
 10
461.1805451814
 20
643.6094152096
 30
0.0
 10
463.3380945479
 20
644.2322460634
 30
0.0
 10
466.6273400816
 20
645.0108690444
 30
0.0
 10
471.0886054501
 20
645.5678316199
 30
0.0
 10
473.3363358433
 20
645.6636923515
 30
0.0
 10
474.4596013727
 20
645.6636923516
 30
0.0
  0
SPLINE
  5
5B9
100
AcDbEntity
  8
BEZUGSACHSEN
100
AcDbSpline
 62
7
  6
CONTINUOUS
 70
0
 71
3
 72
10
 73
6
 74
0
 42
0.0000001
 43
0.0000001
 44
0.0000000001
 40
0.0
 40
0.0
 40
0.0
 40
0.0
 40
0.250049011
 40
0.5000997341
 40
1.0
 40
1.0
 40
1.0
 40
1.0
 10
474.4596013727
 20
645.6636923516
 30
0.0
 10
475.5828686936
 20
645.6636923515
 30
0.0
 10
477.8306014266
 20
645.5678318585
 30
0.0
 10
482.2918666615
 20
645.0108679497
 30
0.0
 10
485.5811104031
 20
644.2322454267
 30
0.0
 10
487.7386575641
 20
643.6094152096
 30
0.0
  0
SPLINE
  5
5BA
100
AcDbEntity
  8
BEZUGSACHSEN
100
AcDbSpline
 62
7
  6
CONTINUOUS
 70
0
 71
3
 72
11
 73
7
 74
0
 42
0.0000001
 43
0.0000001
 44
0.0000000001
 40
0.0
 40
0.0
 40
0.0
 40
0.0
 40
0.2616428782
 40
0.5144969794
 40
0.7595947265
 40
1.0
 40
1.0
 40
1.0
 40
1.0
 10
487.7386575641
 20
643.6094152096
 30
0.0
 10
488.2694118487
 20
643.9158463387
 30
0.0
 10
489.3371823751
 20
644.4785941417
 30
0.0
 10
490.9928231475
 20
645.1414282944
 30
0.0
 10
492.6757362829
 20
645.5655156303
 30
0.0
 10
493.8150695533
 20
645.6636923516
 30
0.0
 10
494.3781856595
 20
645.6636923516
 30
0.0
  0
SPLINE
  5
5BB
100
AcDbEntity
  8
BEZUGSACHSEN
100
AcDbSpline
 62
7
  6
CONTINUOUS
 70
0
 71
3
 72
11
 73
7
 74
0
 42
0.0000001
 43
0.0000001
 44
0.0000000001
 40
0.0
 40
0.0
 40
0.0
 40
0.0
 40
0.2404052896
 40
0.4855030392
 40
0.7383571262
 40
1.0
 40
1.0
 40
1.0
 40
1.0
 10
494.3781856595
 20
645.6636923516
 30
0.0
 10
494.9413018038
 20
645.6636923516
 30
0.0
 10
496.0806351215
 20
645.5655156444
 30
0.0
 10
497.7635482581
 20
645.1414282616
 30
0.0
 10
499.4191889941
 20
644.4785941223
 30
0.0
 10
500.4869594797
 20
643.9158463336
 30
0.0
 10
501.0177137555
 20
643.6094152096
 30
0.0
  0
SPLINE
  5
5BC
100
AcDbEntity
  8
KONSTRUKTIONSELEMENTE
100
AcDbSpline
 62
7
  6
CONTINUOUS
 70
0
 71
3
 72
9
 73
5
 74
0
 42
0.0000001
 43
0.0000001
 44
0.0000000001
 40
0.0
 40
0.0
 40
0.0
 40
0.0
 40
0.2491161712
 40
1.0
 40
1.0
 40
1.0
 40
1.0
 10
683.4220627461
 20
361.7595556795
 30
0.0
 10
682.7444573294
 20
361.6812515216
 30
0.0
 10
680.0343642817
 20
361.2795280996
 30
0.0
 10
677.3784366384
 20
360.5595873004
 30
0.0
 10
675.4279203662
 20
359.9094152096
 30
0.0
  0
SPLINE
  5
5BD
100
AcDbEntity
  8
KONSTRUKTIONSELEMENTE
100
AcDbSpline
 62
7
  6
CONTINUOUS
 70
0
 71
3
 72
9
 73
5
 74
0
 42
0.0000001
 43
0.0000001
 44
0.0000000001
 40
0.0
 40
0.0
 40
0.0
 40
0.0
 40
0.2512834343
 40
1.0
 40
1.0
 40
1.0
 40
1.0
 10
721.4279203662
 20
359.9094152096
 30
0.0
 10
720.7752921176
 20
360.1269579591
 30
0.0
 10
718.1626932811
 20
360.9430833981
 30
0.0
 10
715.4699630598
 20
361.5242541052
 30
0.0
 10
713.4337764451
 20
361.7595558651
 30
0.0
  0
SPLINE
  5
5BE
100
AcDbEntity
  8
BEZUGSACHSEN
100
AcDbSpline
 62
7
  6
CONTINUOUS
 70
0
 71
3
 72
15
 73
11
 74
0
 42
0.0000001
 43
0.0000001
 44
0.0000000001
 40
0.0
 40
0.0
 40
0.0
 40
0.0
 40
0.1268025562
 40
0.2523168182
 40
0.3765731315
 40
0.5000000689
 40
0.6234269767
 40
0.747683238
 40
0.8731974482
 40
1.0
 40
1.0
 40
1.0
 40
1.0
 10
721.4279203662
 20
342.2718047343
 30
0.0
 10
720.536880975
 20
341.757362902
 30
0.0
 10
718.7242126213
 20
340.79936317
 30
0.0
 10
715.8860918496
 20
339.6494561987
 30
0.0
 10
712.9425212076
 20
338.8920530582
 30
0.0
 10
709.9279189249
 20
338.6249668804
 30
0.0
 10
706.9133171564
 20
338.8920537371
 30
0.0
 10
703.9697476193
 20
339.649456726
 30
0.0
 10
701.1316276759
 20
340.7993634001
 30
0.0
 10
699.3189597266
 20
341.7573629197
 30
0.0
 10
698.4279203662
 20
342.2718047343
 30
0.0
  0
SPLINE
  5
5BF
100
AcDbEntity
  8
KONSTRUKTIONSELEMENTE
100
AcDbSpline
 62
7
  6
CONTINUOUS
 70
0
 71
3
 72
10
 73
6
 74
0
 42
0.0000001
 43
0.0000001
 44
0.0000000001
 40
0.0
 40
0.0
 40
0.0
 40
0.0
 40
0.248923845
 40
0.4983967579
 40
1.0
 40
1.0
 40
1.0
 40
1.0
 10
709.9279203684
 20
361.9636923517
 30
0.0
 10
708.9548591256
 20
361.9636923517
 30
0.0
 10
707.0052281499
 20
361.8675732639
 30
0.0
 10
703.1319792086
 20
361.3086139976
 30
0.0
 10
700.288101622
 20
360.5294756283
 30
0.0
 10
698.4279203662
 20
359.9094152096
 30
0.0
  0
SPLINE
  5
5C0
100
AcDbEntity
  8
KONSTRUKTIONSELEMENTE
100
AcDbSpline
 62
7
  6
CONTINUOUS
 70
0
 71
3
 72
10
 73
6
 74
0
 42
0.0000001
 43
0.0000001
 44
0.0000000001
 40
0.0
 40
0.0
 40
0.0
 40
0.0
 40
0.5016032649
 40
0.7510761738
 40
1.0
 40
1.0
 40
1.0
 40
1.0
 10
698.4279203662
 20
359.9094152096
 30
0.0
 10
696.567739027
 20
360.529475656
 30
0.0
 10
693.7238613688
 20
361.30861405
 30
0.0
 10
689.8506124212
 20
361.8675732485
 30
0.0
 10
687.9009815375
 20
361.9636923516
 30
0.0
 10
686.9279203684
 20
361.9636923517
 30
0.0
  0
SPLINE
  5
5C1
100
AcDbEntity
  8
BEZUGSACHSEN
100
AcDbSpline
 62
7
  6
CONTINUOUS
 70
0
 71
3
 72
15
 73
11
 74
0
 42
0.0000001
 43
0.0000001
 44
0.0000000001
 40
0.0
 40
0.0
 40
0.0
 40
0.0
 40
0.1268025562
 40
0.2523168182
 40
0.3765731315
 40
0.5000000689
 40
0.6234269767
 40
0.747683238
 40
0.8731974482
 40
1.0
 40
1.0
 40
1.0
 40
1.0
 10
698.4279203662
 20
342.2718047343
 30
0.0
 10
697.536880975
 20
341.757362902
 30
0.0
 10
695.7242126213
 20
340.79936317
 30
0.0
 10
692.8860918496
 20
339.6494561987
 30
0.0
 10
689.9425212076
 20
338.8920530582
 30
0.0
 10
686.9279189249
 20
338.6249668804
 30
0.0
 10
683.9133171564
 20
338.8920537371
 30
0.0
 10
680.9697476193
 20
339.649456726
 30
0.0
 10
678.1316276759
 20
340.7993634001
 30
0.0
 10
676.3189597266
 20
341.7573629197
 30
0.0
 10
675.4279203662
 20
342.2718047343
 30
0.0
  0
LINE
  5
5C2
100
AcDbEntity
  8
BEZUGSACHSEN
100
AcDbLine
 62
7
  6
CONTINUOUS
 10
713.2661441073
 20
645.4784783922
 11
713.2904306146
 21
645.4757926052
  0
LINE
  5
5C3
100
AcDbEntity
  8
BEZUGSACHSEN
100
AcDbLine
 62
7
  6
CONTINUOUS
 10
713.2904306146
 20
645.4757926052
 11
713.3120435215
 21
645.4733865965
  0
SPLINE
  5
5C4
100
AcDbEntity
  8
BEZUGSACHSEN
100
AcDbSpline
 62
7
  6
CONTINUOUS
 70
0
 71
3
 72
9
 73
5
 74
0
 42
0.0000001
 43
0.0000001
 44
0.0000000001
 40
0.0
 40
0.0
 40
0.0
 40
0.0
 40
0.2491117641
 40
1.0
 40
1.0
 40
1.0
 40
1.0
 10
713.3120435215
 20
645.4733865965
 30
0.0
 10
714.0000185428
 20
645.3965612509
 30
0.0
 10
716.7518055574
 20
644.9977414696
 30
0.0
 10
719.4483722927
 20
644.2692645675
 30
0.0
 10
721.4279203662
 20
643.6094152096
 30
0.0
  0
SPLINE
  5
5C5
100
AcDbEntity
  8
BEZUGSACHSEN
100
AcDbSpline
 62
7
  6
CONTINUOUS
 70
0
 71
3
 72
9
 73
5
 74
0
 42
0.0000001
 43
0.0000001
 44
0.0000000001
 40
0.0
 40
0.0
 40
0.0
 40
0.0
 40
0.2513038747
 40
1.0
 40
1.0
 40
1.0
 40
1.0
 10
675.4279203662
 20
643.6094152096
 30
0.0
 10
676.089812402
 20
643.8300458883
 30
0.0
 10
678.7394682988
 20
644.6569945347
 30
0.0
 10
681.4718717814
 20
645.2416063635
 30
0.0
 10
683.5375930312
 20
645.4726931679
 30
0.0
  0
LINE
  5
5C6
100
AcDbEntity
  8
BEZUGSACHSEN
100
AcDbLine
 62
7
  6
CONTINUOUS
 10
683.5375930312
 20
645.4726931679
 11
683.5896988757
 21
645.4784786389
  0
ELLIPSE
  5
5C7
100
AcDbEntity
  8
0
100
AcDbEllipse
 62
7
  6
CONTINUOUS
 10
428.2868032224
 20
179.2957903512
 30
0.0
 11
2.1357
 21
0.0
 31
0.0
 40
0.1111111111
 41
5.0789081233
 42
8.2205007769
  0
ELLIPSE
  5
5C8
100
AcDbEntity
  8
0
100
AcDbEllipse
 62
7
  6
CONTINUOUS
 10
423.0482526995
 20
179.5214219548
 30
0.0
 11
5.2578895471
 21
0.113689171
 31
0.0
 40
0.0810972458
 41
3.1398392359
 42
3.3950863259
  0
ELLIPSE
  5
5C9
100
AcDbEntity
  8
0
100
AcDbEllipse
 62
7
  6
CONTINUOUS
 10
423.7821107074
 20
192.7117079123
 30
0.0
 11
0.0
 21
15.0
 31
0.0
 40
0.383864035
 41
-3.2522498748
 42
-3.14960976
  0
ELLIPSE
  5
5CA
100
AcDbEntity
  8
0
100
AcDbEllipse
 62
7
  6
CONTINUOUS
 10
423.4226732302
 20
192.7117079123
 30
0.0
 11
39.0763359704
 21
0.0
 31
0.0
 40
0.383864035
 41
-1.5583265449
 42
-1.5468428804
  0
ELLIPSE
  5
5CB
100
AcDbEntity
  8
0
100
AcDbEllipse
 62
7
  6
CONTINUOUS
 10
423.4226732302
 20
192.7117079123
 30
0.0
 11
39.0763359704
 21
0.0
 31
0.0
 40
0.383864035
 41
4.7367193729
 42
4.7651134879
  0
ELLIPSE
  5
5CC
100
AcDbEntity
  8
0
100
AcDbEllipse
 62
7
  6
CONTINUOUS
 10
513.3454524003
 20
135.7117079123
 30
0.0
 11
0.0
 21
15.0
 31
0.0
 40
0.1444326796
 41
-0.0
 42
0.0762984616
  0
ELLIPSE
  5
5CD
100
AcDbEntity
  8
0
100
AcDbEllipse
 62
7
  6
CONTINUOUS
 10
424.618477153
 20
135.7117079123
 30
0.0
 11
-0.0
 21
15.0
 31
0.0
 40
0.4040262258
 41
0.0232748284
 42
0.1106572212
  0
ELLIPSE
  5
5CE
100
AcDbEntity
  8
0
100
AcDbEllipse
 62
7
  6
CONTINUOUS
 10
428.2868032224
 20
179.2957903512
 30
0.0
 11
4.3533
 21
0.0
 31
0.0
 40
0.1111111111
 41
-1.2042771839
 42
1.9373154697
  0
ELLIPSE
  5
5CF
100
AcDbEntity
  8
0
100
AcDbEllipse
 62
7
  6
CONTINUOUS
 10
424.6027243477
 20
180.4500614577
 30
0.0
 11
2.2176
 21
0.0
 31
0.0
 40
0.1111111111
 41
0.3665191429
 42
1.9373154697
  0
ELLIPSE
  5
5D0
100
AcDbEntity
  8
0
100
AcDbEllipse
 62
7
  6
CONTINUOUS
 10
422.0266025188
 20
180.3401858444
 30
0.0
 11
2.2176
 21
-0.0
 31
0.0
 40
0.1111111111
 41
1.9373154697
 42
3.5081117965
  0
ELLIPSE
  5
5D1
100
AcDbEntity
  8
0
100
AcDbEllipse
 62
7
  6
CONTINUOUS
 10
423.0482526995
 20
180.4722373943
 30
0.0
 11
5.2578895471
 21
0.113689171
 31
0.0
 40
0.0810972458
 41
6.5366789795
 42
9.6782716331
  0
ENDSEC
  0
SECTION
  2
OBJECTS
  0
DICTIONARY
  5
C
100
AcDbDictionary
280
0
281
1
  3
ACAD_GROUP
350
D
  3
ACAD_MLINESTYLE
350
17
  3
ACAD_LAYOUT
350
1A
  3
ACAD_PLOTSETTINGS
350
19
  3
ACAD_PLOTSTYLENAME
350
E
  0
DICTIONARY
  5
D
102
{ACAD_REACTORS
330
C
102
}
100
AcDbDictionary
280
0
281
1
  0
ACDBDICTIONARYWDFLT
  5
E
102
{ACAD_REACTORS
330
C
102
}
100
AcDbDictionary
281
1
  3
Normal
350
F
100
AcDbDictionaryWithDefault
340
F
  0
DICTIONARY
  5
17
102
{ACAD_REACTORS
330
C
102
}
100
AcDbDictionary
280
0
281
1
  3
Standard
350
18
  0
DICTIONARY
  5
19
102
{ACAD_REACTORS
330
C
102
}
100
AcDbDictionary
281
1
  0
DICTIONARY
  5
1A
102
{ACAD_REACTORS
330
C
102
}
100
AcDbDictionary
281
1
  3
Model
350
5D2
  3
Layout1
350
5D3
  0
ACDBPLACEHOLDER
  5
F
102
{ACAD_REACTORS
330
E
102
}
  0
MLINESTYLE
  5
18
102
{ACAD_REACTORS
330
17
102
}
100
AcDbMlineStyle
  2
STANDARD
 70
0
  3

 62
256
 51
90.0
 52
90.0
 71
2
 49
0.5
 62
256
  6
BYLAYER
 49
-0.5
 62
256
  6
BYLAYER
  0
LAYOUT
  5
5D2
102
{ACAD_REACTORS
330
1A
102
}
100
AcDbPlotSettings
  1

  2
none_device
  4
ISO_A0_(1189.00_x_841.00_MM)
  6

 40
0.0
 41
0.0
 42
0.0
 43
0.0
 44
1189.0
 45
841.0
 46
0.0
 47
0.0
 48
0.0
 49
0.0
140
0.0
141
0.0
142
1.0
143
1.0
 70
1024
 72
1
 73
0
 74
0
  7

 75
0
147
1.0
148
0.0
149
0.0
100
AcDbLayout
  1
Model
 70
0
 71
0
 10
0.0
 20
0.0
 11
1189.0
 21
841.0
 12
0.0
 22
0.0
 32
0.0
 14
0.0
 24
0.0
 34
0.0
 15
0.0
 25
0.0
 35
0.0
146
0.0
 13
0.0
 23
0.0
 33
0.0
 16
1.0
 26
0.0
 36
0.0
 17
0.0
 27
1.0
 37
0.0
 76
0
330
20F
345
0
346
0
  0
LAYOUT
  5
5D3
102
{ACAD_REACTORS
330
1A
102
}
100
AcDbPlotSettings
  1

  2
none_device
  4
ISO_A0_(1189.00_x_841.00_MM)
  6

 40
0.0
 41
0.0
 42
0.0
 43
0.0
 44
1189.0
 45
841.0
 46
0.0
 47
0.0
 48
0.0
 49
0.0
140
0.0
141
0.0
142
1.0
143
1.0
 70
0
 72
1
 73
0
 74
0
  7

 75
0
147
1.0
148
0.0
149
0.0
100
AcDbLayout
  1
Layout1
 70
0
 71
1
 10
0.0
 20
0.0
 11
1189.0
 21
841.0
 12
0.0
 22
0.0
 32
0.0
 14
0.0
 24
0.0
 34
0.0
 15
0.0
 25
0.0
 35
0.0
146
0.0
 13
0.0
 23
0.0
 33
0.0
 16
1.0
 26
0.0
 36
0.0
 17
0.0
 27
1.0
 37
0.0
 76
0
330
210
345
0
346
0
  0
ENDSEC
  0
EOF
