999
DXF file: 001-m35801-p-2.dxf
999
Pro/ENGINEER 2011490 by Parametric Technology Corporation
  0
SECTION
  2
HEADER
  9
$ACADVER
  1
AC1015
  9
$DWGCODEPAGE
  3
ANSI_1252
  9
$EXTMAX
 10
841.0
 20
594.0
 30
0.0
  9
$EXTMIN
 10
0.0
 20
0.0
 30
0.0
  9
$LIMMIN
 10
0.0
 20
0.0
  9
$LIMMAX
 10
841.0
 20
594.0
  9
$VIEWCTR
 10
420.5
 20
297.0
  9
$VIEWSIZE
 40
594.0
  9
$CLAYER
  8
0
  9
$LTSCALE
 40
46.255
  9
$CELTYPE
  6
BYLAYER
  9
$DIMSCALE
 40
1.0
  9
$DIMASZ
 40
3.5
  9
$DIMEXO
 40
5.25625
  9
$DIMDLI
 40
31.958
  9
$DIMEXE
 40
15.138
  9
$DIMCEN
 40
7.569
  9
$DIMLFAC
 40
1.0
  9
$DIMBLK
  1
_FILLED
  9
$DIMTXT
 40
3.5
  9
$DIMTOL
 70
1
  9
$DIMLIM
 70
0
  9
$DIMTFAC
 40
1.0
  9
$DIMTP
 40
0.005
  9
$DIMTM
 40
0.005
  9
$PDMODE
 70
3
  9
$PDSIZE
 40
0.3125
  9
$HANDSEED
  5
611
  9
$TILEMODE
 70
1
  9
$MEASUREMENT
 70
1
  9
$INSUNITS
 70
4
  0
ENDSEC
  0
SECTION
  2
CLASSES
  0
CLASS
  1
ACDBDICTIONARYWDFLT
  2
AcDbDictionaryWithDefault
  3
AutoCAD 2000
 90
0
280
0
281
0
  0
CLASS
  1
ACDBPLACEHOLDER
  2
AcDbPlaceHolder
  3
AutoCAD 2000
 90
0
280
0
281
0
  0
CLASS
  1
LAYOUT
  2
AcDbLayout
  3
AutoCAD 2000
 90
0
280
0
281
0
  0
ENDSEC
  0
SECTION
  2
TABLES
  0
TABLE
  2
VPORT
  5
8
100
AcDbSymbolTable
 70
2
  0
VPORT
  5
1F4
100
AcDbSymbolTableRecord
100
AcDbViewportTableRecord
  2
*ACTIVE
 70
0
 10
0.0
 20
0.0
 11
1.0
 21
1.0
 12
420.5
 22
297.0
 13
0.0
 23
0.0
 14
1.0
 24
1.0
 15
0.0
 25
0.0
 16
0.0
 26
0.0
 36
1.0
 17
0.0
 27
0.0
 37
0.0
 40
594.0
 41
1.4158249158
 42
50.0
 43
0.0
 44
0.0
 50
0.0
 51
0.0
 71
0
 72
100
 73
1
 74
1
 75
0
 76
0
 77
0
 78
0
  0
ENDTAB
  0
TABLE
  2
LTYPE
  5
5
100
AcDbSymbolTable
 70
6
  0
LTYPE
  5
14
100
AcDbSymbolTableRecord
100
AcDbLinetypeTableRecord
  2
BYBLOCK
 70
0
  3

 72
65
 73
0
 40
0.0
  0
LTYPE
  5
15
100
AcDbSymbolTableRecord
100
AcDbLinetypeTableRecord
  2
BYLAYER
 70
0
  3

 72
65
 73
0
 40
0.0
  0
LTYPE
  5
16
100
AcDbSymbolTableRecord
100
AcDbLinetypeTableRecord
  2
CONTINUOUS
 70
64
  3
Solid line
 72
65
 73
0
 40
0.0
  0
LTYPE
  5
1F5
100
AcDbSymbolTableRecord
100
AcDbLinetypeTableRecord
  2
CENTER
 70
64
  3
____ _ ____ _ ____ _ ____ _ ____ _ ____ _ ____
 72
65
 73
4
 40
0.6
 49
0.375
 74
0
 49
-0.075
 74
0
 49
0.075
 74
0
 49
-0.075
 74
0
  0
LTYPE
  5
1F6
100
AcDbSymbolTableRecord
100
AcDbLinetypeTableRecord
  2
HIDDEN
 70
64
  3
- - - - - - - - - - - - - - - - - - - -
 72
65
 73
2
 40
0.2
 49
0.1
 74
0
 49
-0.1
 74
0
  0
LTYPE
  5
1F7
100
AcDbSymbolTableRecord
100
AcDbLinetypeTableRecord
  2
PHANTOM
 70
64
  3
_____ _ _ _____ _ _ _____ _ _ _____
 72
65
 73
6
 40
0.8
 49
0.45
 74
0
 49
-0.05
 74
0
 49
0.1
 74
0
 49
-0.05
 74
0
 49
0.1
 74
0
 49
-0.05
 74
0
  0
LTYPE
  5
1F8
100
AcDbSymbolTableRecord
100
AcDbLinetypeTableRecord
  2
DOT
 70
64
  3
. . . . . . . . . . . . . . . . . . . .
 72
65
 73
2
 40
0.2
 49
0.1
 74
0
 49
-0.1
 74
0
  0
LTYPE
  5
1F9
100
AcDbSymbolTableRecord
100
AcDbLinetypeTableRecord
  2
DASHED
 70
64
  3
- - - - - - - - - - - - - - - - - - - -
 72
65
 73
2
 40
0.2
 49
0.1
 74
0
 49
-0.1
 74
0
  0
ENDTAB
  0
TABLE
  2
LAYER
  5
2
100
AcDbSymbolTable
 70
36
  0
LAYER
  5
10
100
AcDbSymbolTableRecord
100
AcDbLayerTableRecord
  2
0
 70
0
 62
7
  6
CONTINUOUS
370
-3
390
F
  0
LAYER
  5
1FA
100
AcDbSymbolTableRecord
100
AcDbLayerTableRecord
  2
DEFAULT_1
 70
0
 62
7
  6
CENTER
370
-3
390
F
  0
LAYER
  5
1FB
100
AcDbSymbolTableRecord
100
AcDbLayerTableRecord
  2
DEFAULT_2
 70
0
 62
8
  6
HIDDEN
370
-3
390
F
  0
LAYER
  5
1FC
100
AcDbSymbolTableRecord
100
AcDbLayerTableRecord
  2
DEFAULT_3
 70
0
 62
7
  6
PHANTOM
370
-3
390
F
  0
LAYER
  5
1FD
100
AcDbSymbolTableRecord
100
AcDbLayerTableRecord
  2
AUSFORMSCHRAEGEN
 70
0
 62
7
  6
CONTINUOUS
370
-3
390
F
  0
LAYER
  5
1FE
100
AcDbSymbolTableRecord
100
AcDbLayerTableRecord
  2
BEZUGSACHSEN
 70
0
 62
7
  6
CONTINUOUS
370
-3
390
F
  0
LAYER
  5
1FF
100
AcDbSymbolTableRecord
100
AcDbLayerTableRecord
  2
BEZUGSEBENEN
 70
0
 62
7
  6
CONTINUOUS
370
-3
390
F
  0
LAYER
  5
200
100
AcDbSymbolTableRecord
100
AcDbLayerTableRecord
  2
BG_STARTBEZUEGE
 70
0
 62
7
  6
CONTINUOUS
370
-3
390
F
  0
LAYER
  5
201
100
AcDbSymbolTableRecord
100
AcDbLayerTableRecord
  2
FASEN
 70
0
 62
7
  6
CONTINUOUS
370
-3
390
F
  0
LAYER
  5
202
100
AcDbSymbolTableRecord
100
AcDbLayerTableRecord
  2
GEWINDE
 70
0
 62
7
  6
CONTINUOUS
370
-3
390
F
  0
LAYER
  5
203
100
AcDbSymbolTableRecord
100
AcDbLayerTableRecord
  2
HILFEN
 70
0
 62
7
  6
CONTINUOUS
370
-3
390
F
  0
LAYER
  5
204
100
AcDbSymbolTableRecord
100
AcDbLayerTableRecord
  2
KONSTRUKTIONSELEMENTE
 70
0
 62
7
  6
CONTINUOUS
370
-3
390
F
  0
LAYER
  5
205
100
AcDbSymbolTableRecord
100
AcDbLayerTableRecord
  2
KURVEN
 70
0
 62
7
  6
CONTINUOUS
370
-3
390
F
  0
LAYER
  5
206
100
AcDbSymbolTableRecord
100
AcDbLayerTableRecord
  2
NORM
 70
0
 62
7
  6
CONTINUOUS
370
-3
390
F
  0
LAYER
  5
207
100
AcDbSymbolTableRecord
100
AcDbLayerTableRecord
  2
PLATZIERUNG
 70
0
 62
7
  6
CONTINUOUS
370
-3
390
F
  0
LAYER
  5
208
100
AcDbSymbolTableRecord
100
AcDbLayerTableRecord
  2
PLAZIERUNG
 70
0
 62
7
  6
CONTINUOUS
370
-3
390
F
  0
LAYER
  5
209
100
AcDbSymbolTableRecord
100
AcDbLayerTableRecord
  2
RUNDUNGEN
 70
0
 62
7
  6
CONTINUOUS
370
-3
390
F
  0
LAYER
  5
20A
100
AcDbSymbolTableRecord
100
AcDbLayerTableRecord
  2
TEIL_STARTBEZUEGE
 70
0
 62
7
  6
CONTINUOUS
370
-3
390
F
  0
LAYER
  5
20B
100
AcDbSymbolTableRecord
100
AcDbLayerTableRecord
  2
T_STARTBEZUEGE
 70
0
 62
7
  6
CONTINUOUS
370
-3
390
F
  0
LAYER
  5
20C
100
AcDbSymbolTableRecord
100
AcDbLayerTableRecord
  2
XSEC_DATUMS
 70
0
 62
7
  6
CONTINUOUS
370
-3
390
F
  0
LAYER
  5
20D
100
AcDbSymbolTableRecord
100
AcDbLayerTableRecord
  2
ZEICHNUNGSBEMASSUNGEN
 70
0
 62
7
  6
CONTINUOUS
370
-3
390
F
  0
ENDTAB
  0
TABLE
  2
STYLE
  5
3
100
AcDbSymbolTable
 70
1
  0
STYLE
  5
11
100
AcDbSymbolTableRecord
100
AcDbTextStyleTableRecord
  2
STANDARD
 70
0
 40
0.0
 41
0.7
 50
0.0
 71
0
 42
0.2
  3
txt
  4

  0
STYLE
  5
20E
100
AcDbSymbolTableRecord
100
AcDbTextStyleTableRecord
  2
TEXTSTYLE_1
 70
0
 40
0.0
 41
0.8
 50
0.0
 71
0
 42
0.2
  3
gdt
  4

  0
ENDTAB
  0
TABLE
  2
VIEW
  5
6
100
AcDbSymbolTable
 70
0
  0
ENDTAB
  0
TABLE
  2
UCS
  5
7
100
AcDbSymbolTable
 70
0
  0
ENDTAB
  0
TABLE
  2
APPID
  5
9
100
AcDbSymbolTable
 70
1
  0
APPID
  5
20F
100
AcDbSymbolTableRecord
100
AcDbRegAppTableRecord
  2
ACAD
 70
0
  0
ENDTAB
  0
TABLE
  2
BLOCK_RECORD
  5
1
100
AcDbSymbolTable
 70
0
  0
BLOCK_RECORD
  5
210
100
AcDbSymbolTableRecord
100
AcDbBlockTableRecord
  2
*Model_Space
  0
BLOCK_RECORD
  5
211
100
AcDbSymbolTableRecord
100
AcDbBlockTableRecord
  2
*Paper_Space
  0
ENDTAB
  0
TABLE
  2
DIMSTYLE
  5
A
100
AcDbSymbolTable
 70
1
100
AcDbDimStyleTable
 71
0
  0
DIMSTYLE
105
212
100
AcDbSymbolTableRecord
100
AcDbDimStyleTableRecord
  2
STANDARD
 70
0
  3

  4

 40
1.0
 41
3.5
 42
0.0625
 43
0.38
 44
0.18
 45
0.0
 46
0.0
 47
0.005
 48
0.005
140
3.5
141
0.09
142
0.0
143
25.4
144
1.0
145
0.0
146
1.0
147
0.09
 71
1.0
 72
0.0
 73
0
 74
0
 75
0
 76
0
 77
1
 78
8
170
0
171
2
172
0
173
0
174
0
175
0
176
0
177
0
178
5
270
2
271
3
272
3
273
2
274
2
275
0
280
0
281
0
282
0
283
1
284
8
285
0
286
0
287
3
288
0
340
11
  0
ENDTAB
  0
ENDSEC
  0
SECTION
  2
BLOCKS
  0
BLOCK
  5
20
100
AcDbEntity
  8
0
100
AcDbBlockBegin
  2
*Model_Space
 70
0
 10
0.0
 20
0.0
 30
0.0
  3
*Model_Space
  1

  0
ENDBLK
  5
21
100
AcDbEntity
  8
0
100
AcDbBlockEnd
  0
BLOCK
  5
1C
100
AcDbEntity
  8
0
100
AcDbBlockBegin
  2
*Paper_Space
 70
0
 10
0.0
 20
0.0
 30
0.0
  3
*Paper_Space
  1

  0
ENDBLK
  5
1D
100
AcDbEntity
  8
0
100
AcDbBlockEnd
  0
ENDSEC
  0
SECTION
  2
ENTITIES
  0
MTEXT
  5
213
100
AcDbEntity
  8
0
100
AcDbMText
 62
5
  6
CONTINUOUS
  7
STANDARD
 71
1
 72
1
 10
472.5496973995
 20
414.81441858
 30
0.0
 11
0.0
 21
1.0
 31
0.0
 44
0.9
  1
RUD ACP 6,3t M24
 40
7.0
 41
88.0
  0
MTEXT
  5
214
100
AcDbEntity
  8
0
100
AcDbMText
 62
5
  6
CONTINUOUS
  7
STANDARD
 71
1
 72
1
 10
285.2485718944
 20
428.0016672777
 30
0.0
 11
1.0
 21
0.0
 31
0.0
 44
0.9
  1
RUD
 40
7.0
 41
18.6666666667
  0
MTEXT
  5
215
100
AcDbEntity
  8
0
100
AcDbMText
 62
5
  6
CONTINUOUS
  7
STANDARD
 71
1
 72
1
 10
252.0725986953
 20
90.6866445691
 30
0.0
 11
1.0
 21
0.0
 31
0.0
 44
0.9
  1
RUD ACP 6,3t M24
 40
7.0
 41
88.0
  0
LINE
  5
216
100
AcDbEntity
  8
0
100
AcDbLine
 62
7
  6
CONTINUOUS
 10
0.0
 20
0.0
 11
0.0
 21
594.0
  0
LINE
  5
217
100
AcDbEntity
  8
0
100
AcDbLine
 62
7
  6
CONTINUOUS
 10
0.0
 20
0.0
 11
841.0
 21
0.0
  0
LINE
  5
218
100
AcDbEntity
  8
0
100
AcDbLine
 62
7
  6
CONTINUOUS
 10
0.0
 20
594.0
 11
841.0
 21
594.0
  0
LINE
  5
219
100
AcDbEntity
  8
0
100
AcDbLine
 62
7
  6
CONTINUOUS
 10
841.0
 20
0.0
 11
841.0
 21
594.0
  0
LINE
  5
21A
100
AcDbEntity
  8
BEZUGSACHSEN
100
AcDbLine
 62
7
  6
CONTINUOUS
 10
284.3241465719
 20
177.8877587117
 11
305.3241465719
 21
177.8877587117
  0
LINE
  5
21B
100
AcDbEntity
  8
BEZUGSACHSEN
100
AcDbLine
 62
7
  6
CONTINUOUS
 10
282.8241465719
 20
179.3877587117
 11
306.8241465719
 21
179.3877587117
  0
LINE
  5
21C
100
AcDbEntity
  8
RUNDUNGEN
100
AcDbLine
 62
7
  6
CONTINUOUS
 10
264.2821651431
 20
548.6637904825
 11
291.2404670765
 21
559.0121130403
  0
LINE
  5
21D
100
AcDbEntity
  8
BEZUGSACHSEN
100
AcDbLine
 62
7
  6
CONTINUOUS
 10
308.3241465719
 20
213.8877587117
 11
281.3241465719
 21
213.8877587117
  0
LINE
  5
21E
100
AcDbEntity
  8
KONSTRUKTIONSELEMENTE
100
AcDbLine
 62
7
  6
CONTINUOUS
 10
316.8241465719
 20
237.8877587117
 11
272.8241465719
 21
237.8877587117
  0
LINE
  5
21F
100
AcDbEntity
  8
BEZUGSACHSEN
100
AcDbLine
 62
7
  6
CONTINUOUS
 10
284.3241465719
 20
177.8877587117
 11
282.8241465719
 21
179.3877587117
  0
LINE
  5
220
100
AcDbEntity
  8
KONSTRUKTIONSELEMENTE
100
AcDbLine
 62
7
  6
CONTINUOUS
 10
316.8241465719
 20
241.8877587117
 11
272.8241465719
 21
241.8877587117
  0
LINE
  5
221
100
AcDbEntity
  8
BEZUGSACHSEN
100
AcDbLine
 62
7
  6
CONTINUOUS
 10
274.0395368811
 20
221.1723684025
 11
281.3241465719
 21
213.8877587117
  0
LINE
  5
222
100
AcDbEntity
  8
RUNDUNGEN
100
AcDbLine
 62
7
  6
CONTINUOUS
 10
245.8462361591
 20
518.1389639345
 11
258.9557793967
 21
543.8678912149
  0
LINE
  5
223
100
AcDbEntity
  8
KONSTRUKTIONSELEMENTE
100
AcDbLine
 62
7
  6
CONTINUOUS
 10
312.8241465719
 20
237.8877587117
 11
315.6087562628
 21
236.2800635571
  0
LINE
  5
224
100
AcDbEntity
  8
0
100
AcDbLine
 62
7
  6
CONTINUOUS
 10
255.7281946619
 20
461.2272307169
 11
255.0779182629
 21
460.6921477243
  0
LINE
  5
225
100
AcDbEntity
  8
0
100
AcDbLine
 62
7
  6
CONTINUOUS
 10
256.0567960339
 20
460.0620614589
 11
256.6323068399
 21
460.4251953596
  0
LINE
  5
226
100
AcDbEntity
  8
0
100
AcDbLine
 62
7
  6
CONTINUOUS
 10
259.3430127513
 20
469.0605179909
 11
258.5171286971
 21
468.60179021
  0
LINE
  5
227
100
AcDbEntity
  8
0
100
AcDbLine
 62
7
  6
CONTINUOUS
 10
259.3203996687
 20
468.048061124
 11
259.8211453094
 21
468.2392469167
  0
LINE
  5
228
100
AcDbEntity
  8
0
100
AcDbLine
 62
7
  6
CONTINUOUS
 10
256.7296850878
 20
461.6096003344
 11
255.7281946619
 21
461.2272307169
  0
LINE
  5
229
100
AcDbEntity
  8
RUNDUNGEN
100
AcDbLine
 62
7
  6
CONTINUOUS
 10
236.6506966745
 20
438.0524409995
 11
252.5795667898
 21
474.6863342203
  0
LINE
  5
22A
100
AcDbEntity
  8
0
100
AcDbLine
 62
7
  6
CONTINUOUS
 10
258.5171286971
 20
468.60179021
 11
257.9676947881
 21
467.8184038977
  0
LINE
  5
22B
100
AcDbEntity
  8
0
100
AcDbLine
 62
7
  6
CONTINUOUS
 10
254.528483926
 20
459.9087604282
 11
255.0779182629
 21
460.6921477243
  0
LINE
  5
22C
100
AcDbEntity
  8
0
100
AcDbLine
 62
7
  6
CONTINUOUS
 10
255.5821272901
 20
459.4506232546
 11
256.0567960339
 21
460.0620614589
  0
LINE
  5
22D
100
AcDbEntity
  8
0
100
AcDbLine
 62
7
  6
CONTINUOUS
 10
258.9204960901
 20
467.6085710278
 11
259.3203996687
 21
468.048061124
  0
LINE
  5
22E
100
AcDbEntity
  8
0
100
AcDbLine
 62
7
  6
CONTINUOUS
 10
260.9094247443
 20
453.4540096703
 11
261.5597007616
 21
453.9890916589
  0
LINE
  5
22F
100
AcDbEntity
  8
0
100
AcDbLine
 62
7
  6
CONTINUOUS
 10
260.5808228829
 20
454.6191779711
 11
260.0053119539
 21
454.2560441239
  0
LINE
  5
230
100
AcDbEntity
  8
BEZUGSACHSEN
100
AcDbLine
 62
7
  6
CONTINUOUS
 10
274.0395368811
 20
456.2800635571
 11
276.8241465719
 21
457.8877587117
  0
LINE
  5
231
100
AcDbEntity
  8
0
100
AcDbLine
 62
7
  6
CONTINUOUS
 10
259.9079338291
 20
453.0716390956
 11
260.9094247443
 21
453.4540096703
  0
LINE
  5
232
100
AcDbEntity
  8
0
100
AcDbLine
 62
7
  6
CONTINUOUS
 10
257.9676947881
 20
467.8184038977
 11
256.1733235501
 21
463.6916325791
  0
LINE
  5
233
100
AcDbEntity
  8
0
100
AcDbLine
 62
7
  6
CONTINUOUS
 10
254.528483926
 20
459.9087604282
 11
253.8555948722
 21
458.3612215526
  0
LINE
  5
234
100
AcDbEntity
  8
0
100
AcDbLine
 62
7
  6
CONTINUOUS
 10
250.8649767126
 20
451.4832706668
 11
250.2668531449
 21
450.1076806372
  0
LINE
  5
235
100
AcDbEntity
  8
0
100
AcDbLine
 62
7
  6
CONTINUOUS
 10
257.4999528172
 20
464.3415451687
 11
258.9204960901
 21
467.6085710278
  0
LINE
  5
236
100
AcDbEntity
  8
0
100
AcDbLine
 62
7
  6
CONTINUOUS
 10
254.9092382363
 20
457.9030843791
 11
255.5821272901
 21
459.4506232546
  0
LINE
  5
237
100
AcDbEntity
  8
0
100
AcDbLine
 62
7
  6
CONTINUOUS
 10
257.233894607
 20
460.3680756508
 11
257.6824873095
 21
461.3997682345
  0
LINE
  5
238
100
AcDbEntity
  8
0
100
AcDbLine
 62
7
  6
CONTINUOUS
 10
261.5546049923
 20
466.4632278801
 11
260.1340617195
 21
463.196202021
  0
LINE
  5
239
100
AcDbEntity
  8
0
100
AcDbLine
 62
7
  6
CONTINUOUS
 10
261.1877050836
 20
462.7380648475
 11
262.5334831912
 21
465.8331425986
  0
LINE
  5
23A
100
AcDbEntity
  8
0
100
AcDbLine
 62
7
  6
CONTINUOUS
 10
256.6826288219
 20
449.9759722665
 11
255.3368506608
 21
446.8808943925
  0
LINE
  5
23B
100
AcDbEntity
  8
0
100
AcDbLine
 62
7
  6
CONTINUOUS
 10
261.5597007616
 20
453.9890916589
 11
262.1091355416
 21
454.7724799323
  0
LINE
  5
23C
100
AcDbEntity
  8
0
100
AcDbLine
 62
7
  6
CONTINUOUS
 10
261.0554920545
 20
455.2306171593
 11
260.5808228829
 21
454.6191779711
  0
LINE
  5
23D
100
AcDbEntity
  8
0
100
AcDbLine
 62
7
  6
CONTINUOUS
 10
328.6655422024
 20
467.0793762064
 11
327.4362916109
 21
466.5448828373
  0
LINE
  5
23E
100
AcDbEntity
  8
0
100
AcDbLine
 62
7
  6
CONTINUOUS
 10
328.6881549909
 20
466.066920016
 11
329.0393694456
 21
466.2196324072
  0
LINE
  5
23F
100
AcDbEntity
  8
0
100
AcDbLine
 62
7
  6
CONTINUOUS
 10
326.8312407034
 20
465.0550529732
 11
327.3580623855
 21
465.2841215599
  0
LINE
  5
240
100
AcDbEntity
  8
0
100
AcDbLine
 62
7
  6
CONTINUOUS
 10
329.2271985747
 20
460.9854026252
 11
328.7003768927
 21
460.7563340385
  0
LINE
  5
241
100
AcDbEntity
  8
0
100
AcDbLine
 62
7
  6
CONTINUOUS
 10
328.8985969887
 20
459.8202338592
 11
329.7766333715
 21
460.2020149441
  0
LINE
  5
242
100
AcDbEntity
  8
0
100
AcDbLine
 62
7
  6
CONTINUOUS
 10
254.7857835194
 20
457.1389327998
 11
254.9092382363
 21
457.9030843791
  0
LINE
  5
243
100
AcDbEntity
  8
0
100
AcDbLine
 62
7
  6
CONTINUOUS
 10
253.8555948722
 20
458.3612215526
 11
253.6573745622
 21
457.4251208814
  0
LINE
  5
244
100
AcDbEntity
  8
0
100
AcDbLine
 62
7
  6
CONTINUOUS
 10
261.7214537846
 20
459.6435756291
 11
261.272861082
 21
458.6118830454
  0
LINE
  5
245
100
AcDbEntity
  8
0
100
AcDbLine
 62
7
  6
CONTINUOUS
 10
255.9645140841
 20
446.4035207642
 11
257.4598231104
 21
449.8424960841
  0
LINE
  5
246
100
AcDbEntity
  8
0
100
AcDbLine
 62
7
  6
CONTINUOUS
 10
261.7283811084
 20
456.7781560348
 11
261.0554920545
 21
455.2306171593
  0
LINE
  5
247
100
AcDbEntity
  8
0
100
AcDbLine
 62
7
  6
CONTINUOUS
 10
257.3241465719
 20
443.7677587117
 11
257.7727392745
 21
444.7994512954
  0
LINE
  5
248
100
AcDbEntity
  8
0
100
AcDbLine
 62
7
  6
CONTINUOUS
 10
259.866171815
 20
449.6140165219
 11
260.3147645176
 21
450.6457091056
  0
LINE
  5
249
100
AcDbEntity
  8
0
100
AcDbLine
 62
7
  6
CONTINUOUS
 10
262.1091355416
 20
454.7724799323
 11
262.7820245955
 21
456.3200188078
  0
LINE
  5
24A
100
AcDbEntity
  8
0
100
AcDbLine
 62
7
  6
CONTINUOUS
 10
264.4268642196
 20
460.1028909587
 11
264.8754573499
 21
461.1345845263
  0
LINE
  5
24B
100
AcDbEntity
  8
RUNDUNGEN
100
AcDbLine
 62
7
  6
CONTINUOUS
 10
269.1224674275
 20
454.1727475388
 11
264.7270439685
 21
444.0639656545
  0
LINE
  5
24C
100
AcDbEntity
  8
0
100
AcDbLine
 62
7
  6
CONTINUOUS
 10
327.4362916109
 20
466.5448828373
 11
326.2818062262
 21
465.8384405922
  0
LINE
  5
24D
100
AcDbEntity
  8
0
100
AcDbLine
 62
7
  6
CONTINUOUS
 10
334.3964057011
 20
453.4190673311
 11
333.6939767917
 21
453.1136425487
  0
LINE
  5
24E
100
AcDbEntity
  8
0
100
AcDbLine
 62
7
  6
CONTINUOUS
 10
337.1991946299
 20
451.7753471335
 11
336.8479796833
 21
451.6226345284
  0
LINE
  5
24F
100
AcDbEntity
  8
0
100
AcDbLine
 62
7
  6
CONTINUOUS
 10
333.5862077106
 20
449.9999176135
 11
332.8837788012
 21
449.6944928311
  0
LINE
  5
250
100
AcDbEntity
  8
0
100
AcDbLine
 62
7
  6
CONTINUOUS
 10
337.2218072206
 20
450.7628900528
 11
337.5730221672
 21
450.9156026578
  0
LINE
  5
251
100
AcDbEntity
  8
0
100
AcDbLine
 62
7
  6
CONTINUOUS
 10
333.2576059107
 20
448.8347493393
 11
333.9600348201
 21
449.1401741217
  0
LINE
  5
252
100
AcDbEntity
  8
0
100
AcDbLine
 62
7
  6
CONTINUOUS
 10
337.5434818197
 20
449.0626387861
 11
336.8410529103
 21
448.7572140037
  0
LINE
  5
253
100
AcDbEntity
  8
0
100
AcDbLine
 62
7
  6
CONTINUOUS
 10
339.5464631634
 20
448.297899765
 11
338.1416048527
 21
447.6870499864
  0
LINE
  5
254
100
AcDbEntity
  8
0
100
AcDbLine
 62
7
  6
CONTINUOUS
 10
337.4391759433
 20
447.381625204
 11
333.9270310272
 21
445.8545011319
  0
LINE
  5
255
100
AcDbEntity
  8
0
100
AcDbLine
 62
7
  6
CONTINUOUS
 10
248.299877542
 20
413.5107187813
 11
248.299877542
 21
414.7193872376
  0
LINE
  5
256
100
AcDbEntity
  8
0
100
AcDbLine
 62
7
  6
CONTINUOUS
 10
248.299877542
 20
420.2619498218
 11
248.299877542
 21
421.4706182781
  0
LINE
  5
257
100
AcDbEntity
  8
0
100
AcDbLine
 62
7
  6
CONTINUOUS
 10
254.299877542
 20
416.8906685297
 11
254.299877542
 21
418.099336986
  0
LINE
  5
258
100
AcDbEntity
  8
0
100
AcDbLine
 62
7
  6
CONTINUOUS
 10
255.099877542
 20
413.5107187813
 11
255.099877542
 21
414.7193872376
  0
LINE
  5
259
100
AcDbEntity
  8
0
100
AcDbLine
 62
7
  6
CONTINUOUS
 10
255.099877542
 20
420.2619498218
 11
255.099877542
 21
421.4706182781
  0
LINE
  5
25A
100
AcDbEntity
  8
0
100
AcDbLine
 62
7
  6
CONTINUOUS
 10
261.6032941162
 20
467.0554303675
 11
261.5546049923
 21
466.4632278801
  0
LINE
  5
25B
100
AcDbEntity
  8
0
100
AcDbLine
 62
7
  6
CONTINUOUS
 10
261.8518353975
 20
457.5423066303
 11
261.7283811084
 21
456.7781560348
  0
LINE
  5
25C
100
AcDbEntity
  8
0
100
AcDbLine
 62
7
  6
CONTINUOUS
 10
262.5334831912
 20
465.8331425986
 11
262.7317026455
 21
466.769241302
  0
LINE
  5
25D
100
AcDbEntity
  8
0
100
AcDbLine
 62
7
  6
CONTINUOUS
 10
262.7820245955
 20
456.3200188078
 11
262.9802444622
 21
457.2561185019
  0
LWPOLYLINE
  5
25E
100
AcDbEntity
  8
RUNDUNGEN
100
AcDbPolyline
 62
7
  6
CONTINUOUS
 90
22
 70
0
 10
261.3832400144
 20
396.3347547196
 10
261.4189592833
 20
396.4085635766
 10
261.4591037615
 20
396.4825932571
 10
261.50388134
 20
396.5565686022
 10
261.5533940138
 20
396.6300477515
 10
261.6077307614
 20
396.7026108106
 10
261.6669458927
 20
396.7738249866
 10
261.7310574707
 20
396.8432481838
 10
261.8000429918
 20
396.9104297062
 10
261.8738398901
 20
396.974916425
 10
261.9523446729
 20
397.036256604
 10
262.0354112746
 20
397.094003048
 10
262.1228526726
 20
397.1477185189
 10
262.214438879
 20
397.196978337
 10
262.3099012664
 20
397.2413765751
 10
262.4089311054
 20
397.2805284382
 10
262.5111798319
 20
397.3140740914
 10
262.6162632351
 20
397.3416836832
 10
262.723763682
 20
397.363060967
 10
262.8332333891
 20
397.3779469087
 10
262.9441980146
 20
397.3861229262
 10
263.0209202791
 20
397.3877587548
  0
LINE
  5
25F
100
AcDbEntity
  8
0
100
AcDbLine
 62
7
  6
CONTINUOUS
 10
326.2818062262
 20
465.8384405922
 11
325.553300865
 21
465.112762038
  0
LINE
  5
260
100
AcDbEntity
  8
0
100
AcDbLine
 62
7
  6
CONTINUOUS
 10
326.3791844539
 20
464.6540356635
 11
326.8312407034
 21
465.0550529732
  0
LINE
  5
261
100
AcDbEntity
  8
0
100
AcDbLine
 62
7
  6
CONTINUOUS
 10
329.6792551236
 20
461.3864199189
 11
329.2271985747
 21
460.9854026252
  0
LINE
  5
262
100
AcDbEntity
  8
0
100
AcDbLine
 62
7
  6
CONTINUOUS
 10
332.7880329836
 20
461.9203243704
 11
333.2400892866
 21
462.3213415571
  0
LINE
  5
263
100
AcDbEntity
  8
0
100
AcDbLine
 62
7
  6
CONTINUOUS
 10
334.6520731423
 20
445.1474691009
 11
337.8130034806
 21
446.5218807284
  0
LINE
  5
264
100
AcDbEntity
  8
0
100
AcDbLine
 62
7
  6
CONTINUOUS
 10
338.51543239
 20
446.8273055107
 11
339.9202907008
 21
447.4381552893
  0
LINE
  5
265
100
AcDbEntity
  8
0
100
AcDbLine
 62
7
  6
CONTINUOUS
 10
333.5688896766
 20
442.8363681625
 11
334.2713186475
 21
443.1417929716
  0
LINE
  5
266
100
AcDbEntity
  8
0
100
AcDbLine
 62
7
  6
CONTINUOUS
 10
338.6354237204
 20
444.630443669
 11
339.3378526299
 21
444.9358684513
  0
LINE
  5
267
100
AcDbEntity
  8
RUNDUNGEN
100
AcDbLine
 62
7
  6
CONTINUOUS
 10
243.6820132389
 20
396.8012354297
 11
235.8691927155
 21
420.1512946445
  0
LINE
  5
268
100
AcDbEntity
  8
0
100
AcDbLine
 62
7
  6
CONTINUOUS
 10
253.6573745622
 20
457.4251208814
 11
253.7095275004
 21
456.5846140904
  0
LINE
  5
269
100
AcDbEntity
  8
0
100
AcDbLine
 62
7
  6
CONTINUOUS
 10
262.9802444622
 20
457.2561185019
 11
262.9280919057
 21
458.0966262969
  0
LINE
  5
26A
100
AcDbEntity
  8
RUNDUNGEN
100
AcDbLine
 62
7
  6
CONTINUOUS
 10
261.8241465719
 20
400.3977649695
 11
261.8241465719
 21
398.3877587117
  0
LINE
  5
26B
100
AcDbEntity
  8
RUNDUNGEN
100
AcDbLine
 62
7
  6
CONTINUOUS
 10
261.8241465719
 20
416.3777524539
 11
261.8241465719
 21
430.107630034
  0
LINE
  5
26C
100
AcDbEntity
  8
RUNDUNGEN
100
AcDbLine
 62
7
  6
CONTINUOUS
 10
263.3241465719
 20
430.8377587117
 11
263.3241465719
 21
397.1377587117
  0
LINE
  5
26D
100
AcDbEntity
  8
0
100
AcDbLine
 62
7
  6
CONTINUOUS
 10
264.8241465719
 20
396.8877587117
 11
264.8241465719
 21
387.8877587117
  0
LINE
  5
26E
100
AcDbEntity
  8
0
100
AcDbLine
 62
7
  6
CONTINUOUS
 10
265.8241465719
 20
442.8877587117
 11
265.8241465719
 21
435.8877587117
  0
LINE
  5
26F
100
AcDbEntity
  8
0
100
AcDbLine
 62
7
  6
CONTINUOUS
 10
268.4167808866
 20
435.3377587117
 11
268.4167808866
 21
432.8377587117
  0
LINE
  5
270
100
AcDbEntity
  8
0
100
AcDbLine
 62
7
  6
CONTINUOUS
 10
330.6634279433
 20
453.8404998666
 11
330.939876805
 21
454.1651613497
  0
LINE
  5
271
100
AcDbEntity
  8
0
100
AcDbLine
 62
7
  6
CONTINUOUS
 10
329.7766333715
 20
460.2020149441
 11
330.5051385361
 21
460.9276936139
  0
LINE
  5
272
100
AcDbEntity
  8
0
100
AcDbLine
 62
7
  6
CONTINUOUS
 10
330.5660496955
 20
455.0249048414
 11
330.1139934835
 21
454.6238871093
  0
LINE
  5
273
100
AcDbEntity
  8
0
100
AcDbLine
 62
7
  6
CONTINUOUS
 10
334.2000165024
 20
444.7464523526
 11
334.6520731423
 21
445.1474691009
  0
LINE
  5
274
100
AcDbEntity
  8
0
100
AcDbLine
 62
7
  6
CONTINUOUS
 10
333.9600348201
 20
449.1401741217
 11
334.5876988103
 21
449.617547119
  0
LINE
  5
275
100
AcDbEntity
  8
0
100
AcDbLine
 62
7
  6
CONTINUOUS
 10
337.5730221672
 20
450.9156026578
 11
338.2006850558
 21
451.392977516
  0
LINE
  5
276
100
AcDbEntity
  8
0
100
AcDbLine
 62
7
  6
CONTINUOUS
 10
270.3318919944
 20
432.8377587117
 11
270.3318919944
 21
435.3377587117
  0
LINE
  5
277
100
AcDbEntity
  8
KONSTRUKTIONSELEMENTE
100
AcDbLine
 62
7
  6
CONTINUOUS
 10
272.8241465719
 20
241.8877587117
 11
272.8241465719
 21
237.8877587117
  0
LINE
  5
278
100
AcDbEntity
  8
KONSTRUKTIONSELEMENTE
100
AcDbLine
 62
7
  6
CONTINUOUS
 10
274.0395368811
 20
236.2800635571
 11
274.0395368811
 21
221.1723684025
  0
LINE
  5
279
100
AcDbEntity
  8
BEZUGSACHSEN
100
AcDbLine
 62
7
  6
CONTINUOUS
 10
274.0395368811
 20
443.3877587117
 11
274.0395368811
 21
456.2800635571
  0
LINE
  5
27A
100
AcDbEntity
  8
KONSTRUKTIONSELEMENTE
100
AcDbLine
 62
7
  6
CONTINUOUS
 10
278.2241465719
 20
442.8877587117
 11
278.2241465719
 21
443.3877587117
  0
LINE
  5
27B
100
AcDbEntity
  8
BEZUGSACHSEN
100
AcDbLine
 62
7
  6
CONTINUOUS
 10
278.2241465719
 20
442.8877587117
 11
278.2241465719
 21
443.3877587117
  0
LINE
  5
27C
100
AcDbEntity
  8
0
100
AcDbLine
 62
7
  6
CONTINUOUS
 10
279.2241465719
 20
435.8877587117
 11
279.2241465719
 21
435.6377587117
  0
LINE
  5
27D
100
AcDbEntity
  8
0
100
AcDbLine
 62
7
  6
CONTINUOUS
 10
279.2241465719
 20
397.1377587117
 11
279.2241465719
 21
396.8877587117
  0
LINE
  5
27E
100
AcDbEntity
  8
BEZUGSACHSEN
100
AcDbLine
 62
7
  6
CONTINUOUS
 10
282.8241465719
 20
387.8877587117
 11
282.8241465719
 21
241.8877587117
  0
LINE
  5
27F
100
AcDbEntity
  8
BEZUGSACHSEN
100
AcDbLine
 62
7
  6
CONTINUOUS
 10
282.8241465719
 20
213.8877587117
 11
282.8241465719
 21
179.3877587117
  0
LINE
  5
280
100
AcDbEntity
  8
0
100
AcDbLine
 62
7
  6
CONTINUOUS
 10
325.553300865
 20
465.112762038
 11
325.0751682454
 21
464.2914909371
  0
LINE
  5
281
100
AcDbEntity
  8
0
100
AcDbLine
 62
7
  6
CONTINUOUS
 10
333.2400892866
 20
462.3213415571
 11
333.7182218447
 21
463.1426126313
  0
LINE
  5
282
100
AcDbEntity
  8
0
100
AcDbLine
 62
7
  6
CONTINUOUS
 10
326.0018935676
 20
464.0810694544
 11
326.3791844539
 21
464.6540356635
  0
LINE
  5
283
100
AcDbEntity
  8
0
100
AcDbLine
 62
7
  6
CONTINUOUS
 10
332.791496584
 20
463.3530341408
 11
332.4142058741
 21
462.7800678622
  0
LINE
  5
284
100
AcDbEntity
  8
0
100
AcDbLine
 62
7
  6
CONTINUOUS
 10
330.1139934835
 20
454.6238871093
 11
329.7367025596
 21
454.0509213226
  0
LINE
  5
285
100
AcDbEntity
  8
0
100
AcDbLine
 62
7
  6
CONTINUOUS
 10
334.1391056799
 20
450.6492406866
 11
333.5862077106
 21
449.9999176135
  0
LINE
  5
286
100
AcDbEntity
  8
0
100
AcDbLine
 62
7
  6
CONTINUOUS
 10
333.9270310272
 20
445.8545011319
 11
333.3741332424
 21
445.205178139
  0
LINE
  5
287
100
AcDbEntity
  8
RUNDUNGEN
100
AcDbLine
 62
7
  6
CONTINUOUS
 10
253.0682243089
 20
481.2620153606
 11
245.0970431381
 21
511.0108684861
  0
LINE
  5
288
100
AcDbEntity
  8
0
100
AcDbLine
 62
7
  6
CONTINUOUS
 10
254.9127016228
 20
456.4703741168
 11
254.7857835194
 21
457.1389327998
  0
LINE
  5
289
100
AcDbEntity
  8
0
100
AcDbLine
 62
7
  6
CONTINUOUS
 10
261.7249171711
 20
458.2108653668
 11
261.8518353975
 21
457.5423066303
  0
LINE
  5
28A
100
AcDbEntity
  8
KONSTRUKTIONSELEMENTE
100
AcDbLine
 62
7
  6
CONTINUOUS
 10
284.4318417265
 20
236.2800635571
 11
284.4318417265
 21
221.1723684025
  0
LINE
  5
28B
100
AcDbEntity
  8
BEZUGSACHSEN
100
AcDbLine
 62
7
  6
CONTINUOUS
 10
284.4318417265
 20
443.3877587117
 11
284.4318417265
 21
456.2800635571
  0
LINE
  5
28C
100
AcDbEntity
  8
0
100
AcDbLine
 62
7
  6
CONTINUOUS
 10
287.9542452016
 20
457.8877587117
 11
287.9542452016
 21
458.0877587117
  0
LINE
  5
28D
100
AcDbEntity
  8
0
100
AcDbLine
 62
7
  6
CONTINUOUS
 10
288.3501971798
 20
457.8877587117
 11
288.3501971798
 21
458.0877587117
  0
LINE
  5
28E
100
AcDbEntity
  8
0
100
AcDbLine
 62
7
  6
CONTINUOUS
 10
290.7892123009
 20
457.8877587117
 11
290.7892123009
 21
458.0877587117
  0
LINE
  5
28F
100
AcDbEntity
  8
0
100
AcDbLine
 62
7
  6
CONTINUOUS
 10
290.9792583718
 20
457.8877587117
 11
290.9792583718
 21
458.0877587117
  0
LINE
  5
290
100
AcDbEntity
  8
0
100
AcDbLine
 62
7
  6
CONTINUOUS
 10
291.6396913764
 20
457.8877587117
 11
291.6396913764
 21
458.0877587117
  0
LINE
  5
291
100
AcDbEntity
  8
0
100
AcDbLine
 62
7
  6
CONTINUOUS
 10
291.6711934653
 20
457.8877587117
 11
291.6711934653
 21
458.0877587117
  0
LINE
  5
292
100
AcDbEntity
  8
0
100
AcDbLine
 62
7
  6
CONTINUOUS
 10
291.9193927268
 20
457.8877587117
 11
291.9193927268
 21
458.0877587117
  0
LINE
  5
293
100
AcDbEntity
  8
0
100
AcDbLine
 62
7
  6
CONTINUOUS
 10
292.1879563127
 20
457.8877587117
 11
292.1879563127
 21
458.0877587117
  0
LINE
  5
294
100
AcDbEntity
  8
0
100
AcDbLine
 62
7
  6
CONTINUOUS
 10
292.6111651893
 20
457.8877587117
 11
292.6111651893
 21
458.0877587117
  0
LINE
  5
295
100
AcDbEntity
  8
0
100
AcDbLine
 62
7
  6
CONTINUOUS
 10
292.9000914463
 20
457.8877587117
 11
292.9000914463
 21
458.0877587117
  0
LINE
  5
296
100
AcDbEntity
  8
0
100
AcDbLine
 62
7
  6
CONTINUOUS
 10
293.4158970381
 20
457.8877587117
 11
293.4158970381
 21
458.0877587117
  0
LINE
  5
297
100
AcDbEntity
  8
0
100
AcDbLine
 62
7
  6
CONTINUOUS
 10
293.7251892728
 20
457.8877587117
 11
293.7251892728
 21
458.0877587117
  0
LINE
  5
298
100
AcDbEntity
  8
0
100
AcDbLine
 62
7
  6
CONTINUOUS
 10
294.0548441785
 20
457.8877587117
 11
294.0548441785
 21
458.0877587117
  0
LINE
  5
299
100
AcDbEntity
  8
0
100
AcDbLine
 62
7
  6
CONTINUOUS
 10
294.1678052181
 20
457.8877587117
 11
294.1678052181
 21
458.0877587117
  0
LINE
  5
29A
100
AcDbEntity
  8
0
100
AcDbLine
 62
7
  6
CONTINUOUS
 10
294.5556846865
 20
457.8877587117
 11
294.5556846865
 21
458.0877587117
  0
LINE
  5
29B
100
AcDbEntity
  8
0
100
AcDbLine
 62
7
  6
CONTINUOUS
 10
294.6065955045
 20
457.8877587117
 11
294.6065955045
 21
458.0877587117
  0
LINE
  5
29C
100
AcDbEntity
  8
0
100
AcDbLine
 62
7
  6
CONTINUOUS
 10
295.2164807087
 20
457.8877587117
 11
295.2164807087
 21
458.0877587117
  0
LINE
  5
29D
100
AcDbEntity
  8
0
100
AcDbLine
 62
7
  6
CONTINUOUS
 10
295.8819263007
 20
457.8877587117
 11
295.8819263007
 21
458.0877587117
  0
LINE
  5
29E
100
AcDbEntity
  8
0
100
AcDbLine
 62
7
  6
CONTINUOUS
 10
296.5262059356
 20
457.8877587117
 11
296.5262059356
 21
458.0877587117
  0
LINE
  5
29F
100
AcDbEntity
  8
0
100
AcDbLine
 62
7
  6
CONTINUOUS
 10
329.8809386062
 20
461.883030002
 11
329.6792551236
 21
461.3864199189
  0
LINE
  5
2A0
100
AcDbEntity
  8
0
100
AcDbLine
 62
7
  6
CONTINUOUS
 10
330.5051385361
 20
460.9276936139
 11
330.8076638669
 21
461.6726084925
  0
LINE
  5
2A1
100
AcDbEntity
  8
0
100
AcDbLine
 62
7
  6
CONTINUOUS
 10
334.5876988103
 20
449.617547119
 11
334.9649893063
 21
450.1905138896
  0
LINE
  5
2A2
100
AcDbEntity
  8
0
100
AcDbLine
 62
7
  6
CONTINUOUS
 10
337.5764855537
 20
452.3483129202
 11
337.1991946299
 21
451.7753471335
  0
LINE
  5
2A3
100
AcDbEntity
  8
0
100
AcDbLine
 62
7
  6
CONTINUOUS
 10
253.7095275004
 20
456.5846140904
 11
254.1128944655
 21
455.5913939243
  0
LINE
  5
2A4
100
AcDbEntity
  8
0
100
AcDbLine
 62
7
  6
CONTINUOUS
 10
262.7317026455
 20
466.769241302
 11
262.5039433356
 21
467.6861062564
  0
LINE
  5
2A5
100
AcDbEntity
  8
0
100
AcDbLine
 62
7
  6
CONTINUOUS
 10
297.0053518209
 20
457.8877587117
 11
297.0053518209
 21
458.0877587117
  0
LINE
  5
2A6
100
AcDbEntity
  8
0
100
AcDbLine
 62
7
  6
CONTINUOUS
 10
298.6738047186
 20
457.8877587117
 11
298.6738047186
 21
458.0877587117
  0
LINE
  5
2A7
100
AcDbEntity
  8
0
100
AcDbLine
 62
7
  6
CONTINUOUS
 10
299.3180843536
 20
457.8877587117
 11
299.3180843536
 21
458.0877587117
  0
LINE
  5
2A8
100
AcDbEntity
  8
0
100
AcDbLine
 62
7
  6
CONTINUOUS
 10
302.6908323821
 20
457.8877587117
 11
302.6908323821
 21
458.0877587117
  0
LINE
  5
2A9
100
AcDbEntity
  8
0
100
AcDbLine
 62
7
  6
CONTINUOUS
 10
302.7213742684
 20
457.8877587117
 11
302.7213742684
 21
458.0877587117
  0
LINE
  5
2AA
100
AcDbEntity
  8
0
100
AcDbLine
 62
7
  6
CONTINUOUS
 10
302.8483605412
 20
457.8877587117
 11
302.8483605412
 21
458.0877587117
  0
LINE
  5
2AB
100
AcDbEntity
  8
0
100
AcDbLine
 62
7
  6
CONTINUOUS
 10
303.0794272983
 20
457.8877587117
 11
303.0794272983
 21
458.0877587117
  0
LINE
  5
2AC
100
AcDbEntity
  8
0
100
AcDbLine
 62
7
  6
CONTINUOUS
 10
303.9172941982
 20
457.8877587117
 11
303.9172941982
 21
458.0877587117
  0
LINE
  5
2AD
100
AcDbEntity
  8
0
100
AcDbLine
 62
7
  6
CONTINUOUS
 10
304.2448054787
 20
457.8877587117
 11
304.2448054787
 21
458.0877587117
  0
LINE
  5
2AE
100
AcDbEntity
  8
0
100
AcDbLine
 62
7
  6
CONTINUOUS
 10
304.5646815499
 20
457.8877587117
 11
304.5646815499
 21
458.0877587117
  0
LINE
  5
2AF
100
AcDbEntity
  8
0
100
AcDbLine
 62
7
  6
CONTINUOUS
 10
304.9810019881
 20
457.8877587117
 11
304.9810019881
 21
458.0877587117
  0
LINE
  5
2B0
100
AcDbEntity
  8
KONSTRUKTIONSELEMENTE
100
AcDbLine
 62
7
  6
CONTINUOUS
 10
305.2164514174
 20
236.2800635571
 11
305.2164514174
 21
221.1723684025
  0
LINE
  5
2B1
100
AcDbEntity
  8
BEZUGSACHSEN
100
AcDbLine
 62
7
  6
CONTINUOUS
 10
305.2164514174
 20
443.3877587117
 11
305.2164514174
 21
456.2800635571
  0
LINE
  5
2B2
100
AcDbEntity
  8
0
100
AcDbLine
 62
7
  6
CONTINUOUS
 10
305.28560685
 20
457.8877587117
 11
305.28560685
 21
458.0877587117
  0
LINE
  5
2B3
100
AcDbEntity
  8
0
100
AcDbLine
 62
7
  6
CONTINUOUS
 10
305.5825766591
 20
457.8877587117
 11
305.5825766591
 21
458.0877587117
  0
LINE
  5
2B4
100
AcDbEntity
  8
0
100
AcDbLine
 62
7
  6
CONTINUOUS
 10
306.7399134771
 20
457.8877587117
 11
306.7399134771
 21
458.0877587117
  0
LINE
  5
2B5
100
AcDbEntity
  8
BEZUGSACHSEN
100
AcDbLine
 62
7
  6
CONTINUOUS
 10
306.8241465719
 20
179.3877587117
 11
306.8241465719
 21
213.8877587117
  0
LINE
  5
2B6
100
AcDbEntity
  8
BEZUGSACHSEN
100
AcDbLine
 62
7
  6
CONTINUOUS
 10
306.8241465719
 20
241.8877587117
 11
306.8241465719
 21
387.8877587117
  0
LINE
  5
2B7
100
AcDbEntity
  8
0
100
AcDbLine
 62
7
  6
CONTINUOUS
 10
307.617051576
 20
457.8877587117
 11
307.617051576
 21
458.0877587117
  0
LINE
  5
2B8
100
AcDbEntity
  8
0
100
AcDbLine
 62
7
  6
CONTINUOUS
 10
307.7956147077
 20
457.8877587117
 11
307.7956147077
 21
458.0877587117
  0
LINE
  5
2B9
100
AcDbEntity
  8
0
100
AcDbLine
 62
7
  6
CONTINUOUS
 10
308.5098672347
 20
457.8877587117
 11
308.5098672347
 21
458.0877587117
  0
LINE
  5
2BA
100
AcDbEntity
  8
0
100
AcDbLine
 62
7
  6
CONTINUOUS
 10
308.6884304515
 20
457.8877587117
 11
308.6884304515
 21
458.0877587117
  0
LINE
  5
2BB
100
AcDbEntity
  8
0
100
AcDbLine
 62
7
  6
CONTINUOUS
 10
308.8879367031
 20
457.8877587117
 11
308.8879367031
 21
458.0877587117
  0
LINE
  5
2BC
100
AcDbEntity
  8
0
100
AcDbLine
 62
7
  6
CONTINUOUS
 10
309.1459122217
 20
457.8877587117
 11
309.1459122217
 21
458.0877587117
  0
LINE
  5
2BD
100
AcDbEntity
  8
0
100
AcDbLine
 62
7
  6
CONTINUOUS
 10
309.2651874594
 20
457.8877587117
 11
309.2651874594
 21
458.0877587117
  0
LINE
  5
2BE
100
AcDbEntity
  8
0
100
AcDbLine
 62
7
  6
CONTINUOUS
 10
309.4830423537
 20
457.8877587117
 11
309.4830423537
 21
458.0877587117
  0
LINE
  5
2BF
100
AcDbEntity
  8
0
100
AcDbLine
 62
7
  6
CONTINUOUS
 10
325.8749754641
 20
463.4125107713
 11
326.0018935676
 21
464.0810694544
  0
LINE
  5
2C0
100
AcDbEntity
  8
RUNDUNGEN
100
AcDbLine
 62
7
  6
CONTINUOUS
 10
344.5512500058
 20
511.0108684861
 11
336.580068835
 21
481.2620153606
  0
LINE
  5
2C1
100
AcDbEntity
  8
0
100
AcDbLine
 62
7
  6
CONTINUOUS
 10
330.4617441239
 20
453.343890222
 11
330.6634279433
 21
453.8404998666
  0
LINE
  5
2C2
100
AcDbEntity
  8
0
100
AcDbLine
 62
7
  6
CONTINUOUS
 10
338.2006850558
 20
451.392977516
 11
338.6040524487
 21
452.3861966982
  0
LINE
  5
2C3
100
AcDbEntity
  8
0
100
AcDbLine
 62
7
  6
CONTINUOUS
 10
255.2899930386
 20
455.8974081162
 11
254.9127016228
 21
456.4703741168
  0
LINE
  5
2C4
100
AcDbEntity
  8
0
100
AcDbLine
 62
7
  6
CONTINUOUS
 10
262.9280919057
 20
458.0966262969
 11
262.5247244513
 21
459.0898455058
  0
LINE
  5
2C5
100
AcDbEntity
  8
0
100
AcDbLine
 62
7
  6
CONTINUOUS
 10
261.4016108476
 20
467.5520409425
 11
261.6032941162
 21
467.0554303675
  0
LINE
  5
2C6
100
AcDbEntity
  8
0
100
AcDbLine
 62
7
  6
CONTINUOUS
 10
310.4241465719
 20
435.8877587117
 11
310.4241465719
 21
435.6377587117
  0
LINE
  5
2C7
100
AcDbEntity
  8
0
100
AcDbLine
 62
7
  6
CONTINUOUS
 10
310.4241465719
 20
397.1377587117
 11
310.4241465719
 21
396.8877587117
  0
LINE
  5
2C8
100
AcDbEntity
  8
KONSTRUKTIONSELEMENTE
100
AcDbLine
 62
7
  6
CONTINUOUS
 10
311.4241465719
 20
442.8877587117
 11
311.4241465719
 21
443.3877587117
  0
LINE
  5
2C9
100
AcDbEntity
  8
BEZUGSACHSEN
100
AcDbLine
 62
7
  6
CONTINUOUS
 10
311.4241465719
 20
442.8877587117
 11
311.4241465719
 21
443.3877587117
  0
LINE
  5
2CA
100
AcDbEntity
  8
KONSTRUKTIONSELEMENTE
100
AcDbLine
 62
7
  6
CONTINUOUS
 10
315.6087562628
 20
236.2800635571
 11
315.6087562628
 21
221.1723684025
  0
LINE
  5
2CB
100
AcDbEntity
  8
BEZUGSACHSEN
100
AcDbLine
 62
7
  6
CONTINUOUS
 10
315.6087562628
 20
443.3877587117
 11
315.6087562628
 21
456.2800635571
  0
LINE
  5
2CC
100
AcDbEntity
  8
KONSTRUKTIONSELEMENTE
100
AcDbLine
 62
7
  6
CONTINUOUS
 10
316.8241465719
 20
241.8877587117
 11
316.8241465719
 21
237.8877587117
  0
LINE
  5
2CD
100
AcDbEntity
  8
0
100
AcDbLine
 62
7
  6
CONTINUOUS
 10
317.9980493958
 20
432.8377587117
 11
317.9980493958
 21
435.3377587117
  0
LINE
  5
2CE
100
AcDbEntity
  8
0
100
AcDbLine
 62
7
  6
CONTINUOUS
 10
319.9131605036
 20
435.3377587117
 11
319.9131605036
 21
432.8377587117
  0
LINE
  5
2CF
100
AcDbEntity
  8
0
100
AcDbLine
 62
7
  6
CONTINUOUS
 10
325.0751682454
 20
464.2914909371
 11
324.9221737872
 21
463.2026784696
  0
LINE
  5
2D0
100
AcDbEntity
  8
0
100
AcDbLine
 62
7
  6
CONTINUOUS
 10
330.8076638669
 20
461.6726084925
 11
330.9606584394
 21
462.761420571
  0
LINE
  5
2D1
100
AcDbEntity
  8
0
100
AcDbLine
 62
7
  6
CONTINUOUS
 10
333.7182218447
 20
463.1426126313
 11
333.8712162033
 21
464.2314252018
  0
LINE
  5
2D2
100
AcDbEntity
  8
0
100
AcDbLine
 62
7
  6
CONTINUOUS
 10
330.0078567096
 20
462.551588685
 11
329.8809386062
 21
461.883030002
  0
LINE
  5
2D3
100
AcDbEntity
  8
0
100
AcDbLine
 62
7
  6
CONTINUOUS
 10
329.7367025596
 20
454.0509213226
 11
329.6097843947
 21
453.3823626129
  0
LINE
  5
2D4
100
AcDbEntity
  8
0
100
AcDbLine
 62
7
  6
CONTINUOUS
 10
332.9184146875
 20
464.0215928238
 11
332.791496584
 21
463.3530341408
  0
LINE
  5
2D5
100
AcDbEntity
  8
0
100
AcDbLine
 62
7
  6
CONTINUOUS
 10
334.2660237834
 20
451.3177993696
 11
334.1391056799
 21
450.6492406866
  0
LINE
  5
2D6
100
AcDbEntity
  8
0
100
AcDbLine
 62
7
  6
CONTINUOUS
 10
333.3741332424
 20
445.205178139
 11
333.2472151082
 21
444.5366194426
  0
LINE
  5
2D7
100
AcDbEntity
  8
0
100
AcDbLine
 62
7
  6
CONTINUOUS
 10
334.073098399
 20
444.0778936696
 11
334.2000165024
 21
444.7464523526
  0
LINE
  5
2D8
100
AcDbEntity
  8
0
100
AcDbLine
 62
7
  6
CONTINUOUS
 10
337.7034036572
 20
453.0168716032
 11
337.5764855537
 21
452.3483129202
  0
LINE
  5
2D9
100
AcDbEntity
  8
0
100
AcDbLine
 62
7
  6
CONTINUOUS
 10
264.8241465719
 20
387.8877587117
 11
324.8241465719
 21
387.8877587117
  0
LINE
  5
2DA
100
AcDbEntity
  8
RUNDUNGEN
100
AcDbLine
 62
7
  6
CONTINUOUS
 10
341.224661629
 20
393.3877587117
 11
332.8241465719
 21
393.3877587117
  0
LINE
  5
2DB
100
AcDbEntity
  8
RUNDUNGEN
100
AcDbLine
 62
7
  6
CONTINUOUS
 10
256.8241465719
 20
393.3877587117
 11
248.4236315149
 21
393.3877587117
  0
LINE
  5
2DC
100
AcDbEntity
  8
0
100
AcDbLine
 62
7
  6
CONTINUOUS
 10
264.8241465719
 20
396.8877587117
 11
324.8241465719
 21
396.8877587117
  0
LINE
  5
2DD
100
AcDbEntity
  8
RUNDUNGEN
100
AcDbLine
 62
7
  6
CONTINUOUS
 10
263.3241465719
 20
397.1377587117
 11
326.3241465719
 21
397.1377587117
  0
LINE
  5
2DE
100
AcDbEntity
  8
0
100
AcDbLine
 62
7
  6
CONTINUOUS
 10
326.6256985103
 20
397.3877587117
 11
326.3241465719
 21
397.3877587117
  0
LINE
  5
2DF
100
AcDbEntity
  8
BEZUGSACHSEN
100
AcDbLine
 62
7
  6
CONTINUOUS
 10
263.3241465719
 20
397.3877587117
 11
263.0216884028
 21
397.3877587117
  0
LWPOLYLINE
  5
2E0
100
AcDbEntity
  8
RUNDUNGEN
100
AcDbPolyline
 62
7
  6
CONTINUOUS
 90
34
 70
0
 10
326.6273714345
 20
397.3877589422
 10
326.6379485961
 20
397.3877278651
 10
326.7158379043
 20
397.3855836495
 10
326.7927043199
 20
397.3801498086
 10
326.8684140531
 20
397.3715466021
 10
326.9428430772
 20
397.359898207
 10
327.0158770499
 20
397.3453320652
 10
327.0874112
 20
397.3279782584
 10
327.1573501807
 20
397.3079689106
 10
327.225607895
 20
397.2854376195
 10
327.2921072929
 20
397.2605189174
 10
327.3567801462
 20
397.2333477623
 10
327.4195668012
 20
397.2040590593
 10
327.4804159135
 20
397.1727872117
 10
327.5392841669
 20
397.139665703
 10
327.5961359747
 20
397.1048267115
 10
327.6509431764
 20
397.0684007502
 10
327.7036847194
 20
397.03051634
 10
327.7543463373
 20
396.9912997095
 10
327.8029202212
 20
396.950874523
 10
327.8494062996
 20
396.909360147
 10
327.8938038443
 20
396.8668788844
 10
327.9361318463
 20
396.823536017
 10
327.9763663546
 20
396.7794851769
 10
328.0145102437
 20
396.7348616209
 10
328.0505545232
 20
396.6898244783
 10
328.0845052853
 20
396.6445273214
 10
328.116379298
 20
396.5991213714
 10
328.1462037136
 20
396.5537541788
 10
328.1740079264
 20
396.5085812635
 10
328.1998262202
 20
396.4637635192
 10
328.2237232697
 20
396.4194191334
 10
328.2457549908
 20
396.3756881321
 10
328.2660149172
 20
396.3326386158
  0
LINE
  5
2E1
100
AcDbEntity
  8
0
100
AcDbLine
 62
7
  6
CONTINUOUS
 10
250.2668531449
 20
450.1076806372
 11
257.3241465719
 21
443.7677587117
  0
LINE
  5
2E2
100
AcDbEntity
  8
0
100
AcDbLine
 62
7
  6
CONTINUOUS
 10
254.1128944655
 20
455.5913939243
 11
254.6657926167
 21
454.942071942
  0
LINE
  5
2E3
100
AcDbEntity
  8
0
100
AcDbLine
 62
7
  6
CONTINUOUS
 10
262.5039433356
 20
467.6861062564
 11
262.0258107775
 21
468.5073773306
  0
LINE
  5
2E4
100
AcDbEntity
  8
0
100
AcDbLine
 62
7
  6
CONTINUOUS
 10
325.923664588
 20
462.8203082839
 11
325.8749754641
 21
463.4125107713
  0
LINE
  5
2E5
100
AcDbEntity
  8
0
100
AcDbLine
 62
7
  6
CONTINUOUS
 10
334.9649893063
 20
450.1905138896
 11
334.9423766515
 21
451.2029697725
  0
LINE
  5
2E6
100
AcDbEntity
  8
0
100
AcDbLine
 62
7
  6
CONTINUOUS
 10
323.8241465719
 20
442.8877587117
 11
323.8241465719
 21
435.8877587117
  0
LINE
  5
2E7
100
AcDbEntity
  8
0
100
AcDbLine
 62
7
  6
CONTINUOUS
 10
324.8241465719
 20
396.8877587117
 11
324.8241465719
 21
387.8877587117
  0
LINE
  5
2E8
100
AcDbEntity
  8
RUNDUNGEN
100
AcDbLine
 62
7
  6
CONTINUOUS
 10
326.3241465719
 20
430.8377587117
 11
326.3241465719
 21
397.1377587117
  0
LINE
  5
2E9
100
AcDbEntity
  8
RUNDUNGEN
100
AcDbLine
 62
7
  6
CONTINUOUS
 10
327.8241465719
 20
398.3877587117
 11
327.8241465719
 21
400.3977649695
  0
LINE
  5
2EA
100
AcDbEntity
  8
RUNDUNGEN
100
AcDbLine
 62
7
  6
CONTINUOUS
 10
327.8241465719
 20
416.3777524539
 11
327.8241465719
 21
430.1076273132
  0
LINE
  5
2EB
100
AcDbEntity
  8
0
100
AcDbLine
 62
7
  6
CONTINUOUS
 10
329.6097843947
 20
453.3823626129
 11
329.5576318382
 21
452.5418548179
  0
LINE
  5
2EC
100
AcDbEntity
  8
0
100
AcDbLine
 62
7
  6
CONTINUOUS
 10
330.4356680826
 20
452.9236358426
 11
330.4617441239
 21
453.343890222
  0
LINE
  5
2ED
100
AcDbEntity
  8
0
100
AcDbLine
 62
7
  6
CONTINUOUS
 10
338.6040524487
 20
452.3861966982
 11
338.6562049591
 21
453.2267044731
  0
LINE
  5
2EE
100
AcDbEntity
  8
RUNDUNGEN
100
AcDbLine
 62
7
  6
CONTINUOUS
 10
353.7791004284
 20
420.1512946445
 11
345.966279905
 21
396.8012354297
  0
LINE
  5
2EF
100
AcDbEntity
  8
0
100
AcDbLine
 62
7
  6
CONTINUOUS
 10
255.3368506608
 20
446.8808943925
 11
251.2683437847
 21
450.4900507467
  0
LINE
  5
2F0
100
AcDbEntity
  8
0
100
AcDbLine
 62
7
  6
CONTINUOUS
 10
257.7727392745
 20
444.7994512954
 11
255.9645140841
 21
446.4035207642
  0
LINE
  5
2F1
100
AcDbEntity
  8
0
100
AcDbLine
 62
7
  6
CONTINUOUS
 10
329.9591676927
 20
463.1437909264
 11
330.0078567096
 21
462.551588685
  0
LINE
  5
2F2
100
AcDbEntity
  8
0
100
AcDbLine
 62
7
  6
CONTINUOUS
 10
333.2472151082
 20
444.5366194426
 11
333.2959042168
 21
443.9444169485
  0
LINE
  5
2F3
100
AcDbEntity
  8
0
100
AcDbLine
 62
7
  6
CONTINUOUS
 10
332.8697255635
 20
464.6137953112
 11
332.9184146875
 21
464.0215928238
  0
LINE
  5
2F4
100
AcDbEntity
  8
0
100
AcDbLine
 62
7
  6
CONTINUOUS
 10
254.6805414235
 20
413.4908924132
 11
255.099877542
 21
413.5107187813
  0
LINE
  5
2F5
100
AcDbEntity
  8
0
100
AcDbLine
 62
7
  6
CONTINUOUS
 10
247.8805414235
 20
413.4908924132
 11
248.299877542
 21
413.5107187813
  0
LINE
  5
2F6
100
AcDbEntity
  8
0
100
AcDbLine
 62
7
  6
CONTINUOUS
 10
251.9649186757
 20
416.8906685297
 11
254.299877542
 21
416.8906685297
  0
LINE
  5
2F7
100
AcDbEntity
  8
0
100
AcDbLine
 62
7
  6
CONTINUOUS
 10
254.299877542
 20
418.099336986
 11
251.9668347852
 21
418.099336986
  0
LINE
  5
2F8
100
AcDbEntity
  8
RUNDUNGEN
100
AcDbLine
 62
7
  6
CONTINUOUS
 10
258.5309729238
 20
425.1377587117
 11
260.0241465719
 21
425.1377587117
  0
LINE
  5
2F9
100
AcDbEntity
  8
RUNDUNGEN
100
AcDbLine
 62
7
  6
CONTINUOUS
 10
329.6241465719
 20
425.1377587117
 11
331.11732022
 21
425.1377587117
  0
LINE
  5
2FA
100
AcDbEntity
  8
0
100
AcDbLine
 62
7
  6
CONTINUOUS
 10
254.6657926167
 20
454.942071942
 11
255.4690636524
 21
454.3883416582
  0
LINE
  5
2FB
100
AcDbEntity
  8
0
100
AcDbLine
 62
7
  6
CONTINUOUS
 10
262.5247244513
 20
459.0898455058
 11
261.7214537846
 21
459.6435756291
  0
LINE
  5
2FC
100
AcDbEntity
  8
0
100
AcDbLine
 62
7
  6
CONTINUOUS
 10
255.9176563549
 20
455.4200342419
 11
255.2899930386
 21
455.8974081162
  0
LINE
  5
2FD
100
AcDbEntity
  8
0
100
AcDbLine
 62
7
  6
CONTINUOUS
 10
261.272861082
 20
458.6118830454
 11
261.7249171711
 21
458.2108653668
  0
LINE
  5
2FE
100
AcDbEntity
  8
0
100
AcDbLine
 62
7
  6
CONTINUOUS
 10
260.9495543307
 20
467.9530576373
 11
261.4016108476
 21
467.5520409425
  0
LINE
  5
2FF
100
AcDbEntity
  8
0
100
AcDbLine
 62
7
  6
CONTINUOUS
 10
262.0258107775
 20
468.5073773306
 11
261.5737542606
 21
468.9083940254
  0
LINE
  5
300
100
AcDbEntity
  8
0
100
AcDbLine
 62
7
  6
CONTINUOUS
 10
333.2959042168
 20
443.9444169485
 11
333.5688896766
 21
442.8363681625
  0
LINE
  5
301
100
AcDbEntity
  8
0
100
AcDbLine
 62
7
  6
CONTINUOUS
 10
324.9221737872
 20
463.2026784696
 11
325.1203938144
 21
462.2665784066
  0
LINE
  5
302
100
AcDbEntity
  8
0
100
AcDbLine
 62
7
  6
CONTINUOUS
 10
330.6338879647
 20
451.9875361552
 11
330.4356680826
 21
452.9236358426
  0
LINE
  5
303
100
AcDbEntity
  8
0
100
AcDbLine
 62
7
  6
CONTINUOUS
 10
334.2713186475
 20
443.1417929716
 11
334.073098399
 21
444.0778936696
  0
LINE
  5
304
100
AcDbEntity
  8
0
100
AcDbLine
 62
7
  6
CONTINUOUS
 10
330.9606584394
 20
462.761420571
 11
330.7624383434
 21
463.6975207503
  0
LINE
  5
305
100
AcDbEntity
  8
0
100
AcDbLine
 62
7
  6
CONTINUOUS
 10
329.5576318382
 20
452.5418548179
 11
329.6810861119
 21
451.7777042158
  0
LINE
  5
306
100
AcDbEntity
  8
RUNDUNGEN
100
AcDbLine
 62
7
  6
CONTINUOUS
 10
324.3241465719
 20
432.8377587117
 11
312.3240899781
 21
432.8377587117
  0
LINE
  5
307
100
AcDbEntity
  8
RUNDUNGEN
100
AcDbLine
 62
7
  6
CONTINUOUS
 10
277.3240964605
 20
432.8377587117
 11
265.3241465719
 21
432.8377587117
  0
LINE
  5
308
100
AcDbEntity
  8
0
100
AcDbLine
 62
7
  6
CONTINUOUS
 10
261.1557086276
 20
432.8377587117
 11
265.3241465719
 21
432.8377587117
  0
LINE
  5
309
100
AcDbEntity
  8
0
100
AcDbLine
 62
7
  6
CONTINUOUS
 10
324.3241465719
 20
432.8377587117
 11
328.4925845163
 21
432.8377587117
  0
LINE
  5
30A
100
AcDbEntity
  8
0
100
AcDbLine
 62
7
  6
CONTINUOUS
 10
261.1557086276
 20
435.3377587117
 11
274.2572068327
 21
435.3377587117
  0
LINE
  5
30B
100
AcDbEntity
  8
0
100
AcDbLine
 62
7
  6
CONTINUOUS
 10
315.3913147142
 20
435.3377587117
 11
328.4925845163
 21
435.3377587117
  0
LINE
  5
30C
100
AcDbEntity
  8
0
100
AcDbLine
 62
7
  6
CONTINUOUS
 10
275.0674724814
 20
435.6377587117
 11
275.2269933323
 21
435.6377587117
  0
LINE
  5
30D
100
AcDbEntity
  8
RUNDUNGEN
100
AcDbLine
 62
7
  6
CONTINUOUS
 10
275.2269933323
 20
435.6377587117
 11
314.4212998116
 21
435.6377587117
  0
LINE
  5
30E
100
AcDbEntity
  8
0
100
AcDbLine
 62
7
  6
CONTINUOUS
 10
314.4212998116
 20
435.6377587117
 11
314.5808206625
 21
435.6377587117
  0
LINE
  5
30F
100
AcDbEntity
  8
0
100
AcDbLine
 62
7
  6
CONTINUOUS
 10
265.8241465719
 20
435.8877587117
 11
323.8241465719
 21
435.8877587117
  0
LINE
  5
310
100
AcDbEntity
  8
RUNDUNGEN
100
AcDbLine
 62
7
  6
CONTINUOUS
 10
330.8790541989
 20
437.6377587117
 11
328.4217715515
 21
437.6377587117
  0
LINE
  5
311
100
AcDbEntity
  8
RUNDUNGEN
100
AcDbLine
 62
7
  6
CONTINUOUS
 10
261.2265216297
 20
437.6377587117
 11
258.769238945
 21
437.6377587117
  0
LINE
  5
312
100
AcDbEntity
  8
0
100
AcDbLine
 62
7
  6
CONTINUOUS
 10
255.4690636524
 20
454.3883416582
 11
258.1031723087
 21
453.2429986175
  0
LINE
  5
313
100
AcDbEntity
  8
0
100
AcDbLine
 62
7
  6
CONTINUOUS
 10
258.5517650112
 20
454.2746912012
 11
255.9176563549
 21
455.4200342419
  0
LINE
  5
314
100
AcDbEntity
  8
0
100
AcDbLine
 62
7
  6
CONTINUOUS
 10
256.1733235501
 20
463.6916325791
 11
264.4268642196
 21
460.1028909587
  0
LINE
  5
315
100
AcDbEntity
  8
RUNDUNGEN
100
AcDbLine
 62
7
  6
CONTINUOUS
 10
324.9212454331
 20
444.0639742613
 11
320.5258278166
 21
454.1727427086
  0
LINE
  5
316
100
AcDbEntity
  8
0
100
AcDbLine
 62
7
  6
CONTINUOUS
 10
326.1601829748
 20
456.9938757071
 11
326.5340102982
 21
456.1341317234
  0
LINE
  5
317
100
AcDbEntity
  8
0
100
AcDbLine
 62
7
  6
CONTINUOUS
 10
325.1203938144
 20
462.2665784066
 11
325.4942210308
 21
461.4068346688
  0
LINE
  5
318
100
AcDbEntity
  8
0
100
AcDbLine
 62
7
  6
CONTINUOUS
 10
329.6810861119
 20
451.7777042158
 11
330.2792100005
 21
450.4021134482
  0
LINE
  5
319
100
AcDbEntity
  8
0
100
AcDbLine
 62
7
  6
CONTINUOUS
 10
331.0824806673
 20
450.9558435716
 11
330.6338879647
 21
451.9875361552
  0
LINE
  5
31A
100
AcDbEntity
  8
0
100
AcDbLine
 62
7
  6
CONTINUOUS
 10
328.9142827476
 20
455.9423573981
 11
328.5404552103
 21
456.8021018737
  0
LINE
  5
31B
100
AcDbEntity
  8
0
100
AcDbLine
 62
7
  6
CONTINUOUS
 10
326.4470227767
 20
461.6166668543
 11
325.923664588
 21
462.8203082839
  0
LINE
  5
31C
100
AcDbEntity
  8
0
100
AcDbLine
 62
7
  6
CONTINUOUS
 10
330.939876805
 20
454.1651613497
 11
330.5660496955
 21
455.0249048414
  0
LINE
  5
31D
100
AcDbEntity
  8
0
100
AcDbLine
 62
7
  6
CONTINUOUS
 10
333.6939767917
 20
453.1136425487
 11
333.9930383082
 21
452.4258481489
  0
LINE
  5
31E
100
AcDbEntity
  8
0
100
AcDbLine
 62
7
  6
CONTINUOUS
 10
329.4358095041
 20
464.3474323561
 11
329.9591676927
 21
463.1437909264
  0
LINE
  5
31F
100
AcDbEntity
  8
0
100
AcDbLine
 62
7
  6
CONTINUOUS
 10
334.6954672176
 20
452.7312729312
 11
334.3964057011
 21
453.4190673311
  0
LINE
  5
320
100
AcDbEntity
  8
0
100
AcDbLine
 62
7
  6
CONTINUOUS
 10
336.8410529103
 20
448.7572140037
 11
337.4391759433
 21
447.381625204
  0
LINE
  5
321
100
AcDbEntity
  8
0
100
AcDbLine
 62
7
  6
CONTINUOUS
 10
337.8130034806
 20
446.5218807284
 11
338.6354237204
 21
444.630443669
  0
LINE
  5
322
100
AcDbEntity
  8
0
100
AcDbLine
 62
7
  6
CONTINUOUS
 10
338.6562049591
 20
453.2267044731
 11
338.3084543187
 21
454.5067013604
  0
LINE
  5
323
100
AcDbEntity
  8
0
100
AcDbLine
 62
7
  6
CONTINUOUS
 10
333.9930383082
 20
452.4258481489
 11
334.2660237834
 21
451.3177993696
  0
LINE
  5
324
100
AcDbEntity
  8
0
100
AcDbLine
 62
7
  6
CONTINUOUS
 10
333.8712162033
 20
464.2314252018
 11
333.6729962142
 21
465.1675251351
  0
LINE
  5
325
100
AcDbEntity
  8
0
100
AcDbLine
 62
7
  6
CONTINUOUS
 10
337.5051833472
 20
453.9529722745
 11
337.7034036572
 21
453.0168716032
  0
LINE
  5
326
100
AcDbEntity
  8
0
100
AcDbLine
 62
7
  6
CONTINUOUS
 10
329.9695582465
 20
467.4419208065
 11
328.6655422024
 21
467.0793762064
  0
LINE
  5
327
100
AcDbEntity
  8
0
100
AcDbLine
 62
7
  6
CONTINUOUS
 10
336.4446122903
 20
450.6294153462
 11
337.2218072206
 21
450.7628900528
  0
LINE
  5
328
100
AcDbEntity
  8
0
100
AcDbLine
 62
7
  6
CONTINUOUS
 10
335.8081907849
 20
456.8953376343
 11
335.0309967102
 21
456.76186096
  0
LINE
  5
329
100
AcDbEntity
  8
0
100
AcDbLine
 62
7
  6
CONTINUOUS
 10
332.6560189405
 20
448.7776288071
 11
333.2576059107
 21
448.8347493393
  0
LINE
  5
32A
100
AcDbEntity
  8
0
100
AcDbLine
 62
7
  6
CONTINUOUS
 10
259.0559740384
 20
453.0331667315
 11
259.9079338291
 21
453.0716390956
  0
LINE
  5
32B
100
AcDbEntity
  8
0
100
AcDbLine
 62
7
  6
CONTINUOUS
 10
265.8241465719
 20
442.8877587117
 11
323.8241465719
 21
442.8877587117
  0
LINE
  5
32C
100
AcDbEntity
  8
KONSTRUKTIONSELEMENTE
100
AcDbLine
 62
7
  6
CONTINUOUS
 10
274.0395368811
 20
443.3877587117
 11
315.6087562628
 21
443.3877587117
  0
LINE
  5
32D
100
AcDbEntity
  8
0
100
AcDbLine
 62
7
  6
CONTINUOUS
 10
333.3954159599
 20
443.5404984897
 11
334.1868923597
 21
443.5404984897
  0
LINE
  5
32E
100
AcDbEntity
  8
0
100
AcDbLine
 62
7
  6
CONTINUOUS
 10
332.8837788012
 20
449.6944928311
 11
332.4577987535
 21
449.7137295319
  0
LINE
  5
32F
100
AcDbEntity
  8
0
100
AcDbLine
 62
7
  6
CONTINUOUS
 10
336.8479796833
 20
451.6226345284
 11
335.9960200156
 21
451.661106946
  0
LINE
  5
330
100
AcDbEntity
  8
0
100
AcDbLine
 62
7
  6
CONTINUOUS
 10
260.3147645176
 20
450.6457091056
 11
250.8649767126
 21
451.4832706668
  0
LINE
  5
331
100
AcDbEntity
  8
0
100
AcDbLine
 62
7
  6
CONTINUOUS
 10
257.4598231104
 20
449.8424960841
 11
259.866171815
 21
449.6140165219
  0
LINE
  5
332
100
AcDbEntity
  8
0
100
AcDbLine
 62
7
  6
CONTINUOUS
 10
251.2683437847
 20
450.4900507467
 11
256.6826288219
 21
449.9759722665
  0
LINE
  5
333
100
AcDbEntity
  8
0
100
AcDbLine
 62
7
  6
CONTINUOUS
 10
331.9796660723
 20
448.8924584042
 11
332.6560189405
 21
448.7776288071
  0
LINE
  5
334
100
AcDbEntity
  8
0
100
AcDbLine
 62
7
  6
CONTINUOUS
 10
259.3289595136
 20
454.1412155108
 11
258.5517650112
 21
454.2746912012
  0
LINE
  5
335
100
AcDbEntity
  8
0
100
AcDbLine
 62
7
  6
CONTINUOUS
 10
258.1031723087
 20
453.2429986175
 11
259.0559740384
 21
453.0331667315
  0
LINE
  5
336
100
AcDbEntity
  8
0
100
AcDbLine
 62
7
  6
CONTINUOUS
 10
257.6824873095
 20
461.3997682345
 11
256.7296850878
 21
461.6096003344
  0
LINE
  5
337
100
AcDbEntity
  8
0
100
AcDbLine
 62
7
  6
CONTINUOUS
 10
264.8754573499
 20
461.1345845263
 11
261.1877050836
 21
462.7380648475
  0
LINE
  5
338
100
AcDbEntity
  8
0
100
AcDbLine
 62
7
  6
CONTINUOUS
 10
260.1340617195
 20
463.196202021
 11
257.4999528172
 21
464.3415451687
  0
LINE
  5
339
100
AcDbEntity
  8
0
100
AcDbLine
 62
7
  6
CONTINUOUS
 10
260.4227321567
 20
468.182126438
 11
260.9495543307
 21
467.9530576373
  0
LINE
  5
33A
100
AcDbEntity
  8
0
100
AcDbLine
 62
7
  6
CONTINUOUS
 10
261.5737542606
 20
468.9083940254
 11
260.8713248593
 21
469.2138190216
  0
LINE
  5
33B
100
AcDbEntity
  8
0
100
AcDbLine
 62
7
  6
CONTINUOUS
 10
330.2792100005
 20
450.4021134482
 11
330.7538787598
 21
449.7906752507
  0
LINE
  5
33C
100
AcDbEntity
  8
0
100
AcDbLine
 62
7
  6
CONTINUOUS
 10
331.6319150041
 20
450.1724562754
 11
331.0824806673
 21
450.9558435716
  0
LINE
  5
33D
100
AcDbEntity
  8
0
100
AcDbLine
 62
7
  6
CONTINUOUS
 10
325.4942210308
 20
461.4068346688
 11
326.043655597
 21
460.6234468874
  0
LINE
  5
33E
100
AcDbEntity
  8
0
100
AcDbLine
 62
7
  6
CONTINUOUS
 10
336.656687066
 20
455.4241549544
 11
337.2061218307
 21
454.6407666743
  0
LINE
  5
33F
100
AcDbEntity
  8
0
100
AcDbLine
 62
7
  6
CONTINUOUS
 10
330.3886111269
 20
464.557264488
 11
329.8391766296
 21
465.3406521532
  0
LINE
  5
340
100
AcDbEntity
  8
0
100
AcDbLine
 62
7
  6
CONTINUOUS
 10
338.1589231327
 20
454.8505995442
 11
337.4599580376
 21
455.9778840404
  0
LINE
  5
341
100
AcDbEntity
  8
0
100
AcDbLine
 62
7
  6
CONTINUOUS
 10
330.7624383434
 20
463.6975207503
 11
330.3886111269
 21
464.557264488
  0
LINE
  5
342
100
AcDbEntity
  8
0
100
AcDbLine
 62
7
  6
CONTINUOUS
 10
339.3378526299
 20
444.9358684513
 11
338.51543239
 21
446.8273055107
  0
LINE
  5
343
100
AcDbEntity
  8
0
100
AcDbLine
 62
7
  6
CONTINUOUS
 10
338.1416048527
 20
447.6870499864
 11
337.5434818197
 21
449.0626387861
  0
LINE
  5
344
100
AcDbEntity
  8
0
100
AcDbLine
 62
7
  6
CONTINUOUS
 10
332.4142058741
 20
462.7800678622
 11
332.7880329836
 21
461.9203243704
  0
LINE
  5
345
100
AcDbEntity
  8
0
100
AcDbLine
 62
7
  6
CONTINUOUS
 10
335.0309967102
 20
456.76186096
 11
335.4048238198
 21
455.9021174683
  0
LINE
  5
346
100
AcDbEntity
  8
0
100
AcDbLine
 62
7
  6
CONTINUOUS
 10
339.9202907008
 20
447.4381552893
 11
339.5464631634
 21
448.297899765
  0
LINE
  5
347
100
AcDbEntity
  8
0
100
AcDbLine
 62
7
  6
CONTINUOUS
 10
332.421132861
 20
465.6454878949
 11
332.8697255635
 21
464.6137953112
  0
LINE
  5
348
100
AcDbEntity
  8
0
100
AcDbLine
 62
7
  6
CONTINUOUS
 10
337.2061218307
 20
454.6407666743
 11
337.5051833472
 21
453.9529722745
  0
LINE
  5
349
100
AcDbEntity
  8
0
100
AcDbLine
 62
7
  6
CONTINUOUS
 10
338.3084543187
 20
454.5067013604
 11
338.1589231327
 21
454.8505995442
  0
LINE
  5
34A
100
AcDbEntity
  8
0
100
AcDbLine
 62
7
  6
CONTINUOUS
 10
333.6729962142
 20
465.1675251351
 11
333.3739344838
 21
465.8553200269
  0
LINE
  5
34B
100
AcDbEntity
  8
RUNDUNGEN
100
AcDbLine
 62
7
  6
CONTINUOUS
 10
337.068726354
 20
474.6863342203
 11
352.9975159538
 21
438.0526261727
  0
LINE
  5
34C
100
AcDbEntity
  8
0
100
AcDbLine
 62
7
  6
CONTINUOUS
 10
329.0393694456
 20
466.2196324072
 11
330.1677782691
 21
466.5058207963
  0
LINE
  5
34D
100
AcDbEntity
  8
0
100
AcDbLine
 62
7
  6
CONTINUOUS
 10
260.0053119539
 20
454.2560441239
 11
259.3289595136
 21
454.1412155108
  0
LINE
  5
34E
100
AcDbEntity
  8
0
100
AcDbLine
 62
7
  6
CONTINUOUS
 10
328.7003768927
 20
460.7563340385
 11
328.0987898315
 21
460.6992140517
  0
LINE
  5
34F
100
AcDbEntity
  8
0
100
AcDbLine
 62
7
  6
CONTINUOUS
 10
327.3580623855
 20
465.2841215599
 11
327.9596497461
 21
465.3412415307
  0
LINE
  5
350
100
AcDbEntity
  8
0
100
AcDbLine
 62
7
  6
CONTINUOUS
 10
330.1677782691
 20
466.5058207963
 11
330.7693658757
 21
466.562940874
  0
LINE
  5
351
100
AcDbEntity
  8
0
100
AcDbLine
 62
7
  6
CONTINUOUS
 10
327.8710297568
 20
459.7823505197
 11
328.8985969887
 21
459.8202338592
  0
LINE
  5
352
100
AcDbEntity
  8
0
100
AcDbLine
 62
7
  6
CONTINUOUS
 10
330.9971257739
 20
467.4798044755
 11
329.9695582465
 21
467.4419208065
  0
LINE
  5
353
100
AcDbEntity
  8
BEZUGSACHSEN
100
AcDbLine
 62
7
  6
CONTINUOUS
 10
276.8241465719
 20
457.8877587117
 11
312.8241465719
 21
457.8877587117
  0
LINE
  5
354
100
AcDbEntity
  8
0
100
AcDbLine
 62
7
  6
CONTINUOUS
 10
287.9542452016
 20
458.0877587117
 11
290.9792583718
 21
458.0877587117
  0
LINE
  5
355
100
AcDbEntity
  8
0
100
AcDbLine
 62
7
  6
CONTINUOUS
 10
291.6396913764
 20
458.0877587117
 11
294.6065955045
 21
458.0877587117
  0
LINE
  5
356
100
AcDbEntity
  8
0
100
AcDbLine
 62
7
  6
CONTINUOUS
 10
295.2164807087
 20
458.0877587117
 11
299.3180843536
 21
458.0877587117
  0
LINE
  5
357
100
AcDbEntity
  8
0
100
AcDbLine
 62
7
  6
CONTINUOUS
 10
302.6908323821
 20
458.0877587117
 11
309.4830423537
 21
458.0877587117
  0
LINE
  5
358
100
AcDbEntity
  8
0
100
AcDbLine
 62
7
  6
CONTINUOUS
 10
329.9909484286
 20
460.4154984897
 11
326.34062078
 21
460.4154984897
  0
LINE
  5
359
100
AcDbEntity
  8
0
100
AcDbLine
 62
7
  6
CONTINUOUS
 10
264.5627898426
 20
460.4154984897
 11
263.7079161192
 21
460.4154984897
  0
LINE
  5
35A
100
AcDbEntity
  8
0
100
AcDbLine
 62
7
  6
CONTINUOUS
 10
257.2545146442
 20
460.4154984897
 11
256.7344347816
 21
460.4154984897
  0
LINE
  5
35B
100
AcDbEntity
  8
0
100
AcDbLine
 62
7
  6
CONTINUOUS
 10
256.616938808
 20
460.4154984897
 11
254.8838883245
 21
460.4154984897
  0
LINE
  5
35C
100
AcDbEntity
  8
RUNDUNGEN
100
AcDbLine
 62
7
  6
CONTINUOUS
 10
309.5211048237
 20
461.3877587117
 11
280.1271883202
 21
461.3877587117
  0
LINE
  5
35D
100
AcDbEntity
  8
0
100
AcDbLine
 62
7
  6
CONTINUOUS
 10
326.5340102982
 20
456.1341317234
 11
328.9142827476
 21
455.9423573981
  0
LINE
  5
35E
100
AcDbEntity
  8
0
100
AcDbLine
 62
7
  6
CONTINUOUS
 10
328.5404552103
 20
456.8021018737
 11
326.1601829748
 21
456.9938757071
  0
LINE
  5
35F
100
AcDbEntity
  8
0
100
AcDbLine
 62
7
  6
CONTINUOUS
 10
256.6323068399
 20
460.4251953596
 11
257.233894607
 21
460.3680756508
  0
LINE
  5
360
100
AcDbEntity
  8
0
100
AcDbLine
 62
7
  6
CONTINUOUS
 10
259.8211453094
 20
468.2392469167
 11
260.4227321567
 21
468.182126438
  0
LINE
  5
361
100
AcDbEntity
  8
0
100
AcDbLine
 62
7
  6
CONTINUOUS
 10
260.8713248593
 20
469.2138190216
 11
260.269738012
 21
469.2709395004
  0
LINE
  5
362
100
AcDbEntity
  8
0
100
AcDbLine
 62
7
  6
CONTINUOUS
 10
335.76825985
 20
450.7442439594
 11
336.4446122903
 21
450.6294153462
  0
LINE
  5
363
100
AcDbEntity
  8
0
100
AcDbLine
 62
7
  6
CONTINUOUS
 10
335.4048238198
 20
455.9021174683
 11
336.0811762601
 21
455.7872888551
  0
LINE
  5
364
100
AcDbEntity
  8
0
100
AcDbLine
 62
7
  6
CONTINUOUS
 10
328.0987898315
 20
460.6992140517
 11
327.4224370543
 21
460.8140431033
  0
LINE
  5
365
100
AcDbEntity
  8
0
100
AcDbLine
 62
7
  6
CONTINUOUS
 10
326.9443044347
 20
459.9927720024
 11
327.8710297568
 21
459.7823505197
  0
LINE
  5
366
100
AcDbEntity
  8
0
100
AcDbLine
 62
7
  6
CONTINUOUS
 10
332.4577987535
 20
449.7137295319
 11
331.9570534175
 21
449.9049142871
  0
LINE
  5
367
100
AcDbEntity
  8
0
100
AcDbLine
 62
7
  6
CONTINUOUS
 10
335.9960200156
 20
451.661106946
 11
335.4952743748
 21
451.8522927387
  0
LINE
  5
368
100
AcDbEntity
  8
0
100
AcDbLine
 62
7
  6
CONTINUOUS
 10
336.8096816386
 20
456.5129670329
 11
335.8081907849
 21
456.8953376343
  0
LINE
  5
369
100
AcDbEntity
  8
0
100
AcDbLine
 62
7
  6
CONTINUOUS
 10
334.9423766515
 20
451.2029697725
 11
335.76825985
 21
450.7442439594
  0
LINE
  5
36A
100
AcDbEntity
  8
BEZUGSACHSEN
100
AcDbLine
 62
7
  6
CONTINUOUS
 10
315.6087562628
 20
456.2800635571
 11
312.8241465719
 21
457.8877587117
  0
LINE
  5
36B
100
AcDbEntity
  8
0
100
AcDbLine
 62
7
  6
CONTINUOUS
 10
331.4041552049
 20
449.2555922781
 11
331.9796660723
 21
448.8924584042
  0
LINE
  5
36C
100
AcDbEntity
  8
0
100
AcDbLine
 62
7
  6
CONTINUOUS
 10
327.4224370543
 20
460.8140431033
 11
326.8469262483
 21
461.177177004
  0
LINE
  5
36D
100
AcDbEntity
  8
0
100
AcDbLine
 62
7
  6
CONTINUOUS
 10
336.0811762601
 20
455.7872888551
 11
336.656687066
 21
455.4241549544
  0
LINE
  5
36E
100
AcDbEntity
  8
0
100
AcDbLine
 62
7
  6
CONTINUOUS
 10
326.043655597
 20
460.6234468874
 11
326.9443044347
 21
459.9927720024
  0
LINE
  5
36F
100
AcDbEntity
  8
0
100
AcDbLine
 62
7
  6
CONTINUOUS
 10
330.7538787598
 20
449.7906752507
 11
331.4041552049
 21
449.2555922781
  0
LINE
  5
370
100
AcDbEntity
  8
0
100
AcDbLine
 62
7
  6
CONTINUOUS
 10
331.9570534175
 20
449.9049142871
 11
331.6319150041
 21
450.1724562754
  0
LINE
  5
371
100
AcDbEntity
  8
0
100
AcDbLine
 62
7
  6
CONTINUOUS
 10
337.4599580376
 20
455.9778840404
 11
336.8096816386
 21
456.5129670329
  0
LINE
  5
372
100
AcDbEntity
  8
0
100
AcDbLine
 62
7
  6
CONTINUOUS
 10
326.8469262483
 20
461.177177004
 11
326.4470227767
 21
461.6166668543
  0
LINE
  5
373
100
AcDbEntity
  8
0
100
AcDbLine
 62
7
  6
CONTINUOUS
 10
335.4952743748
 20
451.8522927387
 11
334.6954672176
 21
452.7312729312
  0
LINE
  5
374
100
AcDbEntity
  8
0
100
AcDbLine
 62
7
  6
CONTINUOUS
 10
329.0359059254
 20
464.7869224523
 11
329.4358095041
 21
464.3474323561
  0
LINE
  5
375
100
AcDbEntity
  8
0
100
AcDbLine
 62
7
  6
CONTINUOUS
 10
332.0212292824
 20
466.0849779912
 11
332.421132861
 21
465.6454878949
  0
LINE
  5
376
100
AcDbEntity
  8
0
100
AcDbLine
 62
7
  6
CONTINUOUS
 10
333.3739344838
 20
465.8553200269
 11
332.8244999865
 21
466.638707692
  0
LINE
  5
377
100
AcDbEntity
  8
KONSTRUKTIONSELEMENTE
100
AcDbLine
 62
7
  6
CONTINUOUS
 10
276.8241465719
 20
237.8877587117
 11
274.0395368811
 21
236.2800635571
  0
LINE
  5
378
100
AcDbEntity
  8
0
100
AcDbLine
 62
7
  6
CONTINUOUS
 10
260.269738012
 20
469.2709395004
 11
259.3430127513
 21
469.0605179909
  0
LINE
  5
379
100
AcDbEntity
  8
0
100
AcDbLine
 62
7
  6
CONTINUOUS
 10
330.7693658757
 20
466.562940874
 11
331.4457184764
 21
466.4481118918
  0
LINE
  5
37A
100
AcDbEntity
  8
0
100
AcDbLine
 62
7
  6
CONTINUOUS
 10
331.9238510345
 20
467.269382966
 11
330.9971257739
 21
467.4798044755
  0
LINE
  5
37B
100
AcDbEntity
  8
0
100
AcDbLine
 62
7
  6
CONTINUOUS
 10
327.9596497461
 20
465.3412415307
 11
328.4603951195
 21
465.150056353
  0
LINE
  5
37C
100
AcDbEntity
  8
0
100
AcDbLine
 62
7
  6
CONTINUOUS
 10
328.4603951195
 20
465.150056353
 11
329.0359059254
 21
464.7869224523
  0
LINE
  5
37D
100
AcDbEntity
  8
0
100
AcDbLine
 62
7
  6
CONTINUOUS
 10
329.8391766296
 20
465.3406521532
 11
328.6881549909
 21
466.066920016
  0
LINE
  5
37E
100
AcDbEntity
  8
0
100
AcDbLine
 62
7
  6
CONTINUOUS
 10
331.4457184764
 20
466.4481118918
 11
332.0212292824
 21
466.0849779912
  0
LINE
  5
37F
100
AcDbEntity
  8
0
100
AcDbLine
 62
7
  6
CONTINUOUS
 10
332.8244999865
 20
466.638707692
 11
331.9238510345
 21
467.269382966
  0
LINE
  5
380
100
AcDbEntity
  8
BEZUGSACHSEN
100
AcDbLine
 62
7
  6
CONTINUOUS
 10
315.6087562628
 20
221.1723684025
 11
308.3241465719
 21
213.8877587117
  0
LINE
  5
381
100
AcDbEntity
  8
RUNDUNGEN
100
AcDbLine
 62
7
  6
CONTINUOUS
 10
330.6925137472
 20
543.8678912149
 11
343.8020569847
 21
518.1389639346
  0
LINE
  5
382
100
AcDbEntity
  8
BEZUGSACHSEN
100
AcDbLine
 62
7
  6
CONTINUOUS
 10
306.8241465719
 20
179.3877587117
 11
305.3241465719
 21
177.8877587117
  0
LINE
  5
383
100
AcDbEntity
  8
RUNDUNGEN
100
AcDbLine
 62
7
  6
CONTINUOUS
 10
298.4078260674
 20
559.0121130403
 11
325.3661280008
 21
548.6637904825
  0
LINE
  5
384
100
AcDbEntity
  8
BEZUGSACHSEN
100
AcDbLine
 62
7
  6
CONTINUOUS
 10
466.0421922348
 20
177.8877587117
 11
487.0421922348
 21
177.8877587117
  0
LINE
  5
385
100
AcDbEntity
  8
BEZUGSACHSEN
100
AcDbLine
 62
7
  6
CONTINUOUS
 10
464.5421922348
 20
179.3877587117
 11
488.5421922348
 21
179.3877587117
  0
LINE
  5
386
100
AcDbEntity
  8
BEZUGSACHSEN
100
AcDbLine
 62
7
  6
CONTINUOUS
 10
490.0415856495
 20
213.8877587117
 11
463.0427988202
 21
213.8877587117
  0
LINE
  5
387
100
AcDbEntity
  8
BEZUGSACHSEN
100
AcDbLine
 62
7
  6
CONTINUOUS
 10
466.0421922348
 20
177.8877587117
 11
464.5421922348
 21
179.3877587117
  0
LINE
  5
388
100
AcDbEntity
  8
KONSTRUKTIONSELEMENTE
100
AcDbLine
 62
7
  6
CONTINUOUS
 10
498.5415925794
 20
237.8877587117
 11
454.5427918902
 21
237.8877587117
  0
LINE
  5
389
100
AcDbEntity
  8
KONSTRUKTIONSELEMENTE
100
AcDbLine
 62
7
  6
CONTINUOUS
 10
498.5415925794
 20
241.8877587117
 11
454.5427918902
 21
241.8877587117
  0
LINE
  5
38A
100
AcDbEntity
  8
BEZUGSACHSEN
100
AcDbLine
 62
7
  6
CONTINUOUS
 10
458.487188231
 20
218.4427627156
 11
463.0421922348
 21
213.8877587117
  0
LINE
  5
38B
100
AcDbEntity
  8
0
100
AcDbLine
 62
7
  6
CONTINUOUS
 10
445.0421922348
 20
397.1377587117
 11
445.0421922348
 21
433.6377587117
  0
LINE
  5
38C
100
AcDbEntity
  8
0
100
AcDbLine
 62
7
  6
CONTINUOUS
 10
446.5421922348
 20
396.8877587117
 11
446.5421922348
 21
387.8877587117
  0
LINE
  5
38D
100
AcDbEntity
  8
0
100
AcDbLine
 62
7
  6
CONTINUOUS
 10
447.5421922348
 20
442.8877587117
 11
447.5421922348
 21
435.8877587117
  0
LINE
  5
38E
100
AcDbEntity
  8
KONSTRUKTIONSELEMENTE
100
AcDbLine
 62
7
  6
CONTINUOUS
 10
454.5421922348
 20
241.8877587117
 11
454.5421922348
 21
237.8877587117
  0
LINE
  5
38F
100
AcDbEntity
  8
0
100
AcDbLine
 62
7
  6
CONTINUOUS
 10
456.0421922348
 20
432.8377587117
 11
456.0421922348
 21
435.6377587117
  0
LINE
  5
390
100
AcDbEntity
  8
BEZUGSACHSEN
100
AcDbLine
 62
7
  6
CONTINUOUS
 10
458.5421922348
 20
221.1723684025
 11
458.5421922348
 21
218.3876772846
  0
LINE
  5
391
100
AcDbEntity
  8
KONSTRUKTIONSELEMENTE
100
AcDbLine
 62
7
  6
CONTINUOUS
 10
458.5421922348
 20
221.1723684025
 11
458.5421922348
 21
237.8877587118
  0
LINE
  5
392
100
AcDbEntity
  8
BEZUGSACHSEN
100
AcDbLine
 62
7
  6
CONTINUOUS
 10
458.5421922348
 20
443.3877587117
 11
458.5421922348
 21
457.8877587117
  0
LINE
  5
393
100
AcDbEntity
  8
BEZUGSACHSEN
100
AcDbLine
 62
7
  6
CONTINUOUS
 10
459.9421922348
 20
442.8877587117
 11
459.9421922348
 21
443.3877587117
  0
LINE
  5
394
100
AcDbEntity
  8
0
100
AcDbLine
 62
7
  6
CONTINUOUS
 10
460.5421922348
 20
435.6377587117
 11
460.5421922348
 21
435.3377587117
  0
LINE
  5
395
100
AcDbEntity
  8
0
100
AcDbLine
 62
7
  6
CONTINUOUS
 10
460.9421922348
 20
435.8877587117
 11
460.9421922348
 21
435.6377587117
  0
LINE
  5
396
100
AcDbEntity
  8
0
100
AcDbLine
 62
7
  6
CONTINUOUS
 10
460.9421922348
 20
397.1377587117
 11
460.9421922348
 21
396.8877587117
  0
LINE
  5
397
100
AcDbEntity
  8
RUNDUNGEN
100
AcDbLine
 62
7
  6
CONTINUOUS
 10
463.0421922348
 20
396.8877587117
 11
463.0421922348
 21
432.9443913845
  0
LINE
  5
398
100
AcDbEntity
  8
0
100
AcDbLine
 62
7
  6
CONTINUOUS
 10
464.2921922348
 20
460.4154984897
 11
464.2921922348
 21
471.7202612591
  0
LINE
  5
399
100
AcDbEntity
  8
BEZUGSACHSEN
100
AcDbLine
 62
7
  6
CONTINUOUS
 10
464.5421922348
 20
179.3877587117
 11
464.5421922348
 21
213.8877587117
  0
LINE
  5
39A
100
AcDbEntity
  8
BEZUGSACHSEN
100
AcDbLine
 62
7
  6
CONTINUOUS
 10
464.5421922348
 20
241.8877587117
 11
464.5421922348
 21
387.8877587117
  0
LINE
  5
39B
100
AcDbEntity
  8
RUNDUNGEN
100
AcDbLine
 62
7
  6
CONTINUOUS
 10
465.0421922348
 20
460.8315059139
 11
465.0421922348
 21
558.6763087754
  0
LINE
  5
39C
100
AcDbEntity
  8
RUNDUNGEN
100
AcDbLine
 62
7
  6
CONTINUOUS
 10
467.0421922348
 20
474.8356724754
 11
467.0421922348
 21
560.8877587117
  0
LINE
  5
39D
100
AcDbEntity
  8
0
100
AcDbLine
 62
7
  6
CONTINUOUS
 10
463.3020552398
 20
447.0486490577
 11
464.2921922348
 21
460.4154984897
  0
LINE
  5
39E
100
AcDbEntity
  8
RUNDUNGEN
100
AcDbLine
 62
7
  6
CONTINUOUS
 10
463.0749791813
 20
433.8303824897
 11
465.0094031002
 21
459.9451053939
  0
LINE
  5
39F
100
AcDbEntity
  8
KONSTRUKTIONSELEMENTE
100
AcDbLine
 62
7
  6
CONTINUOUS
 10
476.5421922348
 20
236.2800635571
 11
476.5421922348
 21
221.1723684025
  0
LINE
  5
3A0
100
AcDbEntity
  8
RUNDUNGEN
100
AcDbLine
 62
7
  6
CONTINUOUS
 10
490.0094052883
 20
433.8303824897
 11
488.0749795119
 21
459.9451304709
  0
LINE
  5
3A1
100
AcDbEntity
  8
0
100
AcDbLine
 62
7
  6
CONTINUOUS
 10
489.4538387402
 20
451.4832706668
 11
490.0253581443
 21
443.7677587117
  0
LINE
  5
3A2
100
AcDbEntity
  8
0
100
AcDbLine
 62
7
  6
CONTINUOUS
 10
489.3390316243
 20
453.0331667315
 11
488.7921922348
 21
460.4154984897
  0
LINE
  5
3A3
100
AcDbEntity
  8
RUNDUNGEN
100
AcDbLine
 62
7
  6
CONTINUOUS
 10
486.0421922348
 20
560.8876257627
 11
486.0421922348
 21
474.8356724754
  0
LINE
  5
3A4
100
AcDbEntity
  8
RUNDUNGEN
100
AcDbLine
 62
7
  6
CONTINUOUS
 10
488.0421922348
 20
460.8315951599
 11
488.0421922348
 21
558.6763087754
  0
LINE
  5
3A5
100
AcDbEntity
  8
BEZUGSACHSEN
100
AcDbLine
 62
7
  6
CONTINUOUS
 10
488.5421922348
 20
179.3877587117
 11
488.5421922348
 21
213.8877587117
  0
LINE
  5
3A6
100
AcDbEntity
  8
BEZUGSACHSEN
100
AcDbLine
 62
7
  6
CONTINUOUS
 10
488.5421922348
 20
241.8877587117
 11
488.5421922348
 21
387.8877587117
  0
LINE
  5
3A7
100
AcDbEntity
  8
0
100
AcDbLine
 62
7
  6
CONTINUOUS
 10
488.7921922348
 20
469.2709395004
 11
488.7921922348
 21
460.4154984897
  0
LINE
  5
3A8
100
AcDbEntity
  8
0
100
AcDbLine
 62
7
  6
CONTINUOUS
 10
489.4455305626
 20
457.8877587117
 11
489.4455305626
 21
458.0877587117
  0
LINE
  5
3A9
100
AcDbEntity
  8
0
100
AcDbLine
 62
7
  6
CONTINUOUS
 10
489.6316173191
 20
457.8877587117
 11
489.6316173191
 21
458.0877587117
  0
LINE
  5
3AA
100
AcDbEntity
  8
0
100
AcDbLine
 62
7
  6
CONTINUOUS
 10
489.8666166695
 20
457.8877587117
 11
489.8666166695
 21
458.0877587117
  0
LINE
  5
3AB
100
AcDbEntity
  8
0
100
AcDbLine
 62
7
  6
CONTINUOUS
 10
490.0141542334
 20
457.8877587117
 11
490.0141542334
 21
458.0877587117
  0
LINE
  5
3AC
100
AcDbEntity
  8
RUNDUNGEN
100
AcDbLine
 62
7
  6
CONTINUOUS
 10
490.0421922348
 20
396.8877587117
 11
490.0421922348
 21
432.9439222636
  0
LINE
  5
3AD
100
AcDbEntity
  8
0
100
AcDbLine
 62
7
  6
CONTINUOUS
 10
490.3191988309
 20
457.8877587117
 11
490.3191988309
 21
458.0877587117
  0
LINE
  5
3AE
100
AcDbEntity
  8
0
100
AcDbLine
 62
7
  6
CONTINUOUS
 10
490.5421922348
 20
421.4904812885
 11
490.5421922348
 21
413.4908557709
  0
LINE
  5
3AF
100
AcDbEntity
  8
0
100
AcDbLine
 62
7
  6
CONTINUOUS
 10
490.6541537616
 20
457.8877587117
 11
490.6541537616
 21
458.0877587117
  0
LINE
  5
3B0
100
AcDbEntity
  8
0
100
AcDbLine
 62
7
  6
CONTINUOUS
 10
490.8415713349
 20
457.8877587117
 11
490.8415713349
 21
458.0877587117
  0
LINE
  5
3B1
100
AcDbEntity
  8
0
100
AcDbLine
 62
7
  6
CONTINUOUS
 10
490.9751602235
 20
457.8877587117
 11
490.9751602235
 21
458.0877587117
  0
LINE
  5
3B2
100
AcDbEntity
  8
0
100
AcDbLine
 62
7
  6
CONTINUOUS
 10
491.0150402113
 20
457.8877587117
 11
491.0150402113
 21
458.0877587117
  0
LINE
  5
3B3
100
AcDbEntity
  8
0
100
AcDbLine
 62
7
  6
CONTINUOUS
 10
491.2086029084
 20
457.8877587117
 11
491.2086029084
 21
458.0877587117
  0
LINE
  5
3B4
100
AcDbEntity
  8
0
100
AcDbLine
 62
7
  6
CONTINUOUS
 10
492.1421922348
 20
435.8877587117
 11
492.1421922348
 21
435.6377587117
  0
LINE
  5
3B5
100
AcDbEntity
  8
0
100
AcDbLine
 62
7
  6
CONTINUOUS
 10
492.1421922348
 20
397.1377587117
 11
492.1421922348
 21
396.8877587117
  0
LINE
  5
3B6
100
AcDbEntity
  8
BEZUGSACHSEN
100
AcDbLine
 62
7
  6
CONTINUOUS
 10
493.1421922348
 20
442.8877587117
 11
493.1421922348
 21
443.3877587117
  0
LINE
  5
3B7
100
AcDbEntity
  8
KONSTRUKTIONSELEMENTE
100
AcDbLine
 62
7
  6
CONTINUOUS
 10
494.5421922348
 20
237.8877587118
 11
494.5421922348
 21
221.1723684025
  0
LINE
  5
3B8
100
AcDbEntity
  8
BEZUGSACHSEN
100
AcDbLine
 62
7
  6
CONTINUOUS
 10
494.5421922348
 20
218.3876772846
 11
494.5421922348
 21
221.1723684025
  0
LINE
  5
3B9
100
AcDbEntity
  8
BEZUGSACHSEN
100
AcDbLine
 62
7
  6
CONTINUOUS
 10
494.5421922348
 20
443.3877587117
 11
494.5421922348
 21
457.8877587117
  0
LINE
  5
3BA
100
AcDbEntity
  8
KONSTRUKTIONSELEMENTE
100
AcDbLine
 62
7
  6
CONTINUOUS
 10
498.5421922348
 20
241.8877587117
 11
498.5421922348
 21
237.8877587117
  0
LINE
  5
3BB
100
AcDbEntity
  8
0
100
AcDbLine
 62
7
  6
CONTINUOUS
 10
505.5421922348
 20
442.8877587117
 11
505.5421922348
 21
435.8877587117
  0
LINE
  5
3BC
100
AcDbEntity
  8
0
100
AcDbLine
 62
7
  6
CONTINUOUS
 10
506.5421922348
 20
396.8877587117
 11
506.5421922348
 21
387.8877587117
  0
LINE
  5
3BD
100
AcDbEntity
  8
0
100
AcDbLine
 62
7
  6
CONTINUOUS
 10
508.0421922348
 20
397.1377587117
 11
508.0421922348
 21
433.6377587117
  0
LINE
  5
3BE
100
AcDbEntity
  8
0
100
AcDbLine
 62
7
  6
CONTINUOUS
 10
446.5421922348
 20
387.8877587117
 11
506.5421922348
 21
387.8877587117
  0
LINE
  5
3BF
100
AcDbEntity
  8
RUNDUNGEN
100
AcDbLine
 62
7
  6
CONTINUOUS
 10
486.5421922348
 20
393.3877587117
 11
466.5421922348
 21
393.3877587117
  0
LINE
  5
3C0
100
AcDbEntity
  8
0
100
AcDbLine
 62
7
  6
CONTINUOUS
 10
446.5421922348
 20
396.8877587117
 11
463.0421922348
 21
396.8877587117
  0
LINE
  5
3C1
100
AcDbEntity
  8
0
100
AcDbLine
 62
7
  6
CONTINUOUS
 10
490.0421922348
 20
396.8877587117
 11
506.5421922348
 21
396.8877587117
  0
LINE
  5
3C2
100
AcDbEntity
  8
RUNDUNGEN
100
AcDbLine
 62
7
  6
CONTINUOUS
 10
445.0421922348
 20
397.1377587117
 11
463.0421922348
 21
397.1377587117
  0
LINE
  5
3C3
100
AcDbEntity
  8
RUNDUNGEN
100
AcDbLine
 62
7
  6
CONTINUOUS
 10
490.0421922348
 20
397.1377587117
 11
508.0421922348
 21
397.1377587117
  0
LINE
  5
3C4
100
AcDbEntity
  8
0
100
AcDbLine
 62
7
  6
CONTINUOUS
 10
490.0421922348
 20
413.4906685297
 11
490.5421922348
 21
413.4906685297
  0
LINE
  5
3C5
100
AcDbEntity
  8
0
100
AcDbLine
 62
7
  6
CONTINUOUS
 10
490.0421922348
 20
421.4906685297
 11
490.5421922348
 21
421.4906685297
  0
LINE
  5
3C6
100
AcDbEntity
  8
RUNDUNGEN
100
AcDbLine
 62
7
  6
CONTINUOUS
 10
503.4780383433
 20
432.8377587117
 11
490.0421922348
 21
432.8377587117
  0
LINE
  5
3C7
100
AcDbEntity
  8
RUNDUNGEN
100
AcDbLine
 62
7
  6
CONTINUOUS
 10
463.0421922348
 20
432.8377587117
 11
451.4432864836
 21
432.8377587117
  0
LINE
  5
3C8
100
AcDbEntity
  8
0
100
AcDbLine
 62
7
  6
CONTINUOUS
 10
456.0421922348
 20
435.3377587117
 11
463.1866366793
 21
435.3377587117
  0
LINE
  5
3C9
100
AcDbEntity
  8
0
100
AcDbLine
 62
7
  6
CONTINUOUS
 10
450.3268484473
 20
435.6377587117
 11
456.0421922348
 21
435.6377587117
  0
LINE
  5
3CA
100
AcDbEntity
  8
RUNDUNGEN
100
AcDbLine
 62
7
  6
CONTINUOUS
 10
447.0457257082
 20
435.6377587117
 11
456.0421922348
 21
435.6377587117
  0
LINE
  5
3CB
100
AcDbEntity
  8
RUNDUNGEN
100
AcDbLine
 62
7
  6
CONTINUOUS
 10
460.6135113956
 20
435.6377587117
 11
463.2088589015
 21
435.6377587117
  0
LINE
  5
3CC
100
AcDbEntity
  8
0
100
AcDbLine
 62
7
  6
CONTINUOUS
 10
460.5421922348
 20
435.6377587117
 11
460.6135113956
 21
435.6377587117
  0
LINE
  5
3CD
100
AcDbEntity
  8
RUNDUNGEN
100
AcDbLine
 62
7
  6
CONTINUOUS
 10
489.8755255681
 20
435.6377587117
 11
506.0405122544
 21
435.6377587117
  0
LINE
  5
3CE
100
AcDbEntity
  8
0
100
AcDbLine
 62
7
  6
CONTINUOUS
 10
447.5421922348
 20
435.8877587117
 11
463.22737742
 21
435.8877587117
  0
LINE
  5
3CF
100
AcDbEntity
  8
0
100
AcDbLine
 62
7
  6
CONTINUOUS
 10
489.8570070496
 20
435.8877587117
 11
505.5421922348
 21
435.8877587117
  0
LINE
  5
3D0
100
AcDbEntity
  8
0
100
AcDbLine
 62
7
  6
CONTINUOUS
 10
447.5421922348
 20
442.8877587117
 11
463.7458959385
 21
442.8877587117
  0
LINE
  5
3D1
100
AcDbEntity
  8
0
100
AcDbLine
 62
7
  6
CONTINUOUS
 10
489.3384885311
 20
442.8877587117
 11
505.5421922348
 21
442.8877587117
  0
LINE
  5
3D2
100
AcDbEntity
  8
KONSTRUKTIONSELEMENTE
100
AcDbLine
 62
7
  6
CONTINUOUS
 10
458.5421922348
 20
443.3877587117
 11
463.7829329756
 21
443.3877587117
  0
LINE
  5
3D3
100
AcDbEntity
  8
KONSTRUKTIONSELEMENTE
100
AcDbLine
 62
7
  6
CONTINUOUS
 10
489.3014514941
 20
443.3877587117
 11
494.5421922348
 21
443.3877587117
  0
LINE
  5
3D4
100
AcDbEntity
  8
0
100
AcDbLine
 62
7
  6
CONTINUOUS
 10
489.2733033459
 20
443.7677587117
 11
490.0253581443
 21
443.7677587117
  0
LINE
  5
3D5
100
AcDbEntity
  8
0
100
AcDbLine
 62
7
  6
CONTINUOUS
 10
463.3020601371
 20
447.0487151707
 11
464.0541149355
 21
447.0487151707
  0
LINE
  5
3D6
100
AcDbEntity
  8
0
100
AcDbLine
 62
7
  6
CONTINUOUS
 10
488.8036794996
 20
450.1076806372
 11
489.555734298
 21
450.1076806372
  0
LINE
  5
3D7
100
AcDbEntity
  8
0
100
AcDbLine
 62
7
  6
CONTINUOUS
 10
488.7017839418
 20
451.4832706668
 11
489.4538387402
 21
451.4832706668
  0
LINE
  5
3D8
100
AcDbEntity
  8
0
100
AcDbLine
 62
7
  6
CONTINUOUS
 10
488.5869768259
 20
453.0331667315
 11
489.3390316243
 21
453.0331667315
  0
LINE
  5
3D9
100
AcDbEntity
  8
0
100
AcDbLine
 62
7
  6
CONTINUOUS
 10
488.5714337233
 20
453.2429986175
 11
489.3234885216
 21
453.2429986175
  0
LINE
  5
3DA
100
AcDbEntity
  8
0
100
AcDbLine
 62
7
  6
CONTINUOUS
 10
488.486593498
 20
454.3883416582
 11
489.2386482964
 21
454.3883416582
  0
LINE
  5
3DB
100
AcDbEntity
  8
0
100
AcDbLine
 62
7
  6
CONTINUOUS
 10
488.44557644
 20
454.942071942
 11
489.1976312383
 21
454.942071942
  0
LINE
  5
3DC
100
AcDbEntity
  8
0
100
AcDbLine
 62
7
  6
CONTINUOUS
 10
488.3974785154
 20
455.5913939243
 11
489.1495333137
 21
455.5913939243
  0
LINE
  5
3DD
100
AcDbEntity
  8
0
100
AcDbLine
 62
7
  6
CONTINUOUS
 10
464.6942805799
 20
455.69095137
 11
463.9422257815
 21
455.69095137
  0
LINE
  5
3DE
100
AcDbEntity
  8
0
100
AcDbLine
 62
7
  6
CONTINUOUS
 10
488.3239066512
 20
456.5846140904
 11
489.0759614496
 21
456.5846140904
  0
LINE
  5
3DF
100
AcDbEntity
  8
0
100
AcDbLine
 62
7
  6
CONTINUOUS
 10
464.8147270967
 20
457.3169793472
 11
464.0626722983
 21
457.3169793472
  0
LINE
  5
3E0
100
AcDbEntity
  8
0
100
AcDbLine
 62
7
  6
CONTINUOUS
 10
488.2616468889
 20
457.4251208814
 11
489.0137016873
 21
457.4251208814
  0
LINE
  5
3E1
100
AcDbEntity
  8
BEZUGSACHSEN
100
AcDbLine
 62
7
  6
CONTINUOUS
 10
458.5421922348
 20
457.8877587117
 11
464.1049522513
 21
457.8877587117
  0
LINE
  5
3E2
100
AcDbEntity
  8
BEZUGSACHSEN
100
AcDbLine
 62
7
  6
CONTINUOUS
 10
488.9794322184
 20
457.8877587117
 11
494.5421922348
 21
457.8877587117
  0
LINE
  5
3E3
100
AcDbEntity
  8
0
100
AcDbLine
 62
7
  6
CONTINUOUS
 10
488.9646174036
 20
458.0877587117
 11
491.2086029084
 21
458.0877587117
  0
LINE
  5
3E4
100
AcDbEntity
  8
0
100
AcDbLine
 62
7
  6
CONTINUOUS
 10
488.1923060984
 20
458.3612215526
 11
488.9443608968
 21
458.3612215526
  0
LINE
  5
3E5
100
AcDbEntity
  8
0
100
AcDbLine
 62
7
  6
CONTINUOUS
 10
464.9351736135
 20
458.9430073244
 11
464.1831188152
 21
458.9430073244
  0
LINE
  5
3E6
100
AcDbEntity
  8
0
100
AcDbLine
 62
7
  6
CONTINUOUS
 10
488.0776735891
 20
459.9087604282
 11
488.8297283875
 21
459.9087604282
  0
LINE
  5
3E7
100
AcDbEntity
  8
0
100
AcDbLine
 62
7
  6
CONTINUOUS
 10
488.043002495
 20
460.6921477243
 11
488.7921922348
 21
460.6921477243
  0
LINE
  5
3E8
100
AcDbEntity
  8
0
100
AcDbLine
 62
7
  6
CONTINUOUS
 10
488.0421922348
 20
461.2272307169
 11
488.7921922348
 21
461.2272307169
  0
LINE
  5
3E9
100
AcDbEntity
  8
0
100
AcDbLine
 62
7
  6
CONTINUOUS
 10
488.0421922348
 20
461.6096003344
 11
488.7921922348
 21
461.6096003344
  0
LINE
  5
3EA
100
AcDbEntity
  8
0
100
AcDbLine
 62
7
  6
CONTINUOUS
 10
465.0421922348
 20
462.0749589397
 11
464.2921922348
 21
462.0749589397
  0
LINE
  5
3EB
100
AcDbEntity
  8
0
100
AcDbLine
 62
7
  6
CONTINUOUS
 10
488.0421922348
 20
463.6916325791
 11
488.7921922348
 21
463.6916325791
  0
LINE
  5
3EC
100
AcDbEntity
  8
0
100
AcDbLine
 62
7
  6
CONTINUOUS
 10
465.0421922348
 20
463.7009869169
 11
464.2921922348
 21
463.7009869169
  0
LINE
  5
3ED
100
AcDbEntity
  8
0
100
AcDbLine
 62
7
  6
CONTINUOUS
 10
465.0421922348
 20
464.1548336473
 11
464.2921922348
 21
464.1548336473
  0
LINE
  5
3EE
100
AcDbEntity
  8
0
100
AcDbLine
 62
7
  6
CONTINUOUS
 10
488.0421922348
 20
467.8184038977
 11
488.7921922348
 21
467.8184038977
  0
LINE
  5
3EF
100
AcDbEntity
  8
0
100
AcDbLine
 62
7
  6
CONTINUOUS
 10
488.0421922348
 20
468.60179021
 11
488.7921922348
 21
468.60179021
  0
LINE
  5
3F0
100
AcDbEntity
  8
0
100
AcDbLine
 62
7
  6
CONTINUOUS
 10
488.0421922348
 20
469.0605179909
 11
488.7921922348
 21
469.0605179909
  0
LINE
  5
3F1
100
AcDbEntity
  8
0
100
AcDbLine
 62
7
  6
CONTINUOUS
 10
488.0421922348
 20
469.2709395004
 11
488.7921922348
 21
469.2709395004
  0
LINE
  5
3F2
100
AcDbEntity
  8
0
100
AcDbLine
 62
7
  6
CONTINUOUS
 10
465.0421922348
 20
471.7202612591
 11
464.2921922348
 21
471.7202612591
  0
LINE
  5
3F3
100
AcDbEntity
  8
BEZUGSACHSEN
100
AcDbLine
 62
7
  6
CONTINUOUS
 10
494.5971962387
 20
218.4427627156
 11
490.0421922348
 21
213.8877587117
  0
LINE
  5
3F4
100
AcDbEntity
  8
BEZUGSACHSEN
100
AcDbLine
 62
7
  6
CONTINUOUS
 10
487.0421922348
 20
177.8877587117
 11
488.5421922348
 21
179.3877587117
  0
LINE
  5
3F5
100
AcDbEntity
  8
0
100
AcDbLine
 62
7
  6
CONTINUOUS
 10
471.5421922348
 20
565.3877587117
 11
481.5421922348
 21
565.3877587117
  0
LINE
  5
3F6
100
AcDbEntity
  8
BEZUGSACHSEN
100
AcDbLine
 62
7
  6
CONTINUOUS
 10
234.5772840957
 20
97.1941950294
 11
234.5772840957
 21
77.1941950294
  0
LINE
  5
3F7
100
AcDbEntity
  8
0
100
AcDbLine
 62
7
  6
CONTINUOUS
 10
238.8241465719
 20
92.1941950294
 11
238.8241465719
 21
82.1941950294
  0
LINE
  5
3F8
100
AcDbEntity
  8
0
100
AcDbLine
 62
7
  6
CONTINUOUS
 10
243.899877542
 20
73.6941950294
 11
243.899877542
 21
73.1941950294
  0
LINE
  5
3F9
100
AcDbEntity
  8
0
100
AcDbLine
 62
7
  6
CONTINUOUS
 10
248.299877542
 20
73.6941950294
 11
248.299877542
 21
73.1941950294
  0
LINE
  5
3FA
100
AcDbEntity
  8
0
100
AcDbLine
 62
7
  6
CONTINUOUS
 10
250.2668531449
 20
74.9327077646
 11
250.2668531449
 21
74.1806529662
  0
LINE
  5
3FB
100
AcDbEntity
  8
0
100
AcDbLine
 62
7
  6
CONTINUOUS
 10
250.699877542
 20
73.6941950294
 11
250.699877542
 21
73.1941950294
  0
LINE
  5
3FC
100
AcDbEntity
  8
0
100
AcDbLine
 62
7
  6
CONTINUOUS
 10
250.8649767126
 20
75.0346033223
 11
250.8649767126
 21
74.2825485239
  0
LINE
  5
3FD
100
AcDbEntity
  8
0
100
AcDbLine
 62
7
  6
CONTINUOUS
 10
251.8000677055
 20
100.1352361278
 11
251.8000677055
 21
99.3831813295
  0
LINE
  5
3FE
100
AcDbEntity
  8
0
100
AcDbLine
 62
7
  6
CONTINUOUS
 10
253.5320979897
 20
99.0421066843
 11
253.5320979897
 21
99.7941614827
  0
LINE
  5
3FF
100
AcDbEntity
  8
0
100
AcDbLine
 62
7
  6
CONTINUOUS
 10
253.6573745622
 20
75.4747403753
 11
253.6573745622
 21
74.7226855769
  0
LINE
  5
400
100
AcDbEntity
  8
0
100
AcDbLine
 62
7
  6
CONTINUOUS
 10
253.8555948722
 20
75.5440811657
 11
253.8555948722
 21
74.7920263673
  0
LINE
  5
401
100
AcDbEntity
  8
0
100
AcDbLine
 62
7
  6
CONTINUOUS
 10
254.2056208307
 20
98.9216601675
 11
254.2056208307
 21
99.6737149658
  0
LINE
  5
402
100
AcDbEntity
  8
0
100
AcDbLine
 62
7
  6
CONTINUOUS
 10
254.528483926
 20
75.658713675
 11
254.528483926
 21
74.9066588766
  0
LINE
  5
403
100
AcDbEntity
  8
0
100
AcDbLine
 62
7
  6
CONTINUOUS
 10
254.7617669857
 20
99.8587993752
 11
254.7617669857
 21
99.9730026566
  0
LINE
  5
404
100
AcDbEntity
  8
0
100
AcDbLine
 62
7
  6
CONTINUOUS
 10
254.8791436716
 20
98.8012136506
 11
254.8791436716
 21
99.553268449
  0
LINE
  5
405
100
AcDbEntity
  8
0
100
AcDbLine
 62
7
  6
CONTINUOUS
 10
254.8902009025
 20
99.6947195844
 11
254.8902009025
 21
99.8358314564
  0
LINE
  5
406
100
AcDbEntity
  8
0
100
AcDbLine
 62
7
  6
CONTINUOUS
 10
254.9127016228
 20
74.7580902804
 11
254.9127016228
 21
74.6519635943
  0
LINE
  5
407
100
AcDbEntity
  8
0
100
AcDbLine
 62
7
  6
CONTINUOUS
 10
255.0779182629
 20
75.6933847692
 11
255.0779182629
 21
74.9441950294
  0
LINE
  5
408
100
AcDbEntity
  8
0
100
AcDbLine
 62
7
  6
CONTINUOUS
 10
255.099877542
 20
73.6941950294
 11
255.099877542
 21
73.1941950294
  0
LINE
  5
409
100
AcDbEntity
  8
0
100
AcDbLine
 62
7
  6
CONTINUOUS
 10
255.2899930386
 20
74.8229551763
 11
255.2899930386
 21
74.6095216683
  0
LINE
  5
40A
100
AcDbEntity
  8
0
100
AcDbLine
 62
7
  6
CONTINUOUS
 10
255.3368506608
 20
74.1803619518
 11
255.3368506608
 21
73.9416317629
  0
LINE
  5
40B
100
AcDbEntity
  8
0
100
AcDbLine
 62
7
  6
CONTINUOUS
 10
255.4352898267
 20
99.7114442677
 11
255.4352898267
 21
99.8525561398
  0
LINE
  5
40C
100
AcDbEntity
  8
0
100
AcDbLine
 62
7
  6
CONTINUOUS
 10
255.7281946619
 20
75.6941950294
 11
255.7281946619
 21
74.9441950294
  0
LINE
  5
40D
100
AcDbEntity
  8
0
100
AcDbLine
 62
7
  6
CONTINUOUS
 10
255.9176563549
 20
74.9047381441
 11
255.9176563549
 21
74.5741606406
  0
LINE
  5
40E
100
AcDbEntity
  8
0
100
AcDbLine
 62
7
  6
CONTINUOUS
 10
256.1733235501
 20
75.6941950294
 11
256.1733235501
 21
74.9441950294
  0
LINE
  5
40F
100
AcDbEntity
  8
0
100
AcDbLine
 62
7
  6
CONTINUOUS
 10
256.1764405074
 20
98.6941950294
 11
256.1764405074
 21
99.4441950294
  0
LINE
  5
410
100
AcDbEntity
  8
0
100
AcDbLine
 62
7
  6
CONTINUOUS
 10
256.8499633483
 20
98.6941950294
 11
256.8499633483
 21
99.4441950294
  0
LINE
  5
411
100
AcDbEntity
  8
RUNDUNGEN
100
AcDbLine
 62
7
  6
CONTINUOUS
 10
271.3282449326
 20
114.1488150876
 11
269.2675427984
 21
113.2776996427
  0
LINE
  5
412
100
AcDbEntity
  8
0
100
AcDbLine
 62
7
  6
CONTINUOUS
 10
257.7727392745
 20
74.1588088536
 11
257.7727392745
 21
73.7874507927
  0
LINE
  5
413
100
AcDbEntity
  8
0
100
AcDbLine
 62
7
  6
CONTINUOUS
 10
257.9676947881
 20
75.6941950294
 11
257.9676947881
 21
74.9441950294
  0
LINE
  5
414
100
AcDbEntity
  8
0
100
AcDbLine
 62
7
  6
CONTINUOUS
 10
258.3167126582
 20
98.6941950294
 11
258.3167126582
 21
99.4441950294
  0
LINE
  5
415
100
AcDbEntity
  8
0
100
AcDbLine
 62
7
  6
CONTINUOUS
 10
258.5171286971
 20
75.6941950294
 11
258.5171286971
 21
74.9441950294
  0
LINE
  5
416
100
AcDbEntity
  8
0
100
AcDbLine
 62
7
  6
CONTINUOUS
 10
258.5517650112
 20
74.9441950294
 11
258.5517650112
 21
74.4893204154
  0
LINE
  5
417
100
AcDbEntity
  8
0
100
AcDbLine
 62
7
  6
CONTINUOUS
 10
259.3289595136
 20
74.9441950294
 11
259.3289595136
 21
74.4794333272
  0
LINE
  5
418
100
AcDbEntity
  8
0
100
AcDbLine
 62
7
  6
CONTINUOUS
 10
259.3430127513
 20
75.6941950294
 11
259.3430127513
 21
74.9441950294
  0
LINE
  5
419
100
AcDbEntity
  8
0
100
AcDbLine
 62
7
  6
CONTINUOUS
 10
260.0053119539
 20
74.9441950294
 11
260.0053119539
 21
74.4879391504
  0
LINE
  5
41A
100
AcDbEntity
  8
0
100
AcDbLine
 62
7
  6
CONTINUOUS
 10
260.1716555413
 20
98.6941950294
 11
260.1716555413
 21
99.4441950294
  0
LINE
  5
41B
100
AcDbEntity
  8
0
100
AcDbLine
 62
7
  6
CONTINUOUS
 10
260.269738012
 20
75.6941950294
 11
260.269738012
 21
74.9441950294
  0
LINE
  5
41C
100
AcDbEntity
  8
0
100
AcDbLine
 62
7
  6
CONTINUOUS
 10
260.3147645176
 20
74.4117112596
 11
260.3147645176
 21
74.2205069268
  0
LINE
  5
41D
100
AcDbEntity
  8
0
100
AcDbLine
 62
7
  6
CONTINUOUS
 10
260.5808228829
 20
74.9441950294
 11
260.5808228829
 21
74.5148379539
  0
LINE
  5
41E
100
AcDbEntity
  8
0
100
AcDbLine
 62
7
  6
CONTINUOUS
 10
260.8713248593
 20
75.6941950294
 11
260.8713248593
 21
74.9441950294
  0
LINE
  5
41F
100
AcDbEntity
  8
0
100
AcDbLine
 62
7
  6
CONTINUOUS
 10
261.0554920545
 20
74.9441950294
 11
261.0554920545
 21
74.5601297456
  0
LINE
  5
420
100
AcDbEntity
  8
0
100
AcDbLine
 62
7
  6
CONTINUOUS
 10
261.272861082
 20
74.9441950294
 11
261.272861082
 21
74.8105938853
  0
LINE
  5
421
100
AcDbEntity
  8
0
100
AcDbLine
 62
7
  6
CONTINUOUS
 10
261.5236559459
 20
99.8244274434
 11
261.5236559459
 21
100.0393623486
  0
LINE
  5
422
100
AcDbEntity
  8
0
100
AcDbLine
 62
7
  6
CONTINUOUS
 10
261.529758454
 20
98.6941950294
 11
261.529758454
 21
99.4441950294
  0
LINE
  5
423
100
AcDbEntity
  8
0
100
AcDbLine
 62
7
  6
CONTINUOUS
 10
261.5737542606
 20
75.6941950294
 11
261.5737542606
 21
74.9441950294
  0
LINE
  5
424
100
AcDbEntity
  8
0
100
AcDbLine
 62
7
  6
CONTINUOUS
 10
261.7214537846
 20
74.9441950294
 11
261.7214537846
 21
74.8870155582
  0
LINE
  5
425
100
AcDbEntity
  8
0
100
AcDbLine
 62
7
  6
CONTINUOUS
 10
261.7283811084
 20
74.7808888721
 11
261.7283811084
 21
74.6747622549
  0
LINE
  5
426
100
AcDbEntity
  8
0
100
AcDbLine
 62
7
  6
CONTINUOUS
 10
253.6573745622
 20
74.7226855769
 11
253.7095275004
 21
74.6604258146
  0
LINE
  5
427
100
AcDbEntity
  8
0
100
AcDbLine
 62
7
  6
CONTINUOUS
 10
262.0258107775
 20
75.6941950294
 11
262.0258107775
 21
74.9441950294
  0
LINE
  5
428
100
AcDbEntity
  8
0
100
AcDbLine
 62
7
  6
CONTINUOUS
 10
262.0748473782
 20
98.6941950294
 11
262.0748473782
 21
99.4441950294
  0
LINE
  5
429
100
AcDbEntity
  8
0
100
AcDbLine
 62
7
  6
CONTINUOUS
 10
262.5039433356
 20
75.6941950294
 11
262.5039433356
 21
74.9441950294
  0
LINE
  5
42A
100
AcDbEntity
  8
0
100
AcDbLine
 62
7
  6
CONTINUOUS
 10
262.5247244513
 20
74.9441950294
 11
262.5247244513
 21
74.845998512
  0
LINE
  5
42B
100
AcDbEntity
  8
0
100
AcDbLine
 62
7
  6
CONTINUOUS
 10
262.7317026455
 20
75.6941950294
 11
262.7317026455
 21
74.9441950294
  0
LINE
  5
42C
100
AcDbEntity
  8
0
100
AcDbLine
 62
7
  6
CONTINUOUS
 10
262.9280919057
 20
74.9441950294
 11
262.9280919057
 21
74.7724267188
  0
LINE
  5
42D
100
AcDbEntity
  8
0
100
AcDbLine
 62
7
  6
CONTINUOUS
 10
262.9802444622
 20
74.9441950294
 11
262.9802444622
 21
74.7101668821
  0
LINE
  5
42E
100
AcDbEntity
  8
RUNDUNGEN
100
AcDbLine
 62
7
  6
CONTINUOUS
 10
263.3241465719
 20
70.2509292435
 11
263.3241465719
 21
74.8553745142
  0
LINE
  5
42F
100
AcDbEntity
  8
RUNDUNGEN
100
AcDbLine
 62
7
  6
CONTINUOUS
 10
263.3241465719
 20
99.7117000783
 11
263.3241465719
 21
104.1374608152
  0
LINE
  5
430
100
AcDbEntity
  8
0
100
AcDbLine
 62
7
  6
CONTINUOUS
 10
263.7823462609
 20
99.4441950294
 11
263.7823462609
 21
99.5845079918
  0
LINE
  5
431
100
AcDbEntity
  8
0
100
AcDbLine
 62
7
  6
CONTINUOUS
 10
264.8754573499
 20
75.6941950294
 11
264.8754573499
 21
74.9441950294
  0
LINE
  5
432
100
AcDbEntity
  8
0
100
AcDbLine
 62
7
  6
CONTINUOUS
 10
271.4196960903
 20
104.3009739132
 11
267.3443747201
 21
99.4441950294
  0
LINE
  5
433
100
AcDbEntity
  8
0
100
AcDbLine
 62
7
  6
CONTINUOUS
 10
262.9802444622
 20
74.7101668821
 11
262.9280919057
 21
74.7724267188
  0
LINE
  5
434
100
AcDbEntity
  8
0
100
AcDbLine
 62
7
  6
CONTINUOUS
 10
268.1632134975
 20
98.6941950294
 11
268.1632134975
 21
99.4441950294
  0
LINE
  5
435
100
AcDbEntity
  8
BEZUGSACHSEN
100
AcDbLine
 62
7
  6
CONTINUOUS
 10
284.4318417265
 20
105.1941950294
 11
280.6790649768
 21
98.6941950294
  0
LINE
  5
436
100
AcDbEntity
  8
0
100
AcDbLine
 62
7
  6
CONTINUOUS
 10
254.9127016228
 20
74.6519635943
 11
254.7857835194
 21
74.7014864597
  0
LINE
  5
437
100
AcDbEntity
  8
0
100
AcDbLine
 62
7
  6
CONTINUOUS
 10
261.7249171711
 20
74.7808888721
 11
261.8518353975
 21
74.7313660027
  0
LINE
  5
438
100
AcDbEntity
  8
0
100
AcDbLine
 62
7
  6
CONTINUOUS
 10
338.2006850558
 20
74.2758601424
 11
338.6040524487
 21
74.3494319337
  0
LINE
  5
439
100
AcDbEntity
  8
0
100
AcDbLine
 62
7
  6
CONTINUOUS
 10
330.4617441239
 20
74.4203721947
 11
330.6634279433
 21
74.4571580943
  0
LINE
  5
43A
100
AcDbEntity
  8
0
100
AcDbLine
 62
7
  6
CONTINUOUS
 10
253.7095275004
 20
74.6604258146
 11
254.1128944655
 21
74.5868539504
  0
LINE
  5
43B
100
AcDbEntity
  8
BEZUGSACHSEN
100
AcDbLine
 62
7
  6
CONTINUOUS
 10
280.6790649768
 20
75.6941950294
 11
284.4318417265
 21
69.1941950294
  0
LINE
  5
43C
100
AcDbEntity
  8
0
100
AcDbLine
 62
7
  6
CONTINUOUS
 10
254.7857835194
 20
74.7014864597
 11
254.9092382363
 21
74.7580902804
  0
LINE
  5
43D
100
AcDbEntity
  8
0
100
AcDbLine
 62
7
  6
CONTINUOUS
 10
295.8819263007
 20
72.5277843558
 11
296.5262059356
 21
72.6525554043
  0
LINE
  5
43E
100
AcDbEntity
  8
0
100
AcDbLine
 62
7
  6
CONTINUOUS
 10
298.6738047186
 20
73.0684588993
 11
299.3180843536
 21
73.1932299478
  0
LINE
  5
43F
100
AcDbEntity
  8
0
100
AcDbLine
 62
7
  6
CONTINUOUS
 10
337.5764855537
 20
74.3466257279
 11
337.1991946299
 21
74.3041838178
  0
LINE
  5
440
100
AcDbEntity
  8
0
100
AcDbLine
 62
7
  6
CONTINUOUS
 10
334.5876988103
 20
74.1443467797
 11
334.9649893063
 21
74.1867887627
  0
LINE
  5
441
100
AcDbEntity
  8
0
100
AcDbLine
 62
7
  6
CONTINUOUS
 10
330.1139934835
 20
74.5151867789
 11
329.7367025596
 21
74.4727448688
  0
LINE
  5
442
100
AcDbEntity
  8
0
100
AcDbLine
 62
7
  6
CONTINUOUS
 10
333.9270310272
 20
73.8656026325
 11
333.3741332424
 21
73.817504633
  0
LINE
  5
443
100
AcDbEntity
  8
0
100
AcDbLine
 62
7
  6
CONTINUOUS
 10
334.1391056799
 20
74.2207685254
 11
333.5862077106
 21
74.17267052
  0
LINE
  5
444
100
AcDbEntity
  8
0
100
AcDbLine
 62
7
  6
CONTINUOUS
 10
330.6634279433
 20
74.4571580943
 11
330.939876805
 21
74.4812070931
  0
LINE
  5
445
100
AcDbEntity
  8
0
100
AcDbLine
 62
7
  6
CONTINUOUS
 10
333.6939767917
 20
74.9341004258
 11
333.5862077106
 21
74.9247253184
  0
LINE
  5
446
100
AcDbEntity
  8
0
100
AcDbLine
 62
7
  6
CONTINUOUS
 10
329.7766333715
 20
74.9283814334
 11
329.8399984727
 21
74.9330569337
  0
LINE
  5
447
100
AcDbEntity
  8
0
100
AcDbLine
 62
7
  6
CONTINUOUS
 10
334.2000165024
 20
73.7835249451
 11
334.6520731423
 21
73.8132298894
  0
LINE
  5
448
100
AcDbEntity
  8
0
100
AcDbLine
 62
7
  6
CONTINUOUS
 10
330.5660496955
 20
74.5448917961
 11
330.1139934835
 21
74.5151867789
  0
LINE
  5
449
100
AcDbEntity
  8
0
100
AcDbLine
 62
7
  6
CONTINUOUS
 10
337.5730221672
 20
74.2404990418
 11
338.2006850558
 21
74.2758601424
  0
LINE
  5
44A
100
AcDbEntity
  8
0
100
AcDbLine
 62
7
  6
CONTINUOUS
 10
333.9600348201
 20
74.1089858169
 11
334.5876988103
 21
74.1443467797
  0
LINE
  5
44B
100
AcDbEntity
  8
0
100
AcDbLine
 62
7
  6
CONTINUOUS
 10
338.6354237204
 20
73.7749317093
 11
339.3378526299
 21
73.7975557672
  0
LINE
  5
44C
100
AcDbEntity
  8
0
100
AcDbLine
 62
7
  6
CONTINUOUS
 10
334.6520731423
 20
73.8132298894
 11
337.8130034806
 21
73.9150381581
  0
LINE
  5
44D
100
AcDbEntity
  8
0
100
AcDbLine
 62
7
  6
CONTINUOUS
 10
338.51543239
 20
73.9376622161
 11
339.9202907008
 21
73.9829103478
  0
LINE
  5
44E
100
AcDbEntity
  8
0
100
AcDbLine
 62
7
  6
CONTINUOUS
 10
339.5464631634
 20
74.0465951238
 11
338.1416048527
 21
74.0013469921
  0
LINE
  5
44F
100
AcDbEntity
  8
0
100
AcDbLine
 62
7
  6
CONTINUOUS
 10
337.4391759433
 20
73.9787229341
 11
333.9270310272
 21
73.8656026325
  0
LINE
  5
450
100
AcDbEntity
  8
0
100
AcDbLine
 62
7
  6
CONTINUOUS
 10
337.5434818197
 20
74.1032424587
 11
336.8410529103
 21
74.0806184008
  0
LINE
  5
451
100
AcDbEntity
  8
0
100
AcDbLine
 62
7
  6
CONTINUOUS
 10
333.2576059107
 20
74.086361759
 11
333.9600348201
 21
74.1089858169
  0
LINE
  5
452
100
AcDbEntity
  8
0
100
AcDbLine
 62
7
  6
CONTINUOUS
 10
337.2218072206
 20
74.229186997
 11
337.5730221672
 21
74.2404990418
  0
LINE
  5
453
100
AcDbEntity
  8
0
100
AcDbLine
 62
7
  6
CONTINUOUS
 10
333.5862077106
 20
74.17267052
 11
332.8837788012
 21
74.150046462
  0
LINE
  5
454
100
AcDbEntity
  8
0
100
AcDbLine
 62
7
  6
CONTINUOUS
 10
337.1991946299
 20
74.3041838178
 11
336.8479796833
 21
74.292871773
  0
LINE
  5
455
100
AcDbEntity
  8
0
100
AcDbLine
 62
7
  6
CONTINUOUS
 10
292.9000914463
 20
72.7213470528
 11
293.4158970381
 21
72.7253254105
  0
LINE
  5
456
100
AcDbEntity
  8
BEZUGSACHSEN
100
AcDbLine
 62
7
  6
CONTINUOUS
 10
284.4318417265
 20
69.1941950294
 11
305.2164514174
 21
69.1941950294
  0
LINE
  5
457
100
AcDbEntity
  8
0
100
AcDbLine
 62
7
  6
CONTINUOUS
 10
254.6657926167
 20
74.5387560258
 11
255.4690636524
 21
74.4977389678
  0
LINE
  5
458
100
AcDbEntity
  8
0
100
AcDbLine
 62
7
  6
CONTINUOUS
 10
255.9176563549
 20
74.5741606406
 11
255.2899930386
 21
74.6095216683
  0
LINE
  5
459
100
AcDbEntity
  8
0
100
AcDbLine
 62
7
  6
CONTINUOUS
 10
255.3368506608
 20
73.9416317629
 11
251.2683437847
 21
74.208976678
  0
LINE
  5
45A
100
AcDbEntity
  8
0
100
AcDbLine
 62
7
  6
CONTINUOUS
 10
257.7727392745
 20
73.7874507927
 11
255.9645140841
 21
73.9062707534
  0
LINE
  5
45B
100
AcDbEntity
  8
0
100
AcDbLine
 62
7
  6
CONTINUOUS
 10
261.272861082
 20
74.8105938853
 11
261.7249171711
 21
74.7808888721
  0
LINE
  5
45C
100
AcDbEntity
  8
0
100
AcDbLine
 62
7
  6
CONTINUOUS
 10
250.2668531449
 20
74.1806529662
 11
257.3241465719
 21
73.7110291199
  0
LINE
  5
45D
100
AcDbEntity
  8
0
100
AcDbLine
 62
7
  6
CONTINUOUS
 10
254.1128944655
 20
74.5868539504
 11
254.6657926167
 21
74.5387560258
  0
LINE
  5
45E
100
AcDbEntity
  8
0
100
AcDbLine
 62
7
  6
CONTINUOUS
 10
255.2899930386
 20
74.6095216683
 11
254.9127016228
 21
74.6519635943
  0
LINE
  5
45F
100
AcDbEntity
  8
0
100
AcDbLine
 62
7
  6
CONTINUOUS
 10
292.6111651893
 20
72.7612270407
 11
292.9000914463
 21
72.7213470528
  0
LINE
  5
460
100
AcDbEntity
  8
0
100
AcDbLine
 62
7
  6
CONTINUOUS
 10
293.0232346481
 20
73.0802203351
 11
292.7343067378
 21
73.1201005511
  0
LINE
  5
461
100
AcDbEntity
  8
0
100
AcDbLine
 62
7
  6
CONTINUOUS
 10
262.9280919057
 20
74.7724267188
 11
262.5247244513
 21
74.845998512
  0
LINE
  5
462
100
AcDbEntity
  8
0
100
AcDbLine
 62
7
  6
CONTINUOUS
 10
292.1879563127
 20
72.8948159293
 11
292.6111651893
 21
72.7612270407
  0
LINE
  5
463
100
AcDbEntity
  8
0
100
AcDbLine
 62
7
  6
CONTINUOUS
 10
292.7343067378
 20
73.1201005511
 11
292.3833302521
 21
73.2437193286
  0
LINE
  5
464
100
AcDbEntity
  8
0
100
AcDbLine
 62
7
  6
CONTINUOUS
 10
287.9542452016
 20
74.2908567016
 11
288.3501971798
 21
74.1047699451
  0
LINE
  5
465
100
AcDbEntity
  8
0
100
AcDbLine
 62
7
  6
CONTINUOUS
 10
291.9193927268
 20
73.0822335026
 11
292.1879563127
 21
72.8948159293
  0
LINE
  5
466
100
AcDbEntity
  8
0
100
AcDbLine
 62
7
  6
CONTINUOUS
 10
261.8518353975
 20
74.7313660027
 11
261.7283811084
 21
74.6747622549
  0
LINE
  5
467
100
AcDbEntity
  8
0
100
AcDbLine
 62
7
  6
CONTINUOUS
 10
253.8555948722
 20
75.5440811657
 11
253.6573745622
 21
75.4747403753
  0
LINE
  5
468
100
AcDbEntity
  8
0
100
AcDbLine
 62
7
  6
CONTINUOUS
 10
253.8555948722
 20
74.7920263673
 11
253.6573745622
 21
74.7226855769
  0
LINE
  5
469
100
AcDbEntity
  8
RUNDUNGEN
100
AcDbLine
 62
7
  6
CONTINUOUS
 10
329.1822750285
 20
100.0922658624
 11
329.1808368816
 21
100.0918394358
  0
LWPOLYLINE
  5
46A
100
AcDbEntity
  8
RUNDUNGEN
100
AcDbPolyline
 62
7
  6
CONTINUOUS
 90
5
 70
0
 10
329.1808405627
 20
100.0918405268
 10
329.0702278151
 20
100.0603111555
 10
328.8681896752
 20
100.0077127842
 10
328.6110227885
 20
99.9472580878
 10
328.2967818386
 20
99.8803412168
  0
LINE
  5
46B
100
AcDbEntity
  8
0
100
AcDbLine
 62
7
  6
CONTINUOUS
 10
261.0554920545
 20
74.5601297456
 11
260.5808228829
 21
74.5148379539
  0
LINE
  5
46C
100
AcDbEntity
  8
RUNDUNGEN
100
AcDbLine
 62
7
  6
CONTINUOUS
 10
268.8339448598
 20
75.6639257091
 11
268.8338224664
 21
75.663915519
  0
LINE
  5
46D
100
AcDbEntity
  8
0
100
AcDbLine
 62
7
  6
CONTINUOUS
 10
293.3945754582
 20
73.1041389148
 11
293.0232346481
 21
73.0802203351
  0
LINE
  5
46E
100
AcDbEntity
  8
0
100
AcDbLine
 62
7
  6
CONTINUOUS
 10
260.9094247443
 20
74.4285291909
 11
261.5597007616
 21
74.4681648937
  0
LINE
  5
46F
100
AcDbEntity
  8
0
100
AcDbLine
 62
7
  6
CONTINUOUS
 10
260.5808228829
 20
74.5148379539
 11
260.0053119539
 21
74.4879391504
  0
LINE
  5
470
100
AcDbEntity
  8
0
100
AcDbLine
 62
7
  6
CONTINUOUS
 10
256.0567960339
 20
74.9180145086
 11
256.616938808
 21
74.9441950294
  0
LINE
  5
471
100
AcDbEntity
  8
0
100
AcDbLine
 62
7
  6
CONTINUOUS
 10
334.3964057011
 20
74.4259408694
 11
333.6939767917
 21
74.4033168115
  0
LINE
  5
472
100
AcDbEntity
  8
0
100
AcDbLine
 62
7
  6
CONTINUOUS
 10
339.5464631634
 20
74.7986499222
 11
338.6562049591
 21
74.7699761974
  0
LINE
  5
473
100
AcDbEntity
  8
0
100
AcDbLine
 62
7
  6
CONTINUOUS
 10
333.5862077106
 20
74.9247253184
 11
332.8837788012
 21
74.9021012604
  0
LINE
  5
474
100
AcDbEntity
  8
0
100
AcDbLine
 62
7
  6
CONTINUOUS
 10
328.8985969887
 20
74.900101353
 11
329.7766333715
 21
74.9283814334
  0
LINE
  5
475
100
AcDbEntity
  8
0
100
AcDbLine
 62
7
  6
CONTINUOUS
 10
334.3964057011
 20
75.1779956678
 11
333.8712162033
 21
75.1610801943
  0
LINE
  5
476
100
AcDbEntity
  8
0
100
AcDbLine
 62
7
  6
CONTINUOUS
 10
259.9079338291
 20
74.4002054446
 11
260.9094247443
 21
74.4285291909
  0
LINE
  5
477
100
AcDbEntity
  8
RUNDUNGEN
100
AcDbLine
 62
7
  6
CONTINUOUS
 10
257.7727392745
 20
74.1381731664
 11
258.0746541647
 21
74.1429136052
  0
LINE
  5
478
100
AcDbEntity
  8
0
100
AcDbLine
 62
7
  6
CONTINUOUS
 10
336.4446122903
 20
74.2192999817
 11
337.2218072206
 21
74.229186997
  0
LINE
  5
479
100
AcDbEntity
  8
0
100
AcDbLine
 62
7
  6
CONTINUOUS
 10
335.8081907849
 20
74.6834423734
 11
335.0309967102
 21
74.6735552123
  0
LINE
  5
47A
100
AcDbEntity
  8
0
100
AcDbLine
 62
7
  6
CONTINUOUS
 10
335.8081907849
 20
75.4354971718
 11
335.0309967102
 21
75.4256100107
  0
LINE
  5
47B
100
AcDbEntity
  8
0
100
AcDbLine
 62
7
  6
CONTINUOUS
 10
260.0053119539
 20
74.4879391504
 11
259.3289595136
 21
74.4794333272
  0
LINE
  5
47C
100
AcDbEntity
  8
0
100
AcDbLine
 62
7
  6
CONTINUOUS
 10
332.6560189405
 20
74.0821306084
 11
333.2576059107
 21
74.086361759
  0
LINE
  5
47D
100
AcDbEntity
  8
RUNDUNGEN
100
AcDbLine
 62
7
  6
CONTINUOUS
 10
258.0746541647
 20
74.1429136052
 11
258.5116045021
 21
74.1466820413
  0
LINE
  5
47E
100
AcDbEntity
  8
0
100
AcDbLine
 62
7
  6
CONTINUOUS
 10
259.0559740384
 20
74.3973556399
 11
259.9079338291
 21
74.4002054446
  0
LINE
  5
47F
100
AcDbEntity
  8
0
100
AcDbLine
 62
7
  6
CONTINUOUS
 10
327.8710297568
 20
74.8972951797
 11
328.8985969887
 21
74.900101353
  0
LINE
  5
480
100
AcDbEntity
  8
0
100
AcDbLine
 62
7
  6
CONTINUOUS
 10
255.099877542
 20
73.1941950294
 11
250.699877542
 21
73.1941950294
  0
LINE
  5
481
100
AcDbEntity
  8
0
100
AcDbLine
 62
7
  6
CONTINUOUS
 10
248.299877542
 20
73.1941950294
 11
243.899877542
 21
73.1941950294
  0
LINE
  5
482
100
AcDbEntity
  8
RUNDUNGEN
100
AcDbLine
 62
7
  6
CONTINUOUS
 10
351.5710083741
 20
73.6941950294
 11
334.2713186475
 21
73.6941950294
  0
LINE
  5
483
100
AcDbEntity
  8
RUNDUNGEN
100
AcDbLine
 62
7
  6
CONTINUOUS
 10
238.0772843958
 20
73.6941950294
 11
259.1241418217
 21
73.6941950294
  0
LINE
  5
484
100
AcDbEntity
  8
RUNDUNGEN
100
AcDbLine
 62
7
  6
CONTINUOUS
 10
330.5241467737
 20
73.6941950294
 11
333.3954159599
 21
73.6941950294
  0
LINE
  5
485
100
AcDbEntity
  8
0
100
AcDbLine
 62
7
  6
CONTINUOUS
 10
333.3954159599
 20
73.6941950294
 11
334.2713186475
 21
73.6941950294
  0
LINE
  5
486
100
AcDbEntity
  8
RUNDUNGEN
100
AcDbLine
 62
7
  6
CONTINUOUS
 10
259.4126905409
 20
74.1472746936
 11
258.5116045021
 21
74.1466820413
  0
LINE
  5
487
100
AcDbEntity
  8
0
100
AcDbLine
 62
7
  6
CONTINUOUS
 10
333.8712162033
 20
74.9441950294
 11
324.9221737872
 21
74.9441950294
  0
LINE
  5
488
100
AcDbEntity
  8
0
100
AcDbLine
 62
7
  6
CONTINUOUS
 10
264.8754573499
 20
74.9441950294
 11
254.8838883245
 21
74.9441950294
  0
LINE
  5
489
100
AcDbEntity
  8
RUNDUNGEN
100
AcDbLine
 62
7
  6
CONTINUOUS
 10
245.7563462343
 20
75.6941950294
 11
343.8906209993
 21
75.6941950294
  0
LINE
  5
48A
100
AcDbEntity
  8
RUNDUNGEN
100
AcDbLine
 62
7
  6
CONTINUOUS
 10
346.3241029477
 20
77.6941950294
 11
243.3241901952
 21
77.6941950294
  0
LINE
  5
48B
100
AcDbEntity
  8
RUNDUNGEN
100
AcDbLine
 62
7
  6
CONTINUOUS
 10
330.2076790021
 20
74.1472746936
 11
330.9173634208
 21
74.147206337
  0
LINE
  5
48C
100
AcDbEntity
  8
0
100
AcDbLine
 62
7
  6
CONTINUOUS
 10
332.8837788012
 20
74.150046462
 11
332.4577987535
 21
74.1514714028
  0
LINE
  5
48D
100
AcDbEntity
  8
0
100
AcDbLine
 62
7
  6
CONTINUOUS
 10
336.8479796833
 20
74.292871773
 11
335.9960200156
 21
74.2957215817
  0
LINE
  5
48E
100
AcDbEntity
  8
0
100
AcDbLine
 62
7
  6
CONTINUOUS
 10
332.8837788012
 20
74.9021012604
 11
332.4577987535
 21
74.9035262012
  0
LINE
  5
48F
100
AcDbEntity
  8
0
100
AcDbLine
 62
7
  6
CONTINUOUS
 10
326.5340102982
 20
74.6270567504
 11
328.9142827476
 21
74.6128512448
  0
LINE
  5
490
100
AcDbEntity
  8
0
100
AcDbLine
 62
7
  6
CONTINUOUS
 10
328.5404552103
 20
74.6765360208
 11
326.1601829748
 21
74.6907414899
  0
LINE
  5
491
100
AcDbEntity
  8
0
100
AcDbLine
 62
7
  6
CONTINUOUS
 10
260.3147645176
 20
74.2205069268
 11
250.8649767126
 21
74.2825485239
  0
LINE
  5
492
100
AcDbEntity
  8
0
100
AcDbLine
 62
7
  6
CONTINUOUS
 10
253.6573745622
 20
75.0162701252
 11
250.8649767126
 21
75.0346033223
  0
LINE
  5
493
100
AcDbEntity
  8
0
100
AcDbLine
 62
7
  6
CONTINUOUS
 10
257.4598231104
 20
74.161009666
 11
259.866171815
 21
74.144085254
  0
LINE
  5
494
100
AcDbEntity
  8
0
100
AcDbLine
 62
7
  6
CONTINUOUS
 10
251.2683437847
 20
74.208976678
 11
256.6826288219
 21
74.1708967906
  0
LINE
  5
495
100
AcDbEntity
  8
0
100
AcDbLine
 62
7
  6
CONTINUOUS
 10
331.9796660723
 20
74.0906365045
 11
332.6560189405
 21
74.0821306084
  0
LINE
  5
496
100
AcDbEntity
  8
0
100
AcDbLine
 62
7
  6
CONTINUOUS
 10
335.76825985
 20
74.2278058049
 11
336.4446122903
 21
74.2192999817
  0
LINE
  5
497
100
AcDbEntity
  8
0
100
AcDbLine
 62
7
  6
CONTINUOUS
 10
335.4048238198
 20
74.6098705092
 11
336.0811762601
 21
74.601364686
  0
LINE
  5
498
100
AcDbEntity
  8
0
100
AcDbLine
 62
7
  6
CONTINUOUS
 10
259.3289595136
 20
74.4794333272
 11
258.5517650112
 21
74.4893204154
  0
LINE
  5
499
100
AcDbEntity
  8
0
100
AcDbLine
 62
7
  6
CONTINUOUS
 10
258.1031723087
 20
74.4128987425
 11
259.0559740384
 21
74.3973556399
  0
LINE
  5
49A
100
AcDbEntity
  8
0
100
AcDbLine
 62
7
  6
CONTINUOUS
 10
326.9443044347
 20
74.9128819562
 11
327.8710297568
 21
74.8972951797
  0
LINE
  5
49B
100
AcDbEntity
  8
0
100
AcDbLine
 62
7
  6
CONTINUOUS
 10
332.4577987535
 20
74.1514714028
 11
331.9570534175
 21
74.1656332366
  0
LINE
  5
49C
100
AcDbEntity
  8
0
100
AcDbLine
 62
7
  6
CONTINUOUS
 10
335.9960200156
 20
74.2957215817
 11
335.4952743748
 21
74.3098834922
  0
LINE
  5
49D
100
AcDbEntity
  8
0
100
AcDbLine
 62
7
  6
CONTINUOUS
 10
336.8096816386
 20
74.6551186251
 11
335.8081907849
 21
74.6834423734
  0
LINE
  5
49E
100
AcDbEntity
  8
0
100
AcDbLine
 62
7
  6
CONTINUOUS
 10
332.4577987535
 20
74.9035262012
 11
331.9570534175
 21
74.9176880349
  0
LINE
  5
49F
100
AcDbEntity
  8
0
100
AcDbLine
 62
7
  6
CONTINUOUS
 10
336.8096816386
 20
75.4071734235
 11
335.8081907849
 21
75.4354971718
  0
LINE
  5
4A0
100
AcDbEntity
  8
0
100
AcDbLine
 62
7
  6
CONTINUOUS
 10
255.4690636524
 20
74.4977389678
 11
258.1031723087
 21
74.4128987425
  0
LINE
  5
4A1
100
AcDbEntity
  8
0
100
AcDbLine
 62
7
  6
CONTINUOUS
 10
258.5517650112
 20
74.4893204154
 11
255.9176563549
 21
74.5741606406
  0
LINE
  5
4A2
100
AcDbEntity
  8
0
100
AcDbLine
 62
7
  6
CONTINUOUS
 10
264.4268642196
 20
74.9210389159
 11
263.7079161192
 21
74.9441950294
  0
LINE
  5
4A3
100
AcDbEntity
  8
0
100
AcDbLine
 62
7
  6
CONTINUOUS
 10
334.9423766515
 20
74.2617854947
 11
335.76825985
 21
74.2278058049
  0
LINE
  5
4A4
100
AcDbEntity
  8
0
100
AcDbLine
 62
7
  6
CONTINUOUS
 10
331.4041552049
 20
74.11753531
 11
331.9796660723
 21
74.0906365045
  0
LINE
  5
4A5
100
AcDbEntity
  8
0
100
AcDbLine
 62
7
  6
CONTINUOUS
 10
336.0811762601
 20
74.601364686
 11
336.656687066
 21
74.5744658786
  0
LINE
  5
4A6
100
AcDbEntity
  8
0
100
AcDbLine
 62
7
  6
CONTINUOUS
 10
262.5247244513
 20
74.845998512
 11
261.7214537846
 21
74.8870155582
  0
LINE
  5
4A7
100
AcDbEntity
  8
0
100
AcDbLine
 62
7
  6
CONTINUOUS
 10
326.4467372705
 20
74.9386907666
 11
326.9443044347
 21
74.9128819562
  0
LINE
  5
4A8
100
AcDbEntity
  8
0
100
AcDbLine
 62
7
  6
CONTINUOUS
 10
330.7538787598
 20
74.1571710857
 11
331.4041552049
 21
74.11753531
  0
LINE
  5
4A9
100
AcDbEntity
  8
0
100
AcDbLine
 62
7
  6
CONTINUOUS
 10
331.9570534175
 20
74.1656332366
 11
331.6319150041
 21
74.1854511616
  0
LINE
  5
4AA
100
AcDbEntity
  8
0
100
AcDbLine
 62
7
  6
CONTINUOUS
 10
331.9570534175
 20
74.9176880349
 11
331.6319150041
 21
74.93750596
  0
LINE
  5
4AB
100
AcDbEntity
  8
0
100
AcDbLine
 62
7
  6
CONTINUOUS
 10
337.4599580376
 20
74.6154828479
 11
336.8096816386
 21
74.6551186251
  0
LINE
  5
4AC
100
AcDbEntity
  8
0
100
AcDbLine
 62
7
  6
CONTINUOUS
 10
335.4952743748
 20
74.3098834922
 11
334.6954672176
 21
74.3749931361
  0
LINE
  5
4AD
100
AcDbEntity
  8
RUNDUNGEN
100
AcDbLine
 62
7
  6
CONTINUOUS
 10
320.8143496376
 20
75.6639255958
 11
320.8144587588
 21
75.6639165104
  0
LWPOLYLINE
  5
4AE
100
AcDbEntity
  8
RUNDUNGEN
100
AcDbPolyline
 62
7
  6
CONTINUOUS
 90
3
 70
0
 10
329.7259507776
 20
74.1796281483
 10
330.0589424587
 20
74.1503686491
 10
330.2076790132
 20
74.1472922703
  0
LINE
  5
4AF
100
AcDbEntity
  8
0
100
AcDbLine
 62
7
  6
CONTINUOUS
 10
330.2792100005
 20
74.2024628041
 11
330.7538787598
 21
74.1571710857
  0
LINE
  5
4B0
100
AcDbEntity
  8
0
100
AcDbLine
 62
7
  6
CONTINUOUS
 10
294.1678052181
 20
73.3732818821
 11
293.8066465702
 21
73.423131981
  0
LINE
  5
4B1
100
AcDbEntity
  8
0
100
AcDbLine
 62
7
  6
CONTINUOUS
 10
289.6953667129
 20
75.6941950294
 11
290.3272693333
 21
75.3972178313
  0
LINE
  5
4B2
100
AcDbEntity
  8
0
100
AcDbLine
 62
7
  6
CONTINUOUS
 10
290.9792583718
 20
75.5844936232
 11
290.7458377373
 21
75.6941950294
  0
LINE
  5
4B3
100
AcDbEntity
  8
0
100
AcDbLine
 62
7
  6
CONTINUOUS
 10
292.3833302521
 20
73.2437193286
 11
292.1869990571
 21
73.4211667909
  0
LINE
  5
4B4
100
AcDbEntity
  8
0
100
AcDbLine
 62
7
  6
CONTINUOUS
 10
291.6711934653
 20
73.4171884332
 11
291.9193927268
 21
73.0822335026
  0
LINE
  5
4B5
100
AcDbEntity
  8
0
100
AcDbLine
 62
7
  6
CONTINUOUS
 10
292.1869990571
 20
73.4211667909
 11
292.0730824151
 21
73.6624128208
  0
LINE
  5
4B6
100
AcDbEntity
  8
0
100
AcDbLine
 62
7
  6
CONTINUOUS
 10
291.6396913764
 20
73.7222330307
 11
291.6711934653
 21
73.4171884332
  0
LINE
  5
4B7
100
AcDbEntity
  8
0
100
AcDbLine
 62
7
  6
CONTINUOUS
 10
291.6600557293
 20
73.8697705947
 11
291.6396913764
 21
73.7222330307
  0
LINE
  5
4B8
100
AcDbEntity
  8
0
100
AcDbLine
 62
7
  6
CONTINUOUS
 10
292.0730824151
 20
73.6624128208
 11
292.093446768
 21
73.8099503848
  0
LINE
  5
4B9
100
AcDbEntity
  8
0
100
AcDbLine
 62
7
  6
CONTINUOUS
 10
294.5556846865
 20
75.650141171
 11
294.5617653638
 21
75.6941950294
  0
LINE
  5
4BA
100
AcDbEntity
  8
0
100
AcDbLine
 62
7
  6
CONTINUOUS
 10
291.7730151156
 20
74.1548754265
 11
291.6600557293
 21
73.8697705947
  0
LINE
  5
4BB
100
AcDbEntity
  8
0
100
AcDbLine
 62
7
  6
CONTINUOUS
 10
288.6137763874
 20
75.6941950294
 11
287.9542452016
 21
74.2908567016
  0
LINE
  5
4BC
100
AcDbEntity
  8
0
100
AcDbLine
 62
7
  6
CONTINUOUS
 10
288.6035918819
 20
74.643938532
 11
289.0971841251
 21
75.6941950294
  0
LINE
  5
4BD
100
AcDbEntity
  8
0
100
AcDbLine
 62
7
  6
CONTINUOUS
 10
290.7892123009
 20
75.1801170886
 11
290.9792583718
 21
75.5844936232
  0
LINE
  5
4BE
100
AcDbEntity
  8
0
100
AcDbLine
 62
7
  6
CONTINUOUS
 10
262.7820245955
 20
74.640826164
 11
262.9802444622
 21
74.7101668821
  0
LINE
  5
4BF
100
AcDbEntity
  8
RUNDUNGEN
100
AcDbLine
 62
7
  6
CONTINUOUS
 10
260.4674327221
 20
74.2965436451
 11
260.4650794424
 21
74.2958462389
  0
LWPOLYLINE
  5
4C0
100
AcDbEntity
  8
RUNDUNGEN
100
AcDbPolyline
 62
7
  6
CONTINUOUS
 90
3
 70
0
 10
260.4674286706
 20
74.2965424444
 10
260.580493671
 20
74.3287458558
 10
260.7831160759
 20
74.3814228541
  0
LINE
  5
4C1
100
AcDbEntity
  8
RUNDUNGEN
100
AcDbLine
 62
7
  6
CONTINUOUS
 10
260.7831160759
 20
74.3814228541
 11
261.0098234173
 21
74.434648703
  0
LINE
  5
4C2
100
AcDbEntity
  8
0
100
AcDbLine
 62
7
  6
CONTINUOUS
 10
257.3241465719
 20
73.7110291199
 11
257.7727392745
 21
73.7874507927
  0
LINE
  5
4C3
100
AcDbEntity
  8
0
100
AcDbLine
 62
7
  6
CONTINUOUS
 10
259.866171815
 20
74.144085254
 11
260.3147645176
 21
74.2205069268
  0
LINE
  5
4C4
100
AcDbEntity
  8
0
100
AcDbLine
 62
7
  6
CONTINUOUS
 10
262.1091355416
 20
74.5261936547
 11
262.7820245955
 21
74.640826164
  0
LINE
  5
4C5
100
AcDbEntity
  8
0
100
AcDbLine
 62
7
  6
CONTINUOUS
 10
264.4268642196
 20
74.9210389159
 11
264.5627898426
 21
74.9441950294
  0
LINE
  5
4C6
100
AcDbEntity
  8
RUNDUNGEN
100
AcDbLine
 62
7
  6
CONTINUOUS
 10
266.5005442412
 20
75.3965015147
 11
264.8754573499
 21
75.1196538128
  0
LINE
  5
4C7
100
AcDbEntity
  8
RUNDUNGEN
100
AcDbLine
 62
7
  6
CONTINUOUS
 10
263.823640929
 20
74.9404677272
 11
262.9802444622
 21
74.7967877954
  0
LINE
  5
4C8
100
AcDbEntity
  8
0
100
AcDbLine
 62
7
  6
CONTINUOUS
 10
261.7283811084
 20
74.6747622549
 11
261.0554920545
 21
74.5601297456
  0
LINE
  5
4C9
100
AcDbEntity
  8
0
100
AcDbLine
 62
7
  6
CONTINUOUS
 10
261.7214537846
 20
74.8870155582
 11
261.272861082
 21
74.8105938853
  0
LINE
  5
4CA
100
AcDbEntity
  8
0
100
AcDbLine
 62
7
  6
CONTINUOUS
 10
255.9645140841
 20
73.9062707534
 11
257.4598231104
 21
74.161009666
  0
LINE
  5
4CB
100
AcDbEntity
  8
0
100
AcDbLine
 62
7
  6
CONTINUOUS
 10
256.6826288219
 20
74.1708967906
 11
255.3368506608
 21
73.9416317629
  0
LINE
  5
4CC
100
AcDbEntity
  8
0
100
AcDbLine
 62
7
  6
CONTINUOUS
 10
254.9092382363
 20
74.7580902804
 11
255.5821272901
 21
74.8727227897
  0
LINE
  5
4CD
100
AcDbEntity
  8
0
100
AcDbLine
 62
7
  6
CONTINUOUS
 10
254.528483926
 20
74.9066588766
 11
253.8555948722
 21
74.7920263673
  0
LINE
  5
4CE
100
AcDbEntity
  8
0
100
AcDbLine
 62
7
  6
CONTINUOUS
 10
250.8649767126
 20
74.2825485239
 11
250.2668531449
 21
74.1806529662
  0
LINE
  5
4CF
100
AcDbEntity
  8
0
100
AcDbLine
 62
7
  6
CONTINUOUS
 10
254.528483926
 20
75.658713675
 11
253.8555948722
 21
75.5440811657
  0
LINE
  5
4D0
100
AcDbEntity
  8
0
100
AcDbLine
 62
7
  6
CONTINUOUS
 10
250.8649767126
 20
75.0346033223
 11
250.2668531449
 21
74.9327077646
  0
LWPOLYLINE
  5
4D1
100
AcDbEntity
  8
RUNDUNGEN
100
AcDbPolyline
 62
7
  6
CONTINUOUS
 90
6
 70
0
 10
266.5011567493
 20
75.3966059676
 10
266.7036309881
 20
75.4292525738
 10
267.0198720051
 20
75.4745245775
 10
267.4022332239
 20
75.522651246
 10
267.8514639255
 20
75.5725024044
 10
268.3681695448
 20
75.6231287356
  0
LINE
  5
4D2
100
AcDbEntity
  8
0
100
AcDbLine
 62
7
  6
CONTINUOUS
 10
261.5597007616
 20
74.4681648937
 11
262.1091355416
 21
74.5261936547
  0
LINE
  5
4D3
100
AcDbEntity
  8
0
100
AcDbLine
 62
7
  6
CONTINUOUS
 10
254.528483926
 20
74.9066588766
 11
254.8838883245
 21
74.9441950294
  0
LINE
  5
4D4
100
AcDbEntity
  8
0
100
AcDbLine
 62
7
  6
CONTINUOUS
 10
254.5539954481
 20
75.6614080828
 11
254.528483926
 21
75.658713675
  0
LINE
  5
4D5
100
AcDbEntity
  8
0
100
AcDbLine
 62
7
  6
CONTINUOUS
 10
255.5821272901
 20
74.8727227897
 11
256.0567960339
 21
74.9180145086
  0
LINE
  5
4D6
100
AcDbEntity
  8
RUNDUNGEN
100
AcDbLine
 62
7
  6
CONTINUOUS
 10
268.3681695448
 20
75.6231287356
 11
268.8338224664
 21
75.663915519
  0
LINE
  5
4D7
100
AcDbEntity
  8
0
100
AcDbLine
 62
7
  6
CONTINUOUS
 10
337.4599580376
 20
75.3675376463
 11
336.8096816386
 21
75.4071734235
  0
LINE
  5
4D8
100
AcDbEntity
  8
0
100
AcDbLine
 62
7
  6
CONTINUOUS
 10
335.0309967102
 20
75.0997335931
 11
334.6954672176
 21
75.1270479345
  0
LINE
  5
4D9
100
AcDbEntity
  8
RUNDUNGEN
100
AcDbLine
 62
7
  6
CONTINUOUS
 10
320.8144587589
 20
75.6639165113
 11
321.289706468
 21
75.6222448405
  0
LWPOLYLINE
  5
4DA
100
AcDbEntity
  8
RUNDUNGEN
100
AcDbPolyline
 62
7
  6
CONTINUOUS
 90
6
 70
0
 10
321.289706468
 20
75.6222448405
 10
321.8056772755
 20
75.5715781203
 10
322.2540043139
 20
75.5217105796
 10
322.6353159722
 20
75.4735971572
 10
322.9503845501
 20
75.4283750768
 10
323.1470907612
 20
75.3966137515
  0
LINE
  5
4DB
100
AcDbEntity
  8
0
100
AcDbLine
 62
7
  6
CONTINUOUS
 10
331.6319150041
 20
74.1854511616
 11
331.0824806673
 21
74.2434798502
  0
LINE
  5
4DC
100
AcDbEntity
  8
0
100
AcDbLine
 62
7
  6
CONTINUOUS
 10
336.656687066
 20
74.5744658786
 11
337.2061218307
 21
74.5164371171
  0
LINE
  5
4DD
100
AcDbEntity
  8
0
100
AcDbLine
 62
7
  6
CONTINUOUS
 10
338.1589231327
 20
74.5319802926
 11
337.4599580376
 21
74.6154828479
  0
LINE
  5
4DE
100
AcDbEntity
  8
0
100
AcDbLine
 62
7
  6
CONTINUOUS
 10
338.1589231327
 20
75.284035091
 11
337.4599580376
 21
75.3675376463
  0
LINE
  5
4DF
100
AcDbEntity
  8
0
100
AcDbLine
 62
7
  6
CONTINUOUS
 10
326.1601829748
 20
74.6907414899
 11
326.5340102982
 21
74.6270567504
  0
LINE
  5
4E0
100
AcDbEntity
  8
RUNDUNGEN
100
AcDbLine
 62
7
  6
CONTINUOUS
 10
326.1601829748
 20
74.8833071407
 11
325.8729390995
 21
74.9322416359
  0
LINE
  5
4E1
100
AcDbEntity
  8
RUNDUNGEN
100
AcDbLine
 62
7
  6
CONTINUOUS
 10
324.9221737872
 20
75.0942127854
 11
323.1477489027
 21
75.3965015147
  0
LINE
  5
4E2
100
AcDbEntity
  8
0
100
AcDbLine
 62
7
  6
CONTINUOUS
 10
329.6810861119
 20
74.3043584165
 11
330.2792100005
 21
74.2024628041
  0
LINE
  5
4E3
100
AcDbEntity
  8
0
100
AcDbLine
 62
7
  6
CONTINUOUS
 10
331.0824806673
 20
74.2434798502
 11
330.6338879647
 21
74.3199015231
  0
LINE
  5
4E4
100
AcDbEntity
  8
0
100
AcDbLine
 62
7
  6
CONTINUOUS
 10
328.9142827476
 20
74.6128512448
 11
328.5404552103
 21
74.6765360208
  0
LINE
  5
4E5
100
AcDbEntity
  8
0
100
AcDbLine
 62
7
  6
CONTINUOUS
 10
330.939876805
 20
74.4812070931
 11
330.5660496955
 21
74.5448917961
  0
LINE
  5
4E6
100
AcDbEntity
  8
0
100
AcDbLine
 62
7
  6
CONTINUOUS
 10
333.6939767917
 20
74.4033168115
 11
333.9930383082
 21
74.3523690782
  0
LINE
  5
4E7
100
AcDbEntity
  8
0
100
AcDbLine
 62
7
  6
CONTINUOUS
 10
334.6954672176
 20
74.3749931361
 11
334.3964057011
 21
74.4259408694
  0
LINE
  5
4E8
100
AcDbEntity
  8
0
100
AcDbLine
 62
7
  6
CONTINUOUS
 10
336.8410529103
 20
74.0806184008
 11
337.4391759433
 21
73.9787229341
  0
LINE
  5
4E9
100
AcDbEntity
  8
0
100
AcDbLine
 62
7
  6
CONTINUOUS
 10
337.8130034806
 20
73.9150381581
 11
338.6354237204
 21
73.7749317093
  0
LINE
  5
4EA
100
AcDbEntity
  8
0
100
AcDbLine
 62
7
  6
CONTINUOUS
 10
339.3378526299
 20
73.7975557672
 11
338.51543239
 21
73.9376622161
  0
LINE
  5
4EB
100
AcDbEntity
  8
0
100
AcDbLine
 62
7
  6
CONTINUOUS
 10
338.1416048527
 20
74.0013469921
 11
337.5434818197
 21
74.1032424587
  0
LINE
  5
4EC
100
AcDbEntity
  8
0
100
AcDbLine
 62
7
  6
CONTINUOUS
 10
335.0309967102
 20
74.6735552123
 11
335.4048238198
 21
74.6098705092
  0
LINE
  5
4ED
100
AcDbEntity
  8
0
100
AcDbLine
 62
7
  6
CONTINUOUS
 10
339.9202907008
 20
73.9829103478
 11
339.5464631634
 21
74.0465951238
  0
LINE
  5
4EE
100
AcDbEntity
  8
0
100
AcDbLine
 62
7
  6
CONTINUOUS
 10
337.2061218307
 20
74.5164371171
 11
337.5051833472
 21
74.4654893838
  0
LINE
  5
4EF
100
AcDbEntity
  8
0
100
AcDbLine
 62
7
  6
CONTINUOUS
 10
338.3084543187
 20
74.5065063531
 11
338.1589231327
 21
74.5319802926
  0
LINE
  5
4F0
100
AcDbEntity
  8
0
100
AcDbLine
 62
7
  6
CONTINUOUS
 10
334.6954672176
 20
75.1270479345
 11
334.3964057011
 21
75.1779956678
  0
LINE
  5
4F1
100
AcDbEntity
  8
0
100
AcDbLine
 62
7
  6
CONTINUOUS
 10
339.9202907008
 20
74.7349651462
 11
339.5464631634
 21
74.7986499222
  0
LINE
  5
4F2
100
AcDbEntity
  8
0
100
AcDbLine
 62
7
  6
CONTINUOUS
 10
338.3084543187
 20
75.2585611515
 11
338.1589231327
 21
75.284035091
  0
LINE
  5
4F3
100
AcDbEntity
  8
RUNDUNGEN
100
AcDbLine
 62
7
  6
CONTINUOUS
 10
327.6988450277
 20
74.6201049973
 11
327.9235113304
 21
74.5802743208
  0
LINE
  5
4F4
100
AcDbEntity
  8
RUNDUNGEN
100
AcDbLine
 62
7
  6
CONTINUOUS
 10
329.3970663018
 20
74.2395952178
 11
329.7259507776
 21
74.1796281483
  0
LINE
  5
4F5
100
AcDbEntity
  8
RUNDUNGEN
100
AcDbLine
 62
7
  6
CONTINUOUS
 10
327.9235113304
 20
74.5802743208
 11
328.2967823231
 21
74.5080487442
  0
LWPOLYLINE
  5
4F6
100
AcDbEntity
  8
RUNDUNGEN
100
AcDbPolyline
 62
7
  6
CONTINUOUS
 90
5
 70
0
 10
328.2967823231
 20
74.5080487442
 10
328.6110230786
 20
74.4411319054
 10
328.8681897663
 20
74.380677251
 10
329.0702277983
 20
74.3280789066
 10
329.1808408975
 20
74.2965494344
  0
LWPOLYLINE
  5
4F7
100
AcDbEntity
  8
RUNDUNGEN
100
AcDbPolyline
 62
7
  6
CONTINUOUS
 90
8
 70
0
 10
261.0260061903
 20
100.12835737
 10
260.8889671697
 20
100.2166774191
 10
260.6165326091
 20
100.3600717516
 10
260.3325511548
 20
100.4789704825
 10
260.0392200513
 20
100.5724537269
 10
259.7388089903
 20
100.6397982152
 10
259.4336424323
 20
100.6804829504
 10
259.1260815359
 20
100.6941932365
  0
LINE
  5
4F8
100
AcDbEntity
  8
0
100
AcDbLine
 62
7
  6
CONTINUOUS
 10
298.7469804453
 20
73.8411466197
 11
297.6207680399
 21
75.6941950294
  0
LINE
  5
4F9
100
AcDbEntity
  8
0
100
AcDbLine
 62
7
  6
CONTINUOUS
 10
297.1434375861
 20
75.6941950294
 11
298.6738047186
 21
73.0684588993
  0
LINE
  5
4FA
100
AcDbEntity
  8
0
100
AcDbLine
 62
7
  6
CONTINUOUS
 10
295.2687199252
 20
75.6941950294
 11
295.8819263007
 21
72.5277843558
  0
LINE
  5
4FB
100
AcDbEntity
  8
0
100
AcDbLine
 62
7
  6
CONTINUOUS
 10
296.1698619057
 20
73.3420624257
 11
295.7143484372
 21
75.6941950294
  0
LINE
  5
4FC
100
AcDbEntity
  8
0
100
AcDbLine
 62
7
  6
CONTINUOUS
 10
296.5262059356
 20
72.6525554043
 11
296.9707268954
 21
75.6941950294
  0
LINE
  5
4FD
100
AcDbEntity
  8
0
100
AcDbLine
 62
7
  6
CONTINUOUS
 10
296.5579566576
 20
75.6941950294
 11
296.1698619057
 21
73.3420624257
  0
LINE
  5
4FE
100
AcDbEntity
  8
0
100
AcDbLine
 62
7
  6
CONTINUOUS
 10
294.0548441785
 20
73.0881772786
 11
294.1678052181
 21
73.3732818821
  0
LINE
  5
4FF
100
AcDbEntity
  8
0
100
AcDbLine
 62
7
  6
CONTINUOUS
 10
292.093446768
 20
73.8099503848
 11
292.2786385453
 21
74.0850851055
  0
LINE
  5
500
100
AcDbEntity
  8
0
100
AcDbLine
 62
7
  6
CONTINUOUS
 10
291.9480263839
 20
74.3562412403
 11
291.7730151156
 21
74.1548754265
  0
LINE
  5
501
100
AcDbEntity
  8
0
100
AcDbLine
 62
7
  6
CONTINUOUS
 10
293.8066465702
 20
73.423131981
 11
293.6316353019
 21
73.2217661672
  0
LINE
  5
502
100
AcDbEntity
  8
0
100
AcDbLine
 62
7
  6
CONTINUOUS
 10
292.2786385453
 20
74.0850851055
 11
294.5556846865
 21
75.650141171
  0
LINE
  5
503
100
AcDbEntity
  8
0
100
AcDbLine
 62
7
  6
CONTINUOUS
 10
293.9250667029
 20
75.6941950294
 11
291.9480263839
 21
74.3562412403
  0
LINE
  5
504
100
AcDbEntity
  8
0
100
AcDbLine
 62
7
  6
CONTINUOUS
 10
288.3501971798
 20
74.1047699451
 11
290.7892123009
 21
75.1801170886
  0
LINE
  5
505
100
AcDbEntity
  8
0
100
AcDbLine
 62
7
  6
CONTINUOUS
 10
290.3272693333
 20
75.3972178313
 11
288.6035918819
 21
74.643938532
  0
LINE
  5
506
100
AcDbEntity
  8
RUNDUNGEN
100
AcDbLine
 62
7
  6
CONTINUOUS
 10
260.3147645176
 20
74.2559591847
 11
260.4650455187
 21
74.2958353963
  0
LINE
  5
507
100
AcDbEntity
  8
RUNDUNGEN
100
AcDbLine
 62
7
  6
CONTINUOUS
 10
329.1832486102
 20
74.2958350983
 11
329.3970663018
 21
74.2395952178
  0
LINE
  5
508
100
AcDbEntity
  8
0
100
AcDbLine
 62
7
  6
CONTINUOUS
 10
338.6562049591
 20
74.4116917689
 11
338.3084543187
 21
74.5065063531
  0
LINE
  5
509
100
AcDbEntity
  8
0
100
AcDbLine
 62
7
  6
CONTINUOUS
 10
338.6562049591
 20
75.1637465672
 11
338.3084543187
 21
75.2585611515
  0
LINE
  5
50A
100
AcDbEntity
  8
RUNDUNGEN
100
AcDbLine
 62
7
  6
CONTINUOUS
 10
329.1832146571
 20
74.2958459501
 11
329.1808368449
 21
74.2965506354
  0
LINE
  5
50B
100
AcDbEntity
  8
0
100
AcDbLine
 62
7
  6
CONTINUOUS
 10
333.2959042168
 20
73.7241149152
 11
333.3954159599
 21
73.6941950294
  0
LINE
  5
50C
100
AcDbEntity
  8
0
100
AcDbLine
 62
7
  6
CONTINUOUS
 10
333.9930383082
 20
74.3523690782
 11
334.2660237834
 21
74.2702913908
  0
LINE
  5
50D
100
AcDbEntity
  8
0
100
AcDbLine
 62
7
  6
CONTINUOUS
 10
330.6338879647
 20
74.3199015231
 11
330.4356680826
 21
74.3892422407
  0
LINE
  5
50E
100
AcDbEntity
  8
0
100
AcDbLine
 62
7
  6
CONTINUOUS
 10
334.1868923597
 20
73.6941950294
 11
334.073098399
 21
73.7340020797
  0
LINE
  5
50F
100
AcDbEntity
  8
0
100
AcDbLine
 62
7
  6
CONTINUOUS
 10
298.3881195091
 20
75.6941950294
 11
298.7469804453
 21
73.8411466197
  0
LINE
  5
510
100
AcDbEntity
  8
0
100
AcDbLine
 62
7
  6
CONTINUOUS
 10
299.3180843536
 20
73.1932299478
 11
298.833748021
 21
75.6941950294
  0
LINE
  5
511
100
AcDbEntity
  8
0
100
AcDbLine
 62
7
  6
CONTINUOUS
 10
293.7251892728
 20
72.8329825518
 11
294.0548441785
 21
73.0881772786
  0
LINE
  5
512
100
AcDbEntity
  8
0
100
AcDbLine
 62
7
  6
CONTINUOUS
 10
293.6316353019
 20
73.2217661672
 11
293.3945754582
 21
73.1041389148
  0
LINE
  5
513
100
AcDbEntity
  8
0
100
AcDbLine
 62
7
  6
CONTINUOUS
 10
293.4158970381
 20
72.7253254105
 11
293.7251892728
 21
72.8329825518
  0
LWPOLYLINE
  5
514
100
AcDbEntity
  8
RUNDUNGEN
100
AcDbPolyline
 62
7
  6
CONTINUOUS
 90
19
 70
0
 10
334.2081470966
 20
100.3786672448
 10
334.220522805
 20
100.3815831263
 10
334.2234208677
 20
100.3822185951
 10
334.2112242226
 20
100.3800137569
 10
334.1856149153
 20
100.375890313
 10
334.1470376014
 20
100.3703386397
 10
334.0966739305
 20
100.3638184143
 10
334.0342230574
 20
100.3565227666
 10
333.9594448534
 20
100.3486335663
 10
333.8722918699
 20
100.3403283076
 10
333.7726341536
 20
100.3317464182
 10
333.6612179347
 20
100.3230635277
 10
333.539104887
 20
100.3144479466
 10
333.4063862606
 20
100.3059878646
 10
333.2635523879
 20
100.2977919133
 10
333.1109433191
 20
100.2899130383
 10
332.949010553
 20
100.2824088855
 10
332.7781517997
 20
100.2753562585
 10
332.5988247551
 20
100.2688367459
  0
LINE
  5
515
100
AcDbEntity
  8
0
100
AcDbLine
 62
7
  6
CONTINUOUS
 10
251.9554422484
 20
99.3240610305
 11
253.5320979897
 21
99.0421066843
  0
LINE
  5
516
100
AcDbEntity
  8
0
100
AcDbLine
 62
7
  6
CONTINUOUS
 10
254.2056208307
 20
98.9216601675
 11
254.8791436716
 21
98.8012136506
  0
LINE
  5
517
100
AcDbEntity
  8
0
100
AcDbLine
 62
7
  6
CONTINUOUS
 10
251.9554422484
 20
100.0761158289
 11
253.5320979897
 21
99.7941614827
  0
LINE
  5
518
100
AcDbEntity
  8
0
100
AcDbLine
 62
7
  6
CONTINUOUS
 10
254.2056208307
 20
99.6737149658
 11
254.8791436716
 21
99.553268449
  0
LINE
  5
519
100
AcDbEntity
  8
0
100
AcDbLine
 62
7
  6
CONTINUOUS
 10
337.5051833472
 20
74.4654893838
 11
337.7034036572
 21
74.3961485933
  0
LINE
  5
51A
100
AcDbEntity
  8
0
100
AcDbLine
 62
7
  6
CONTINUOUS
 10
329.5576318382
 20
74.3609621648
 11
329.6810861119
 21
74.3043584165
  0
LWPOLYLINE
  5
51B
100
AcDbEntity
  8
RUNDUNGEN
100
AcDbPolyline
 62
7
  6
CONTINUOUS
 90
3
 70
0
 10
328.2967818386
 20
99.8803412168
 10
327.9235113963
 20
99.8081157495
 10
327.5433255586
 20
99.7407133013
  0
LINE
  5
51C
100
AcDbEntity
  8
RUNDUNGEN
100
AcDbLine
 62
7
  6
CONTINUOUS
 10
327.5431723618
 20
99.7406872021
 11
323.1477489027
 21
98.991888544
  0
LWPOLYLINE
  5
51D
100
AcDbEntity
  8
RUNDUNGEN
100
AcDbPolyline
 62
7
  6
CONTINUOUS
 90
6
 70
0
 10
323.1470910026
 20
98.9917763501
 10
322.9503849073
 20
98.9600150377
 10
322.6353164926
 20
98.9147929693
 10
322.254005193
 20
98.8666795818
 10
321.8056783924
 20
98.8168120577
 10
321.2897072269
 20
98.7661452828
  0
LINE
  5
51E
100
AcDbEntity
  8
RUNDUNGEN
100
AcDbLine
 62
7
  6
CONTINUOUS
 10
321.2897072269
 20
98.7661452828
 11
320.8144586575
 21
98.7244735409
  0
LINE
  5
51F
100
AcDbEntity
  8
RUNDUNGEN
100
AcDbLine
 62
7
  6
CONTINUOUS
 10
320.8144586583
 20
98.7244735311
 11
320.8143496677
 21
98.7244644566
  0
LINE
  5
520
100
AcDbEntity
  8
RUNDUNGEN
100
AcDbLine
 62
7
  6
CONTINUOUS
 10
243.3241901952
 20
96.6941950294
 11
346.3241029476
 21
96.6941950294
  0
LINE
  5
521
100
AcDbEntity
  8
RUNDUNGEN
100
AcDbLine
 62
7
  6
CONTINUOUS
 10
268.8339451008
 20
98.7244643312
 11
268.368168489
 21
98.765261415
  0
LINE
  5
522
100
AcDbEntity
  8
RUNDUNGEN
100
AcDbLine
 62
7
  6
CONTINUOUS
 10
268.368168489
 20
98.765261415
 11
268.1720591495
 21
98.7844760328
  0
LINE
  5
523
100
AcDbEntity
  8
0
100
AcDbLine
 62
7
  6
CONTINUOUS
 10
254.8902009025
 20
99.8358314564
 11
253.5393283863
 21
100.0774088453
  0
LINE
  5
524
100
AcDbEntity
  8
0
100
AcDbLine
 62
7
  6
CONTINUOUS
 10
254.7617669857
 20
99.9730026566
 11
255.4352898267
 21
99.8525561398
  0
LINE
  5
525
100
AcDbEntity
  8
0
100
AcDbLine
 62
7
  6
CONTINUOUS
 10
258.8146805169
 20
100.2392697637
 11
259.4920301922
 21
100.1181388917
  0
LINE
  5
526
100
AcDbEntity
  8
0
100
AcDbLine
 62
7
  6
CONTINUOUS
 10
261.5236559459
 20
100.0393623486
 11
259.9470002046
 21
100.3213166948
  0
LINE
  5
527
100
AcDbEntity
  8
RUNDUNGEN
100
AcDbLine
 62
7
  6
CONTINUOUS
 10
261.6616400678
 20
99.8203597302
 11
261.5298949384
 21
99.8458234172
  0
LWPOLYLINE
  5
528
100
AcDbEntity
  8
RUNDUNGEN
100
AcDbPolyline
 62
7
  6
CONTINUOUS
 90
9
 70
0
 10
328.2782464415
 20
74.51163532
 10
328.493255294
 20
74.3436736822
 10
328.7523652947
 20
74.1757877512
 10
329.0252624071
 20
74.0313896896
 10
329.3098230723
 20
73.9116031111
 10
329.603832981
 20
73.8173601146
 10
329.905004258
 20
73.7493940422
 10
330.2109933049
 20
73.7082337519
 10
330.5194190675
 20
73.6941995027
  0
LINE
  5
529
100
AcDbEntity
  8
BEZUGSACHSEN
100
AcDbLine
 62
7
  6
CONTINUOUS
 10
305.2164514174
 20
69.1941950294
 11
308.9692281671
 21
75.6941950294
  0
LINE
  5
52A
100
AcDbEntity
  8
0
100
AcDbLine
 62
7
  6
CONTINUOUS
 10
329.7367025596
 20
74.4727448688
 11
329.6097843947
 21
74.4232220014
  0
LWPOLYLINE
  5
52B
100
AcDbEntity
  8
RUNDUNGEN
100
AcDbPolyline
 62
7
  6
CONTINUOUS
 90
9
 70
0
 10
330.5241465789
 20
100.6941949355
 10
330.2198836915
 20
100.6809447291
 10
329.9141967353
 20
100.6406367569
 10
329.6132404706
 20
100.5735809886
 10
329.3193513135
 20
100.4802972462
 10
329.03481093
 20
100.3615091509
 10
328.7618275247
 20
100.2181379812
 10
328.502519892
 20
100.051295826
 10
328.2773328264
 20
99.8765779561
  0
LINE
  5
52C
100
AcDbEntity
  8
0
100
AcDbLine
 62
7
  6
CONTINUOUS
 10
254.8791436716
 20
98.8012136506
 11
256.1764405074
 21
98.8410179428
  0
LINE
  5
52D
100
AcDbEntity
  8
0
100
AcDbLine
 62
7
  6
CONTINUOUS
 10
253.5320979897
 20
99.0421066843
 11
254.2056208307
 21
99.0627720395
  0
LINE
  5
52E
100
AcDbEntity
  8
0
100
AcDbLine
 62
7
  6
CONTINUOUS
 10
260.9759946788
 20
99.4685342872
 11
260.1827324318
 21
99.4441950294
  0
LINE
  5
52F
100
AcDbEntity
  8
0
100
AcDbLine
 62
7
  6
CONTINUOUS
 10
254.8791436716
 20
99.553268449
 11
259.678697843
 21
99.7005307032
  0
LINE
  5
530
100
AcDbEntity
  8
0
100
AcDbLine
 62
7
  6
CONTINUOUS
 10
259.0051750021
 20
99.82097722
 11
254.2056208307
 21
99.6737149658
  0
LINE
  5
531
100
AcDbEntity
  8
0
100
AcDbLine
 62
7
  6
CONTINUOUS
 10
253.5320979897
 20
99.7941614827
 11
254.8902009025
 21
99.8358314564
  0
LINE
  5
532
100
AcDbEntity
  8
0
100
AcDbLine
 62
7
  6
CONTINUOUS
 10
255.4352898267
 20
99.8525561398
 11
261.5236559459
 21
100.0393623486
  0
LINE
  5
533
100
AcDbEntity
  8
0
100
AcDbLine
 62
7
  6
CONTINUOUS
 10
259.4920301922
 20
100.1181388917
 11
254.7617669857
 21
99.9730026566
  0
LINE
  5
534
100
AcDbEntity
  8
0
100
AcDbLine
 62
7
  6
CONTINUOUS
 10
254.4918335225
 20
100.2477459429
 11
256.5151296987
 21
100.3098256997
  0
LINE
  5
535
100
AcDbEntity
  8
RUNDUNGEN
100
AcDbLine
 62
7
  6
CONTINUOUS
 10
332.5988247551
 20
100.2688367459
 11
332.2169707999
 21
100.2575318418
  0
LWPOLYLINE
  5
536
100
AcDbEntity
  8
RUNDUNGEN
100
AcDbPolyline
 62
7
  6
CONTINUOUS
 90
5
 70
0
 10
330.2076789621
 20
100.2411020668
 10
330.0591134383
 20
100.238028503
 10
329.7262578785
 20
100.2088015492
 10
329.3974839121
 20
100.1488913109
 10
329.1822926107
 20
100.0922723923
  0
LINE
  5
537
100
AcDbEntity
  8
RUNDUNGEN
100
AcDbLine
 62
7
  6
CONTINUOUS
 10
332.2169707999
 20
100.2575318418
 11
331.8081710594
 21
100.2489374375
  0
LINE
  5
538
100
AcDbEntity
  8
RUNDUNGEN
100
AcDbLine
 62
7
  6
CONTINUOUS
 10
331.8081710594
 20
100.2489374375
 11
331.3776657999
 21
100.2433502869
  0
LINE
  5
539
100
AcDbEntity
  8
RUNDUNGEN
100
AcDbLine
 62
7
  6
CONTINUOUS
 10
331.3776657999
 20
100.2433502869
 11
330.9312839678
 21
100.2411455545
  0
LINE
  5
53A
100
AcDbEntity
  8
RUNDUNGEN
100
AcDbLine
 62
7
  6
CONTINUOUS
 10
245.7563462366
 20
98.6941950294
 11
343.8906209993
 21
98.6941950294
  0
LINE
  5
53B
100
AcDbEntity
  8
0
100
AcDbLine
 62
7
  6
CONTINUOUS
 10
256.1764405074
 20
99.4441950294
 11
268.1632134975
 21
99.4441950294
  0
LINE
  5
53C
100
AcDbEntity
  8
RUNDUNGEN
100
AcDbLine
 62
7
  6
CONTINUOUS
 10
330.9312839678
 20
100.2411455545
 11
330.2076789514
 21
100.2411153651
  0
LINE
  5
53D
100
AcDbEntity
  8
RUNDUNGEN
100
AcDbLine
 62
7
  6
CONTINUOUS
 10
238.0772844964
 20
100.6941950294
 11
259.1241440837
 21
100.6941950294
  0
LINE
  5
53E
100
AcDbEntity
  8
RUNDUNGEN
100
AcDbLine
 62
7
  6
CONTINUOUS
 10
330.5241472176
 20
100.6941950294
 11
351.612121229
 21
100.6941950294
  0
LINE
  5
53F
100
AcDbEntity
  8
0
100
AcDbLine
 62
7
  6
CONTINUOUS
 10
333.2472151082
 20
73.7679817666
 11
333.2959042168
 21
73.7241149152
  0
LINE
  5
540
100
AcDbEntity
  8
0
100
AcDbLine
 62
7
  6
CONTINUOUS
 10
334.2660237834
 20
74.2702913908
 11
334.1391056799
 21
74.2207685254
  0
LINE
  5
541
100
AcDbEntity
  8
0
100
AcDbLine
 62
7
  6
CONTINUOUS
 10
333.3741332424
 20
73.817504633
 11
333.2472151082
 21
73.7679817666
  0
LINE
  5
542
100
AcDbEntity
  8
0
100
AcDbLine
 62
7
  6
CONTINUOUS
 10
334.073098399
 20
73.7340020797
 11
334.2000165024
 21
73.7835249451
  0
LINE
  5
543
100
AcDbEntity
  8
0
100
AcDbLine
 62
7
  6
CONTINUOUS
 10
337.7034036572
 20
74.3961485933
 11
337.5764855537
 21
74.3466257279
  0
LINE
  5
544
100
AcDbEntity
  8
BEZUGSACHSEN
100
AcDbLine
 62
7
  6
CONTINUOUS
 10
305.2164514174
 20
105.1941950294
 11
284.4318417265
 21
105.1941950294
  0
LINE
  5
545
100
AcDbEntity
  8
BEZUGSACHSEN
100
AcDbLine
 62
7
  6
CONTINUOUS
 10
308.9692281671
 20
98.6941950294
 11
305.2164514174
 21
105.1941950294
  0
LINE
  5
546
100
AcDbEntity
  8
0
100
AcDbLine
 62
7
  6
CONTINUOUS
 10
272.0741465719
 20
107.6941950294
 11
274.3127574922
 21
107.6941950294
  0
LINE
  5
547
100
AcDbEntity
  8
0
100
AcDbLine
 62
7
  6
CONTINUOUS
 10
315.3355356517
 20
107.6941950294
 11
317.5741465719
 21
107.6941950294
  0
LINE
  5
548
100
AcDbEntity
  8
0
100
AcDbLine
 62
7
  6
CONTINUOUS
 10
324.9221737872
 20
75.6941950294
 11
324.9221737872
 21
74.9441950294
  0
LINE
  5
549
100
AcDbEntity
  8
0
100
AcDbLine
 62
7
  6
CONTINUOUS
 10
325.0751682454
 20
75.6941950294
 11
325.0751682454
 21
74.9441950294
  0
LINE
  5
54A
100
AcDbEntity
  8
0
100
AcDbLine
 62
7
  6
CONTINUOUS
 10
325.553300865
 20
75.6941950294
 11
325.553300865
 21
74.9441950294
  0
LINE
  5
54B
100
AcDbEntity
  8
0
100
AcDbLine
 62
7
  6
CONTINUOUS
 10
326.1601829748
 20
74.9441950294
 11
326.1601829748
 21
74.6907414899
  0
LINE
  5
54C
100
AcDbEntity
  8
0
100
AcDbLine
 62
7
  6
CONTINUOUS
 10
326.2818062262
 20
75.6941950294
 11
326.2818062262
 21
74.9441950294
  0
LINE
  5
54D
100
AcDbEntity
  8
RUNDUNGEN
100
AcDbLine
 62
7
  6
CONTINUOUS
 10
326.3241465719
 20
104.1374608152
 11
326.3241465719
 21
99.5330155445
  0
LINE
  5
54E
100
AcDbEntity
  8
RUNDUNGEN
100
AcDbLine
 62
7
  6
CONTINUOUS
 10
326.3241465719
 20
74.6628088635
 11
326.3241465719
 21
70.2509292435
  0
LINE
  5
54F
100
AcDbEntity
  8
0
100
AcDbLine
 62
7
  6
CONTINUOUS
 10
327.4362916109
 20
75.6941950294
 11
327.4362916109
 21
74.9441950294
  0
LINE
  5
550
100
AcDbEntity
  8
0
100
AcDbLine
 62
7
  6
CONTINUOUS
 10
328.5404552103
 20
74.8991233071
 11
328.5404552103
 21
74.6765360208
  0
LINE
  5
551
100
AcDbEntity
  8
0
100
AcDbLine
 62
7
  6
CONTINUOUS
 10
328.6655422024
 20
75.6941950294
 11
328.6655422024
 21
74.9441950294
  0
LINE
  5
552
100
AcDbEntity
  8
0
100
AcDbLine
 62
7
  6
CONTINUOUS
 10
328.9142827476
 20
74.900101353
 11
328.9142827476
 21
74.6128512448
  0
LINE
  5
553
100
AcDbEntity
  8
0
100
AcDbLine
 62
7
  6
CONTINUOUS
 10
329.6097843947
 20
74.4232220014
 11
329.5576318382
 21
74.3609621648
  0
LINE
  5
554
100
AcDbEntity
  8
0
100
AcDbLine
 62
7
  6
CONTINUOUS
 10
330.4356680826
 20
74.3892422407
 11
330.4617441239
 21
74.4203721947
  0
LINE
  5
555
100
AcDbEntity
  8
0
100
AcDbLine
 62
7
  6
CONTINUOUS
 10
322.7360120499
 20
98.9292458981
 11
318.2285970536
 21
104.3009739132
  0
LINE
  5
556
100
AcDbEntity
  8
0
100
AcDbLine
 62
7
  6
CONTINUOUS
 10
329.5576318382
 20
74.921327761
 11
329.5576318382
 21
74.3609621648
  0
LINE
  5
557
100
AcDbEntity
  8
0
100
AcDbLine
 62
7
  6
CONTINUOUS
 10
329.6097843947
 20
74.9230075075
 11
329.6097843947
 21
74.4232220014
  0
LINE
  5
558
100
AcDbEntity
  8
0
100
AcDbLine
 62
7
  6
CONTINUOUS
 10
329.7367025596
 20
74.9283814334
 11
329.7367025596
 21
74.4727448688
  0
LINE
  5
559
100
AcDbEntity
  8
0
100
AcDbLine
 62
7
  6
CONTINUOUS
 10
329.9695582465
 20
75.6941950294
 11
329.9695582465
 21
74.9441950294
  0
LINE
  5
55A
100
AcDbEntity
  8
0
100
AcDbLine
 62
7
  6
CONTINUOUS
 10
330.1139934835
 20
74.9441950294
 11
330.1139934835
 21
74.5151867789
  0
LINE
  5
55B
100
AcDbEntity
  8
0
100
AcDbLine
 62
7
  6
CONTINUOUS
 10
330.5660496955
 20
74.9441950294
 11
330.5660496955
 21
74.5448917961
  0
LINE
  5
55C
100
AcDbEntity
  8
0
100
AcDbLine
 62
7
  6
CONTINUOUS
 10
330.6338879647
 20
74.4571580943
 11
330.6338879647
 21
74.3199015231
  0
LINE
  5
55D
100
AcDbEntity
  8
0
100
AcDbLine
 62
7
  6
CONTINUOUS
 10
330.939876805
 20
74.9441950294
 11
330.939876805
 21
74.4812070931
  0
LINE
  5
55E
100
AcDbEntity
  8
0
100
AcDbLine
 62
7
  6
CONTINUOUS
 10
330.9971257739
 20
75.6941950294
 11
330.9971257739
 21
74.9441950294
  0
LINE
  5
55F
100
AcDbEntity
  8
0
100
AcDbLine
 62
7
  6
CONTINUOUS
 10
331.0824806673
 20
74.9441950294
 11
331.0824806673
 21
74.2434798502
  0
LINE
  5
560
100
AcDbEntity
  8
0
100
AcDbLine
 62
7
  6
CONTINUOUS
 10
331.6319150041
 20
74.93750596
 11
331.6319150041
 21
74.1854511616
  0
LINE
  5
561
100
AcDbEntity
  8
0
100
AcDbLine
 62
7
  6
CONTINUOUS
 10
331.9238510345
 20
75.6941950294
 11
331.9238510345
 21
74.9441950294
  0
LINE
  5
562
100
AcDbEntity
  8
0
100
AcDbLine
 62
7
  6
CONTINUOUS
 10
331.9570534175
 20
74.9176880349
 11
331.9570534175
 21
74.1656332366
  0
LINE
  5
563
100
AcDbEntity
  8
0
100
AcDbLine
 62
7
  6
CONTINUOUS
 10
332.4577987535
 20
74.9035262012
 11
332.4577987535
 21
74.1514714028
  0
LINE
  5
564
100
AcDbEntity
  8
0
100
AcDbLine
 62
7
  6
CONTINUOUS
 10
332.8244999865
 20
75.6941950294
 11
332.8244999865
 21
74.9441950294
  0
LINE
  5
565
100
AcDbEntity
  8
0
100
AcDbLine
 62
7
  6
CONTINUOUS
 10
332.8837788012
 20
74.9021012604
 11
332.8837788012
 21
74.150046462
  0
LINE
  5
566
100
AcDbEntity
  8
0
100
AcDbLine
 62
7
  6
CONTINUOUS
 10
333.2472151082
 20
74.086361759
 11
333.2472151082
 21
73.7679817666
  0
LINE
  5
567
100
AcDbEntity
  8
0
100
AcDbLine
 62
7
  6
CONTINUOUS
 10
333.3739344838
 20
75.6941950294
 11
333.3739344838
 21
74.9441950294
  0
LINE
  5
568
100
AcDbEntity
  8
0
100
AcDbLine
 62
7
  6
CONTINUOUS
 10
333.3741332424
 20
74.090114909
 11
333.3741332424
 21
73.817504633
  0
LINE
  5
569
100
AcDbEntity
  8
0
100
AcDbLine
 62
7
  6
CONTINUOUS
 10
333.5862077106
 20
74.9247253184
 11
333.5862077106
 21
74.17267052
  0
LINE
  5
56A
100
AcDbEntity
  8
0
100
AcDbLine
 62
7
  6
CONTINUOUS
 10
333.6729962142
 20
75.6941950294
 11
333.6729962142
 21
74.9441950294
  0
LINE
  5
56B
100
AcDbEntity
  8
0
100
AcDbLine
 62
7
  6
CONTINUOUS
 10
333.6939767917
 20
74.9441950294
 11
333.6939767917
 21
74.4033168115
  0
LINE
  5
56C
100
AcDbEntity
  8
0
100
AcDbLine
 62
7
  6
CONTINUOUS
 10
333.8712162033
 20
75.6941950294
 11
333.8712162033
 21
74.9441950294
  0
LINE
  5
56D
100
AcDbEntity
  8
0
100
AcDbLine
 62
7
  6
CONTINUOUS
 10
333.9270310272
 20
74.1089858169
 11
333.9270310272
 21
73.8656026325
  0
LINE
  5
56E
100
AcDbEntity
  8
0
100
AcDbLine
 62
7
  6
CONTINUOUS
 10
338.6040524487
 20
74.3494319337
 11
338.6562049591
 21
74.4116917689
  0
LINE
  5
56F
100
AcDbEntity
  8
RUNDUNGEN
100
AcDbLine
 62
7
  6
CONTINUOUS
 10
320.3807503455
 20
113.2776996427
 11
318.3200482113
 21
114.1488150876
  0
LINE
  5
570
100
AcDbEntity
  8
0
100
AcDbLine
 62
7
  6
CONTINUOUS
 10
334.9649893063
 20
74.1867887627
 11
334.9423766515
 21
74.2617854947
  0
LINE
  5
571
100
AcDbEntity
  8
0
100
AcDbLine
 62
7
  6
CONTINUOUS
 10
334.1391056799
 20
74.3084514593
 11
334.1391056799
 21
74.2207685254
  0
LINE
  5
572
100
AcDbEntity
  8
0
100
AcDbLine
 62
7
  6
CONTINUOUS
 10
334.2713186475
 20
73.7835249451
 11
334.2713186475
 21
73.6941950294
  0
LINE
  5
573
100
AcDbEntity
  8
0
100
AcDbLine
 62
7
  6
CONTINUOUS
 10
334.3964057011
 20
75.1779956678
 11
334.3964057011
 21
74.4259408694
  0
LINE
  5
574
100
AcDbEntity
  8
0
100
AcDbLine
 62
7
  6
CONTINUOUS
 10
334.6954672176
 20
75.1270479345
 11
334.6954672176
 21
74.3749931361
  0
LINE
  5
575
100
AcDbEntity
  8
0
100
AcDbLine
 62
7
  6
CONTINUOUS
 10
334.9649893063
 20
74.2617854947
 11
334.9649893063
 21
74.1867887627
  0
LINE
  5
576
100
AcDbEntity
  8
0
100
AcDbLine
 62
7
  6
CONTINUOUS
 10
335.0309967102
 20
75.4256100107
 11
335.0309967102
 21
74.6735552123
  0
LINE
  5
577
100
AcDbEntity
  8
0
100
AcDbLine
 62
7
  6
CONTINUOUS
 10
335.4952743748
 20
74.6098705092
 11
335.4952743748
 21
74.3098834922
  0
LINE
  5
578
100
AcDbEntity
  8
0
100
AcDbLine
 62
7
  6
CONTINUOUS
 10
335.8081907849
 20
75.4354971718
 11
335.8081907849
 21
74.6834423734
  0
LINE
  5
579
100
AcDbEntity
  8
0
100
AcDbLine
 62
7
  6
CONTINUOUS
 10
335.9960200156
 20
74.601364686
 11
335.9960200156
 21
74.2957215817
  0
LINE
  5
57A
100
AcDbEntity
  8
0
100
AcDbLine
 62
7
  6
CONTINUOUS
 10
336.8096816386
 20
75.4071734235
 11
336.8096816386
 21
74.6551186251
  0
LINE
  5
57B
100
AcDbEntity
  8
0
100
AcDbLine
 62
7
  6
CONTINUOUS
 10
336.8410529103
 20
74.2243432653
 11
336.8410529103
 21
74.0806184008
  0
LINE
  5
57C
100
AcDbEntity
  8
0
100
AcDbLine
 62
7
  6
CONTINUOUS
 10
336.8479796833
 20
74.5542624361
 11
336.8479796833
 21
74.292871773
  0
LINE
  5
57D
100
AcDbEntity
  8
0
100
AcDbLine
 62
7
  6
CONTINUOUS
 10
337.1991946299
 20
74.5164371171
 11
337.1991946299
 21
74.3041838178
  0
LINE
  5
57E
100
AcDbEntity
  8
0
100
AcDbLine
 62
7
  6
CONTINUOUS
 10
337.4599580376
 20
75.3675376463
 11
337.4599580376
 21
74.6154828479
  0
LINE
  5
57F
100
AcDbEntity
  8
0
100
AcDbLine
 62
7
  6
CONTINUOUS
 10
337.5434818197
 20
74.2404990418
 11
337.5434818197
 21
74.1032424587
  0
LINE
  5
580
100
AcDbEntity
  8
0
100
AcDbLine
 62
7
  6
CONTINUOUS
 10
337.5764855537
 20
74.4405466755
 11
337.5764855537
 21
74.3466257279
  0
LINE
  5
581
100
AcDbEntity
  8
0
100
AcDbLine
 62
7
  6
CONTINUOUS
 10
338.1416048527
 20
74.2758601424
 11
338.1416048527
 21
74.0013469921
  0
LINE
  5
582
100
AcDbEntity
  8
0
100
AcDbLine
 62
7
  6
CONTINUOUS
 10
338.1589231327
 20
75.284035091
 11
338.1589231327
 21
74.5319802926
  0
LINE
  5
583
100
AcDbEntity
  8
0
100
AcDbLine
 62
7
  6
CONTINUOUS
 10
338.3084543187
 20
75.2585611515
 11
338.3084543187
 21
74.5065063531
  0
LINE
  5
584
100
AcDbEntity
  8
0
100
AcDbLine
 62
7
  6
CONTINUOUS
 10
338.6562049591
 20
75.1637465672
 11
338.6562049591
 21
74.4116917689
  0
LINE
  5
585
100
AcDbEntity
  8
0
100
AcDbLine
 62
7
  6
CONTINUOUS
 10
339.3378526299
 20
73.9641509937
 11
339.3378526299
 21
73.7975557672
  0
LINE
  5
586
100
AcDbEntity
  8
0
100
AcDbLine
 62
7
  6
CONTINUOUS
 10
339.5464631634
 20
74.7986499222
 11
339.5464631634
 21
74.0465951238
  0
LINE
  5
587
100
AcDbEntity
  8
0
100
AcDbLine
 62
7
  6
CONTINUOUS
 10
339.9202907008
 20
74.7349651462
 11
339.9202907008
 21
73.9829103478
  0
LINE
  5
588
100
AcDbEntity
  8
0
100
AcDbLine
 62
7
  6
CONTINUOUS
 10
350.8241465719
 20
92.1941950294
 11
350.8241465719
 21
82.1941950294
  0
LWPOLYLINE
  5
589
100
AcDbEntity
  8
RUNDUNGEN
100
AcDbPolyline
 62
7
  6
CONTINUOUS
 90
17
 70
0
 10
355.071009029
 20
97.2256107223
 10
355.0677259848
 20
97.3767772273
 10
355.0344184261
 20
97.7289851751
 10
354.965546583
 20
98.0758198118
 10
354.8618543362
 20
98.4136842041
 10
354.7244558213
 20
98.7390719998
 10
354.5548015041
 20
99.0486465105
 10
354.3546815114
 20
99.3392181187
 10
354.1261831738
 20
99.6078169373
 10
353.8716864778
 20
99.8516905502
 10
353.5938394681
 20
100.0683374808
 10
353.2955322201
 20
100.2555343448
 10
352.979864058
 20
100.4113617705
 10
352.6500705294
 20
100.5342363424
 10
352.3097260616
 20
100.622854939
 10
351.9625313388
 20
100.6763285554
 10
351.6120954772
 20
100.6941950294
  0
LINE
  5
58A
100
AcDbEntity
  8
RUNDUNGEN
100
AcDbLine
 62
7
  6
CONTINUOUS
 10
355.0710090482
 20
77.1941950293
 11
355.0710090482
 21
97.2262823739
  0
ARC
  5
58B
100
AcDbEntity
  8
RUNDUNGEN
100
AcDbCircle
 62
7
  6
CONTINUOUS
 10
248.4236315149
 20
398.3877587117
 40
5.0
100
AcDbArc
 50
198.5
 51
270.0
  0
ARC
  5
58C
100
AcDbEntity
  8
0
100
AcDbCircle
 62
7
  6
CONTINUOUS
 10
247.899877542
 20
417.4906685297
 40
4.0
100
AcDbArc
 50
84.2608295227
 51
269.7230171587
  0
ARC
  5
58D
100
AcDbEntity
  8
0
100
AcDbCircle
 62
7
  6
CONTINUOUS
 10
247.899877542
 20
417.4906685297
 40
2.8
100
AcDbArc
 50
81.7867892983
 51
278.2132107017
  0
ARC
  5
58E
100
AcDbEntity
  8
RUNDUNGEN
100
AcDbCircle
 62
7
  6
CONTINUOUS
 10
209.2847852122
 20
470.4131816368
 40
38.0
100
AcDbArc
 50
336.5
 51
24.4955873412
  0
ARC
  5
58F
100
AcDbEntity
  8
RUNDUNGEN
100
AcDbCircle
 62
7
  6
CONTINUOUS
 10
256.8241465719
 20
398.3877587117
 40
5.0
100
AcDbArc
 50
270.0
 51
0.0000698328
  0
ARC
  5
590
100
AcDbEntity
  8
RUNDUNGEN
100
AcDbCircle
 62
7
  6
CONTINUOUS
 10
259.5772840957
 20
428.0839110546
 40
25.0
100
AcDbArc
 50
156.5004917697
 51
198.5000230973
  0
ARC
  5
591
100
AcDbEntity
  8
0
100
AcDbCircle
 62
7
  6
CONTINUOUS
 10
254.699877542
 20
417.4906685297
 40
4.0
100
AcDbArc
 50
84.2608295227
 51
269.7230171587
  0
ARC
  5
592
100
AcDbEntity
  8
0
100
AcDbCircle
 62
7
  6
CONTINUOUS
 10
254.699877542
 20
417.4906685297
 40
2.8
100
AcDbArc
 50
192.3736251162
 51
278.2132107017
  0
ARC
  5
593
100
AcDbEntity
  8
0
100
AcDbCircle
 62
7
  6
CONTINUOUS
 10
254.699877542
 20
417.4906685297
 40
2.8
100
AcDbArc
 50
81.7867892983
 51
167.4447123387
  0
ARC
  5
594
100
AcDbEntity
  8
RUNDUNGEN
100
AcDbCircle
 62
7
  6
CONTINUOUS
 10
265.3241465719
 20
430.8377587117
 40
2.0
100
AcDbArc
 50
90.0
 51
180.0
  0
ARC
  5
595
100
AcDbEntity
  8
RUNDUNGEN
100
AcDbCircle
 62
7
  6
CONTINUOUS
 10
263.6241465719
 20
421.1877587117
 40
1.8
100
AcDbArc
 50
180.0
 51
260.390637986
  0
ARC
  5
596
100
AcDbEntity
  8
RUNDUNGEN
100
AcDbCircle
 62
7
  6
CONTINUOUS
 10
260.0241465719
 20
423.3377587117
 40
1.8
100
AcDbArc
 50
0.0
 51
90.0
  0
ARC
  5
597
100
AcDbEntity
  8
RUNDUNGEN
100
AcDbCircle
 62
7
  6
CONTINUOUS
 10
292.8241465719
 20
430.1077482421
 40
35.0
100
AcDbArc
 50
359.9998020367
 51
4.4684670741
  0
ARC
  5
598
100
AcDbEntity
  8
RUNDUNGEN
100
AcDbCircle
 62
7
  6
CONTINUOUS
 10
292.8241465719
 20
430.1077482421
 40
35.0
100
AcDbArc
 50
8.5872154348
 51
23.5000153637
  0
ARC
  5
599
100
AcDbEntity
  8
0
100
AcDbCircle
 62
7
  6
CONTINUOUS
 10
275.1981381737
 20
433.9445447406
 40
1.6932139808
100
AcDbArc
 50
89.993863273
 51
94.9924242618
  0
ARC
  5
59A
100
AcDbEntity
  8
RUNDUNGEN
100
AcDbCircle
 62
7
  6
CONTINUOUS
 10
274.3241465719
 20
434.3377587117
 40
1.5
100
AcDbArc
 50
270.0
 51
356.1774462707
  0
ARC
  5
59B
100
AcDbEntity
  8
RUNDUNGEN
100
AcDbCircle
 62
7
  6
CONTINUOUS
 10
277.3241465719
 20
434.3377587117
 40
1.5
100
AcDbArc
 50
269.9980858869
 51
355.9137272402
  0
ARC
  5
59C
100
AcDbEntity
  8
RUNDUNGEN
100
AcDbCircle
 62
7
  6
CONTINUOUS
 10
280.3174724814
 20
434.1377587117
 40
1.5
100
AcDbArc
 50
90.0
 51
176.1774462707
  0
ARC
  5
59D
100
AcDbEntity
  8
RUNDUNGEN
100
AcDbCircle
 62
7
  6
CONTINUOUS
 10
277.3174724814
 20
434.1377587117
 40
1.5
100
AcDbArc
 50
90.0
 51
176.1774462707
  0
ARC
  5
59E
100
AcDbEntity
  8
0
100
AcDbCircle
 62
7
  6
CONTINUOUS
 10
275.0674724814
 20
434.1377587117
 40
1.5
100
AcDbArc
 50
90.0
 51
126.8044543621
  0
ARC
  5
59F
100
AcDbEntity
  8
RUNDUNGEN
100
AcDbCircle
 62
7
  6
CONTINUOUS
 10
280.1271883202
 20
449.3877587117
 40
12.0
100
AcDbArc
 50
90.0
 51
156.5000256511
  0
ARC
  5
5A0
100
AcDbEntity
  8
RUNDUNGEN
100
AcDbCircle
 62
7
  6
CONTINUOUS
 10
261.226521586
 20
439.4377587117
 40
1.8
100
AcDbArc
 50
270.0
 51
345.3133304365
  0
ARC
  5
5A1
100
AcDbEntity
  8
RUNDUNGEN
100
AcDbCircle
 62
7
  6
CONTINUOUS
 10
243.408966046
 20
478.6738249095
 40
10.0
100
AcDbArc
 50
336.4999999981
 51
15.000000001
  0
ARC
  5
5A2
100
AcDbEntity
  8
RUNDUNGEN
100
AcDbCircle
 62
7
  6
CONTINUOUS
 10
254.756301401
 20
513.5990589372
 40
10.0
100
AcDbArc
 50
153.0
 51
195.0000000001
  0
ARC
  5
5A3
100
AcDbEntity
  8
RUNDUNGEN
100
AcDbCircle
 62
7
  6
CONTINUOUS
 10
267.8658446385
 20
539.3279862175
 40
10.0
100
AcDbArc
 50
111.0
 51
153.0000000001
  0
ARC
  5
5A4
100
AcDbEntity
  8
RUNDUNGEN
100
AcDbCircle
 62
7
  6
CONTINUOUS
 10
296.8241465719
 20
430.1077482421
 40
35.0
100
AcDbArc
 50
175.5315329177
 51
180.0001935093
  0
ARC
  5
5A5
100
AcDbEntity
  8
RUNDUNGEN
100
AcDbCircle
 62
7
  6
CONTINUOUS
 10
296.8241465719
 20
430.1077482421
 40
35.0
100
AcDbArc
 50
156.5000036044
 51
171.4127845607
  0
ARC
  5
5A6
100
AcDbEntity
  8
0
100
AcDbCircle
 62
7
  6
CONTINUOUS
 10
314.4501544841
 20
433.9444954206
 40
1.6932633008
100
AcDbArc
 50
85.0193553356
 51
90.0061201027
  0
ARC
  5
5A7
100
AcDbEntity
  8
RUNDUNGEN
100
AcDbCircle
 62
7
  6
CONTINUOUS
 10
312.3241465719
 20
434.3377587117
 40
1.5
100
AcDbArc
 50
184.0855899509
 51
269.9978382703
  0
ARC
  5
5A8
100
AcDbEntity
  8
0
100
AcDbCircle
 62
7
  6
CONTINUOUS
 10
314.5808206625
 20
434.1377587117
 40
1.5
100
AcDbArc
 50
53.1955453335
 51
90.0
  0
ARC
  5
5A9
100
AcDbEntity
  8
RUNDUNGEN
100
AcDbCircle
 62
7
  6
CONTINUOUS
 10
312.3308206625
 20
434.1377587117
 40
1.5
100
AcDbArc
 50
3.8225537293
 51
90.0
  0
ARC
  5
5AA
100
AcDbEntity
  8
RUNDUNGEN
100
AcDbCircle
 62
7
  6
CONTINUOUS
 10
309.3308206625
 20
434.1377587117
 40
1.5
100
AcDbArc
 50
3.8225537293
 51
90.0
  0
ARC
  5
5AB
100
AcDbEntity
  8
RUNDUNGEN
100
AcDbCircle
 62
7
  6
CONTINUOUS
 10
332.8241465719
 20
398.3877587117
 40
5.0
100
AcDbArc
 50
180.0
 51
270.0
  0
ARC
  5
5AC
100
AcDbEntity
  8
RUNDUNGEN
100
AcDbCircle
 62
7
  6
CONTINUOUS
 10
330.0710090482
 20
428.0839110546
 40
25.0
100
AcDbArc
 50
341.4999790043
 51
23.4999709979
  0
ARC
  5
5AD
100
AcDbEntity
  8
RUNDUNGEN
100
AcDbCircle
 62
7
  6
CONTINUOUS
 10
324.3241465719
 20
430.8377587117
 40
2.0
100
AcDbArc
 50
0.0
 51
90.0
  0
ARC
  5
5AE
100
AcDbEntity
  8
RUNDUNGEN
100
AcDbCircle
 62
7
  6
CONTINUOUS
 10
326.0241465719
 20
421.1877587117
 40
1.8
100
AcDbArc
 50
279.6093620214
 51
360.0
  0
ARC
  5
5AF
100
AcDbEntity
  8
RUNDUNGEN
100
AcDbCircle
 62
7
  6
CONTINUOUS
 10
329.6241465719
 20
423.3377587117
 40
1.8
100
AcDbArc
 50
90.0
 51
180.0
  0
ARC
  5
5B0
100
AcDbEntity
  8
RUNDUNGEN
100
AcDbCircle
 62
7
  6
CONTINUOUS
 10
315.3241465719
 20
434.3377587117
 40
1.5
100
AcDbArc
 50
183.8225537293
 51
270.0
  0
ARC
  5
5B1
100
AcDbEntity
  8
RUNDUNGEN
100
AcDbCircle
 62
7
  6
CONTINUOUS
 10
309.5211048237
 20
449.3877587117
 40
12.0
100
AcDbArc
 50
23.4999748516
 51
90.0
  0
ARC
  5
5B2
100
AcDbEntity
  8
RUNDUNGEN
100
AcDbCircle
 62
7
  6
CONTINUOUS
 10
328.4217715578
 20
439.4377587117
 40
1.8
100
AcDbArc
 50
194.686672991
 51
269.9999997983
  0
ARC
  5
5B3
100
AcDbEntity
  8
RUNDUNGEN
100
AcDbCircle
 62
7
  6
CONTINUOUS
 10
341.224661629
 20
398.3877587117
 40
5.0
100
AcDbArc
 50
270.0
 51
341.5
  0
ARC
  5
5B4
100
AcDbEntity
  8
RUNDUNGEN
100
AcDbCircle
 62
7
  6
CONTINUOUS
 10
380.3635079317
 20
470.4131816368
 40
38.0
100
AcDbArc
 50
155.5044126588
 51
203.5
  0
ARC
  5
5B5
100
AcDbEntity
  8
RUNDUNGEN
100
AcDbCircle
 62
7
  6
CONTINUOUS
 10
294.8241465719
 20
509.3877587117
 40
56.0
100
AcDbArc
 50
335.5044126588
 51
204.4955873412
  0
CIRCLE
  5
5B6
100
AcDbEntity
  8
RUNDUNGEN
100
AcDbCircle
 62
7
  6
CONTINUOUS
 10
294.8241465719
 20
509.3877587117
 40
33.0
  0
ARC
  5
5B7
100
AcDbEntity
  8
RUNDUNGEN
100
AcDbCircle
 62
7
  6
CONTINUOUS
 10
294.8241465719
 20
549.6763087754
 40
10.0
100
AcDbArc
 50
69.0
 51
111.0000000001
  0
ARC
  5
5B8
100
AcDbEntity
  8
RUNDUNGEN
100
AcDbCircle
 62
7
  6
CONTINUOUS
 10
321.7824485053
 20
539.3279862175
 40
10.0
100
AcDbArc
 50
27.0
 51
69.0000000001
  0
ARC
  5
5B9
100
AcDbEntity
  8
RUNDUNGEN
100
AcDbCircle
 62
7
  6
CONTINUOUS
 10
334.8919917429
 20
513.5990589372
 40
10.0
100
AcDbArc
 50
345.0
 51
27.0000000001
  0
ARC
  5
5BA
100
AcDbEntity
  8
RUNDUNGEN
100
AcDbCircle
 62
7
  6
CONTINUOUS
 10
346.2393270979
 20
478.6738249095
 40
10.0
100
AcDbArc
 50
164.9999999981
 51
203.500000001
  0
ARC
  5
5BB
100
AcDbEntity
  8
KONSTRUKTIONSELEMENTE
100
AcDbCircle
 62
7
  6
CONTINUOUS
 10
485.5210499876
 20
213.8640254975
 40
24.0237425174
100
AcDbArc
 50
82.745774743
 51
89.9495764787
  0
ARC
  5
5BC
100
AcDbEntity
  8
KONSTRUKTIONSELEMENTE
100
AcDbCircle
 62
7
  6
CONTINUOUS
 10
467.5633335779
 20
213.8640356079
 40
24.0237324063
100
AcDbArc
 50
90.0504213859
 51
97.254234603
  0
ARC
  5
5BD
100
AcDbEntity
  8
RUNDUNGEN
100
AcDbCircle
 62
7
  6
CONTINUOUS
 10
453.0421922348
 20
460.8315951599
 40
12.0
100
AcDbArc
 50
355.7634637725
 51
359.9995738819
  0
ARC
  5
5BE
100
AcDbEntity
  8
RUNDUNGEN
100
AcDbCircle
 62
7
  6
CONTINUOUS
 10
500.0421922348
 20
460.8315951599
 40
12.0
100
AcDbArc
 50
180.0000089475
 51
184.2364161656
  0
ARC
  5
5BF
100
AcDbEntity
  8
RUNDUNGEN
100
AcDbCircle
 62
7
  6
CONTINUOUS
 10
475.0421922348
 20
432.9439222636
 40
12.0
100
AcDbArc
 50
175.7636052009
 51
179.9977601094
  0
ARC
  5
5C0
100
AcDbEntity
  8
RUNDUNGEN
100
AcDbCircle
 62
7
  6
CONTINUOUS
 10
478.0421922348
 20
432.9439222636
 40
12.0
100
AcDbArc
 50
0.0
 51
4.2363700755
  0
ARC
  5
5C1
100
AcDbEntity
  8
RUNDUNGEN
100
AcDbCircle
 62
7
  6
CONTINUOUS
 10
481.5421922348
 20
560.8877587117
 40
4.5
100
AcDbArc
 50
0.0
 51
90.0
  0
ARC
  5
5C2
100
AcDbEntity
  8
RUNDUNGEN
100
AcDbCircle
 62
7
  6
CONTINUOUS
 10
471.5421922348
 20
560.8877587117
 40
4.5
100
AcDbArc
 50
90.0
 51
180.0
  0
ARC
  5
5C3
100
AcDbEntity
  8
RUNDUNGEN
100
AcDbCircle
 62
7
  6
CONTINUOUS
 10
466.5421922348
 20
396.8877587117
 40
3.5
100
AcDbArc
 50
180.0
 51
270.0
  0
ARC
  5
5C4
100
AcDbEntity
  8
RUNDUNGEN
100
AcDbCircle
 62
7
  6
CONTINUOUS
 10
486.5421922348
 20
396.8877587117
 40
3.5
100
AcDbArc
 50
270.0
 51
360.0
  0
ARC
  5
5C5
100
AcDbEntity
  8
RUNDUNGEN
100
AcDbCircle
 62
7
  6
CONTINUOUS
 10
506.0421922348
 20
433.6377587117
 40
2.0
100
AcDbArc
 50
0.0
 51
90.0
  0
ARC
  5
5C6
100
AcDbEntity
  8
RUNDUNGEN
100
AcDbCircle
 62
7
  6
CONTINUOUS
 10
447.0421922348
 20
433.6377587117
 40
2.0
100
AcDbArc
 50
90.0
 51
180.0
  0
ARC
  5
5C7
100
AcDbEntity
  8
RUNDUNGEN
100
AcDbCircle
 62
7
  6
CONTINUOUS
 10
466.0421922348
 20
558.6763087754
 40
1.0
100
AcDbArc
 50
90.0
 51
180.0
  0
ARC
  5
5C8
100
AcDbEntity
  8
RUNDUNGEN
100
AcDbCircle
 62
7
  6
CONTINUOUS
 10
487.0421922348
 20
558.6763087754
 40
1.0
100
AcDbArc
 50
0.0
 51
90.0
  0
ARC
  5
5C9
100
AcDbEntity
  8
RUNDUNGEN
100
AcDbCircle
 62
7
  6
CONTINUOUS
 10
466.0421922348
 20
560.6763087754
 40
1.0
100
AcDbArc
 50
270.0
 51
360.0
  0
ARC
  5
5CA
100
AcDbEntity
  8
RUNDUNGEN
100
AcDbCircle
 62
7
  6
CONTINUOUS
 10
487.0421922348
 20
560.6763087754
 40
1.0
100
AcDbArc
 50
180.0
 51
270.0
  0
ARC
  5
5CB
100
AcDbEntity
  8
RUNDUNGEN
100
AcDbCircle
 62
7
  6
CONTINUOUS
 10
273.3241465719
 20
70.2509292435
 40
10.0
100
AcDbArc
 50
180.0
 51
246.0674835966
  0
ARC
  5
5CC
100
AcDbEntity
  8
RUNDUNGEN
100
AcDbCircle
 62
7
  6
CONTINUOUS
 10
243.3241465719
 20
82.1941950294
 40
4.5
100
AcDbArc
 50
180.0
 51
270.0
  0
ARC
  5
5CD
100
AcDbEntity
  8
RUNDUNGEN
100
AcDbCircle
 62
7
  6
CONTINUOUS
 10
259.1241439976
 20
77.1941950294
 40
3.5000006117
100
AcDbArc
 50
270.0785714744
 51
308.3486425139
  0
ARC
  5
5CE
100
AcDbEntity
  8
RUNDUNGEN
100
AcDbCircle
 62
7
  6
CONTINUOUS
 10
238.0772840988
 20
77.1941950294
 40
3.5
100
AcDbArc
 50
180.0
 51
270.0
  0
ARC
  5
5CF
100
AcDbEntity
  8
RUNDUNGEN
100
AcDbCircle
 62
7
  6
CONTINUOUS
 10
258.3241465719
 20
77.1941950294
 40
3.5
100
AcDbArc
 50
269.9991761012
 51
300.5973379212
  0
ARC
  5
5D0
100
AcDbEntity
  8
RUNDUNGEN
100
AcDbCircle
 62
7
  6
CONTINUOUS
 10
254.772274581
 20
75.4941950294
 40
1.7999803945
100
AcDbArc
 50
269.9986992724
 51
292.7207356722
  0
ARC
  5
5D1
100
AcDbEntity
  8
RUNDUNGEN
100
AcDbCircle
 62
7
  6
CONTINUOUS
 10
245.756301401
 20
76.6941950294
 40
1.0
100
AcDbArc
 50
180.0
 51
270.0
  0
ARC
  5
5D2
100
AcDbEntity
  8
RUNDUNGEN
100
AcDbCircle
 62
7
  6
CONTINUOUS
 10
243.756301401
 20
76.6941950294
 40
1.0
100
AcDbArc
 50
0.0
 51
90.0
  0
ARC
  5
5D3
100
AcDbEntity
  8
RUNDUNGEN
100
AcDbCircle
 62
7
  6
CONTINUOUS
 10
273.3241465719
 20
104.1374608152
 40
10.0
100
AcDbArc
 50
113.9325164034
 51
180.0
  0
ARC
  5
5D4
100
AcDbEntity
  8
RUNDUNGEN
100
AcDbCircle
 62
7
  6
CONTINUOUS
 10
243.3241465719
 20
92.1941950294
 40
4.5
100
AcDbArc
 50
90.0
 51
180.0
  0
ARC
  5
5D5
100
AcDbEntity
  8
RUNDUNGEN
100
AcDbCircle
 62
7
  6
CONTINUOUS
 10
238.0772859535
 20
97.1941948018
 40
3.5000002276
100
AcDbArc
 50
90.0000000019
 51
180.0000000018
  0
ARC
  5
5D6
100
AcDbEntity
  8
RUNDUNGEN
100
AcDbCircle
 62
7
  6
CONTINUOUS
 10
258.3241465719
 20
97.1941950294
 40
3.5
100
AcDbArc
 50
63.876472018
 51
90.0005684664
  0
ARC
  5
5D7
100
AcDbEntity
  8
RUNDUNGEN
100
AcDbCircle
 62
7
  6
CONTINUOUS
 10
254.7722400632
 20
98.8941950294
 40
1.7999969547
100
AcDbArc
 50
58.155539927
 51
90.000202053
  0
ARC
  5
5D8
100
AcDbEntity
  8
RUNDUNGEN
100
AcDbCircle
 62
7
  6
CONTINUOUS
 10
245.756301401
 20
97.6941950294
 40
1.0
100
AcDbArc
 50
90.0
 51
180.0
  0
ARC
  5
5D9
100
AcDbEntity
  8
RUNDUNGEN
100
AcDbCircle
 62
7
  6
CONTINUOUS
 10
243.756301401
 20
97.6941950294
 40
1.0
100
AcDbArc
 50
270.0
 51
360.0
  0
ARC
  5
5DA
100
AcDbEntity
  8
RUNDUNGEN
100
AcDbCircle
 62
7
  6
CONTINUOUS
 10
294.8241465719
 20
55.6941950294
 40
63.0
100
AcDbArc
 50
66.0674835966
 51
113.9325164034
  0
ARC
  5
5DB
100
AcDbEntity
  8
RUNDUNGEN
100
AcDbCircle
 62
7
  6
CONTINUOUS
 10
316.3241465719
 20
70.2509292435
 40
10.0
100
AcDbArc
 50
293.9325164034
 51
360.0
  0
ARC
  5
5DC
100
AcDbEntity
  8
RUNDUNGEN
100
AcDbCircle
 62
7
  6
CONTINUOUS
 10
346.3241465719
 20
82.1941950294
 40
4.5
100
AcDbArc
 50
270.0
 51
360.0
  0
ARC
  5
5DD
100
AcDbEntity
  8
RUNDUNGEN
100
AcDbCircle
 62
7
  6
CONTINUOUS
 10
351.5710089948
 20
77.1941950293
 40
3.5
100
AcDbArc
 50
270.0
 51
360.0
  0
ARC
  5
5DE
100
AcDbEntity
  8
RUNDUNGEN
100
AcDbCircle
 62
7
  6
CONTINUOUS
 10
331.3241465719
 20
77.1941950294
 40
3.5
100
AcDbArc
 50
238.0769324622
 51
270.0
  0
ARC
  5
5DF
100
AcDbEntity
  8
RUNDUNGEN
100
AcDbCircle
 62
7
  6
CONTINUOUS
 10
334.8760594284
 20
75.4941950294
 40
1.8
100
AcDbArc
 50
251.466982075
 51
270.0
  0
ARC
  5
5E0
100
AcDbEntity
  8
RUNDUNGEN
100
AcDbCircle
 62
7
  6
CONTINUOUS
 10
343.8919917429
 20
76.6941950294
 40
1.0
100
AcDbArc
 50
270.0
 51
360.0
  0
ARC
  5
5E1
100
AcDbEntity
  8
RUNDUNGEN
100
AcDbCircle
 62
7
  6
CONTINUOUS
 10
345.8919917429
 20
76.6941950294
 40
1.0
100
AcDbArc
 50
90.0
 51
180.0
  0
ARC
  5
5E2
100
AcDbEntity
  8
0
100
AcDbCircle
 62
7
  6
CONTINUOUS
 10
294.8241465719
 20
87.1941950294
 40
29.0
100
AcDbArc
 50
23.5538655366
 51
156.4460689717
  0
ARC
  5
5E3
100
AcDbEntity
  8
0
100
AcDbCircle
 62
7
  6
CONTINUOUS
 10
294.8241465719
 20
87.1941950294
 40
29.0
100
AcDbArc
 50
203.5539310411
 51
336.4461344514
  0
ARC
  5
5E4
100
AcDbEntity
  8
BEZUGSACHSEN
100
AcDbCircle
 62
7
  6
CONTINUOUS
 10
294.8241465719
 20
87.1941950294
 40
18.0
100
AcDbArc
 50
219.7186631723
 51
320.2813368277
  0
ARC
  5
5E5
100
AcDbEntity
  8
BEZUGSACHSEN
100
AcDbCircle
 62
7
  6
CONTINUOUS
 10
294.8241465719
 20
87.1941950294
 40
18.0
100
AcDbArc
 50
39.7186631723
 51
140.2813368086
  0
ARC
  5
5E6
100
AcDbEntity
  8
RUNDUNGEN
100
AcDbCircle
 62
7
  6
CONTINUOUS
 10
294.8241465719
 20
118.6941950294
 40
63.0
100
AcDbArc
 50
246.0674835966
 51
293.9325164034
  0
ARC
  5
5E7
100
AcDbEntity
  8
RUNDUNGEN
100
AcDbCircle
 62
7
  6
CONTINUOUS
 10
316.3241465719
 20
104.1374608152
 40
10.0
100
AcDbArc
 50
0.0
 51
66.0674835966
  0
ARC
  5
5E8
100
AcDbEntity
  8
RUNDUNGEN
100
AcDbCircle
 62
7
  6
CONTINUOUS
 10
346.3241465719
 20
92.1941950294
 40
4.5
100
AcDbArc
 50
0.0
 51
90.0
  0
ARC
  5
5E9
100
AcDbEntity
  8
RUNDUNGEN
100
AcDbCircle
 62
7
  6
CONTINUOUS
 10
331.3241465716
 20
97.1941950294
 40
3.4999999998
100
AcDbArc
 50
89.9999999942
 51
121.9225154597
  0
ARC
  5
5EA
100
AcDbEntity
  8
RUNDUNGEN
100
AcDbCircle
 62
7
  6
CONTINUOUS
 10
334.8760594284
 20
98.8941950294
 40
1.8
100
AcDbArc
 50
90.0
 51
126.7478682971
  0
ARC
  5
5EB
100
AcDbEntity
  8
RUNDUNGEN
100
AcDbCircle
 62
7
  6
CONTINUOUS
 10
343.8919917429
 20
97.6941950294
 40
1.0
100
AcDbArc
 50
0.0
 51
90.0
  0
ARC
  5
5EC
100
AcDbEntity
  8
RUNDUNGEN
100
AcDbCircle
 62
7
  6
CONTINUOUS
 10
345.8919917429
 20
97.6941950294
 40
1.0
100
AcDbArc
 50
180.0
 51
270.0
  0
SPLINE
  5
5ED
100
AcDbEntity
  8
KONSTRUKTIONSELEMENTE
100
AcDbSpline
 62
7
  6
CONTINUOUS
 70
0
 71
3
 72
11
 73
7
 74
0
 42
0.0000001
 43
0.0000001
 44
0.0000000001
 40
0.0
 40
0.0
 40
0.0
 40
0.0
 40
0.2404100528
 40
0.4855109822
 40
0.7383644671
 40
1.0
 40
1.0
 40
1.0
 40
1.0
 10
279.2356893039
 20
237.8877587118
 30
0.0
 10
278.7949807294
 20
237.8877587118
 30
0.0
 10
277.9033125388
 20
237.8109344843
 30
0.0
 10
276.5862367776
 20
237.4790295424
 30
0.0
 10
275.29053021
 20
236.9602810685
 30
0.0
 10
274.4548983758
 20
236.5198726279
 30
0.0
 10
274.0395368811
 20
236.2800635571
 30
0.0
  0
SPLINE
  5
5EE
100
AcDbEntity
  8
KONSTRUKTIONSELEMENTE
100
AcDbSpline
 62
7
  6
CONTINUOUS
 70
0
 71
3
 72
11
 73
7
 74
0
 42
0.0000001
 43
0.0000001
 44
0.0000000001
 40
0.0
 40
0.0
 40
0.0
 40
0.0
 40
0.2616355419
 40
0.5144890695
 40
0.7595899799
 40
1.0
 40
1.0
 40
1.0
 40
1.0
 10
315.6087562628
 20
236.2800635571
 30
0.0
 10
315.1933947537
 20
236.5198726362
 30
0.0
 10
314.3577628411
 20
236.9602811327
 30
0.0
 10
313.0620562026
 20
237.4790295975
 30
0.0
 10
311.7449804505
 20
237.8109345049
 30
0.0
 10
310.8533123548
 20
237.8877587118
 30
0.0
 10
310.4126038401
 20
237.8877587118
 30
0.0
  0
SPLINE
  5
5EF
100
AcDbEntity
  8
KONSTRUKTIONSELEMENTE
100
AcDbSpline
 62
7
  6
CONTINUOUS
 70
0
 71
3
 72
11
 73
7
 74
0
 42
0.0000001
 43
0.0000001
 44
0.0000000001
 40
0.0
 40
0.0
 40
0.0
 40
0.0
 40
0.2404100528
 40
0.4855109822
 40
0.7383644671
 40
1.0
 40
1.0
 40
1.0
 40
1.0
 10
310.4126038401
 20
237.8877587118
 30
0.0
 10
309.9718952656
 20
237.8877587118
 30
0.0
 10
309.080227075
 20
237.8109344843
 30
0.0
 10
307.7631513139
 20
237.4790295424
 30
0.0
 10
306.4674447462
 20
236.9602810685
 30
0.0
 10
305.6318129121
 20
236.5198726279
 30
0.0
 10
305.2164514174
 20
236.2800635571
 30
0.0
  0
SPLINE
  5
5F0
100
AcDbEntity
  8
KONSTRUKTIONSELEMENTE
100
AcDbSpline
 62
7
  6
CONTINUOUS
 70
0
 71
3
 72
10
 73
6
 74
0
 42
0.0000001
 43
0.0000001
 44
0.0000000001
 40
0.0
 40
0.0
 40
0.0
 40
0.0
 40
0.4998915772
 40
0.7499458269
 40
1.0
 40
1.0
 40
1.0
 40
1.0
 10
305.2164514174
 20
236.2800635571
 30
0.0
 10
303.5279652945
 20
236.7674875159
 30
0.0
 10
300.9537955816
 20
237.376853472
 30
0.0
 10
297.4623701065
 20
237.8127463171
 30
0.0
 10
295.7032436496
 20
237.8877587117
 30
0.0
 10
294.8241465719
 20
237.8877587118
 30
0.0
  0
SPLINE
  5
5F1
100
AcDbEntity
  8
BEZUGSACHSEN
100
AcDbSpline
 62
7
  6
CONTINUOUS
 70
0
 71
3
 72
15
 73
11
 74
0
 42
0.0000001
 43
0.0000001
 44
0.0000000001
 40
0.0
 40
0.0
 40
0.0
 40
0.0
 40
0.1380326342
 40
0.2670657853
 40
0.3867679186
 40
0.5000000659
 40
0.6132321898
 40
0.7329342586
 40
0.8619673184
 40
1.0
 40
1.0
 40
1.0
 40
1.0
 10
315.6087562628
 20
221.1723684025
 30
0.0
 10
315.2158013179
 20
220.7794134577
 30
0.0
 10
314.4230846761
 20
220.0497899004
 30
0.0
 10
313.1481319551
 20
219.1456187981
 30
0.0
 10
311.8100707734
 20
218.5367697527
 30
0.0
 10
310.4126030972
 20
218.3156833999
 30
0.0
 10
309.0151354659
 20
218.53676934
 30
0.0
 10
307.6770755483
 20
219.145619407
 30
0.0
 10
306.4021229012
 20
220.0497897086
 30
0.0
 10
305.6094064972
 20
220.7794133227
 30
0.0
 10
305.2164514174
 20
221.1723684025
 30
0.0
  0
SPLINE
  5
5F2
100
AcDbEntity
  8
BEZUGSACHSEN
100
AcDbSpline
 62
7
  6
CONTINUOUS
 70
0
 71
3
 72
15
 73
11
 74
0
 42
0.0000001
 43
0.0000001
 44
0.0000000001
 40
0.0
 40
0.0
 40
0.0
 40
0.0
 40
0.1250035726
 40
0.2500177617
 40
0.3750129322
 40
0.5000000785
 40
0.6249871996
 40
0.7499822809
 40
0.8749963857
 40
1.0
 40
1.0
 40
1.0
 40
1.0
 10
305.2164514174
 20
221.1723684025
 30
0.0
 10
304.4075547122
 20
220.76792005
 30
0.0
 10
302.7605874604
 20
220.0147479888
 30
0.0
 10
300.1954161711
 20
219.1163368391
 30
0.0
 10
297.5393051223
 20
218.526332247
 30
0.0
 10
294.82414503
 20
218.3188382945
 30
0.0
 10
292.1089854511
 20
218.5263317644
 30
0.0
 10
289.4528761549
 20
219.1163375443
 30
0.0
 10
286.8877056084
 20
220.0147477832
 30
0.0
 10
285.2407387019
 20
220.7679199149
 30
0.0
 10
284.4318417265
 20
221.1723684025
 30
0.0
  0
SPLINE
  5
5F3
100
AcDbEntity
  8
KONSTRUKTIONSELEMENTE
100
AcDbSpline
 62
7
  6
CONTINUOUS
 70
0
 71
3
 72
10
 73
6
 74
0
 42
0.0000001
 43
0.0000001
 44
0.0000000001
 40
0.0
 40
0.0
 40
0.0
 40
0.0
 40
0.2500541975
 40
0.5001084613
 40
1.0
 40
1.0
 40
1.0
 40
1.0
 10
294.8241465719
 20
237.8877587118
 30
0.0
 10
293.9450494088
 20
237.8877587118
 30
0.0
 10
292.1859228164
 20
237.8127462999
 30
0.0
 10
288.6944973457
 20
237.3768534197
 30
0.0
 10
286.1203277194
 20
236.7674874784
 30
0.0
 10
284.4318417265
 20
236.2800635571
 30
0.0
  0
SPLINE
  5
5F4
100
AcDbEntity
  8
KONSTRUKTIONSELEMENTE
100
AcDbSpline
 62
7
  6
CONTINUOUS
 70
0
 71
3
 72
11
 73
7
 74
0
 42
0.0000001
 43
0.0000001
 44
0.0000000001
 40
0.0
 40
0.0
 40
0.0
 40
0.0
 40
0.2616355419
 40
0.5144890695
 40
0.7595899799
 40
1.0
 40
1.0
 40
1.0
 40
1.0
 10
284.4318417265
 20
236.2800635571
 30
0.0
 10
284.0164802175
 20
236.5198726362
 30
0.0
 10
283.1808483049
 20
236.9602811327
 30
0.0
 10
281.8851416664
 20
237.4790295975
 30
0.0
 10
280.5680659143
 20
237.8109345049
 30
0.0
 10
279.6763978185
 20
237.8877587118
 30
0.0
 10
279.2356893039
 20
237.8877587118
 30
0.0
  0
SPLINE
  5
5F5
100
AcDbEntity
  8
BEZUGSACHSEN
100
AcDbSpline
 62
7
  6
CONTINUOUS
 70
0
 71
3
 72
15
 73
11
 74
0
 42
0.0000001
 43
0.0000001
 44
0.0000000001
 40
0.0
 40
0.0
 40
0.0
 40
0.0
 40
0.1380326342
 40
0.2670657853
 40
0.3867679186
 40
0.5000000659
 40
0.6132321898
 40
0.7329342586
 40
0.8619673184
 40
1.0
 40
1.0
 40
1.0
 40
1.0
 10
284.4318417265
 20
221.1723684025
 30
0.0
 10
284.0388867816
 20
220.7794134577
 30
0.0
 10
283.2461701398
 20
220.0497899004
 30
0.0
 10
281.9712174189
 20
219.1456187981
 30
0.0
 10
280.6331562372
 20
218.5367697527
 30
0.0
 10
279.2356885609
 20
218.3156833999
 30
0.0
 10
277.8382209297
 20
218.53676934
 30
0.0
 10
276.500161012
 20
219.145619407
 30
0.0
 10
275.2252083649
 20
220.0497897086
 30
0.0
 10
274.4324919609
 20
220.7794133227
 30
0.0
 10
274.0395368811
 20
221.1723684025
 30
0.0
  0
SPLINE
  5
5F6
100
AcDbEntity
  8
0
100
AcDbSpline
 62
7
  6
CONTINUOUS
 70
0
 71
3
 72
11
 73
7
 74
0
 42
0.0000001
 43
0.0000001
 44
0.0000000001
 40
0.0
 40
0.0
 40
0.0
 40
0.0
 40
0.2499277874
 40
0.4998781123
 40
0.7498810839
 40
1.0
 40
1.0
 40
1.0
 40
1.0
 10
316.0042131382
 20
434.2377587117
 30
0.0
 10
315.9920378261
 20
434.4161709887
 30
0.0
 10
315.9007828234
 20
434.7718493411
 30
0.0
 10
315.5833297653
 20
435.2185636555
 30
0.0
 10
315.1299825101
 20
435.5258766898
 30
0.0
 10
314.7754481962
 20
435.6158011915
 30
0.0
 10
314.5971622644
 20
435.6313651009
 30
0.0
  0
SPLINE
  5
5F7
100
AcDbEntity
  8
0
100
AcDbSpline
 62
7
  6
CONTINUOUS
 70
0
 71
3
 72
11
 73
7
 74
0
 42
0.0000001
 43
0.0000001
 44
0.0000000001
 40
0.0
 40
0.0
 40
0.0
 40
0.0
 40
0.2501215201
 40
0.5001259827
 40
0.7500745137
 40
1.0
 40
1.0
 40
1.0
 40
1.0
 10
275.0507878804
 20
435.6313350287
 30
0.0
 10
274.8725314751
 20
435.6157366638
 30
0.0
 10
274.5180691992
 20
435.525758339
 30
0.0
 10
274.0648395074
 20
435.2184286233
 30
0.0
 10
273.7474814278
 20
434.7717600147
 30
0.0
 10
273.6562532819
 20
434.4161411562
 30
0.0
 10
273.6440800057
 20
434.2377587117
 30
0.0
  0
SPLINE
  5
5F8
100
AcDbEntity
  8
BEZUGSACHSEN
100
AcDbSpline
 62
7
  6
CONTINUOUS
 70
0
 71
3
 72
11
 73
7
 74
0
 42
0.0000001
 43
0.0000001
 44
0.0000000001
 40
0.0
 40
0.0
 40
0.0
 40
0.0
 40
0.2616355141
 40
0.5144890283
 40
0.7595899618
 40
1.0
 40
1.0
 40
1.0
 40
1.0
 10
274.0395368811
 20
456.2800635571
 30
0.0
 10
274.4548983458
 20
456.5198726106
 30
0.0
 10
275.2905302028
 20
456.9602810467
 30
0.0
 10
276.5862367857
 20
457.4790295563
 30
0.0
 10
277.9033125861
 20
457.8109344879
 30
0.0
 10
278.7949807562
 20
457.8877587118
 30
0.0
 10
279.2356893037
 20
457.8877587118
 30
0.0
  0
SPLINE
  5
5F9
100
AcDbEntity
  8
BEZUGSACHSEN
100
AcDbSpline
 62
7
  6
CONTINUOUS
 70
0
 71
3
 72
11
 73
7
 74
0
 42
0.0000001
 43
0.0000001
 44
0.0000000001
 40
0.0
 40
0.0
 40
0.0
 40
0.0
 40
0.2404100669
 40
0.4855110144
 40
0.7383644905
 40
1.0
 40
1.0
 40
1.0
 40
1.0
 10
279.2356893037
 20
457.8877587118
 30
0.0
 10
279.676397904
 20
457.8877587118
 30
0.0
 10
280.5680661525
 20
457.810934471
 30
0.0
 10
281.8851419546
 20
457.4790295094
 30
0.0
 10
283.180848478
 20
456.9602809988
 30
0.0
 10
284.0164802692
 20
456.5198726063
 30
0.0
 10
284.4318417265
 20
456.2800635571
 30
0.0
  0
SPLINE
  5
5FA
100
AcDbEntity
  8
BEZUGSACHSEN
100
AcDbSpline
 62
7
  6
CONTINUOUS
 70
0
 71
3
 72
10
 73
6
 74
0
 42
0.0000001
 43
0.0000001
 44
0.0000000001
 40
0.0
 40
0.0
 40
0.0
 40
0.0
 40
0.4998915798
 40
0.7499458338
 40
1.0
 40
1.0
 40
1.0
 40
1.0
 10
284.4318417265
 20
456.2800635571
 30
0.0
 10
286.1203278582
 20
456.7674875185
 30
0.0
 10
288.6944975946
 20
457.3768534822
 30
0.0
 10
292.185923071
 20
457.8127463194
 30
0.0
 10
293.9450495186
 20
457.8877587116
 30
0.0
 10
294.8241465719
 20
457.8877587117
 30
0.0
  0
SPLINE
  5
5FB
100
AcDbEntity
  8
BEZUGSACHSEN
100
AcDbSpline
 62
7
  6
CONTINUOUS
 70
0
 71
3
 72
10
 73
6
 74
0
 42
0.0000001
 43
0.0000001
 44
0.0000000001
 40
0.0
 40
0.0
 40
0.0
 40
0.0
 40
0.2500541894
 40
0.5001084567
 40
1.0
 40
1.0
 40
1.0
 40
1.0
 10
294.8241465719
 20
457.8877587117
 30
0.0
 10
295.7032437069
 20
457.8877587116
 30
0.0
 10
297.462370283
 20
457.8127463031
 30
0.0
 10
300.9537957552
 20
457.3768534324
 30
0.0
 10
303.527965409
 20
456.7674874829
 30
0.0
 10
305.2164514174
 20
456.2800635571
 30
0.0
  0
SPLINE
  5
5FC
100
AcDbEntity
  8
BEZUGSACHSEN
100
AcDbSpline
 62
7
  6
CONTINUOUS
 70
0
 71
3
 72
11
 73
7
 74
0
 42
0.0000001
 43
0.0000001
 44
0.0000000001
 40
0.0
 40
0.0
 40
0.0
 40
0.0
 40
0.2616355141
 40
0.5144890283
 40
0.7595899618
 40
1.0
 40
1.0
 40
1.0
 40
1.0
 10
305.2164514174
 20
456.2800635571
 30
0.0
 10
305.6318128821
 20
456.5198726106
 30
0.0
 10
306.4674447391
 20
456.9602810467
 30
0.0
 10
307.763151322
 20
457.4790295563
 30
0.0
 10
309.0802271224
 20
457.810934488
 30
0.0
 10
309.9718952925
 20
457.8877587117
 30
0.0
 10
310.41260384
 20
457.8877587118
 30
0.0
  0
SPLINE
  5
5FD
100
AcDbEntity
  8
BEZUGSACHSEN
100
AcDbSpline
 62
7
  6
CONTINUOUS
 70
0
 71
3
 72
11
 73
7
 74
0
 42
0.0000001
 43
0.0000001
 44
0.0000000001
 40
0.0
 40
0.0
 40
0.0
 40
0.0
 40
0.2404100669
 40
0.4855110144
 40
0.7383644905
 40
1.0
 40
1.0
 40
1.0
 40
1.0
 10
310.41260384
 20
457.8877587118
 30
0.0
 10
310.8533124402
 20
457.8877587118
 30
0.0
 10
311.7449806888
 20
457.810934471
 30
0.0
 10
313.0620564908
 20
457.4790295094
 30
0.0
 10
314.3577630143
 20
456.9602809988
 30
0.0
 10
315.1933948054
 20
456.5198726063
 30
0.0
 10
315.6087562628
 20
456.2800635571
 30
0.0
  0
SPLINE
  5
5FE
100
AcDbEntity
  8
KONSTRUKTIONSELEMENTE
100
AcDbSpline
 62
7
  6
CONTINUOUS
 70
0
 71
3
 72
9
 73
5
 74
0
 42
0.0000001
 43
0.0000001
 44
0.0000000001
 40
0.0
 40
0.0
 40
0.0
 40
0.0
 40
0.2491345028
 40
1.0
 40
1.0
 40
1.0
 40
1.0
 10
464.5298019769
 20
237.6954729283
 30
0.0
 10
464.0224023912
 20
237.6312749588
 30
0.0
 10
461.9934673738
 20
237.3118898475
 30
0.0
 10
460.0045318307
 20
236.7675100891
 30
0.0
 10
458.5421922348
 20
236.2800635571
 30
0.0
  0
SPLINE
  5
5FF
100
AcDbEntity
  8
KONSTRUKTIONSELEMENTE
100
AcDbSpline
 62
7
  6
CONTINUOUS
 70
0
 71
3
 72
9
 73
5
 74
0
 42
0.0000001
 43
0.0000001
 44
0.0000000001
 40
0.0
 40
0.0
 40
0.0
 40
0.0
 40
0.2512164057
 40
1.0
 40
1.0
 40
1.0
 40
1.0
 10
494.5421922348
 20
236.2800635571
 30
0.0
 10
494.0530120713
 20
236.4431236116
 30
0.0
 10
492.0946337665
 20
237.0565885393
 30
0.0
 10
490.0793594166
 20
237.5025531026
 30
0.0
 10
488.5545789781
 20
237.695473343
 30
0.0
  0
SPLINE
  5
600
100
AcDbEntity
  8
BEZUGSACHSEN
100
AcDbSpline
 62
7
  6
CONTINUOUS
 70
0
 71
3
 72
15
 73
11
 74
0
 42
0.0000001
 43
0.0000001
 44
0.0000000001
 40
0.0
 40
0.0
 40
0.0
 40
0.0
 40
0.12678678
 40
0.2523062995
 40
0.3765643151
 40
0.5000000768
 40
0.6234358136
 40
0.7476937433
 40
0.8732131774
 40
1.0
 40
1.0
 40
1.0
 40
1.0
 10
494.5421922348
 20
221.1723684025
 30
0.0
 10
493.8449455288
 20
220.7698128291
 30
0.0
 10
492.4264526135
 20
220.0200057567
 30
0.0
 10
490.2053454384
 20
219.1201412613
 30
0.0
 10
487.9015599448
 20
218.527494056
 30
0.0
 10
485.5421909059
 20
218.3184867001
 30
0.0
 10
483.1828222643
 20
218.5274935824
 30
0.0
 10
480.8790383736
 20
219.1201419541
 30
0.0
 10
478.657931777
 20
220.020005553
 30
0.0
 10
477.2394391748
 20
220.769812694
 30
0.0
 10
476.5421922348
 20
221.1723684025
 30
0.0
  0
SPLINE
  5
601
100
AcDbEntity
  8
KONSTRUKTIONSELEMENTE
100
AcDbSpline
 62
7
  6
CONTINUOUS
 70
0
 71
3
 72
10
 73
6
 74
0
 42
0.0000001
 43
0.0000001
 44
0.0000000001
 40
0.0
 40
0.0
 40
0.0
 40
0.0
 40
0.2489289318
 40
0.4984050404
 40
1.0
 40
1.0
 40
1.0
 40
1.0
 10
485.5421922349
 20
237.8877587118
 30
0.0
 10
484.7806503004
 20
237.8877587118
 30
0.0
 10
483.2548259109
 20
237.8125448026
 30
0.0
 10
480.223587129
 20
237.3750894287
 30
0.0
 10
477.9979625717
 20
236.7653203361
 30
0.0
 10
476.5421922348
 20
236.2800635571
 30
0.0
  0
SPLINE
  5
602
100
AcDbEntity
  8
KONSTRUKTIONSELEMENTE
100
AcDbSpline
 62
7
  6
CONTINUOUS
 70
0
 71
3
 72
10
 73
6
 74
0
 42
0.0000001
 43
0.0000001
 44
0.0000000001
 40
0.0
 40
0.0
 40
0.0
 40
0.0
 40
0.5015950116
 40
0.7510711018
 40
1.0
 40
1.0
 40
1.0
 40
1.0
 10
476.5421922348
 20
236.2800635571
 30
0.0
 10
475.0864217474
 20
236.7653203863
 30
0.0
 10
472.8607970848
 20
237.375089495
 30
0.0
 10
469.8295582967
 20
237.8125448215
 30
0.0
 10
468.3037340664
 20
237.8877587118
 30
0.0
 10
467.5421922349
 20
237.8877587118
 30
0.0
  0
SPLINE
  5
603
100
AcDbEntity
  8
BEZUGSACHSEN
100
AcDbSpline
 62
7
  6
CONTINUOUS
 70
0
 71
3
 72
15
 73
11
 74
0
 42
0.0000001
 43
0.0000001
 44
0.0000000001
 40
0.0
 40
0.0
 40
0.0
 40
0.0
 40
0.12678678
 40
0.2523062995
 40
0.3765643151
 40
0.5000000768
 40
0.6234358136
 40
0.7476937433
 40
0.8732131774
 40
1.0
 40
1.0
 40
1.0
 40
1.0
 10
476.5421922348
 20
221.1723684025
 30
0.0
 10
475.8449455288
 20
220.7698128291
 30
0.0
 10
474.4264526135
 20
220.0200057567
 30
0.0
 10
472.2053454384
 20
219.1201412613
 30
0.0
 10
469.9015599448
 20
218.527494056
 30
0.0
 10
467.5421909059
 20
218.3184867001
 30
0.0
 10
465.1828222643
 20
218.5274935824
 30
0.0
 10
462.8790383736
 20
219.1201419541
 30
0.0
 10
460.657931777
 20
220.020005553
 30
0.0
 10
459.2394391748
 20
220.769812694
 30
0.0
 10
458.5421922348
 20
221.1723684025
 30
0.0
  0
LINE
  5
604
100
AcDbEntity
  8
BEZUGSACHSEN
100
AcDbLine
 62
7
  6
CONTINUOUS
 10
488.9986306511
 20
457.6353293327
 11
489.0192839786
 21
457.6323403629
  0
LINE
  5
605
100
AcDbEntity
  8
BEZUGSACHSEN
100
AcDbLine
 62
7
  6
CONTINUOUS
 10
489.0192839786
 20
457.6323403629
 11
489.0460902757
 21
457.628435698
  0
SPLINE
  5
606
100
AcDbEntity
  8
BEZUGSACHSEN
100
AcDbSpline
 62
7
  6
CONTINUOUS
 70
0
 71
3
 72
9
 73
5
 74
0
 42
0.0000001
 43
0.0000001
 44
0.0000000001
 40
0.0
 40
0.0
 40
0.0
 40
0.0
 40
0.2491671814
 40
1.0
 40
1.0
 40
1.0
 40
1.0
 10
489.0460902757
 20
457.628435698
 30
0.0
 10
489.5115340395
 20
457.5603908366
 30
0.0
 10
491.3721590315
 20
457.2365520163
 30
0.0
 10
493.1974688169
 20
456.7283046965
 30
0.0
 10
494.5421922348
 20
456.2800635571
 30
0.0
  0
SPLINE
  5
607
100
AcDbEntity
  8
BEZUGSACHSEN
100
AcDbSpline
 62
7
  6
CONTINUOUS
 70
0
 71
3
 72
9
 73
5
 74
0
 42
0.0000001
 43
0.0000001
 44
0.0000000001
 40
0.0
 40
0.0
 40
0.0
 40
0.0
 40
0.2511167265
 40
1.0
 40
1.0
 40
1.0
 40
1.0
 10
458.5421922348
 20
456.2800635571
 30
0.0
 10
458.9956837815
 20
456.431227406
 30
0.0
 10
460.8112460099
 20
457.0025313706
 30
0.0
 10
462.6748054507
 20
457.431713824
 30
0.0
 10
464.085752236
 20
457.6353291059
 30
0.0
  0
ELLIPSE
  5
608
100
AcDbEntity
  8
0
100
AcDbEllipse
 62
7
  6
CONTINUOUS
 10
255.1757207287
 20
63.6941950294
 30
0.0
 11
-0.0
 21
12.0
 31
0.0
 40
0.7013572208
 41
0.0116208812
 42
0.0739390377
  0
ELLIPSE
  5
609
100
AcDbEntity
  8
0
100
AcDbEllipse
 62
7
  6
CONTINUOUS
 10
260.3273462609
 20
99.5845324952
 30
0.0
 11
3.455
 21
-0.0
 31
0.0
 40
0.0740740741
 41
5.7027931822
 42
8.2466807157
  0
ELLIPSE
  5
60A
100
AcDbEntity
  8
0
100
AcDbEllipse
 62
7
  6
CONTINUOUS
 10
255.9512212265
 20
100.1987162618
 30
0.0
 11
4.1511520629
 21
0.0636702892
 31
0.0
 40
0.0546462332
 41
6.5568106047
 42
9.6984032583
  0
ELLIPSE
  5
60B
100
AcDbEntity
  8
0
100
AcDbEllipse
 62
7
  6
CONTINUOUS
 10
255.1653563635
 20
100.1272994261
 30
0.0
 11
1.76
 21
-0.0
 31
0.0
 40
0.0740740741
 41
1.9634954085
 42
3.5342917353
  0
ELLIPSE
  5
60C
100
AcDbEntity
  8
0
100
AcDbEllipse
 62
7
  6
CONTINUOUS
 10
257.1886525397
 20
100.1893791829
 30
0.0
 11
1.76
 21
0.0
 31
0.0
 40
0.0740740741
 41
0.3926990817
 42
1.9634954085
  0
ELLIPSE
  5
60D
100
AcDbEntity
  8
0
100
AcDbEllipse
 62
7
  6
CONTINUOUS
 10
255.9512212265
 20
99.4466614635
 30
0.0
 11
4.1511520629
 21
0.0636702892
 31
0.0
 40
0.0546462332
 41
3.1407544928
 42
3.4152179512
  0
ELLIPSE
  5
60E
100
AcDbEntity
  8
0
100
AcDbEllipse
 62
7
  6
CONTINUOUS
 10
260.3273462609
 20
99.5845324952
 30
0.0
 11
1.695
 21
0.0
 31
0.0
 40
0.0740740741
 41
5.1050880621
 42
8.2466807157
  0
ENDSEC
  0
SECTION
  2
OBJECTS
  0
DICTIONARY
  5
C
100
AcDbDictionary
280
0
281
1
  3
ACAD_GROUP
350
D
  3
ACAD_MLINESTYLE
350
17
  3
ACAD_LAYOUT
350
1A
  3
ACAD_PLOTSETTINGS
350
19
  3
ACAD_PLOTSTYLENAME
350
E
  0
DICTIONARY
  5
D
102
{ACAD_REACTORS
330
C
102
}
100
AcDbDictionary
280
0
281
1
  0
ACDBDICTIONARYWDFLT
  5
E
102
{ACAD_REACTORS
330
C
102
}
100
AcDbDictionary
281
1
  3
Normal
350
F
100
AcDbDictionaryWithDefault
340
F
  0
DICTIONARY
  5
17
102
{ACAD_REACTORS
330
C
102
}
100
AcDbDictionary
280
0
281
1
  3
Standard
350
18
  0
DICTIONARY
  5
19
102
{ACAD_REACTORS
330
C
102
}
100
AcDbDictionary
281
1
  0
DICTIONARY
  5
1A
102
{ACAD_REACTORS
330
C
102
}
100
AcDbDictionary
281
1
  3
Model
350
60F
  3
Layout1
350
610
  0
ACDBPLACEHOLDER
  5
F
102
{ACAD_REACTORS
330
E
102
}
  0
MLINESTYLE
  5
18
102
{ACAD_REACTORS
330
17
102
}
100
AcDbMlineStyle
  2
STANDARD
 70
0
  3

 62
256
 51
90.0
 52
90.0
 71
2
 49
0.5
 62
256
  6
BYLAYER
 49
-0.5
 62
256
  6
BYLAYER
  0
LAYOUT
  5
60F
102
{ACAD_REACTORS
330
1A
102
}
100
AcDbPlotSettings
  1

  2
none_device
  4
ISO_A1_(594.00_x_841.00_MM)
  6

 40
0.0
 41
0.0
 42
0.0
 43
0.0
 44
841.0
 45
594.0
 46
0.0
 47
0.0
 48
0.0
 49
0.0
140
0.0
141
0.0
142
1.0
143
1.0
 70
1024
 72
1
 73
0
 74
0
  7

 75
0
147
1.0
148
0.0
149
0.0
100
AcDbLayout
  1
Model
 70
0
 71
0
 10
0.0
 20
0.0
 11
841.0
 21
594.0
 12
0.0
 22
0.0
 32
0.0
 14
0.0
 24
0.0
 34
0.0
 15
0.0
 25
0.0
 35
0.0
146
0.0
 13
0.0
 23
0.0
 33
0.0
 16
1.0
 26
0.0
 36
0.0
 17
0.0
 27
1.0
 37
0.0
 76
0
330
210
345
0
346
0
  0
LAYOUT
  5
610
102
{ACAD_REACTORS
330
1A
102
}
100
AcDbPlotSettings
  1

  2
none_device
  4
ISO_A1_(594.00_x_841.00_MM)
  6

 40
0.0
 41
0.0
 42
0.0
 43
0.0
 44
841.0
 45
594.0
 46
0.0
 47
0.0
 48
0.0
 49
0.0
140
0.0
141
0.0
142
1.0
143
1.0
 70
0
 72
1
 73
0
 74
0
  7

 75
0
147
1.0
148
0.0
149
0.0
100
AcDbLayout
  1
Layout1
 70
0
 71
1
 10
0.0
 20
0.0
 11
841.0
 21
594.0
 12
0.0
 22
0.0
 32
0.0
 14
0.0
 24
0.0
 34
0.0
 15
0.0
 25
0.0
 35
0.0
146
0.0
 13
0.0
 23
0.0
 33
0.0
 16
1.0
 26
0.0
 36
0.0
 17
0.0
 27
1.0
 37
0.0
 76
0
330
211
345
0
346
0
  0
ENDSEC
  0
EOF
