999
DXF file: 001-m35814-p-2.dxf
999
Pro/ENGINEER 2011490 by Parametric Technology Corporation
  0
SECTION
  2
HEADER
  9
$ACADVER
  1
AC1015
  9
$DWGCODEPAGE
  3
ANSI_1252
  9
$EXTMAX
 10
594.0
 20
420.0
 30
0.0
  9
$EXTMIN
 10
0.0
 20
0.0
 30
0.0
  9
$LIMMIN
 10
0.0
 20
0.0
  9
$LIMMAX
 10
594.0
 20
420.0
  9
$VIEWCTR
 10
297.0
 20
210.0
  9
$VIEWSIZE
 40
420.0
  9
$CLAYER
  8
0
  9
$LTSCALE
 40
32.67
  9
$CELTYPE
  6
BYLAYER
  9
$DIMSCALE
 40
1.0
  9
$DIMASZ
 40
3.5
  9
$DIMEXO
 40
3.7125
  9
$DIMDLI
 40
22.572
  9
$DIMEXE
 40
10.692
  9
$DIMCEN
 40
5.346
  9
$DIMLFAC
 40
1.0
  9
$DIMBLK
  1
_FILLED
  9
$DIMTXT
 40
3.5
  9
$DIMTOL
 70
1
  9
$DIMLIM
 70
0
  9
$DIMTFAC
 40
1.0
  9
$DIMTP
 40
0.005
  9
$DIMTM
 40
0.005
  9
$PDMODE
 70
3
  9
$PDSIZE
 40
0.3125
  9
$HANDSEED
  5
57E
  9
$TILEMODE
 70
1
  9
$MEASUREMENT
 70
1
  9
$INSUNITS
 70
4
  0
ENDSEC
  0
SECTION
  2
CLASSES
  0
CLASS
  1
ACDBDICTIONARYWDFLT
  2
AcDbDictionaryWithDefault
  3
AutoCAD 2000
 90
0
280
0
281
0
  0
CLASS
  1
ACDBPLACEHOLDER
  2
AcDbPlaceHolder
  3
AutoCAD 2000
 90
0
280
0
281
0
  0
CLASS
  1
LAYOUT
  2
AcDbLayout
  3
AutoCAD 2000
 90
0
280
0
281
0
  0
ENDSEC
  0
SECTION
  2
TABLES
  0
TABLE
  2
VPORT
  5
8
100
AcDbSymbolTable
 70
2
  0
VPORT
  5
1F4
100
AcDbSymbolTableRecord
100
AcDbViewportTableRecord
  2
*ACTIVE
 70
0
 10
0.0
 20
0.0
 11
1.0
 21
1.0
 12
297.0
 22
210.0
 13
0.0
 23
0.0
 14
1.0
 24
1.0
 15
0.0
 25
0.0
 16
0.0
 26
0.0
 36
1.0
 17
0.0
 27
0.0
 37
0.0
 40
420.0
 41
1.4142857143
 42
50.0
 43
0.0
 44
0.0
 50
0.0
 51
0.0
 71
0
 72
100
 73
1
 74
1
 75
0
 76
0
 77
0
 78
0
  0
ENDTAB
  0
TABLE
  2
LTYPE
  5
5
100
AcDbSymbolTable
 70
6
  0
LTYPE
  5
14
100
AcDbSymbolTableRecord
100
AcDbLinetypeTableRecord
  2
BYBLOCK
 70
0
  3

 72
65
 73
0
 40
0.0
  0
LTYPE
  5
15
100
AcDbSymbolTableRecord
100
AcDbLinetypeTableRecord
  2
BYLAYER
 70
0
  3

 72
65
 73
0
 40
0.0
  0
LTYPE
  5
16
100
AcDbSymbolTableRecord
100
AcDbLinetypeTableRecord
  2
CONTINUOUS
 70
64
  3
Solid line
 72
65
 73
0
 40
0.0
  0
LTYPE
  5
1F5
100
AcDbSymbolTableRecord
100
AcDbLinetypeTableRecord
  2
CENTER
 70
64
  3
____ _ ____ _ ____ _ ____ _ ____ _ ____ _ ____
 72
65
 73
4
 40
0.6
 49
0.375
 74
0
 49
-0.075
 74
0
 49
0.075
 74
0
 49
-0.075
 74
0
  0
LTYPE
  5
1F6
100
AcDbSymbolTableRecord
100
AcDbLinetypeTableRecord
  2
HIDDEN
 70
64
  3
- - - - - - - - - - - - - - - - - - - -
 72
65
 73
2
 40
0.2
 49
0.1
 74
0
 49
-0.1
 74
0
  0
LTYPE
  5
1F7
100
AcDbSymbolTableRecord
100
AcDbLinetypeTableRecord
  2
PHANTOM
 70
64
  3
_____ _ _ _____ _ _ _____ _ _ _____
 72
65
 73
6
 40
0.8
 49
0.45
 74
0
 49
-0.05
 74
0
 49
0.1
 74
0
 49
-0.05
 74
0
 49
0.1
 74
0
 49
-0.05
 74
0
  0
LTYPE
  5
1F8
100
AcDbSymbolTableRecord
100
AcDbLinetypeTableRecord
  2
DOT
 70
64
  3
. . . . . . . . . . . . . . . . . . . .
 72
65
 73
2
 40
0.2
 49
0.1
 74
0
 49
-0.1
 74
0
  0
LTYPE
  5
1F9
100
AcDbSymbolTableRecord
100
AcDbLinetypeTableRecord
  2
DASHED
 70
64
  3
- - - - - - - - - - - - - - - - - - - -
 72
65
 73
2
 40
0.2
 49
0.1
 74
0
 49
-0.1
 74
0
  0
ENDTAB
  0
TABLE
  2
LAYER
  5
2
100
AcDbSymbolTable
 70
36
  0
LAYER
  5
10
100
AcDbSymbolTableRecord
100
AcDbLayerTableRecord
  2
0
 70
0
 62
7
  6
CONTINUOUS
370
-3
390
F
  0
LAYER
  5
1FA
100
AcDbSymbolTableRecord
100
AcDbLayerTableRecord
  2
DEFAULT_1
 70
0
 62
7
  6
CENTER
370
-3
390
F
  0
LAYER
  5
1FB
100
AcDbSymbolTableRecord
100
AcDbLayerTableRecord
  2
DEFAULT_2
 70
0
 62
8
  6
HIDDEN
370
-3
390
F
  0
LAYER
  5
1FC
100
AcDbSymbolTableRecord
100
AcDbLayerTableRecord
  2
DEFAULT_3
 70
0
 62
7
  6
PHANTOM
370
-3
390
F
  0
LAYER
  5
1FD
100
AcDbSymbolTableRecord
100
AcDbLayerTableRecord
  2
AUSFORMSCHRAEGEN
 70
0
 62
7
  6
CONTINUOUS
370
-3
390
F
  0
LAYER
  5
1FE
100
AcDbSymbolTableRecord
100
AcDbLayerTableRecord
  2
BEZUGSACHSEN
 70
0
 62
7
  6
CONTINUOUS
370
-3
390
F
  0
LAYER
  5
1FF
100
AcDbSymbolTableRecord
100
AcDbLayerTableRecord
  2
BEZUGSEBENEN
 70
0
 62
7
  6
CONTINUOUS
370
-3
390
F
  0
LAYER
  5
200
100
AcDbSymbolTableRecord
100
AcDbLayerTableRecord
  2
BG_STARTBEZUEGE
 70
0
 62
7
  6
CONTINUOUS
370
-3
390
F
  0
LAYER
  5
201
100
AcDbSymbolTableRecord
100
AcDbLayerTableRecord
  2
FASEN
 70
0
 62
7
  6
CONTINUOUS
370
-3
390
F
  0
LAYER
  5
202
100
AcDbSymbolTableRecord
100
AcDbLayerTableRecord
  2
GEWINDE
 70
0
 62
7
  6
CONTINUOUS
370
-3
390
F
  0
LAYER
  5
203
100
AcDbSymbolTableRecord
100
AcDbLayerTableRecord
  2
HILFEN
 70
0
 62
7
  6
CONTINUOUS
370
-3
390
F
  0
LAYER
  5
204
100
AcDbSymbolTableRecord
100
AcDbLayerTableRecord
  2
KONSTRUKTIONSELEMENTE
 70
0
 62
7
  6
CONTINUOUS
370
-3
390
F
  0
LAYER
  5
205
100
AcDbSymbolTableRecord
100
AcDbLayerTableRecord
  2
KURVEN
 70
0
 62
7
  6
CONTINUOUS
370
-3
390
F
  0
LAYER
  5
206
100
AcDbSymbolTableRecord
100
AcDbLayerTableRecord
  2
NORM
 70
0
 62
7
  6
CONTINUOUS
370
-3
390
F
  0
LAYER
  5
207
100
AcDbSymbolTableRecord
100
AcDbLayerTableRecord
  2
PLATZIERUNG
 70
0
 62
7
  6
CONTINUOUS
370
-3
390
F
  0
LAYER
  5
208
100
AcDbSymbolTableRecord
100
AcDbLayerTableRecord
  2
PLAZIERUNG
 70
0
 62
7
  6
CONTINUOUS
370
-3
390
F
  0
LAYER
  5
209
100
AcDbSymbolTableRecord
100
AcDbLayerTableRecord
  2
RUNDUNGEN
 70
0
 62
7
  6
CONTINUOUS
370
-3
390
F
  0
LAYER
  5
20A
100
AcDbSymbolTableRecord
100
AcDbLayerTableRecord
  2
TEIL_STARTBEZUEGE
 70
0
 62
7
  6
CONTINUOUS
370
-3
390
F
  0
LAYER
  5
20B
100
AcDbSymbolTableRecord
100
AcDbLayerTableRecord
  2
T_STARTBEZUEGE
 70
0
 62
7
  6
CONTINUOUS
370
-3
390
F
  0
LAYER
  5
20C
100
AcDbSymbolTableRecord
100
AcDbLayerTableRecord
  2
ZEICHNUNGSBEMASSUNGEN
 70
0
 62
7
  6
CONTINUOUS
370
-3
390
F
  0
ENDTAB
  0
TABLE
  2
STYLE
  5
3
100
AcDbSymbolTable
 70
1
  0
STYLE
  5
11
100
AcDbSymbolTableRecord
100
AcDbTextStyleTableRecord
  2
STANDARD
 70
0
 40
0.0
 41
0.7
 50
0.0
 71
0
 42
0.2
  3
txt
  4

  0
STYLE
  5
20D
100
AcDbSymbolTableRecord
100
AcDbTextStyleTableRecord
  2
TEXTSTYLE_1
 70
0
 40
0.0
 41
0.8
 50
0.0
 71
0
 42
0.2
  3
gdt
  4

  0
ENDTAB
  0
TABLE
  2
VIEW
  5
6
100
AcDbSymbolTable
 70
0
  0
ENDTAB
  0
TABLE
  2
UCS
  5
7
100
AcDbSymbolTable
 70
0
  0
ENDTAB
  0
TABLE
  2
APPID
  5
9
100
AcDbSymbolTable
 70
1
  0
APPID
  5
20E
100
AcDbSymbolTableRecord
100
AcDbRegAppTableRecord
  2
ACAD
 70
0
  0
ENDTAB
  0
TABLE
  2
BLOCK_RECORD
  5
1
100
AcDbSymbolTable
 70
0
  0
BLOCK_RECORD
  5
20F
100
AcDbSymbolTableRecord
100
AcDbBlockTableRecord
  2
*Model_Space
  0
BLOCK_RECORD
  5
210
100
AcDbSymbolTableRecord
100
AcDbBlockTableRecord
  2
*Paper_Space
  0
ENDTAB
  0
TABLE
  2
DIMSTYLE
  5
A
100
AcDbSymbolTable
 70
1
100
AcDbDimStyleTable
 71
0
  0
DIMSTYLE
105
211
100
AcDbSymbolTableRecord
100
AcDbDimStyleTableRecord
  2
STANDARD
 70
0
  3

  4

 40
1.0
 41
3.5
 42
0.0625
 43
0.38
 44
0.18
 45
0.0
 46
0.0
 47
0.005
 48
0.005
140
3.5
141
0.09
142
0.0
143
25.4
144
1.0
145
0.0
146
1.0
147
0.09
 71
1.0
 72
0.0
 73
0
 74
0
 75
0
 76
0
 77
1
 78
8
170
0
171
2
172
0
173
0
174
0
175
0
176
0
177
0
178
5
270
2
271
3
272
3
273
2
274
2
275
0
280
0
281
0
282
0
283
1
284
8
285
0
286
0
287
3
288
0
340
11
  0
ENDTAB
  0
ENDSEC
  0
SECTION
  2
BLOCKS
  0
BLOCK
  5
20
100
AcDbEntity
  8
0
100
AcDbBlockBegin
  2
*Model_Space
 70
0
 10
0.0
 20
0.0
 30
0.0
  3
*Model_Space
  1

  0
ENDBLK
  5
21
100
AcDbEntity
  8
0
100
AcDbBlockEnd
  0
BLOCK
  5
1C
100
AcDbEntity
  8
0
100
AcDbBlockBegin
  2
*Paper_Space
 70
0
 10
0.0
 20
0.0
 30
0.0
  3
*Paper_Space
  1

  0
ENDBLK
  5
1D
100
AcDbEntity
  8
0
100
AcDbBlockEnd
  0
ENDSEC
  0
SECTION
  2
ENTITIES
  0
MTEXT
  5
212
100
AcDbEntity
  8
0
100
AcDbMText
 62
5
  6
CONTINUOUS
  7
STANDARD
 71
1
 72
1
 10
373.7650836085
 20
295.9823880876
 30
0.0
 11
0.0
 21
1.0
 31
0.0
 44
0.9
  1
RUD ACP 4t M20
 40
5.0
 41
56.4285714286
  0
MTEXT
  5
213
100
AcDbEntity
  8
0
100
AcDbMText
 62
5
  6
CONTINUOUS
  7
STANDARD
 71
1
 72
1
 10
242.6677971039
 20
309.624204777
 30
0.0
 11
1.0
 21
0.0
 31
0.0
 44
0.9
  1
RUD
 40
5.0
 41
13.3333333333
  0
MTEXT
  5
214
100
AcDbEntity
  8
0
100
AcDbMText
 62
5
  6
CONTINUOUS
  7
STANDARD
 71
1
 72
1
 10
218.9081309398
 20
44.0850052798
 30
0.0
 11
1.0
 21
0.0
 31
0.0
 44
0.9
  1
RUD ACP 4t M20
 40
5.0
 41
56.4285714286
  0
LINE
  5
215
100
AcDbEntity
  8
0
100
AcDbLine
 62
7
  6
CONTINUOUS
 10
0.0
 20
0.0
 11
0.0
 21
420.0
  0
LINE
  5
216
100
AcDbEntity
  8
0
100
AcDbLine
 62
7
  6
CONTINUOUS
 10
0.0
 20
0.0
 11
594.0
 21
0.0
  0
LINE
  5
217
100
AcDbEntity
  8
0
100
AcDbLine
 62
7
  6
CONTINUOUS
 10
0.0
 20
420.0
 11
594.0
 21
420.0
  0
LINE
  5
218
100
AcDbEntity
  8
0
100
AcDbLine
 62
7
  6
CONTINUOUS
 10
594.0
 20
0.0
 11
594.0
 21
420.0
  0
LINE
  5
219
100
AcDbEntity
  8
BEZUGSACHSEN
100
AcDbLine
 62
7
  6
CONTINUOUS
 10
240.0858158592
 20
91.2458022013
 11
257.0858158592
 21
91.2458022013
  0
LINE
  5
21A
100
AcDbEntity
  8
BEZUGSACHSEN
100
AcDbLine
 62
7
  6
CONTINUOUS
 10
238.5858158592
 20
92.7458022013
 11
258.5858158592
 21
92.7458022013
  0
LINE
  5
21B
100
AcDbEntity
  8
RUNDUNGEN
100
AcDbLine
 62
7
  6
CONTINUOUS
 10
245.8980562376
 20
407.6390679478
 11
225.6793297876
 21
399.8778260294
  0
LINE
  5
21C
100
AcDbEntity
  8
BEZUGSACHSEN
100
AcDbLine
 62
7
  6
CONTINUOUS
 10
259.8358158592
 20
121.2458022013
 11
237.3358158592
 21
121.2458022013
  0
LINE
  5
21D
100
AcDbEntity
  8
KONSTRUKTIONSELEMENTE
100
AcDbLine
 62
7
  6
CONTINUOUS
 10
230.0858158592
 20
141.2458022013
 11
267.0858158592
 21
141.2458022013
  0
LINE
  5
21E
100
AcDbEntity
  8
BEZUGSACHSEN
100
AcDbLine
 62
7
  6
CONTINUOUS
 10
240.0858158592
 20
91.2458022013
 11
238.5858158592
 21
92.7458022013
  0
LINE
  5
21F
100
AcDbEntity
  8
KONSTRUKTIONSELEMENTE
100
AcDbLine
 62
7
  6
CONTINUOUS
 10
230.0858158592
 20
145.2458022013
 11
267.0858158592
 21
145.2458022013
  0
LINE
  5
220
100
AcDbEntity
  8
BEZUGSACHSEN
100
AcDbLine
 62
7
  6
CONTINUOUS
 10
237.3358158592
 20
121.2458022013
 11
231.2653077835
 21
127.316310277
  0
LINE
  5
221
100
AcDbEntity
  8
RUNDUNGEN
100
AcDbLine
 62
7
  6
CONTINUOUS
 10
221.6845404777
 20
396.2809015787
 11
211.8523830496
 21
376.9842061184
  0
LINE
  5
222
100
AcDbEntity
  8
0
100
AcDbLine
 62
7
  6
CONTINUOUS
 10
222.0005502797
 20
340.8973109641
 11
221.3677557624
 21
340.5238300781
  0
LINE
  5
223
100
AcDbEntity
  8
0
100
AcDbLine
 62
7
  6
CONTINUOUS
 10
222.0035818222
 20
340.1096539583
 11
222.3890246788
 21
340.2684981689
  0
LINE
  5
224
100
AcDbEntity
  8
0
100
AcDbLine
 62
7
  6
CONTINUOUS
 10
220.1203581702
 20
335.0509316871
 11
219.3494730821
 21
334.7332448132
  0
LINE
  5
225
100
AcDbEntity
  8
KONSTRUKTIONSELEMENTE
100
AcDbLine
 62
7
  6
CONTINUOUS
 10
263.5858158592
 20
141.2458022013
 11
265.9063239349
 21
139.9060562392
  0
LINE
  5
226
100
AcDbEntity
  8
0
100
AcDbLine
 62
7
  6
CONTINUOUS
 10
221.7016002416
 20
339.7598034866
 11
222.0035818222
 21
340.1096539583
  0
LINE
  5
227
100
AcDbEntity
  8
0
100
AcDbLine
 62
7
  6
CONTINUOUS
 10
219.3494730821
 20
334.7332448132
 11
218.8547700733
 21
334.3039722362
  0
LINE
  5
228
100
AcDbEntity
  8
0
100
AcDbLine
 62
7
  6
CONTINUOUS
 10
219.6286870164
 20
333.8340028779
 11
220.0687597928
 21
334.1280608849
  0
LINE
  5
229
100
AcDbEntity
  8
0
100
AcDbLine
 62
7
  6
CONTINUOUS
 10
223.2569850834
 20
329.6942082208
 11
222.8169122103
 21
329.4001502529
  0
LINE
  5
22A
100
AcDbEntity
  8
BEZUGSACHSEN
100
AcDbLine
 62
7
  6
CONTINUOUS
 10
231.4866580993
 20
332.5338529036
 11
233.5858158592
 21
333.7458022013
  0
LINE
  5
22B
100
AcDbEntity
  8
0
100
AcDbLine
 62
7
  6
CONTINUOUS
 10
222.7653139296
 20
328.4772794117
 11
223.5361993786
 21
328.7949670397
  0
LINE
  5
22C
100
AcDbEntity
  8
0
100
AcDbLine
 62
7
  6
CONTINUOUS
 10
221.3677557624
 20
340.5238300781
 11
220.9565143422
 21
339.9035520138
  0
LINE
  5
22D
100
AcDbEntity
  8
0
100
AcDbLine
 62
7
  6
CONTINUOUS
 10
218.8547700733
 20
334.3039722362
 11
218.4435283405
 21
333.6836933982
  0
LINE
  5
22E
100
AcDbEntity
  8
0
100
AcDbLine
 62
7
  6
CONTINUOUS
 10
219.272075516
 20
333.34893861
 11
219.6286870164
 21
333.8340028779
  0
LINE
  5
22F
100
AcDbEntity
  8
0
100
AcDbLine
 62
7
  6
CONTINUOUS
 10
223.6135968964
 20
330.1792732625
 11
223.2569850834
 21
329.6942082208
  0
LINE
  5
230
100
AcDbEntity
  8
0
100
AcDbLine
 62
7
  6
CONTINUOUS
 10
223.5361993786
 20
328.7949670397
 11
224.0309021112
 21
329.2242388284
  0
LINE
  5
231
100
AcDbEntity
  8
0
100
AcDbLine
 62
7
  6
CONTINUOUS
 10
273.4476401645
 20
337.7766516518
 11
272.6190927955
 21
337.4418967854
  0
LINE
  5
232
100
AcDbEntity
  8
0
100
AcDbLine
 62
7
  6
CONTINUOUS
 10
277.3824963508
 20
335.5915651466
 11
274.7587632414
 21
334.5315081608
  0
LINE
  5
233
100
AcDbEntity
  8
0
100
AcDbLine
 62
7
  6
CONTINUOUS
 10
273.9302158725
 20
334.1967532944
 11
271.9969389362
 21
333.4156587103
  0
LINE
  5
234
100
AcDbEntity
  8
0
100
AcDbLine
 62
7
  6
CONTINUOUS
 10
272.3247197054
 20
332.6043728376
 11
274.2579966417
 21
333.3854674217
  0
LINE
  5
235
100
AcDbEntity
  8
0
100
AcDbLine
 62
7
  6
CONTINUOUS
 10
275.0865440107
 20
333.7202222881
 11
278.8150066874
 21
335.2266189915
  0
LINE
  5
236
100
AcDbEntity
  8
RUNDUNGEN
100
AcDbLine
 62
7
  6
CONTINUOUS
 10
217.4053125247
 20
342.9822049458
 11
213.153059342
 21
332.457508996
  0
LINE
  5
237
100
AcDbEntity
  8
RUNDUNGEN
100
AcDbLine
 62
7
  6
CONTINUOUS
 10
211.6705535475
 20
328.7881783938
 11
204.9615941693
 21
312.1829212368
  0
LINE
  5
238
100
AcDbEntity
  8
0
100
AcDbLine
 62
7
  6
CONTINUOUS
 10
220.9565143422
 20
339.9035520138
 11
219.6453909527
 21
336.6584077491
  0
LINE
  5
239
100
AcDbEntity
  8
0
100
AcDbLine
 62
7
  6
CONTINUOUS
 10
218.4435283405
 20
333.6836933982
 11
217.9518571867
 21
332.4667645891
  0
LINE
  5
23A
100
AcDbEntity
  8
0
100
AcDbLine
 62
7
  6
CONTINUOUS
 10
215.7666519542
 20
327.0581918462
 11
215.3296109546
 21
325.9764774137
  0
LINE
  5
23B
100
AcDbEntity
  8
0
100
AcDbLine
 62
7
  6
CONTINUOUS
 10
220.6636280141
 20
337.1907320721
 11
221.7016002416
 21
339.7598034866
  0
LINE
  5
23C
100
AcDbEntity
  8
0
100
AcDbLine
 62
7
  6
CONTINUOUS
 10
218.7804043622
 20
332.1320098008
 11
219.272075516
 21
333.34893861
  0
LINE
  5
23D
100
AcDbEntity
  8
0
100
AcDbLine
 62
7
  6
CONTINUOUS
 10
220.5376639999
 20
334.0958979045
 11
220.8654447691
 21
334.9071837773
  0
LINE
  5
23E
100
AcDbEntity
  8
0
100
AcDbLine
 62
7
  6
CONTINUOUS
 10
223.7729685673
 20
338.9229163597
 11
222.7349963398
 21
336.3538449451
  0
LINE
  5
23F
100
AcDbEntity
  8
0
100
AcDbLine
 62
7
  6
CONTINUOUS
 10
223.5635435153
 20
336.0190901569
 11
224.546885823
 21
338.4529477751
  0
LINE
  5
240
100
AcDbEntity
  8
0
100
AcDbLine
 62
7
  6
CONTINUOUS
 10
224.0309021112
 20
329.2242388284
 11
224.4421441686
 21
329.8445184352
  0
LINE
  5
241
100
AcDbEntity
  8
0
100
AcDbLine
 62
7
  6
CONTINUOUS
 10
274.8042978717
 20
332.0333244294
 11
275.6328452406
 21
332.3680792958
  0
LINE
  5
242
100
AcDbEntity
  8
0
100
AcDbLine
 62
7
  6
CONTINUOUS
 10
277.7269806694
 20
331.9558742463
 11
277.1746158857
 21
331.7327043875
  0
LINE
  5
243
100
AcDbEntity
  8
0
100
AcDbLine
 62
7
  6
CONTINUOUS
 10
279.2687515451
 20
331.3204998812
 11
278.1640215909
 21
330.8741600072
  0
LINE
  5
244
100
AcDbEntity
  8
0
100
AcDbLine
 62
7
  6
CONTINUOUS
 10
277.6116568072
 20
330.6509901484
 11
274.8498325986
 21
329.535140737
  0
LINE
  5
245
100
AcDbEntity
  8
0
100
AcDbLine
 62
7
  6
CONTINUOUS
 10
275.3991659366
 20
328.9706536291
 11
277.8848076566
 21
329.974918072
  0
LINE
  5
246
100
AcDbEntity
  8
0
100
AcDbLine
 62
7
  6
CONTINUOUS
 10
278.4371724403
 20
330.1980879308
 11
279.5419023945
 21
330.6444278048
  0
LINE
  5
247
100
AcDbEntity
  8
0
100
AcDbLine
 62
7
  6
CONTINUOUS
 10
274.5099249379
 20
327.1958000947
 11
275.0622897699
 21
327.4189699731
  0
LINE
  5
248
100
AcDbEntity
  8
0
100
AcDbLine
 62
7
  6
CONTINUOUS
 10
278.4857389627
 20
328.4875608965
 11
279.0381037464
 21
328.7107307554
  0
LINE
  5
249
100
AcDbEntity
  8
0
100
AcDbLine
 62
7
  6
CONTINUOUS
 10
217.8167975331
 20
331.734900048
 11
217.9518571867
 21
332.4667645891
  0
LINE
  5
24A
100
AcDbEntity
  8
0
100
AcDbLine
 62
7
  6
CONTINUOUS
 10
220.3206303011
 20
326.0046968954
 11
219.3372879543
 21
323.5708391804
  0
LINE
  5
24B
100
AcDbEntity
  8
0
100
AcDbLine
 62
7
  6
CONTINUOUS
 10
224.0415424687
 20
333.6239570108
 11
223.7137616995
 21
332.8126711381
  0
LINE
  5
24C
100
AcDbEntity
  8
0
100
AcDbLine
 62
7
  6
CONTINUOUS
 10
219.8350225838
 20
323.212454945
 11
220.9276251609
 21
325.9167412197
  0
LINE
  5
24D
100
AcDbEntity
  8
0
100
AcDbLine
 62
7
  6
CONTINUOUS
 10
224.1052680502
 20
331.3962020716
 11
223.6135968964
 21
330.1792732625
  0
LINE
  5
24E
100
AcDbEntity
  8
0
100
AcDbLine
 62
7
  6
CONTINUOUS
 10
220.9458158592
 20
321.1908022013
 11
221.2735966284
 21
322.0020880741
  0
LINE
  5
24F
100
AcDbEntity
  8
0
100
AcDbLine
 62
7
  6
CONTINUOUS
 10
222.8032401661
 20
325.7880886846
 11
223.1310209354
 21
326.5993745573
  0
LINE
  5
250
100
AcDbEntity
  8
0
100
AcDbLine
 62
7
  6
CONTINUOUS
 10
224.4421441686
 20
329.8445184352
 11
224.9338153225
 21
331.0614472443
  0
LINE
  5
251
100
AcDbEntity
  8
0
100
AcDbLine
 62
7
  6
CONTINUOUS
 10
226.1356779346
 20
334.0361615952
 11
226.4634590165
 21
334.8474482417
  0
LINE
  5
252
100
AcDbEntity
  8
RUNDUNGEN
100
AcDbLine
 62
7
  6
CONTINUOUS
 10
225.7472420092
 20
319.9017479364
 11
229.7432688675
 21
329.7922614793
  0
LINE
  5
253
100
AcDbEntity
  8
0
100
AcDbLine
 62
7
  6
CONTINUOUS
 10
213.5429124463
 20
294.9069478396
 11
213.5429124463
 21
295.8134491818
  0
LINE
  5
254
100
AcDbEntity
  8
0
100
AcDbLine
 62
7
  6
CONTINUOUS
 10
213.5429124463
 20
299.97037112
 11
213.5429124463
 21
300.8768724622
  0
LINE
  5
255
100
AcDbEntity
  8
0
100
AcDbLine
 62
7
  6
CONTINUOUS
 10
218.6999749411
 20
331.5353598297
 11
218.7804043622
 21
332.1320098008
  0
LINE
  5
256
100
AcDbEntity
  8
0
100
AcDbLine
 62
7
  6
CONTINUOUS
 10
224.1856971588
 20
331.992851269
 11
224.1052680502
 21
331.3962020716
  0
LINE
  5
257
100
AcDbEntity
  8
0
100
AcDbLine
 62
7
  6
CONTINUOUS
 10
224.546885823
 20
338.4529477751
 11
224.6819448513
 21
339.1848107688
  0
LINE
  5
258
100
AcDbEntity
  8
0
100
AcDbLine
 62
7
  6
CONTINUOUS
 10
224.9338153225
 20
331.0614472443
 11
225.0688746513
 21
331.7933110166
  0
LWPOLYLINE
  5
259
100
AcDbEntity
  8
RUNDUNGEN
100
AcDbPolyline
 62
7
  6
CONTINUOUS
 90
13
 70
0
 10
223.5344477247
 20
284.4478691514
 10
223.5902299587
 20
284.560144327
 10
223.6574224756
 20
284.6659881645
 10
223.7352922013
 20
284.764245039
 10
223.822989702
 20
284.8538423436
 10
223.9195583059
 20
284.9338018687
 10
224.0239441143
 20
285.003250216
 10
224.1350078533
 20
285.0614287646
 10
224.2515373578
 20
285.1077019388
 10
224.3722606859
 20
285.1415640752
 10
224.4958600215
 20
285.1626449723
 10
224.6209860574
 20
285.1707139463
 10
224.6355412937
 20
285.1708022224
  0
LINE
  5
25A
100
AcDbEntity
  8
0
100
AcDbLine
 62
7
  6
CONTINUOUS
 10
274.8498325986
 20
329.535140737
 11
274.4067282314
 21
329.0415417186
  0
LINE
  5
25B
100
AcDbEntity
  8
0
100
AcDbLine
 62
7
  6
CONTINUOUS
 10
275.039522172
 20
328.6680623996
 11
275.3991659366
 21
328.9706536291
  0
LINE
  5
25C
100
AcDbEntity
  8
RUNDUNGEN
100
AcDbLine
 62
7
  6
CONTINUOUS
 10
204.1122423853
 20
301.3908835771
 11
207.1180746209
 21
288.3711937666
  0
LINE
  5
25D
100
AcDbEntity
  8
0
100
AcDbLine
 62
7
  6
CONTINUOUS
 10
217.8167975331
 20
331.734900048
 11
217.8744596206
 21
331.0824583859
  0
LINE
  5
25E
100
AcDbEntity
  8
0
100
AcDbLine
 62
7
  6
CONTINUOUS
 10
218.0429124463
 20
297.4419101509
 11
218.0429124463
 21
298.3484114931
  0
LINE
  5
25F
100
AcDbEntity
  8
0
100
AcDbLine
 62
7
  6
CONTINUOUS
 10
218.6429124463
 20
294.9069478396
 11
218.6429124463
 21
295.8134491818
  0
LINE
  5
260
100
AcDbEntity
  8
0
100
AcDbLine
 62
7
  6
CONTINUOUS
 10
218.6429124463
 20
299.97037112
 11
218.6429124463
 21
300.8768724622
  0
LINE
  5
261
100
AcDbEntity
  8
RUNDUNGEN
100
AcDbLine
 62
7
  6
CONTINUOUS
 10
223.8358158592
 20
285.9208022013
 11
223.8358158592
 21
287.2129456917
  0
LINE
  5
262
100
AcDbEntity
  8
RUNDUNGEN
100
AcDbLine
 62
7
  6
CONTINUOUS
 10
223.8358158592
 20
299.6286097853
 11
223.8358158592
 21
310.0682922519
  0
LINE
  5
263
100
AcDbEntity
  8
RUNDUNGEN
100
AcDbLine
 62
7
  6
CONTINUOUS
 10
224.8358158592
 20
311.6458022013
 11
224.8358158592
 21
284.8458022013
  0
LINE
  5
264
100
AcDbEntity
  8
0
100
AcDbLine
 62
7
  6
CONTINUOUS
 10
226.0858158592
 20
284.3458022013
 11
226.0858158592
 21
277.7458022013
  0
LINE
  5
265
100
AcDbEntity
  8
0
100
AcDbLine
 62
7
  6
CONTINUOUS
 10
226.8358158592
 20
321.2458022013
 11
226.8358158592
 21
316.2458022013
  0
LINE
  5
266
100
AcDbEntity
  8
0
100
AcDbLine
 62
7
  6
CONTINUOUS
 10
223.798767756
 20
339.3843517608
 11
223.7729685673
 21
338.9229163597
  0
LINE
  5
267
100
AcDbEntity
  8
0
100
AcDbLine
 62
7
  6
CONTINUOUS
 10
225.0688746513
 20
331.7933110166
 11
225.0112128402
 21
332.4457534671
  0
LINE
  5
268
100
AcDbEntity
  8
0
100
AcDbLine
 62
7
  6
CONTINUOUS
 10
229.7357127569
 20
315.6458022013
 11
229.7357127569
 21
313.6458022013
  0
LINE
  5
269
100
AcDbEntity
  8
KONSTRUKTIONSELEMENTE
100
AcDbLine
 62
7
  6
CONTINUOUS
 10
230.0858158592
 20
141.2458022013
 11
230.0858158592
 21
145.2458022013
  0
LINE
  5
26A
100
AcDbEntity
  8
KONSTRUKTIONSELEMENTE
100
AcDbLine
 62
7
  6
CONTINUOUS
 10
231.2653077835
 20
139.9060562392
 11
231.2653077835
 21
127.316310277
  0
LINE
  5
26B
100
AcDbEntity
  8
BEZUGSACHSEN
100
AcDbLine
 62
7
  6
CONTINUOUS
 10
231.2653077835
 20
321.7458022013
 11
231.2653077835
 21
332.2825796484
  0
LINE
  5
26C
100
AcDbEntity
  8
0
100
AcDbLine
 62
7
  6
CONTINUOUS
 10
231.2661713072
 20
313.6458022013
 11
231.2661713072
 21
315.6458022013
  0
LINE
  5
26D
100
AcDbEntity
  8
KONSTRUKTIONSELEMENTE
100
AcDbLine
 62
7
  6
CONTINUOUS
 10
234.5858158592
 20
321.2458022013
 11
234.5858158592
 21
321.7458022013
  0
LINE
  5
26E
100
AcDbEntity
  8
BEZUGSACHSEN
100
AcDbLine
 62
7
  6
CONTINUOUS
 10
234.5858158592
 20
321.2458022013
 11
234.5858158592
 21
321.7458022013
  0
LINE
  5
26F
100
AcDbEntity
  8
0
100
AcDbLine
 62
7
  6
CONTINUOUS
 10
236.0858158592
 20
316.2458022013
 11
236.0858158592
 21
313.9090730364
  0
LINE
  5
270
100
AcDbEntity
  8
0
100
AcDbLine
 62
7
  6
CONTINUOUS
 10
236.0858158592
 20
284.8458022013
 11
236.0858158592
 21
284.3458022013
  0
LINE
  5
271
100
AcDbEntity
  8
BEZUGSACHSEN
100
AcDbLine
 62
7
  6
CONTINUOUS
 10
238.5858158592
 20
277.7458022013
 11
238.5858158592
 21
145.2458022013
  0
LINE
  5
272
100
AcDbEntity
  8
BEZUGSACHSEN
100
AcDbLine
 62
7
  6
CONTINUOUS
 10
238.5858158592
 20
121.2458022013
 11
238.5858158592
 21
92.7458022013
  0
LINE
  5
273
100
AcDbEntity
  8
0
100
AcDbLine
 62
7
  6
CONTINUOUS
 10
218.8122669483
 20
331.0181319639
 11
218.6999749411
 21
331.5353598297
  0
LINE
  5
274
100
AcDbEntity
  8
KONSTRUKTIONSELEMENTE
100
AcDbLine
 62
7
  6
CONTINUOUS
 10
239.9255618214
 20
139.9060562392
 11
239.9255618214
 21
127.316310277
  0
LINE
  5
275
100
AcDbEntity
  8
BEZUGSACHSEN
100
AcDbLine
 62
7
  6
CONTINUOUS
 10
239.9255618214
 20
321.7458022013
 11
239.9255618214
 21
332.4060562392
  0
LINE
  5
276
100
AcDbEntity
  8
0
100
AcDbLine
 62
7
  6
CONTINUOUS
 10
242.5041255026
 20
333.7458022013
 11
242.5041255026
 21
333.9458022013
  0
LINE
  5
277
100
AcDbEntity
  8
0
100
AcDbLine
 62
7
  6
CONTINUOUS
 10
242.5867954055
 20
333.7458022013
 11
242.5867954055
 21
333.9458022013
  0
LINE
  5
278
100
AcDbEntity
  8
0
100
AcDbLine
 62
7
  6
CONTINUOUS
 10
242.7813998036
 20
333.7458022013
 11
242.7813998036
 21
333.9458022013
  0
LINE
  5
279
100
AcDbEntity
  8
0
100
AcDbLine
 62
7
  6
CONTINUOUS
 10
243.0887937433
 20
333.7458022013
 11
243.0887937433
 21
333.9458022013
  0
LINE
  5
27A
100
AcDbEntity
  8
0
100
AcDbLine
 62
7
  6
CONTINUOUS
 10
243.4530093364
 20
333.7458022013
 11
243.4530093364
 21
333.9458022013
  0
LINE
  5
27B
100
AcDbEntity
  8
0
100
AcDbLine
 62
7
  6
CONTINUOUS
 10
243.8180799759
 20
333.7458022013
 11
243.8180799759
 21
333.9458022013
  0
LINE
  5
27C
100
AcDbEntity
  8
0
100
AcDbLine
 62
7
  6
CONTINUOUS
 10
244.0712148393
 20
333.7458022013
 11
244.0712148393
 21
333.9458022013
  0
LINE
  5
27D
100
AcDbEntity
  8
0
100
AcDbLine
 62
7
  6
CONTINUOUS
 10
244.2967926414
 20
333.7458022013
 11
244.2967926414
 21
333.9458022013
  0
LINE
  5
27E
100
AcDbEntity
  8
0
100
AcDbLine
 62
7
  6
CONTINUOUS
 10
244.4379930893
 20
333.7458022013
 11
244.4379930893
 21
333.9458022013
  0
LINE
  5
27F
100
AcDbEntity
  8
0
100
AcDbLine
 62
7
  6
CONTINUOUS
 10
244.6360138301
 20
333.7458022013
 11
244.6360138301
 21
333.9458022013
  0
LINE
  5
280
100
AcDbEntity
  8
0
100
AcDbLine
 62
7
  6
CONTINUOUS
 10
244.8917112707
 20
333.7458022013
 11
244.8917112707
 21
333.9458022013
  0
LINE
  5
281
100
AcDbEntity
  8
0
100
AcDbLine
 62
7
  6
CONTINUOUS
 10
244.9777988372
 20
333.7458022013
 11
244.9777988372
 21
333.9458022013
  0
LINE
  5
282
100
AcDbEntity
  8
0
100
AcDbLine
 62
7
  6
CONTINUOUS
 10
245.0070634293
 20
333.7458022013
 11
245.0070634293
 21
333.9458022013
  0
LINE
  5
283
100
AcDbEntity
  8
0
100
AcDbLine
 62
7
  6
CONTINUOUS
 10
245.5383631737
 20
333.7458022013
 11
245.5383631737
 21
333.9458022013
  0
LINE
  5
284
100
AcDbEntity
  8
0
100
AcDbLine
 62
7
  6
CONTINUOUS
 10
245.5575073769
 20
333.7458022013
 11
245.5575073769
 21
333.9458022013
  0
LINE
  5
285
100
AcDbEntity
  8
0
100
AcDbLine
 62
7
  6
CONTINUOUS
 10
245.7615391189
 20
333.7458022013
 11
245.7615391189
 21
333.9458022013
  0
LINE
  5
286
100
AcDbEntity
  8
0
100
AcDbLine
 62
7
  6
CONTINUOUS
 10
245.9868126436
 20
333.7458022013
 11
245.9868126436
 21
333.9458022013
  0
LINE
  5
287
100
AcDbEntity
  8
0
100
AcDbLine
 62
7
  6
CONTINUOUS
 10
246.3459640084
 20
333.7458022013
 11
246.3459640084
 21
333.9458022013
  0
LINE
  5
288
100
AcDbEntity
  8
0
100
AcDbLine
 62
7
  6
CONTINUOUS
 10
246.5924779055
 20
333.7458022013
 11
246.5924779055
 21
333.9458022013
  0
LINE
  5
289
100
AcDbEntity
  8
0
100
AcDbLine
 62
7
  6
CONTINUOUS
 10
247.0345002327
 20
333.7458022013
 11
247.0345002327
 21
333.9458022013
  0
LINE
  5
28A
100
AcDbEntity
  8
0
100
AcDbLine
 62
7
  6
CONTINUOUS
 10
247.3022573233
 20
333.7458022013
 11
247.3022573233
 21
333.9458022013
  0
LINE
  5
28B
100
AcDbEntity
  8
0
100
AcDbLine
 62
7
  6
CONTINUOUS
 10
247.5912547861
 20
333.7458022013
 11
247.5912547861
 21
333.9458022013
  0
LINE
  5
28C
100
AcDbEntity
  8
0
100
AcDbLine
 62
7
  6
CONTINUOUS
 10
247.6953675314
 20
333.7458022013
 11
247.6953675314
 21
333.9458022013
  0
LINE
  5
28D
100
AcDbEntity
  8
0
100
AcDbLine
 62
7
  6
CONTINUOUS
 10
248.0862443975
 20
333.7458022013
 11
248.0862443975
 21
333.9458022013
  0
LINE
  5
28E
100
AcDbEntity
  8
0
100
AcDbLine
 62
7
  6
CONTINUOUS
 10
248.1393488621
 20
333.7458022013
 11
248.1393488621
 21
333.9458022013
  0
LINE
  5
28F
100
AcDbEntity
  8
0
100
AcDbLine
 62
7
  6
CONTINUOUS
 10
248.6613882538
 20
333.7458022013
 11
248.6613882538
 21
333.9458022013
  0
LINE
  5
290
100
AcDbEntity
  8
0
100
AcDbLine
 62
7
  6
CONTINUOUS
 10
249.1602195881
 20
333.7458022013
 11
249.1602195881
 21
333.9458022013
  0
LINE
  5
291
100
AcDbEntity
  8
0
100
AcDbLine
 62
7
  6
CONTINUOUS
 10
249.7148890621
 20
333.7458022013
 11
249.7148890621
 21
333.9458022013
  0
LINE
  5
292
100
AcDbEntity
  8
0
100
AcDbLine
 62
7
  6
CONTINUOUS
 10
224.6819448513
 20
339.1848107688
 11
224.4861921932
 21
339.8930464431
  0
LINE
  5
293
100
AcDbEntity
  8
RUNDUNGEN
100
AcDbLine
 62
7
  6
CONTINUOUS
 10
211.2904882838
 20
371.6381345321
 11
217.6958773126
 21
347.7328972347
  0
LINE
  5
294
100
AcDbEntity
  8
0
100
AcDbLine
 62
7
  6
CONTINUOUS
 10
224.1856971588
 20
331.992851269
 11
224.0734050548
 21
332.5100791739
  0
LINE
  5
295
100
AcDbEntity
  8
0
100
AcDbLine
 62
7
  6
CONTINUOUS
 10
250.1935740155
 20
333.7458022013
 11
250.1935740155
 21
333.9458022013
  0
LINE
  5
296
100
AcDbEntity
  8
0
100
AcDbLine
 62
7
  6
CONTINUOUS
 10
251.5637873088
 20
333.7458022013
 11
251.5637873088
 21
333.9458022013
  0
LINE
  5
297
100
AcDbEntity
  8
0
100
AcDbLine
 62
7
  6
CONTINUOUS
 10
252.1184567828
 20
333.7458022013
 11
252.1184567828
 21
333.9458022013
  0
LINE
  5
298
100
AcDbEntity
  8
0
100
AcDbLine
 62
7
  6
CONTINUOUS
 10
255.1170746053
 20
333.7458022013
 11
255.1170746053
 21
333.9458022013
  0
LINE
  5
299
100
AcDbEntity
  8
0
100
AcDbLine
 62
7
  6
CONTINUOUS
 10
255.1387266672
 20
333.7458022013
 11
255.1387266672
 21
333.9458022013
  0
LINE
  5
29A
100
AcDbEntity
  8
0
100
AcDbLine
 62
7
  6
CONTINUOUS
 10
255.2442290886
 20
333.7458022013
 11
255.2442290886
 21
333.9458022013
  0
LINE
  5
29B
100
AcDbEntity
  8
0
100
AcDbLine
 62
7
  6
CONTINUOUS
 10
255.4389954309
 20
333.7458022013
 11
255.4389954309
 21
333.9458022013
  0
LINE
  5
29C
100
AcDbEntity
  8
0
100
AcDbLine
 62
7
  6
CONTINUOUS
 10
256.1490700387
 20
333.7458022013
 11
256.1490700387
 21
333.9458022013
  0
LINE
  5
29D
100
AcDbEntity
  8
0
100
AcDbLine
 62
7
  6
CONTINUOUS
 10
256.4276868566
 20
333.7458022013
 11
256.4276868566
 21
333.9458022013
  0
LINE
  5
29E
100
AcDbEntity
  8
0
100
AcDbLine
 62
7
  6
CONTINUOUS
 10
256.7008908904
 20
333.7458022013
 11
256.7008908904
 21
333.9458022013
  0
LINE
  5
29F
100
AcDbEntity
  8
0
100
AcDbLine
 62
7
  6
CONTINUOUS
 10
257.0579452672
 20
333.7458022013
 11
257.0579452672
 21
333.9458022013
  0
LINE
  5
2A0
100
AcDbEntity
  8
KONSTRUKTIONSELEMENTE
100
AcDbLine
 62
7
  6
CONTINUOUS
 10
257.2460698971
 20
139.9060562392
 11
257.2460698971
 21
127.316310277
  0
LINE
  5
2A1
100
AcDbEntity
  8
BEZUGSACHSEN
100
AcDbLine
 62
7
  6
CONTINUOUS
 10
257.2460698971
 20
321.7458022013
 11
257.2460698971
 21
332.4060562392
  0
LINE
  5
2A2
100
AcDbEntity
  8
0
100
AcDbLine
 62
7
  6
CONTINUOUS
 10
257.3203230385
 20
333.7458022013
 11
257.3203230385
 21
333.9458022013
  0
LINE
  5
2A3
100
AcDbEntity
  8
0
100
AcDbLine
 62
7
  6
CONTINUOUS
 10
257.5772881583
 20
333.7458022013
 11
257.5772881583
 21
333.9458022013
  0
LINE
  5
2A4
100
AcDbEntity
  8
0
100
AcDbLine
 62
7
  6
CONTINUOUS
 10
258.5834961123
 20
333.7458022013
 11
258.5834961123
 21
333.9458022013
  0
LINE
  5
2A5
100
AcDbEntity
  8
BEZUGSACHSEN
100
AcDbLine
 62
7
  6
CONTINUOUS
 10
258.5858158592
 20
92.7458022013
 11
258.5858158592
 21
121.2458022013
  0
LINE
  5
2A6
100
AcDbEntity
  8
BEZUGSACHSEN
100
AcDbLine
 62
7
  6
CONTINUOUS
 10
258.5858158592
 20
145.2458022013
 11
258.5858158592
 21
277.7458022013
  0
LINE
  5
2A7
100
AcDbEntity
  8
0
100
AcDbLine
 62
7
  6
CONTINUOUS
 10
259.3560671634
 20
333.7458022013
 11
259.3560671634
 21
333.9458022013
  0
LINE
  5
2A8
100
AcDbEntity
  8
0
100
AcDbLine
 62
7
  6
CONTINUOUS
 10
259.5116459954
 20
333.7458022013
 11
259.5116459954
 21
333.9458022013
  0
LINE
  5
2A9
100
AcDbEntity
  8
0
100
AcDbLine
 62
7
  6
CONTINUOUS
 10
260.1339613235
 20
333.7458022013
 11
260.1339613235
 21
333.9458022013
  0
LINE
  5
2AA
100
AcDbEntity
  8
0
100
AcDbLine
 62
7
  6
CONTINUOUS
 10
260.2895402297
 20
333.7458022013
 11
260.2895402297
 21
333.9458022013
  0
LINE
  5
2AB
100
AcDbEntity
  8
0
100
AcDbLine
 62
7
  6
CONTINUOUS
 10
260.4722508591
 20
333.7458022013
 11
260.4722508591
 21
333.9458022013
  0
LINE
  5
2AC
100
AcDbEntity
  8
0
100
AcDbLine
 62
7
  6
CONTINUOUS
 10
260.6938639158
 20
333.7458022013
 11
260.6938639158
 21
333.9458022013
  0
LINE
  5
2AD
100
AcDbEntity
  8
0
100
AcDbLine
 62
7
  6
CONTINUOUS
 10
260.796762154
 20
333.7458022013
 11
260.796762154
 21
333.9458022013
  0
LINE
  5
2AE
100
AcDbEntity
  8
0
100
AcDbLine
 62
7
  6
CONTINUOUS
 10
260.9867584326
 20
333.7458022013
 11
260.9867584326
 21
333.9458022013
  0
LINE
  5
2AF
100
AcDbEntity
  8
0
100
AcDbLine
 62
7
  6
CONTINUOUS
 10
261.0858158592
 20
316.2458022013
 11
261.0858158592
 21
313.9088299061
  0
LINE
  5
2B0
100
AcDbEntity
  8
0
100
AcDbLine
 62
7
  6
CONTINUOUS
 10
261.0858158592
 20
284.8458022013
 11
261.0858158592
 21
284.3458022013
  0
LINE
  5
2B1
100
AcDbEntity
  8
0
100
AcDbLine
 62
7
  6
CONTINUOUS
 10
274.4067282314
 20
329.0415417186
 11
274.2944362
 21
328.524313843
  0
LINE
  5
2B2
100
AcDbEntity
  8
0
100
AcDbLine
 62
7
  6
CONTINUOUS
 10
274.9272301647
 20
328.1508345338
 11
275.039522172
 21
328.6680623996
  0
LINE
  5
2B3
100
AcDbEntity
  8
RUNDUNGEN
100
AcDbLine
 62
7
  6
CONTINUOUS
 10
279.4757544058
 20
347.7328972347
 11
285.8811434346
 21
371.6381345321
  0
LINE
  5
2B4
100
AcDbEntity
  8
0
100
AcDbLine
 62
7
  6
CONTINUOUS
 10
217.8744596206
 20
331.0824583859
 11
218.2083037872
 21
330.3184310206
  0
LINE
  5
2B5
100
AcDbEntity
  8
0
100
AcDbLine
 62
7
  6
CONTINUOUS
 10
225.0112128402
 20
332.4457534671
 11
224.6773683126
 21
333.2097800782
  0
LINE
  5
2B6
100
AcDbEntity
  8
0
100
AcDbLine
 62
7
  6
CONTINUOUS
 10
223.6318458289
 20
339.7663658302
 11
223.798767756
 21
339.3843517608
  0
LINE
  5
2B7
100
AcDbEntity
  8
KONSTRUKTIONSELEMENTE
100
AcDbLine
 62
7
  6
CONTINUOUS
 10
262.5858158592
 20
321.2458022013
 11
262.5858158592
 21
321.7458022013
  0
LINE
  5
2B8
100
AcDbEntity
  8
BEZUGSACHSEN
100
AcDbLine
 62
7
  6
CONTINUOUS
 10
262.5858158592
 20
321.2458022013
 11
262.5858158592
 21
321.7458022013
  0
LINE
  5
2B9
100
AcDbEntity
  8
0
100
AcDbLine
 62
7
  6
CONTINUOUS
 10
265.9054604112
 20
313.6458022013
 11
265.9054604112
 21
315.6458022013
  0
LINE
  5
2BA
100
AcDbEntity
  8
KONSTRUKTIONSELEMENTE
100
AcDbLine
 62
7
  6
CONTINUOUS
 10
265.9063239349
 20
139.9060562392
 11
265.9063239349
 21
127.316310277
  0
LINE
  5
2BB
100
AcDbEntity
  8
BEZUGSACHSEN
100
AcDbLine
 62
7
  6
CONTINUOUS
 10
265.9063239349
 20
321.7458022013
 11
265.9063239349
 21
332.2825796485
  0
LINE
  5
2BC
100
AcDbEntity
  8
KONSTRUKTIONSELEMENTE
100
AcDbLine
 62
7
  6
CONTINUOUS
 10
267.0858158592
 20
141.2458022013
 11
267.0858158592
 21
145.2458022013
  0
LINE
  5
2BD
100
AcDbEntity
  8
0
100
AcDbLine
 62
7
  6
CONTINUOUS
 10
267.4359189615
 20
315.6458022013
 11
267.4359189615
 21
313.6458022013
  0
LINE
  5
2BE
100
AcDbEntity
  8
0
100
AcDbLine
 62
7
  6
CONTINUOUS
 10
270.3358158592
 20
321.2458022013
 11
270.3358158592
 21
316.2458022013
  0
LINE
  5
2BF
100
AcDbEntity
  8
0
100
AcDbLine
 62
7
  6
CONTINUOUS
 10
271.0858158592
 20
284.3458022013
 11
271.0858158592
 21
277.7458022013
  0
LINE
  5
2C0
100
AcDbEntity
  8
0
100
AcDbLine
 62
7
  6
CONTINUOUS
 10
219.1172807707
 20
330.5803260472
 11
218.8122669483
 21
331.0181319639
  0
LINE
  5
2C1
100
AcDbEntity
  8
0
100
AcDbLine
 62
7
  6
CONTINUOUS
 10
274.2944362
 20
328.524313843
 11
274.3202353766
 21
328.0628784371
  0
LINE
  5
2C2
100
AcDbEntity
  8
RUNDUNGEN
100
AcDbLine
 62
7
  6
CONTINUOUS
 10
272.3358158592
 20
311.6458022013
 11
272.3358158592
 21
284.8458022013
  0
LINE
  5
2C3
100
AcDbEntity
  8
RUNDUNGEN
100
AcDbLine
 62
7
  6
CONTINUOUS
 10
273.3358158592
 20
287.212945757
 11
273.3358158592
 21
285.9208022013
  0
LINE
  5
2C4
100
AcDbEntity
  8
RUNDUNGEN
100
AcDbLine
 62
7
  6
CONTINUOUS
 10
273.3358158592
 20
299.6286541142
 11
273.3358158592
 21
310.068292059
  0
LINE
  5
2C5
100
AcDbEntity
  8
RUNDUNGEN
100
AcDbLine
 62
7
  6
CONTINUOUS
 10
290.0535570975
 20
288.3711937666
 11
293.0593893331
 21
301.3908835771
  0
LINE
  5
2C6
100
AcDbEntity
  8
0
100
AcDbLine
 62
7
  6
CONTINUOUS
 10
271.0858158592
 20
277.7458022013
 11
226.0858158592
 21
277.7458022013
  0
LINE
  5
2C7
100
AcDbEntity
  8
RUNDUNGEN
100
AcDbLine
 62
7
  6
CONTINUOUS
 10
214.9130351392
 20
282.1708022013
 11
220.0858158592
 21
282.1708022013
  0
LINE
  5
2C8
100
AcDbEntity
  8
RUNDUNGEN
100
AcDbLine
 62
7
  6
CONTINUOUS
 10
277.0858158592
 20
282.1708022013
 11
282.2585965792
 21
282.1708022013
  0
LINE
  5
2C9
100
AcDbEntity
  8
0
100
AcDbLine
 62
7
  6
CONTINUOUS
 10
271.0858158592
 20
284.3458022013
 11
226.0858158592
 21
284.3458022013
  0
LINE
  5
2CA
100
AcDbEntity
  8
RUNDUNGEN
100
AcDbLine
 62
7
  6
CONTINUOUS
 10
224.8358158592
 20
284.8458022013
 11
272.3358158592
 21
284.8458022013
  0
LINE
  5
2CB
100
AcDbEntity
  8
0
100
AcDbLine
 62
7
  6
CONTINUOUS
 10
272.5351729299
 20
285.1708022013
 11
272.3358158592
 21
285.1708022013
  0
LINE
  5
2CC
100
AcDbEntity
  8
BEZUGSACHSEN
100
AcDbLine
 62
7
  6
CONTINUOUS
 10
224.8358158592
 20
285.1708022013
 11
224.6359716326
 21
285.1708022013
  0
LWPOLYLINE
  5
2CD
100
AcDbEntity
  8
RUNDUNGEN
100
AcDbPolyline
 62
7
  6
CONTINUOUS
 90
13
 70
0
 10
272.5360897928
 20
285.1708023067
 10
272.5507729783
 20
285.1707124716
 10
272.6760200554
 20
285.1626158465
 10
272.799729643
 20
285.1414833058
 10
272.9205489676
 20
285.1075481376
 10
273.0371572402
 20
285.0611835763
 10
273.1482800867
 20
285.0028986656
 10
273.2527035513
 20
284.9333325735
 10
273.3492868916
 20
284.8532478917
 10
273.4369752424
 20
284.7635223545
 10
273.5148125578
 20
284.6651374888
 10
273.5819503092
 20
284.5591689562
 10
273.6376561487
 20
284.446776135
  0
LINE
  5
2CE
100
AcDbEntity
  8
0
100
AcDbLine
 62
7
  6
CONTINUOUS
 10
218.2083037872
 20
330.3184310206
 11
218.6514084187
 21
329.8248327954
  0
LINE
  5
2CF
100
AcDbEntity
  8
0
100
AcDbLine
 62
7
  6
CONTINUOUS
 10
224.4861921932
 20
339.8930464431
 11
224.0977177941
 21
340.5218592383
  0
LINE
  5
2D0
100
AcDbEntity
  8
0
100
AcDbLine
 62
7
  6
CONTINUOUS
 10
218.3284103574
 20
294.8920780635
 11
218.6429124463
 21
294.9069478396
  0
LINE
  5
2D1
100
AcDbEntity
  8
0
100
AcDbLine
 62
7
  6
CONTINUOUS
 10
213.2284103574
 20
294.8920780635
 11
213.5429124463
 21
294.9069478396
  0
LINE
  5
2D2
100
AcDbEntity
  8
0
100
AcDbLine
 62
7
  6
CONTINUOUS
 10
216.2916932966
 20
297.4419101509
 11
218.0429124463
 21
297.4419101509
  0
LINE
  5
2D3
100
AcDbEntity
  8
0
100
AcDbLine
 62
7
  6
CONTINUOUS
 10
219.3372879543
 20
323.5708391804
 11
216.100496199
 21
326.2941646744
  0
LINE
  5
2D4
100
AcDbEntity
  8
0
100
AcDbLine
 62
7
  6
CONTINUOUS
 10
221.2735966284
 20
322.0020880741
 11
219.8350225838
 21
323.212454945
  0
LINE
  5
2D5
100
AcDbEntity
  8
0
100
AcDbLine
 62
7
  6
CONTINUOUS
 10
223.7137616995
 20
332.8126711381
 11
224.0734050548
 21
332.5100791739
  0
LINE
  5
2D6
100
AcDbEntity
  8
0
100
AcDbLine
 62
7
  6
CONTINUOUS
 10
215.3296109546
 20
325.9764774137
 11
220.9458158592
 21
321.1908022013
  0
LINE
  5
2D7
100
AcDbEntity
  8
0
100
AcDbLine
 62
7
  6
CONTINUOUS
 10
274.3202353766
 20
328.0628784371
 11
274.5099249379
 21
327.1958000947
  0
LINE
  5
2D8
100
AcDbEntity
  8
0
100
AcDbLine
 62
7
  6
CONTINUOUS
 10
275.0622897699
 20
327.4189699731
 11
274.9272301647
 21
328.1508345338
  0
LINE
  5
2D9
100
AcDbEntity
  8
0
100
AcDbLine
 62
7
  6
CONTINUOUS
 10
218.0429124463
 20
298.3484114931
 11
216.2931303787
 21
298.3484114931
  0
LINE
  5
2DA
100
AcDbEntity
  8
RUNDUNGEN
100
AcDbLine
 62
7
  6
CONTINUOUS
 10
276.041137427
 20
307.0208022013
 11
274.3358158592
 21
307.0208022013
  0
LINE
  5
2DB
100
AcDbEntity
  8
RUNDUNGEN
100
AcDbLine
 62
7
  6
CONTINUOUS
 10
222.8358158592
 20
307.0208022013
 11
221.1304942338
 21
307.0208022013
  0
LINE
  5
2DC
100
AcDbEntity
  8
0
100
AcDbLine
 62
7
  6
CONTINUOUS
 10
218.6514084187
 20
329.8248327954
 11
219.2872345527
 21
329.4106557456
  0
LINE
  5
2DD
100
AcDbEntity
  8
0
100
AcDbLine
 62
7
  6
CONTINUOUS
 10
224.6773683126
 20
333.2097800782
 11
224.0415424687
 21
333.6239570108
  0
LINE
  5
2DE
100
AcDbEntity
  8
0
100
AcDbLine
 62
7
  6
CONTINUOUS
 10
219.615015322
 20
330.2219416183
 11
219.1172807707
 21
330.5803260472
  0
LINE
  5
2DF
100
AcDbEntity
  8
0
100
AcDbLine
 62
7
  6
CONTINUOUS
 10
223.272202161
 20
340.0689570207
 11
223.6318458289
 21
339.7663658302
  0
LINE
  5
2E0
100
AcDbEntity
  8
0
100
AcDbLine
 62
7
  6
CONTINUOUS
 10
224.0977177941
 20
340.5218592383
 11
223.7380741262
 21
340.8244504287
  0
LINE
  5
2E1
100
AcDbEntity
  8
RUNDUNGEN
100
AcDbLine
 62
7
  6
CONTINUOUS
 10
267.4283628498
 20
329.792261482
 11
271.4243897139
 21
319.9017479247
  0
LINE
  5
2E2
100
AcDbEntity
  8
0
100
AcDbLine
 62
7
  6
CONTINUOUS
 10
271.9969389362
 20
333.4156587103
 11
272.3247197054
 21
332.6043728376
  0
LINE
  5
2E3
100
AcDbEntity
  8
0
100
AcDbLine
 62
7
  6
CONTINUOUS
 10
272.6190927955
 20
337.4418967854
 11
273.9302158725
 21
334.1967532944
  0
LINE
  5
2E4
100
AcDbEntity
  8
0
100
AcDbLine
 62
7
  6
CONTINUOUS
 10
274.8042978717
 20
332.0333244294
 11
274.2579966417
 21
333.3854674217
  0
LINE
  5
2E5
100
AcDbEntity
  8
0
100
AcDbLine
 62
7
  6
CONTINUOUS
 10
275.6328452406
 20
332.3680792958
 11
275.0865440107
 21
333.7202222881
  0
LINE
  5
2E6
100
AcDbEntity
  8
0
100
AcDbLine
 62
7
  6
CONTINUOUS
 10
274.7587632414
 20
334.5315081608
 11
273.8300510489
 21
336.8301514992
  0
LINE
  5
2E7
100
AcDbEntity
  8
0
100
AcDbLine
 62
7
  6
CONTINUOUS
 10
277.1746158857
 20
331.7327043875
 11
277.6116568072
 21
330.6509901484
  0
LINE
  5
2E8
100
AcDbEntity
  8
0
100
AcDbLine
 62
7
  6
CONTINUOUS
 10
277.8848076566
 20
329.974918072
 11
278.4857389627
 21
328.4875608965
  0
LINE
  5
2E9
100
AcDbEntity
  8
0
100
AcDbLine
 62
7
  6
CONTINUOUS
 10
279.0381037464
 20
328.7107307554
 11
278.4371724403
 21
330.1980879308
  0
LINE
  5
2EA
100
AcDbEntity
  8
0
100
AcDbLine
 62
7
  6
CONTINUOUS
 10
278.1640215909
 20
330.8741600072
 11
277.7269806694
 21
331.9558742463
  0
LINE
  5
2EB
100
AcDbEntity
  8
RUNDUNGEN
100
AcDbLine
 62
7
  6
CONTINUOUS
 10
270.3358158592
 20
313.6458022013
 11
261.710836488
 21
313.6458022013
  0
LINE
  5
2EC
100
AcDbEntity
  8
RUNDUNGEN
100
AcDbLine
 62
7
  6
CONTINUOUS
 10
235.4607913834
 20
313.6458022013
 11
226.8358158592
 21
313.6458022013
  0
LINE
  5
2ED
100
AcDbEntity
  8
0
100
AcDbLine
 62
7
  6
CONTINUOUS
 10
221.7451703931
 20
313.6458022013
 11
226.8358158592
 21
313.6458022013
  0
LINE
  5
2EE
100
AcDbEntity
  8
0
100
AcDbLine
 62
7
  6
CONTINUOUS
 10
270.3358158592
 20
313.6458022013
 11
275.4264613253
 21
313.6458022013
  0
LINE
  5
2EF
100
AcDbEntity
  8
0
100
AcDbLine
 62
7
  6
CONTINUOUS
 10
221.7451703931
 20
315.6458022013
 11
233.5717867939
 21
315.6458022013
  0
LINE
  5
2F0
100
AcDbEntity
  8
0
100
AcDbLine
 62
7
  6
CONTINUOUS
 10
263.5998449245
 20
315.6458022013
 11
275.4264613253
 21
315.6458022013
  0
LINE
  5
2F1
100
AcDbEntity
  8
RUNDUNGEN
100
AcDbLine
 62
7
  6
CONTINUOUS
 10
259.4658214271
 20
315.7458022013
 11
237.7058102913
 21
315.7458022013
  0
LINE
  5
2F2
100
AcDbEntity
  8
0
100
AcDbLine
 62
7
  6
CONTINUOUS
 10
233.7058102913
 20
315.7458022013
 11
236.0858158592
 21
315.7458022013
  0
LINE
  5
2F3
100
AcDbEntity
  8
RUNDUNGEN
100
AcDbLine
 62
7
  6
CONTINUOUS
 10
234.0391267913
 20
315.7458022013
 11
235.8052977238
 21
315.7458022013
  0
LINE
  5
2F4
100
AcDbEntity
  8
RUNDUNGEN
100
AcDbLine
 62
7
  6
CONTINUOUS
 10
261.3663339946
 20
315.7458022013
 11
263.1325049271
 21
315.7458022013
  0
LINE
  5
2F5
100
AcDbEntity
  8
0
100
AcDbLine
 62
7
  6
CONTINUOUS
 10
261.0858158592
 20
315.7458022013
 11
263.4658214271
 21
315.7458022013
  0
LINE
  5
2F6
100
AcDbEntity
  8
0
100
AcDbLine
 62
7
  6
CONTINUOUS
 10
270.3358158592
 20
316.2458022013
 11
226.8358158592
 21
316.2458022013
  0
LINE
  5
2F7
100
AcDbEntity
  8
RUNDUNGEN
100
AcDbLine
 62
7
  6
CONTINUOUS
 10
221.3317773498
 20
316.3208022013
 11
223.8186502592
 21
316.3208022013
  0
LINE
  5
2F8
100
AcDbEntity
  8
RUNDUNGEN
100
AcDbLine
 62
7
  6
CONTINUOUS
 10
273.3529814592
 20
316.3208022013
 11
275.8398543686
 21
316.3208022013
  0
LINE
  5
2F9
100
AcDbEntity
  8
0
100
AcDbLine
 62
7
  6
CONTINUOUS
 10
219.2872345527
 20
329.4106557456
 11
221.358602685
 21
328.5737686968
  0
LINE
  5
2FA
100
AcDbEntity
  8
0
100
AcDbLine
 62
7
  6
CONTINUOUS
 10
221.6863834542
 20
329.3850545695
 11
219.615015322
 21
330.2219416183
  0
LINE
  5
2FB
100
AcDbEntity
  8
0
100
AcDbLine
 62
7
  6
CONTINUOUS
 10
219.6453909527
 20
336.6584077491
 11
226.1356779346
 21
334.0361615952
  0
LINE
  5
2FC
100
AcDbEntity
  8
0
100
AcDbLine
 62
7
  6
CONTINUOUS
 10
279.5419023945
 20
330.6444278048
 11
279.2687515451
 21
331.3204998812
  0
LINE
  5
2FD
100
AcDbEntity
  8
0
100
AcDbLine
 62
7
  6
CONTINUOUS
 10
278.8150066874
 20
335.2266189915
 11
278.4872259181
 21
336.0379048643
  0
LINE
  5
2FE
100
AcDbEntity
  8
RUNDUNGEN
100
AcDbLine
 62
7
  6
CONTINUOUS
 10
292.2100375491
 20
312.1829212368
 11
285.5011435288
 21
328.7880166274
  0
LINE
  5
2FF
100
AcDbEntity
  8
RUNDUNGEN
100
AcDbLine
 62
7
  6
CONTINUOUS
 10
282.7613192848
 20
335.5693195945
 11
279.7663191938
 21
342.9822049458
  0
LINE
  5
300
100
AcDbEntity
  8
0
100
AcDbLine
 62
7
  6
CONTINUOUS
 10
222.103688897
 20
328.4300209433
 11
222.7653139296
 21
328.4772794117
  0
LINE
  5
301
100
AcDbEntity
  8
0
100
AcDbLine
 62
7
  6
CONTINUOUS
 10
270.3358158592
 20
321.2458022013
 11
226.8358158592
 21
321.2458022013
  0
LINE
  5
302
100
AcDbEntity
  8
KONSTRUKTIONSELEMENTE
100
AcDbLine
 62
7
  6
CONTINUOUS
 10
231.2653077835
 20
321.7458022013
 11
265.9063239349
 21
321.7458022013
  0
LINE
  5
303
100
AcDbEntity
  8
0
100
AcDbLine
 62
7
  6
CONTINUOUS
 10
223.1310209354
 20
326.5993745573
 11
215.7666519542
 21
327.0581918462
  0
LINE
  5
304
100
AcDbEntity
  8
0
100
AcDbLine
 62
7
  6
CONTINUOUS
 10
220.9276251609
 20
325.9167412197
 11
222.8032401661
 21
325.7880886846
  0
LINE
  5
305
100
AcDbEntity
  8
0
100
AcDbLine
 62
7
  6
CONTINUOUS
 10
216.100496199
 20
326.2941646744
 11
220.3206303011
 21
326.0046968954
  0
LINE
  5
306
100
AcDbEntity
  8
0
100
AcDbLine
 62
7
  6
CONTINUOUS
 10
222.2933784703
 20
329.2970992807
 11
221.6863834542
 21
329.3850545695
  0
LINE
  5
307
100
AcDbEntity
  8
0
100
AcDbLine
 62
7
  6
CONTINUOUS
 10
221.358602685
 20
328.5737686968
 11
222.103688897
 21
328.4300209433
  0
LINE
  5
308
100
AcDbEntity
  8
0
100
AcDbLine
 62
7
  6
CONTINUOUS
 10
220.8654447691
 20
334.9071837773
 11
220.1203581702
 21
335.0509316871
  0
LINE
  5
309
100
AcDbEntity
  8
0
100
AcDbLine
 62
7
  6
CONTINUOUS
 10
226.4634590165
 20
334.8474482417
 11
223.5635435153
 21
336.0190901569
  0
LINE
  5
30A
100
AcDbEntity
  8
0
100
AcDbLine
 62
7
  6
CONTINUOUS
 10
222.7349963398
 20
336.3538449451
 11
220.6636280141
 21
337.1907320721
  0
LINE
  5
30B
100
AcDbEntity
  8
0
100
AcDbLine
 62
7
  6
CONTINUOUS
 10
222.8579281864
 20
340.2363345711
 11
223.272202161
 21
340.0689570207
  0
LINE
  5
30C
100
AcDbEntity
  8
0
100
AcDbLine
 62
7
  6
CONTINUOUS
 10
223.7380741262
 20
340.8244504287
 11
223.1857089556
 21
341.0476204439
  0
LINE
  5
30D
100
AcDbEntity
  8
BEZUGSACHSEN
100
AcDbLine
 62
7
  6
CONTINUOUS
 10
265.6849736187
 20
332.5338529038
 11
263.5858158592
 21
333.7458022013
  0
LINE
  5
30E
100
AcDbEntity
  8
KONSTRUKTIONSELEMENTE
100
AcDbLine
 62
7
  6
CONTINUOUS
 10
233.5858158592
 20
141.2458022013
 11
231.2653077835
 21
139.9060562392
  0
LINE
  5
30F
100
AcDbEntity
  8
0
100
AcDbLine
 62
7
  6
CONTINUOUS
 10
222.8169122103
 20
329.4001502529
 11
222.2933784703
 21
329.2970992807
  0
LINE
  5
310
100
AcDbEntity
  8
0
100
AcDbLine
 62
7
  6
CONTINUOUS
 10
275.6040720722
 20
332.4392953867
 11
274.640274958
 21
332.4392953867
  0
LINE
  5
311
100
AcDbEntity
  8
0
100
AcDbLine
 62
7
  6
CONTINUOUS
 10
225.0140347247
 20
332.4392953867
 11
224.0887724786
 21
332.4392953867
  0
LINE
  5
312
100
AcDbEntity
  8
0
100
AcDbLine
 62
7
  6
CONTINUOUS
 10
218.9045557977
 20
332.4392953867
 11
217.9467879686
 21
332.4392953867
  0
LINE
  5
313
100
AcDbEntity
  8
BEZUGSACHSEN
100
AcDbLine
 62
7
  6
CONTINUOUS
 10
233.5858158592
 20
333.7458022013
 11
263.5858158592
 21
333.7458022013
  0
LINE
  5
314
100
AcDbEntity
  8
0
100
AcDbLine
 62
7
  6
CONTINUOUS
 10
242.5041255026
 20
333.9458022013
 11
245.0070634293
 21
333.9458022013
  0
LINE
  5
315
100
AcDbEntity
  8
0
100
AcDbLine
 62
7
  6
CONTINUOUS
 10
245.5383631737
 20
333.9458022013
 11
248.1393488621
 21
333.9458022013
  0
LINE
  5
316
100
AcDbEntity
  8
0
100
AcDbLine
 62
7
  6
CONTINUOUS
 10
248.6613882538
 20
333.9458022013
 11
252.1184567828
 21
333.9458022013
  0
LINE
  5
317
100
AcDbEntity
  8
0
100
AcDbLine
 62
7
  6
CONTINUOUS
 10
255.1170746053
 20
333.9458022013
 11
260.9867584326
 21
333.9458022013
  0
LINE
  5
318
100
AcDbEntity
  8
RUNDUNGEN
100
AcDbLine
 62
7
  6
CONTINUOUS
 10
238.087923584
 20
335.4208022013
 11
259.0837081345
 21
335.4208022013
  0
LINE
  5
319
100
AcDbEntity
  8
0
100
AcDbLine
 62
7
  6
CONTINUOUS
 10
220.0687597928
 20
334.1280608849
 11
220.5376639999
 21
334.0958979045
  0
LINE
  5
31A
100
AcDbEntity
  8
0
100
AcDbLine
 62
7
  6
CONTINUOUS
 10
222.3890246788
 20
340.2684981689
 11
222.8579281864
 21
340.2363345711
  0
LINE
  5
31B
100
AcDbEntity
  8
0
100
AcDbLine
 62
7
  6
CONTINUOUS
 10
223.1857089556
 20
341.0476204439
 11
222.7168054481
 21
341.0797840417
  0
LINE
  5
31C
100
AcDbEntity
  8
0
100
AcDbLine
 62
7
  6
CONTINUOUS
 10
278.4872259181
 20
336.0379048643
 11
273.4476401645
 21
337.7766516518
  0
LINE
  5
31D
100
AcDbEntity
  8
0
100
AcDbLine
 62
7
  6
CONTINUOUS
 10
273.8300510489
 20
336.8301514992
 11
277.3824963508
 21
335.5915651466
  0
LINE
  5
31E
100
AcDbEntity
  8
RUNDUNGEN
100
AcDbLine
 62
7
  6
CONTINUOUS
 10
285.3192486688
 20
376.9842061184
 11
275.4870912407
 21
396.2809015787
  0
LINE
  5
31F
100
AcDbEntity
  8
BEZUGSACHSEN
100
AcDbLine
 62
7
  6
CONTINUOUS
 10
265.9063239349
 20
127.316310277
 11
259.8358158592
 21
121.2458022013
  0
LINE
  5
320
100
AcDbEntity
  8
0
100
AcDbLine
 62
7
  6
CONTINUOUS
 10
222.7168054481
 20
341.0797840417
 11
222.0005502797
 21
340.8973109641
  0
LINE
  5
321
100
AcDbEntity
  8
BEZUGSACHSEN
100
AcDbLine
 62
7
  6
CONTINUOUS
 10
258.5858158592
 20
92.7458022013
 11
257.0858158592
 21
91.2458022013
  0
LINE
  5
322
100
AcDbEntity
  8
RUNDUNGEN
100
AcDbLine
 62
7
  6
CONTINUOUS
 10
271.4923019308
 20
399.8778260294
 11
251.2735754808
 21
407.6390679478
  0
LINE
  5
323
100
AcDbEntity
  8
BEZUGSACHSEN
100
AcDbLine
 62
7
  6
CONTINUOUS
 10
367.4927863188
 20
91.2458022013
 11
384.4914340202
 21
91.2458022013
  0
LINE
  5
324
100
AcDbEntity
  8
BEZUGSACHSEN
100
AcDbLine
 62
7
  6
CONTINUOUS
 10
365.9921101695
 20
92.7458022013
 11
385.9921101695
 21
92.7458022013
  0
LINE
  5
325
100
AcDbEntity
  8
BEZUGSACHSEN
100
AcDbLine
 62
7
  6
CONTINUOUS
 10
387.2416046817
 20
121.2458022013
 11
364.7426156572
 21
121.2458022013
  0
LINE
  5
326
100
AcDbEntity
  8
BEZUGSACHSEN
100
AcDbLine
 62
7
  6
CONTINUOUS
 10
367.4921101695
 20
91.2458022013
 11
365.9921101695
 21
92.7458022013
  0
LINE
  5
327
100
AcDbEntity
  8
KONSTRUKTIONSELEMENTE
100
AcDbLine
 62
7
  6
CONTINUOUS
 10
357.4921101695
 20
141.2458022013
 11
394.4921101695
 21
141.2458022013
  0
LINE
  5
328
100
AcDbEntity
  8
KONSTRUKTIONSELEMENTE
100
AcDbLine
 62
7
  6
CONTINUOUS
 10
357.4921101695
 20
145.2458022013
 11
394.4921101695
 21
145.2458022013
  0
LINE
  5
329
100
AcDbEntity
  8
BEZUGSACHSEN
100
AcDbLine
 62
7
  6
CONTINUOUS
 10
360.9462734996
 20
125.0416388712
 11
364.7421101695
 21
121.2458022013
  0
LINE
  5
32A
100
AcDbEntity
  8
0
100
AcDbLine
 62
7
  6
CONTINUOUS
 10
352.2421101695
 20
284.8458022013
 11
352.2421101695
 21
313.7458022013
  0
LINE
  5
32B
100
AcDbEntity
  8
0
100
AcDbLine
 62
7
  6
CONTINUOUS
 10
353.4921101695
 20
284.3458022013
 11
353.4921101695
 21
277.7458022013
  0
LINE
  5
32C
100
AcDbEntity
  8
0
100
AcDbLine
 62
7
  6
CONTINUOUS
 10
354.2421101695
 20
321.2458022013
 11
354.2421101695
 21
316.2458022013
  0
LINE
  5
32D
100
AcDbEntity
  8
KONSTRUKTIONSELEMENTE
100
AcDbLine
 62
7
  6
CONTINUOUS
 10
357.4921101695
 20
141.2458022013
 11
357.4921101695
 21
145.2458022013
  0
LINE
  5
32E
100
AcDbEntity
  8
0
100
AcDbLine
 62
7
  6
CONTINUOUS
 10
359.5921101695
 20
313.6458022013
 11
359.5921101695
 21
315.7458022013
  0
LINE
  5
32F
100
AcDbEntity
  8
0
100
AcDbLine
 62
7
  6
CONTINUOUS
 10
360.1188746539
 20
315.6458022013
 11
360.1188746539
 21
313.6458022013
  0
LINE
  5
330
100
AcDbEntity
  8
BEZUGSACHSEN
100
AcDbLine
 62
7
  6
CONTINUOUS
 10
360.9921101695
 20
127.316310277
 11
360.9921101695
 21
124.9957343454
  0
LINE
  5
331
100
AcDbEntity
  8
KONSTRUKTIONSELEMENTE
100
AcDbLine
 62
7
  6
CONTINUOUS
 10
360.9921101695
 20
127.316310277
 11
360.9921101695
 21
141.2458022013
  0
LINE
  5
332
100
AcDbEntity
  8
BEZUGSACHSEN
100
AcDbLine
 62
7
  6
CONTINUOUS
 10
360.9921101695
 20
321.7458022013
 11
360.9921101695
 21
333.7458022014
  0
LINE
  5
333
100
AcDbEntity
  8
BEZUGSACHSEN
100
AcDbLine
 62
7
  6
CONTINUOUS
 10
361.9921101695
 20
321.2458022013
 11
361.9921101695
 21
321.7458022013
  0
LINE
  5
334
100
AcDbEntity
  8
0
100
AcDbLine
 62
7
  6
CONTINUOUS
 10
362.5921101695
 20
315.7458022013
 11
362.5921101695
 21
315.6458022013
  0
LINE
  5
335
100
AcDbEntity
  8
0
100
AcDbLine
 62
7
  6
CONTINUOUS
 10
363.4921101695
 20
316.2458022013
 11
363.4921101695
 21
315.7458022013
  0
LINE
  5
336
100
AcDbEntity
  8
0
100
AcDbLine
 62
7
  6
CONTINUOUS
 10
363.4921101695
 20
284.8458022013
 11
363.4921101695
 21
284.3458022013
  0
LINE
  5
337
100
AcDbEntity
  8
RUNDUNGEN
100
AcDbLine
 62
7
  6
CONTINUOUS
 10
365.8671101695
 20
311.4310704493
 11
365.8671101695
 21
285.1708022013
  0
LINE
  5
338
100
AcDbEntity
  8
BEZUGSACHSEN
100
AcDbLine
 62
7
  6
CONTINUOUS
 10
365.9921101695
 20
92.7458022013
 11
365.9921101695
 21
121.2458022013
  0
LINE
  5
339
100
AcDbEntity
  8
BEZUGSACHSEN
100
AcDbLine
 62
7
  6
CONTINUOUS
 10
365.9921101695
 20
145.2458022013
 11
365.9921101695
 21
277.7458022013
  0
LINE
  5
33A
100
AcDbEntity
  8
0
100
AcDbLine
 62
7
  6
CONTINUOUS
 10
366.8671101695
 20
332.4392953867
 11
366.8671101695
 21
341.4599533439
  0
LINE
  5
33B
100
AcDbEntity
  8
RUNDUNGEN
100
AcDbLine
 62
7
  6
CONTINUOUS
 10
367.3671101695
 20
407.6371391348
 11
367.3671101695
 21
333.1605304878
  0
LINE
  5
33C
100
AcDbEntity
  8
RUNDUNGEN
100
AcDbLine
 62
7
  6
CONTINUOUS
 10
368.8671101695
 20
344.5649480092
 11
368.8671101695
 21
372.3265012833
  0
LINE
  5
33D
100
AcDbEntity
  8
RUNDUNGEN
100
AcDbLine
 62
7
  6
CONTINUOUS
 10
368.8671101695
 20
376.4474500114
 11
368.8671101695
 21
397.231980934
  0
LINE
  5
33E
100
AcDbEntity
  8
RUNDUNGEN
100
AcDbLine
 62
7
  6
CONTINUOUS
 10
368.8671101695
 20
400.0046226124
 11
368.8671101695
 21
408.3642805009
  0
LINE
  5
33F
100
AcDbEntity
  8
0
100
AcDbLine
 62
7
  6
CONTINUOUS
 10
366.1605301244
 20
322.900464778
 11
366.8671101695
 21
332.4392953867
  0
LINE
  5
340
100
AcDbEntity
  8
RUNDUNGEN
100
AcDbLine
 62
7
  6
CONTINUOUS
 10
367.3124653305
 20
331.683096875
 11
365.9217550665
 21
312.908508311
  0
LINE
  5
341
100
AcDbEntity
  8
KONSTRUKTIONSELEMENTE
100
AcDbLine
 62
7
  6
CONTINUOUS
 10
375.9921101695
 20
139.9060562392
 11
375.9921101695
 21
127.316310277
  0
LINE
  5
342
100
AcDbEntity
  8
RUNDUNGEN
100
AcDbLine
 62
7
  6
CONTINUOUS
 10
384.6717590598
 20
331.6830421818
 11
386.0624652586
 21
312.908508498
  0
LINE
  5
343
100
AcDbEntity
  8
0
100
AcDbLine
 62
7
  6
CONTINUOUS
 10
385.5157104317
 20
327.0581918462
 11
385.9503318869
 21
321.1908022013
  0
LINE
  5
344
100
AcDbEntity
  8
0
100
AcDbLine
 62
7
  6
CONTINUOUS
 10
385.4140934616
 20
328.4300209433
 11
385.1171101695
 21
332.4392953867
  0
LINE
  5
345
100
AcDbEntity
  8
RUNDUNGEN
100
AcDbLine
 62
7
  6
CONTINUOUS
 10
383.1171101695
 20
408.3642805009
 11
383.1171101695
 21
400.0046226118
  0
LINE
  5
346
100
AcDbEntity
  8
RUNDUNGEN
100
AcDbLine
 62
7
  6
CONTINUOUS
 10
383.1171101695
 20
397.2319809331
 11
383.1171101695
 21
376.4474500117
  0
LINE
  5
347
100
AcDbEntity
  8
RUNDUNGEN
100
AcDbLine
 62
7
  6
CONTINUOUS
 10
383.1171101695
 20
372.3265013367
 11
383.1171101695
 21
344.5649479978
  0
LINE
  5
348
100
AcDbEntity
  8
RUNDUNGEN
100
AcDbLine
 62
7
  6
CONTINUOUS
 10
384.6171101695
 20
407.6371391348
 11
384.6171101695
 21
333.160529789
  0
LINE
  5
349
100
AcDbEntity
  8
0
100
AcDbLine
 62
7
  6
CONTINUOUS
 10
385.1171101695
 20
341.0797840417
 11
385.1171101695
 21
332.4392953867
  0
LINE
  5
34A
100
AcDbEntity
  8
0
100
AcDbLine
 62
7
  6
CONTINUOUS
 10
385.4645326598
 20
333.7458022013
 11
385.4645326598
 21
333.9458022013
  0
LINE
  5
34B
100
AcDbEntity
  8
0
100
AcDbLine
 62
7
  6
CONTINUOUS
 10
385.7781430663
 20
333.7458022013
 11
385.7781430663
 21
333.9458022013
  0
LINE
  5
34C
100
AcDbEntity
  8
0
100
AcDbLine
 62
7
  6
CONTINUOUS
 10
385.9774371304
 20
333.7458022013
 11
385.9774371304
 21
333.9458022013
  0
LINE
  5
34D
100
AcDbEntity
  8
BEZUGSACHSEN
100
AcDbLine
 62
7
  6
CONTINUOUS
 10
385.9921101695
 20
92.7458022013
 11
385.9921101695
 21
121.2458022013
  0
LINE
  5
34E
100
AcDbEntity
  8
BEZUGSACHSEN
100
AcDbLine
 62
7
  6
CONTINUOUS
 10
385.9921101695
 20
145.2458022013
 11
385.9921101695
 21
277.7458022013
  0
LINE
  5
34F
100
AcDbEntity
  8
RUNDUNGEN
100
AcDbLine
 62
7
  6
CONTINUOUS
 10
386.1171101695
 20
311.4310702289
 11
386.1171101695
 21
285.1708022013
  0
LINE
  5
350
100
AcDbEntity
  8
0
100
AcDbLine
 62
7
  6
CONTINUOUS
 10
386.261707799
 20
333.7458022013
 11
386.261707799
 21
333.9458022013
  0
LINE
  5
351
100
AcDbEntity
  8
0
100
AcDbLine
 62
7
  6
CONTINUOUS
 10
386.5166393663
 20
333.7458022013
 11
386.5166393663
 21
333.9458022013
  0
LINE
  5
352
100
AcDbEntity
  8
0
100
AcDbLine
 62
7
  6
CONTINUOUS
 10
386.6171101695
 20
300.89176972
 11
386.6171101695
 21
294.8920505818
  0
LINE
  5
353
100
AcDbEntity
  8
0
100
AcDbLine
 62
7
  6
CONTINUOUS
 10
386.8272085972
 20
333.7458022013
 11
386.8272085972
 21
333.9458022013
  0
LINE
  5
354
100
AcDbEntity
  8
0
100
AcDbLine
 62
7
  6
CONTINUOUS
 10
387.0512804754
 20
333.7458022013
 11
387.0512804754
 21
333.9458022013
  0
LINE
  5
355
100
AcDbEntity
  8
0
100
AcDbLine
 62
7
  6
CONTINUOUS
 10
387.1610358512
 20
333.7458022013
 11
387.1610358512
 21
333.9458022013
  0
LINE
  5
356
100
AcDbEntity
  8
0
100
AcDbLine
 62
7
  6
CONTINUOUS
 10
387.1645303676
 20
333.7458022013
 11
387.1645303676
 21
333.9458022013
  0
LINE
  5
357
100
AcDbEntity
  8
0
100
AcDbLine
 62
7
  6
CONTINUOUS
 10
387.290410446
 20
333.7458022013
 11
387.290410446
 21
333.9458022013
  0
LINE
  5
358
100
AcDbEntity
  8
0
100
AcDbLine
 62
7
  6
CONTINUOUS
 10
387.5525697154
 20
333.7458022013
 11
387.5525697154
 21
333.9458022013
  0
LINE
  5
359
100
AcDbEntity
  8
0
100
AcDbLine
 62
7
  6
CONTINUOUS
 10
387.8459280952
 20
333.7458022013
 11
387.8459280952
 21
333.9458022013
  0
LINE
  5
35A
100
AcDbEntity
  8
0
100
AcDbLine
 62
7
  6
CONTINUOUS
 10
388.0134065729
 20
333.7458022013
 11
388.0134065729
 21
333.9458022013
  0
LINE
  5
35B
100
AcDbEntity
  8
0
100
AcDbLine
 62
7
  6
CONTINUOUS
 10
388.1387442685
 20
333.7458022013
 11
388.1387442685
 21
333.9458022013
  0
LINE
  5
35C
100
AcDbEntity
  8
0
100
AcDbLine
 62
7
  6
CONTINUOUS
 10
388.1803426063
 20
333.7458022013
 11
388.1803426063
 21
333.9458022013
  0
LINE
  5
35D
100
AcDbEntity
  8
0
100
AcDbLine
 62
7
  6
CONTINUOUS
 10
388.1902001033
 20
333.7458022013
 11
388.1902001033
 21
333.9458022013
  0
LINE
  5
35E
100
AcDbEntity
  8
0
100
AcDbLine
 62
7
  6
CONTINUOUS
 10
388.419602288
 20
333.7458022013
 11
388.419602288
 21
333.9458022013
  0
LINE
  5
35F
100
AcDbEntity
  8
0
100
AcDbLine
 62
7
  6
CONTINUOUS
 10
388.4921101695
 20
316.2458022013
 11
388.4921101695
 21
315.7458022013
  0
LINE
  5
360
100
AcDbEntity
  8
0
100
AcDbLine
 62
7
  6
CONTINUOUS
 10
388.4921101695
 20
284.8458022013
 11
388.4921101695
 21
284.3458022013
  0
LINE
  5
361
100
AcDbEntity
  8
BEZUGSACHSEN
100
AcDbLine
 62
7
  6
CONTINUOUS
 10
389.9921101695
 20
321.2458022013
 11
389.9921101695
 21
321.7458022013
  0
LINE
  5
362
100
AcDbEntity
  8
KONSTRUKTIONSELEMENTE
100
AcDbLine
 62
7
  6
CONTINUOUS
 10
390.9921101695
 20
141.2458022013
 11
390.9921101695
 21
127.316310277
  0
LINE
  5
363
100
AcDbEntity
  8
BEZUGSACHSEN
100
AcDbLine
 62
7
  6
CONTINUOUS
 10
390.9921101695
 20
124.9957343454
 11
390.9921101695
 21
127.316310277
  0
LINE
  5
364
100
AcDbEntity
  8
BEZUGSACHSEN
100
AcDbLine
 62
7
  6
CONTINUOUS
 10
390.9921101695
 20
321.7458022013
 11
390.9921101695
 21
333.7458022014
  0
LINE
  5
365
100
AcDbEntity
  8
KONSTRUKTIONSELEMENTE
100
AcDbLine
 62
7
  6
CONTINUOUS
 10
394.4921101695
 20
141.2458022013
 11
394.4921101695
 21
145.2458022013
  0
LINE
  5
366
100
AcDbEntity
  8
0
100
AcDbLine
 62
7
  6
CONTINUOUS
 10
397.7421101695
 20
321.2458022013
 11
397.7421101695
 21
316.2458022013
  0
LINE
  5
367
100
AcDbEntity
  8
0
100
AcDbLine
 62
7
  6
CONTINUOUS
 10
398.4921101695
 20
284.3458022013
 11
398.4921101695
 21
277.7458022013
  0
LINE
  5
368
100
AcDbEntity
  8
0
100
AcDbLine
 62
7
  6
CONTINUOUS
 10
399.7421101695
 20
284.8458022013
 11
399.7421101695
 21
313.7458022013
  0
LINE
  5
369
100
AcDbEntity
  8
0
100
AcDbLine
 62
7
  6
CONTINUOUS
 10
353.4921101695
 20
277.7458022013
 11
398.4921101695
 21
277.7458022013
  0
LINE
  5
36A
100
AcDbEntity
  8
RUNDUNGEN
100
AcDbLine
 62
7
  6
CONTINUOUS
 10
383.1171101695
 20
282.1708022013
 11
368.8671101695
 21
282.1708022013
  0
LINE
  5
36B
100
AcDbEntity
  8
0
100
AcDbLine
 62
7
  6
CONTINUOUS
 10
398.4921101695
 20
284.3458022013
 11
385.9994170137
 21
284.3458022013
  0
LINE
  5
36C
100
AcDbEntity
  8
0
100
AcDbLine
 62
7
  6
CONTINUOUS
 10
353.4921101695
 20
284.3458022013
 11
365.9848033252
 21
284.3458022013
  0
LINE
  5
36D
100
AcDbEntity
  8
RUNDUNGEN
100
AcDbLine
 62
7
  6
CONTINUOUS
 10
352.2421101695
 20
284.8458022013
 11
365.8861467775
 21
284.8458022013
  0
LINE
  5
36E
100
AcDbEntity
  8
RUNDUNGEN
100
AcDbLine
 62
7
  6
CONTINUOUS
 10
386.0980735614
 20
284.8458022013
 11
399.7421101695
 21
284.8458022013
  0
LINE
  5
36F
100
AcDbEntity
  8
0
100
AcDbLine
 62
7
  6
CONTINUOUS
 10
386.1171101695
 20
294.8919101509
 11
386.6171101695
 21
294.8919101509
  0
LINE
  5
370
100
AcDbEntity
  8
0
100
AcDbLine
 62
7
  6
CONTINUOUS
 10
386.1171101695
 20
300.8919101509
 11
386.6171101695
 21
300.8919101509
  0
LINE
  5
371
100
AcDbEntity
  8
RUNDUNGEN
100
AcDbLine
 62
7
  6
CONTINUOUS
 10
395.8079647283
 20
313.6458022013
 11
386.0078509102
 21
313.6458022013
  0
LINE
  5
372
100
AcDbEntity
  8
RUNDUNGEN
100
AcDbLine
 62
7
  6
CONTINUOUS
 10
365.9763694287
 20
313.6458022013
 11
357.5878243448
 21
313.6458022013
  0
LINE
  5
373
100
AcDbEntity
  8
0
100
AcDbLine
 62
7
  6
CONTINUOUS
 10
360.1188746539
 20
315.6458022013
 11
366.1245175769
 21
315.6458022013
  0
LINE
  5
374
100
AcDbEntity
  8
RUNDUNGEN
100
AcDbLine
 62
7
  6
CONTINUOUS
 10
354.2459484807
 20
315.7458022013
 11
359.5921101695
 21
315.7458022013
  0
LINE
  5
375
100
AcDbEntity
  8
0
100
AcDbLine
 62
7
  6
CONTINUOUS
 10
362.5921101695
 20
315.7458022013
 11
366.1319249843
 21
315.7458022013
  0
LINE
  5
376
100
AcDbEntity
  8
RUNDUNGEN
100
AcDbLine
 62
7
  6
CONTINUOUS
 10
362.5921101695
 20
315.7458022013
 11
366.1319249843
 21
315.7458022013
  0
LINE
  5
377
100
AcDbEntity
  8
RUNDUNGEN
100
AcDbLine
 62
7
  6
CONTINUOUS
 10
385.8522953546
 20
315.7458022013
 11
397.7403919363
 21
315.7458022013
  0
LINE
  5
378
100
AcDbEntity
  8
0
100
AcDbLine
 62
7
  6
CONTINUOUS
 10
397.7421101695
 20
316.2458022013
 11
385.8152583176
 21
316.2458022013
  0
LINE
  5
379
100
AcDbEntity
  8
0
100
AcDbLine
 62
7
  6
CONTINUOUS
 10
354.2421101695
 20
316.2458022013
 11
366.1689620213
 21
316.2458022013
  0
LINE
  5
37A
100
AcDbEntity
  8
0
100
AcDbLine
 62
7
  6
CONTINUOUS
 10
385.4489620213
 20
321.1908022013
 11
385.9503318869
 21
321.1908022013
  0
LINE
  5
37B
100
AcDbEntity
  8
0
100
AcDbLine
 62
7
  6
CONTINUOUS
 10
397.7421101695
 20
321.2458022013
 11
385.9503318869
 21
321.2458022013
  0
LINE
  5
37C
100
AcDbEntity
  8
0
100
AcDbLine
 62
7
  6
CONTINUOUS
 10
354.2421101695
 20
321.2458022013
 11
366.5394342287
 21
321.2458022013
  0
LINE
  5
37D
100
AcDbEntity
  8
KONSTRUKTIONSELEMENTE
100
AcDbLine
 62
7
  6
CONTINUOUS
 10
360.9921101695
 20
321.7458022013
 11
366.5763694287
 21
321.7458022013
  0
LINE
  5
37E
100
AcDbEntity
  8
KONSTRUKTIONSELEMENTE
100
AcDbLine
 62
7
  6
CONTINUOUS
 10
385.9092207758
 20
321.7458022013
 11
390.9921101695
 21
321.7458022013
  0
LINE
  5
37F
100
AcDbEntity
  8
0
100
AcDbLine
 62
7
  6
CONTINUOUS
 10
366.1605276029
 20
322.9004307385
 11
366.6618974685
 21
322.9004307385
  0
LINE
  5
380
100
AcDbEntity
  8
0
100
AcDbLine
 62
7
  6
CONTINUOUS
 10
385.0944675611
 20
325.9764774137
 11
385.5958374267
 21
325.9764774137
  0
LINE
  5
381
100
AcDbEntity
  8
0
100
AcDbLine
 62
7
  6
CONTINUOUS
 10
385.0143405661
 20
327.0581918462
 11
385.5157104317
 21
327.0581918462
  0
LINE
  5
382
100
AcDbEntity
  8
0
100
AcDbLine
 62
7
  6
CONTINUOUS
 10
384.912723596
 20
328.4300209433
 11
385.4140934616
 21
328.4300209433
  0
LINE
  5
383
100
AcDbEntity
  8
0
100
AcDbLine
 62
7
  6
CONTINUOUS
 10
384.9020756142
 20
328.5737686968
 11
385.4034454798
 21
328.5737686968
  0
LINE
  5
384
100
AcDbEntity
  8
0
100
AcDbLine
 62
7
  6
CONTINUOUS
 10
367.1368091208
 20
329.3117380441
 11
366.6354392552
 21
329.3117380441
  0
LINE
  5
385
100
AcDbEntity
  8
0
100
AcDbLine
 62
7
  6
CONTINUOUS
 10
384.840083981
 20
329.4106557456
 11
385.3414538466
 21
329.4106557456
  0
LINE
  5
386
100
AcDbEntity
  8
0
100
AcDbLine
 62
7
  6
CONTINUOUS
 10
384.8094041995
 20
329.8248327954
 11
385.3107740651
 21
329.8248327954
  0
LINE
  5
387
100
AcDbEntity
  8
0
100
AcDbLine
 62
7
  6
CONTINUOUS
 10
384.772841368
 20
330.3184310206
 11
385.2742112336
 21
330.3184310206
  0
LINE
  5
388
100
AcDbEntity
  8
0
100
AcDbLine
 62
7
  6
CONTINUOUS
 10
367.2280925403
 20
330.5440642071
 11
366.7267226747
 21
330.5440642071
  0
LINE
  5
389
100
AcDbEntity
  8
0
100
AcDbLine
 62
7
  6
CONTINUOUS
 10
384.7162467484
 20
331.0824583859
 11
385.217616614
 21
331.0824583859
  0
LINE
  5
38A
100
AcDbEntity
  8
0
100
AcDbLine
 62
7
  6
CONTINUOUS
 10
384.6679853682
 20
331.734900048
 11
385.169287602
 21
331.734900048
  0
LINE
  5
38B
100
AcDbEntity
  8
0
100
AcDbLine
 62
7
  6
CONTINUOUS
 10
367.3191566447
 20
331.7763903701
 11
366.8180060942
 21
331.7763903701
  0
LINE
  5
38C
100
AcDbEntity
  8
0
100
AcDbLine
 62
7
  6
CONTINUOUS
 10
384.6291465391
 20
332.4667645891
 11
385.1171101695
 21
332.4667645891
  0
LINE
  5
38D
100
AcDbEntity
  8
0
100
AcDbLine
 62
7
  6
CONTINUOUS
 10
384.6171101695
 20
333.6836933982
 11
385.1171101695
 21
333.6836933982
  0
LINE
  5
38E
100
AcDbEntity
  8
BEZUGSACHSEN
100
AcDbLine
 62
7
  6
CONTINUOUS
 10
360.9921101694
 20
333.7458022013
 11
366.8671101695
 21
333.7458022013
  0
LINE
  5
38F
100
AcDbEntity
  8
BEZUGSACHSEN
100
AcDbLine
 62
7
  6
CONTINUOUS
 10
385.1171101695
 20
333.7458022013
 11
390.9921101695
 21
333.7458022013
  0
LINE
  5
390
100
AcDbEntity
  8
0
100
AcDbLine
 62
7
  6
CONTINUOUS
 10
385.1171101695
 20
333.9458022013
 11
387.1610358512
 21
333.9458022013
  0
LINE
  5
391
100
AcDbEntity
  8
0
100
AcDbLine
 62
7
  6
CONTINUOUS
 10
387.1645303676
 20
333.9458022013
 11
388.419602288
 21
333.9458022013
  0
LINE
  5
392
100
AcDbEntity
  8
0
100
AcDbLine
 62
7
  6
CONTINUOUS
 10
367.3671101695
 20
334.1500186044
 11
366.8671101695
 21
334.1500186044
  0
LINE
  5
393
100
AcDbEntity
  8
0
100
AcDbLine
 62
7
  6
CONTINUOUS
 10
384.6171101695
 20
334.3039722362
 11
385.1171101695
 21
334.3039722362
  0
LINE
  5
394
100
AcDbEntity
  8
0
100
AcDbLine
 62
7
  6
CONTINUOUS
 10
384.6171101695
 20
334.7332448132
 11
385.1171101695
 21
334.7332448132
  0
LINE
  5
395
100
AcDbEntity
  8
0
100
AcDbLine
 62
7
  6
CONTINUOUS
 10
384.6171101695
 20
335.0509316871
 11
385.1171101695
 21
335.0509316871
  0
LINE
  5
396
100
AcDbEntity
  8
0
100
AcDbLine
 62
7
  6
CONTINUOUS
 10
367.3671101695
 20
335.3823447674
 11
366.8671101695
 21
335.3823447674
  0
LINE
  5
397
100
AcDbEntity
  8
0
100
AcDbLine
 62
7
  6
CONTINUOUS
 10
367.3671101695
 20
335.8013018797
 11
366.8671101695
 21
335.8013018797
  0
LINE
  5
398
100
AcDbEntity
  8
0
100
AcDbLine
 62
7
  6
CONTINUOUS
 10
384.6171101695
 20
336.6584077491
 11
385.1171101695
 21
336.6584077491
  0
LINE
  5
399
100
AcDbEntity
  8
0
100
AcDbLine
 62
7
  6
CONTINUOUS
 10
384.6171101695
 20
339.9035520138
 11
385.1171101695
 21
339.9035520138
  0
LINE
  5
39A
100
AcDbEntity
  8
BEZUGSACHSEN
100
AcDbLine
 62
7
  6
CONTINUOUS
 10
391.0379468393
 20
125.0416388712
 11
387.2421101695
 21
121.2458022013
  0
LINE
  5
39B
100
AcDbEntity
  8
0
100
AcDbLine
 62
7
  6
CONTINUOUS
 10
384.6171101695
 20
340.5238300781
 11
385.1171101695
 21
340.5238300781
  0
LINE
  5
39C
100
AcDbEntity
  8
0
100
AcDbLine
 62
7
  6
CONTINUOUS
 10
384.6171101695
 20
340.8973109641
 11
385.1171101695
 21
340.8973109641
  0
LINE
  5
39D
100
AcDbEntity
  8
0
100
AcDbLine
 62
7
  6
CONTINUOUS
 10
384.6171101695
 20
341.0797840417
 11
385.1171101695
 21
341.0797840417
  0
LINE
  5
39E
100
AcDbEntity
  8
0
100
AcDbLine
 62
7
  6
CONTINUOUS
 10
367.3671101695
 20
341.4599533439
 11
366.8671101695
 21
341.4599533439
  0
LINE
  5
39F
100
AcDbEntity
  8
BEZUGSACHSEN
100
AcDbLine
 62
7
  6
CONTINUOUS
 10
384.4921101695
 20
91.2458022013
 11
385.9921101695
 21
92.7458022013
  0
LINE
  5
3A0
100
AcDbEntity
  8
RUNDUNGEN
100
AcDbLine
 62
7
  6
CONTINUOUS
 10
367.8671101695
 20
408.137214749
 11
368.3671101695
 21
408.137214749
  0
LINE
  5
3A1
100
AcDbEntity
  8
RUNDUNGEN
100
AcDbLine
 62
7
  6
CONTINUOUS
 10
383.6171101695
 20
408.137214749
 11
384.1171101695
 21
408.137214749
  0
LINE
  5
3A2
100
AcDbEntity
  8
0
100
AcDbLine
 62
7
  6
CONTINUOUS
 10
372.8619051704
 20
412.4208022013
 11
379.1223151686
 21
412.4208022013
  0
LINE
  5
3A3
100
AcDbEntity
  8
BEZUGSACHSEN
100
AcDbLine
 62
7
  6
CONTINUOUS
 10
203.6509035515
 20
49.4036980144
 11
203.6509035515
 21
35.1536980144
  0
LINE
  5
3A4
100
AcDbEntity
  8
0
100
AcDbLine
 62
7
  6
CONTINUOUS
 10
206.5858158592
 20
45.4036980144
 11
206.5858158592
 21
39.1536980144
  0
LINE
  5
3A5
100
AcDbEntity
  8
0
100
AcDbLine
 62
7
  6
CONTINUOUS
 10
210.2429124463
 20
32.1536980144
 11
210.2429124463
 21
31.6536980144
  0
LINE
  5
3A6
100
AcDbEntity
  8
RUNDUNGEN
100
AcDbLine
 62
7
  6
CONTINUOUS
 10
211.034931981
 20
50.4036980144
 11
211.034931981
 21
49.9036980144
  0
LINE
  5
3A7
100
AcDbEntity
  8
RUNDUNGEN
100
AcDbLine
 62
7
  6
CONTINUOUS
 10
211.034931981
 20
34.6536980144
 11
211.034931981
 21
34.1536980144
  0
LINE
  5
3A8
100
AcDbEntity
  8
0
100
AcDbLine
 62
7
  6
CONTINUOUS
 10
213.5429124463
 20
32.1536980144
 11
213.5429124463
 21
31.6536980144
  0
LINE
  5
3A9
100
AcDbEntity
  8
0
100
AcDbLine
 62
7
  6
CONTINUOUS
 10
215.3296109546
 20
33.1763406227
 11
215.3296109546
 21
32.6749707571
  0
LINE
  5
3AA
100
AcDbEntity
  8
0
100
AcDbLine
 62
7
  6
CONTINUOUS
 10
215.3429124463
 20
32.1536980144
 11
215.3429124463
 21
31.6536980144
  0
LINE
  5
3AB
100
AcDbEntity
  8
0
100
AcDbLine
 62
7
  6
CONTINUOUS
 10
215.7666519542
 20
33.2564676177
 11
215.7666519542
 21
32.7550977521
  0
LINE
  5
3AC
100
AcDbEntity
  8
0
100
AcDbLine
 62
7
  6
CONTINUOUS
 10
216.0785550936
 20
51.8903449972
 11
216.0785550936
 21
51.3889751316
  0
LINE
  5
3AD
100
AcDbEntity
  8
0
100
AcDbLine
 62
7
  6
CONTINUOUS
 10
217.28731152
 20
51.133999063
 11
217.28731152
 21
51.6353689286
  0
LINE
  5
3AE
100
AcDbEntity
  8
0
100
AcDbLine
 62
7
  6
CONTINUOUS
 10
217.7603572134
 20
51.0427156436
 11
217.7603572134
 21
51.5440855091
  0
LINE
  5
3AF
100
AcDbEntity
  8
0
100
AcDbLine
 62
7
  6
CONTINUOUS
 10
217.8167975331
 20
33.6028228157
 11
217.8167975331
 21
33.1015205819
  0
LINE
  5
3B0
100
AcDbEntity
  8
0
100
AcDbLine
 62
7
  6
CONTINUOUS
 10
217.9518571867
 20
33.6416616447
 11
217.9518571867
 21
33.1536980144
  0
LINE
  5
3B1
100
AcDbEntity
  8
0
100
AcDbLine
 62
7
  6
CONTINUOUS
 10
218.2334029068
 20
50.9516515391
 11
218.2334029068
 21
51.4528020897
  0
LINE
  5
3B2
100
AcDbEntity
  8
0
100
AcDbLine
 62
7
  6
CONTINUOUS
 10
218.2566475855
 20
51.6762015365
 11
218.2566475855
 21
51.767665569
  0
LINE
  5
3B3
100
AcDbEntity
  8
0
100
AcDbLine
 62
7
  6
CONTINUOUS
 10
218.3165839402
 20
51.5599014673
 11
218.3165839402
 21
51.6646356445
  0
LINE
  5
3B4
100
AcDbEntity
  8
0
100
AcDbLine
 62
7
  6
CONTINUOUS
 10
218.4435283405
 20
33.6536980144
 11
218.4435283405
 21
33.1536980144
  0
LINE
  5
3B5
100
AcDbEntity
  8
0
100
AcDbLine
 62
7
  6
CONTINUOUS
 10
218.6429124463
 20
32.1536980144
 11
218.6429124463
 21
31.6536980144
  0
LINE
  5
3B6
100
AcDbEntity
  8
0
100
AcDbLine
 62
7
  6
CONTINUOUS
 10
218.7296932789
 20
51.5716479724
 11
218.7296932789
 21
51.6763821495
  0
LINE
  5
3B7
100
AcDbEntity
  8
0
100
AcDbLine
 62
7
  6
CONTINUOUS
 10
218.8122669483
 20
33.1309361191
 11
218.8122669483
 21
33.0484266497
  0
LINE
  5
3B8
100
AcDbEntity
  8
0
100
AcDbLine
 62
7
  6
CONTINUOUS
 10
218.8547700733
 20
33.6536980144
 11
218.8547700733
 21
33.1536980144
  0
LINE
  5
3B9
100
AcDbEntity
  8
0
100
AcDbLine
 62
7
  6
CONTINUOUS
 10
219.1172807707
 20
33.1536980144
 11
219.1172807707
 21
33.0159965818
  0
LINE
  5
3BA
100
AcDbEntity
  8
0
100
AcDbLine
 62
7
  6
CONTINUOUS
 10
219.1445534185
 20
50.9036980144
 11
219.1445534185
 21
51.4036980144
  0
LINE
  5
3BB
100
AcDbEntity
  8
0
100
AcDbLine
 62
7
  6
CONTINUOUS
 10
219.3372879543
 20
32.6820573482
 11
219.3372879543
 21
32.4967753324
  0
LINE
  5
3BC
100
AcDbEntity
  8
0
100
AcDbLine
 62
7
  6
CONTINUOUS
 10
219.3494730821
 20
33.6536980144
 11
219.3494730821
 21
33.1536980144
  0
LINE
  5
3BD
100
AcDbEntity
  8
0
100
AcDbLine
 62
7
  6
CONTINUOUS
 10
219.615015322
 20
33.1536980144
 11
219.615015322
 21
32.9894495871
  0
LINE
  5
3BE
100
AcDbEntity
  8
0
100
AcDbLine
 62
7
  6
CONTINUOUS
 10
219.6175991119
 20
50.9036980144
 11
219.6175991119
 21
51.4036980144
  0
LINE
  5
3BF
100
AcDbEntity
  8
0
100
AcDbLine
 62
7
  6
CONTINUOUS
 10
219.6453909527
 20
33.6536980144
 11
219.6453909527
 21
33.1536980144
  0
LINE
  5
3C0
100
AcDbEntity
  8
RUNDUNGEN
100
AcDbLine
 62
7
  6
CONTINUOUS
 10
230.7080686065
 20
62.5359264339
 11
229.2889408592
 21
61.9323915811
  0
LINE
  5
3C1
100
AcDbEntity
  8
0
100
AcDbLine
 62
7
  6
CONTINUOUS
 10
220.6571578661
 20
50.9036980144
 11
220.6571578661
 21
51.4036980144
  0
LINE
  5
3C2
100
AcDbEntity
  8
0
100
AcDbLine
 62
7
  6
CONTINUOUS
 10
220.9565143422
 20
33.6536980144
 11
220.9565143422
 21
33.1536980144
  0
LINE
  5
3C3
100
AcDbEntity
  8
0
100
AcDbLine
 62
7
  6
CONTINUOUS
 10
221.2735966284
 20
32.6687880065
 11
221.2735966284
 21
32.3805715468
  0
LINE
  5
3C4
100
AcDbEntity
  8
0
100
AcDbLine
 62
7
  6
CONTINUOUS
 10
221.3677557624
 20
33.6536980144
 11
221.3677557624
 21
33.1536980144
  0
LINE
  5
3C5
100
AcDbEntity
  8
0
100
AcDbLine
 62
7
  6
CONTINUOUS
 10
221.6863834542
 20
33.1536980144
 11
221.6863834542
 21
32.9274579538
  0
LINE
  5
3C6
100
AcDbEntity
  8
0
100
AcDbLine
 62
7
  6
CONTINUOUS
 10
221.9505744634
 20
50.9036980144
 11
221.9505744634
 21
51.4036980144
  0
LINE
  5
3C7
100
AcDbEntity
  8
0
100
AcDbLine
 62
7
  6
CONTINUOUS
 10
222.0005502797
 20
33.6536980144
 11
222.0005502797
 21
33.1536980144
  0
LINE
  5
3C8
100
AcDbEntity
  8
0
100
AcDbLine
 62
7
  6
CONTINUOUS
 10
222.2933784703
 20
33.1536980144
 11
222.2933784703
 21
32.9209427473
  0
LINE
  5
3C9
100
AcDbEntity
  8
0
100
AcDbLine
 62
7
  6
CONTINUOUS
 10
222.7168054481
 20
33.6536980144
 11
222.7168054481
 21
33.1536980144
  0
LINE
  5
3CA
100
AcDbEntity
  8
0
100
AcDbLine
 62
7
  6
CONTINUOUS
 10
222.8169122103
 20
33.1536980144
 11
222.8169122103
 21
32.9285761526
  0
LINE
  5
3CB
100
AcDbEntity
  8
0
100
AcDbLine
 62
7
  6
CONTINUOUS
 10
222.9798468836
 20
50.9036980144
 11
222.9798468836
 21
51.4036980144
  0
LINE
  5
3CC
100
AcDbEntity
  8
0
100
AcDbLine
 62
7
  6
CONTINUOUS
 10
223.1310209354
 20
32.871379096
 11
223.1310209354
 21
32.7211112863
  0
LINE
  5
3CD
100
AcDbEntity
  8
0
100
AcDbLine
 62
7
  6
CONTINUOUS
 10
223.1857089556
 20
33.6536980144
 11
223.1857089556
 21
33.1536980144
  0
LINE
  5
3CE
100
AcDbEntity
  8
0
100
AcDbLine
 62
7
  6
CONTINUOUS
 10
223.2569850834
 20
33.1536980144
 11
223.2569850834
 21
32.9503582243
  0
LINE
  5
3CF
100
AcDbEntity
  8
0
100
AcDbLine
 62
7
  6
CONTINUOUS
 10
223.3439145369
 20
51.6447491228
 11
223.3439145369
 21
51.8075846377
  0
LINE
  5
3D0
100
AcDbEntity
  8
0
100
AcDbLine
 62
7
  6
CONTINUOUS
 10
223.3929562224
 20
50.9036980144
 11
223.3929562224
 21
51.4036980144
  0
LINE
  5
3D1
100
AcDbEntity
  8
0
100
AcDbLine
 62
7
  6
CONTINUOUS
 10
223.6135968964
 20
33.1536980144
 11
223.6135968964
 21
32.9862889681
  0
LINE
  5
3D2
100
AcDbEntity
  8
0
100
AcDbLine
 62
7
  6
CONTINUOUS
 10
223.7380741262
 20
33.6536980144
 11
223.7380741262
 21
33.1536980144
  0
LINE
  5
3D3
100
AcDbEntity
  8
0
100
AcDbLine
 62
7
  6
CONTINUOUS
 10
229.9944402085
 20
56.0144805697
 11
226.1155668893
 21
51.4036980144
  0
LINE
  5
3D4
100
AcDbEntity
  8
0
100
AcDbLine
 62
7
  6
CONTINUOUS
 10
224.0977177941
 20
33.6536980144
 11
224.0977177941
 21
33.1536980144
  0
LINE
  5
3D5
100
AcDbEntity
  8
0
100
AcDbLine
 62
7
  6
CONTINUOUS
 10
224.1052680502
 20
33.1536980144
 11
224.1052680502
 21
33.0764318429
  0
LINE
  5
3D6
100
AcDbEntity
  8
0
100
AcDbLine
 62
7
  6
CONTINUOUS
 10
224.4861921932
 20
33.6536980144
 11
224.4861921932
 21
33.1536980144
  0
LINE
  5
3D7
100
AcDbEntity
  8
0
100
AcDbLine
 62
7
  6
CONTINUOUS
 10
224.6819448513
 20
33.6536980144
 11
224.6819448513
 21
33.1536980144
  0
LINE
  5
3D8
100
AcDbEntity
  8
RUNDUNGEN
100
AcDbLine
 62
7
  6
CONTINUOUS
 10
224.8358158592
 20
29.4782192213
 11
224.8358158592
 21
33.0336679902
  0
LINE
  5
3D9
100
AcDbEntity
  8
RUNDUNGEN
100
AcDbLine
 62
7
  6
CONTINUOUS
 10
224.8358158592
 20
51.5155740915
 11
224.8358158592
 21
55.0791768074
  0
LINE
  5
3DA
100
AcDbEntity
  8
0
100
AcDbLine
 62
7
  6
CONTINUOUS
 10
224.9176908994
 20
51.4036980144
 11
224.9176908994
 21
51.4683400261
  0
LINE
  5
3DB
100
AcDbEntity
  8
0
100
AcDbLine
 62
7
  6
CONTINUOUS
 10
225.0688746513
 20
33.1536980144
 11
225.0688746513
 21
33.1058473203
  0
LINE
  5
3DC
100
AcDbEntity
  8
0
100
AcDbLine
 62
7
  6
CONTINUOUS
 10
226.4634590165
 20
33.6536980144
 11
226.4634590165
 21
33.1536980144
  0
LINE
  5
3DD
100
AcDbEntity
  8
0
100
AcDbLine
 62
7
  6
CONTINUOUS
 10
229.0184175675
 20
51.747532771
 11
228.3085319713
 21
50.9036980144
  0
LINE
  5
3DE
100
AcDbEntity
  8
0
100
AcDbLine
 62
7
  6
CONTINUOUS
 10
217.8167975331
 20
33.1015205819
 11
217.8744596206
 21
33.0531915699
  0
LINE
  5
3DF
100
AcDbEntity
  8
0
100
AcDbLine
 62
7
  6
CONTINUOUS
 10
228.0071774803
 20
50.9036980144
 11
228.0071774803
 21
51.4036980144
  0
LINE
  5
3E0
100
AcDbEntity
  8
0
100
AcDbLine
 62
7
  6
CONTINUOUS
 10
225.0688746513
 20
33.1058473203
 11
225.0112128402
 21
33.1541763907
  0
LINE
  5
3E1
100
AcDbEntity
  8
BEZUGSACHSEN
100
AcDbLine
 62
7
  6
CONTINUOUS
 10
239.9255618214
 20
57.2786980144
 11
236.2449538553
 21
50.9036980144
  0
LINE
  5
3E2
100
AcDbEntity
  8
0
100
AcDbLine
 62
7
  6
CONTINUOUS
 10
218.8122669483
 20
33.0484266497
 11
218.6999749411
 21
33.086739825
  0
LINE
  5
3E3
100
AcDbEntity
  8
BEZUGSACHSEN
100
AcDbLine
 62
7
  6
CONTINUOUS
 10
239.9255618214
 20
27.2786980144
 11
257.2460698971
 21
27.2786980144
  0
LINE
  5
3E4
100
AcDbEntity
  8
0
100
AcDbLine
 62
7
  6
CONTINUOUS
 10
217.8744596206
 20
33.0531915699
 11
218.2083037872
 21
32.9965969502
  0
LINE
  5
3E5
100
AcDbEntity
  8
0
100
AcDbLine
 62
7
  6
CONTINUOUS
 10
224.1856971588
 20
33.1206280797
 11
224.0967850359
 21
33.1509641931
  0
LINE
  5
3E6
100
AcDbEntity
  8
BEZUGSACHSEN
100
AcDbLine
 62
7
  6
CONTINUOUS
 10
236.2449538553
 20
33.6536980144
 11
239.9255618214
 21
27.2786980144
  0
LINE
  5
3E7
100
AcDbEntity
  8
0
100
AcDbLine
 62
7
  6
CONTINUOUS
 10
218.6999749411
 20
33.086739825
 11
218.7804043622
 21
33.1309361191
  0
LINE
  5
3E8
100
AcDbEntity
  8
0
100
AcDbLine
 62
7
  6
CONTINUOUS
 10
224.1856971588
 20
33.1206280797
 11
224.1052680502
 21
33.0764318429
  0
LINE
  5
3E9
100
AcDbEntity
  8
0
100
AcDbLine
 62
7
  6
CONTINUOUS
 10
249.1602195881
 20
29.8512058958
 11
249.7148890621
 21
29.944736771
  0
LINE
  5
3EA
100
AcDbEntity
  8
0
100
AcDbLine
 62
7
  6
CONTINUOUS
 10
251.5637873088
 20
30.2565063549
 11
252.1184567828
 21
30.3500372301
  0
LINE
  5
3EB
100
AcDbEntity
  8
0
100
AcDbLine
 62
7
  6
CONTINUOUS
 10
243.4530093364
 20
31.1097723327
 11
243.8180799759
 21
31.1421519729
  0
LINE
  5
3EC
100
AcDbEntity
  8
0
100
AcDbLine
 62
7
  6
CONTINUOUS
 10
274.8498325986
 20
32.9385754477
 11
274.4067282314
 21
32.9020125575
  0
LINE
  5
3ED
100
AcDbEntity
  8
0
100
AcDbLine
 62
7
  6
CONTINUOUS
 10
275.039522172
 20
32.8743474227
 11
275.3991659366
 21
32.8967615879
  0
LINE
  5
3EE
100
AcDbEntity
  8
0
100
AcDbLine
 62
7
  6
CONTINUOUS
 10
247.0259755104
 20
30.405707539
 11
246.7072115423
 21
30.3947656291
  0
LINE
  5
3EF
100
AcDbEntity
  8
0
100
AcDbLine
 62
7
  6
CONTINUOUS
 10
218.6429124463
 20
31.6536980144
 11
215.3429124463
 21
31.6536980144
  0
LINE
  5
3F0
100
AcDbEntity
  8
0
100
AcDbLine
 62
7
  6
CONTINUOUS
 10
213.5429124463
 20
31.6536980144
 11
210.2429124463
 21
31.6536980144
  0
LINE
  5
3F1
100
AcDbEntity
  8
0
100
AcDbLine
 62
7
  6
CONTINUOUS
 10
246.5924779055
 20
30.0904655776
 11
247.0345002327
 21
30.0806080805
  0
LINE
  5
3F2
100
AcDbEntity
  8
0
100
AcDbLine
 62
7
  6
CONTINUOUS
 10
218.6514084187
 20
32.9600341187
 11
219.2872345527
 21
32.9293543372
  0
LINE
  5
3F3
100
AcDbEntity
  8
0
100
AcDbLine
 62
7
  6
CONTINUOUS
 10
219.615015322
 20
32.9894495871
 11
219.1172807707
 21
33.0159965818
  0
LINE
  5
3F4
100
AcDbEntity
  8
0
100
AcDbLine
 62
7
  6
CONTINUOUS
 10
219.3372879543
 20
32.4967753324
 11
216.100496199
 21
32.6985031468
  0
LINE
  5
3F5
100
AcDbEntity
  8
0
100
AcDbLine
 62
7
  6
CONTINUOUS
 10
221.2735966284
 20
32.3805715468
 11
219.8350225838
 21
32.470228352
  0
LINE
  5
3F6
100
AcDbEntity
  8
0
100
AcDbLine
 62
7
  6
CONTINUOUS
 10
215.3296109546
 20
32.6749707571
 11
220.9458158592
 21
32.3204762969
  0
LINE
  5
3F7
100
AcDbEntity
  8
0
100
AcDbLine
 62
7
  6
CONTINUOUS
 10
218.2083037872
 20
32.9965969502
 11
218.6514084187
 21
32.9600341187
  0
LINE
  5
3F8
100
AcDbEntity
  8
0
100
AcDbLine
 62
7
  6
CONTINUOUS
 10
219.1172807707
 20
33.0159965818
 11
218.8122669483
 21
33.0484266497
  0
LINE
  5
3F9
100
AcDbEntity
  8
0
100
AcDbLine
 62
7
  6
CONTINUOUS
 10
246.3459640084
 20
30.1320639153
 11
246.5924779055
 21
30.0904655776
  0
LINE
  5
3FA
100
AcDbEntity
  8
0
100
AcDbLine
 62
7
  6
CONTINUOUS
 10
246.7072115423
 20
30.3947656291
 11
246.4606962346
 21
30.4363642049
  0
LINE
  5
3FB
100
AcDbEntity
  8
0
100
AcDbLine
 62
7
  6
CONTINUOUS
 10
247.6953675314
 20
30.6164109736
 11
247.3872244547
 21
30.6684090148
  0
LINE
  5
3FC
100
AcDbEntity
  8
0
100
AcDbLine
 62
7
  6
CONTINUOUS
 10
243.539096863
 20
31.4233821025
 11
243.230847877
 21
31.5053189648
  0
LINE
  5
3FD
100
AcDbEntity
  8
0
100
AcDbLine
 62
7
  6
CONTINUOUS
 10
243.0887937433
 20
31.2195277084
 11
243.4530093364
 21
31.1097723327
  0
LINE
  5
3FE
100
AcDbEntity
  8
0
100
AcDbLine
 62
7
  6
CONTINUOUS
 10
245.9868126436
 20
30.2574016109
 11
246.3459640084
 21
30.1320639153
  0
LINE
  5
3FF
100
AcDbEntity
  8
0
100
AcDbLine
 62
7
  6
CONTINUOUS
 10
246.4606962346
 20
30.4363642049
 11
246.1631740494
 21
30.5513021971
  0
LINE
  5
400
100
AcDbEntity
  8
0
100
AcDbLine
 62
7
  6
CONTINUOUS
 10
242.7813998036
 20
31.4435995867
 11
243.0887937433
 21
31.2195277084
  0
LINE
  5
401
100
AcDbEntity
  8
0
100
AcDbLine
 62
7
  6
CONTINUOUS
 10
245.7615391189
 20
30.4248800887
 11
245.9868126436
 21
30.2574016109
  0
LINE
  5
402
100
AcDbEntity
  8
0
100
AcDbLine
 62
7
  6
CONTINUOUS
 10
243.230847877
 20
31.5053189648
 11
242.9794218254
 21
31.7015716931
  0
LINE
  5
403
100
AcDbEntity
  8
0
100
AcDbLine
 62
7
  6
CONTINUOUS
 10
246.1631740494
 20
30.5513021971
 11
245.9995297041
 21
30.7083809714
  0
LINE
  5
404
100
AcDbEntity
  8
0
100
AcDbLine
 62
7
  6
CONTINUOUS
 10
245.5575073769
 20
30.7182384684
 11
245.7615391189
 21
30.4248800887
  0
LINE
  5
405
100
AcDbEntity
  8
0
100
AcDbLine
 62
7
  6
CONTINUOUS
 10
242.5867954055
 20
31.7541688175
 11
242.7813998036
 21
31.4435995867
  0
LINE
  5
406
100
AcDbEntity
  8
0
100
AcDbLine
 62
7
  6
CONTINUOUS
 10
242.9794218254
 20
31.7015716931
 11
242.8683410957
 21
31.8993450091
  0
LINE
  5
407
100
AcDbEntity
  8
0
100
AcDbLine
 62
7
  6
CONTINUOUS
 10
242.5041255026
 20
32.0091003849
 11
242.5867954055
 21
31.7541688175
  0
LINE
  5
408
100
AcDbEntity
  8
0
100
AcDbLine
 62
7
  6
CONTINUOUS
 10
245.5383631737
 20
30.9803977379
 11
245.5575073769
 21
30.7182384684
  0
LINE
  5
409
100
AcDbEntity
  8
0
100
AcDbLine
 62
7
  6
CONTINUOUS
 10
242.5058343144
 20
32.2933710534
 11
242.5041255026
 21
32.0091003849
  0
LINE
  5
40A
100
AcDbEntity
  8
0
100
AcDbLine
 62
7
  6
CONTINUOUS
 10
245.0070634293
 20
32.8321217775
 11
245.0087722611
 21
33.1163924861
  0
LINE
  5
40B
100
AcDbEntity
  8
0
100
AcDbLine
 62
7
  6
CONTINUOUS
 10
242.5350989862
 20
32.4926651175
 11
242.5058343144
 21
32.2933710534
  0
LINE
  5
40C
100
AcDbEntity
  8
0
100
AcDbLine
 62
7
  6
CONTINUOUS
 10
242.6211852318
 20
32.8062755241
 11
242.5350989862
 21
32.4926651175
  0
LINE
  5
40D
100
AcDbEntity
  8
0
100
AcDbLine
 62
7
  6
CONTINUOUS
 10
242.8149358645
 20
32.3535706406
 11
242.9294342179
 21
32.7243386617
  0
LINE
  5
40E
100
AcDbEntity
  8
0
100
AcDbLine
 62
7
  6
CONTINUOUS
 10
217.8167975331
 20
33.1015205819
 11
217.9467879686
 21
33.1536980144
  0
LINE
  5
40F
100
AcDbEntity
  8
0
100
AcDbLine
 62
7
  6
CONTINUOUS
 10
224.9338153225
 20
33.051635189
 11
225.0688746513
 21
33.1058473203
  0
LINE
  5
410
100
AcDbEntity
  8
RUNDUNGEN
100
AcDbLine
 62
7
  6
CONTINUOUS
 10
274.5885722783
 20
51.8957802713
 11
274.5881137245
 21
51.895647548
  0
LINE
  5
411
100
AcDbEntity
  8
0
100
AcDbLine
 62
7
  6
CONTINUOUS
 10
251.6196254485
 20
33.3082744248
 11
251.2498457991
 21
33.245920508
  0
LINE
  5
412
100
AcDbEntity
  8
0
100
AcDbLine
 62
7
  6
CONTINUOUS
 10
250.3870270875
 20
33.1004281148
 11
249.8939866147
 21
33.0172894005
  0
LINE
  5
413
100
AcDbEntity
  8
0
100
AcDbLine
 62
7
  6
CONTINUOUS
 10
249.0311679031
 20
32.8717970073
 11
248.6613882538
 21
32.8094430905
  0
LINE
  5
414
100
AcDbEntity
  8
0
100
AcDbLine
 62
7
  6
CONTINUOUS
 10
243.7638208997
 20
31.4542417916
 11
243.539096863
 21
31.4233821025
  0
LINE
  5
415
100
AcDbEntity
  8
0
100
AcDbLine
 62
7
  6
CONTINUOUS
 10
223.5361993786
 20
32.8837477664
 11
224.0309021112
 21
32.9155456767
  0
LINE
  5
416
100
AcDbEntity
  8
0
100
AcDbLine
 62
7
  6
CONTINUOUS
 10
223.2569850834
 20
32.9503582243
 11
222.8169122103
 21
32.9285761526
  0
LWPOLYLINE
  5
417
100
AcDbEntity
  8
RUNDUNGEN
100
AcDbPolyline
 62
7
  6
CONTINUOUS
 90
4
 70
0
 10
286.6164282651
 20
35.1532869179
 10
286.6426245759
 20
35.1544071984
 10
286.6731356407
 20
35.155853379
 10
286.711531406
 20
35.1578638229
  0
LINE
  5
418
100
AcDbEntity
  8
0
100
AcDbLine
 62
7
  6
CONTINUOUS
 10
256.7008908904
 20
33.505988505
 11
257.0579452672
 21
33.5201272842
  0
LINE
  5
419
100
AcDbEntity
  8
0
100
AcDbLine
 62
7
  6
CONTINUOUS
 10
222.7653139296
 20
32.8602153495
 11
223.5361993786
 21
32.8837477664
  0
LINE
  5
41A
100
AcDbEntity
  8
0
100
AcDbLine
 62
7
  6
CONTINUOUS
 10
278.4857389627
 20
32.860976941
 11
279.0381037464
 21
32.8775080417
  0
LINE
  5
41B
100
AcDbEntity
  8
0
100
AcDbLine
 62
7
  6
CONTINUOUS
 10
274.5099249379
 20
32.7652909557
 11
275.0622897699
 21
32.7818220578
  0
LINE
  5
41C
100
AcDbEntity
  8
0
100
AcDbLine
 62
7
  6
CONTINUOUS
 10
275.3991659366
 20
32.8967615879
 11
277.8848076566
 21
32.9711515466
  0
LINE
  5
41D
100
AcDbEntity
  8
0
100
AcDbLine
 62
7
  6
CONTINUOUS
 10
278.4371724403
 20
32.9876826473
 11
279.5419023945
 21
33.0207448601
  0
LINE
  5
41E
100
AcDbEntity
  8
0
100
AcDbLine
 62
7
  6
CONTINUOUS
 10
279.2687515451
 20
33.0708242732
 11
278.1640215909
 21
33.0377620603
  0
LINE
  5
41F
100
AcDbEntity
  8
0
100
AcDbLine
 62
7
  6
CONTINUOUS
 10
277.6116568072
 20
33.0212309597
 11
274.8498325986
 21
32.9385754477
  0
LINE
  5
420
100
AcDbEntity
  8
0
100
AcDbLine
 62
7
  6
CONTINUOUS
 10
277.7269806694
 20
33.117889041
 11
277.1746158857
 21
33.1013579403
  0
LINE
  5
421
100
AcDbEntity
  8
0
100
AcDbLine
 62
7
  6
CONTINUOUS
 10
274.8042978717
 20
33.1236260916
 11
275.6042555568
 21
33.1475671201
  0
LINE
  5
422
100
AcDbEntity
  8
0
100
AcDbLine
 62
7
  6
CONTINUOUS
 10
279.2687515451
 20
33.5721941388
 11
278.8150066874
 21
33.5586145223
  0
LWPOLYLINE
  5
423
100
AcDbEntity
  8
RUNDUNGEN
100
AcDbPolyline
 62
7
  6
CONTINUOUS
 90
5
 70
0
 10
221.7117930009
 20
32.5379297435
 10
221.8663003015
 20
32.5417630914
 10
222.1515957951
 20
32.5690190193
 10
222.4333018088
 20
32.6222494609
 10
222.5829604438
 20
32.6615858729
  0
LINE
  5
424
100
AcDbEntity
  8
0
100
AcDbLine
 62
7
  6
CONTINUOUS
 10
222.8169122103
 20
32.9285761526
 11
222.2933784703
 21
32.9209427473
  0
LINE
  5
425
100
AcDbEntity
  8
0
100
AcDbLine
 62
7
  6
CONTINUOUS
 10
222.103688897
 20
32.8567147223
 11
222.7653139296
 21
32.8602153495
  0
LINE
  5
426
100
AcDbEntity
  8
RUNDUNGEN
100
AcDbLine
 62
7
  6
CONTINUOUS
 10
290.5207091059
 20
32.1536980144
 11
276.3357833408
 21
32.1536980144
  0
LINE
  5
427
100
AcDbEntity
  8
RUNDUNGEN
100
AcDbLine
 62
7
  6
CONTINUOUS
 10
220.8358482925
 20
32.1536980144
 11
206.6509226131
 21
32.1536980144
  0
LINE
  5
428
100
AcDbEntity
  8
RUNDUNGEN
100
AcDbLine
 62
7
  6
CONTINUOUS
 10
221.2735966284
 20
32.5378485297
 11
221.7117930036
 21
32.537919227
  0
LINE
  5
429
100
AcDbEntity
  8
0
100
AcDbLine
 62
7
  6
CONTINUOUS
 10
278.8150066874
 20
33.1536980144
 11
271.9969389362
 21
33.1536980144
  0
LINE
  5
42A
100
AcDbEntity
  8
0
100
AcDbLine
 62
7
  6
CONTINUOUS
 10
226.4634590165
 20
33.1536980144
 11
217.9467879686
 21
33.1536980144
  0
LINE
  5
42B
100
AcDbEntity
  8
RUNDUNGEN
100
AcDbLine
 62
7
  6
CONTINUOUS
 10
285.6366648685
 20
33.6536980144
 11
211.5349668547
 21
33.6536980144
  0
LINE
  5
42C
100
AcDbEntity
  8
RUNDUNGEN
100
AcDbLine
 62
7
  6
CONTINUOUS
 10
286.1048712371
 20
35.1536980144
 11
275.5146237811
 21
35.1536980144
  0
LINE
  5
42D
100
AcDbEntity
  8
RUNDUNGEN
100
AcDbLine
 62
7
  6
CONTINUOUS
 10
272.4352931649
 20
35.1536980144
 11
250.6576399233
 21
35.1536980144
  0
LINE
  5
42E
100
AcDbEntity
  8
RUNDUNGEN
100
AcDbLine
 62
7
  6
CONTINUOUS
 10
246.5139918474
 20
35.1536980144
 11
224.7363385029
 21
35.1536980144
  0
LINE
  5
42F
100
AcDbEntity
  8
RUNDUNGEN
100
AcDbLine
 62
7
  6
CONTINUOUS
 10
221.6570079506
 20
35.1536980144
 11
211.0667604817
 21
35.1536980144
  0
LINE
  5
430
100
AcDbEntity
  8
RUNDUNGEN
100
AcDbLine
 62
7
  6
CONTINUOUS
 10
275.459838679
 20
32.537919227
 11
276.0275605887
 21
32.5374547065
  0
LINE
  5
431
100
AcDbEntity
  8
0
100
AcDbLine
 62
7
  6
CONTINUOUS
 10
223.1310209354
 20
32.7211112863
 11
215.7666519542
 21
32.7550977521
  0
LINE
  5
432
100
AcDbEntity
  8
0
100
AcDbLine
 62
7
  6
CONTINUOUS
 10
217.8167975331
 20
33.2470062228
 11
215.7666519542
 21
33.2564676177
  0
LINE
  5
433
100
AcDbEntity
  8
0
100
AcDbLine
 62
7
  6
CONTINUOUS
 10
220.9276251609
 20
32.6705458538
 11
222.8032401661
 21
32.6610160364
  0
LINE
  5
434
100
AcDbEntity
  8
0
100
AcDbLine
 62
7
  6
CONTINUOUS
 10
216.100496199
 20
32.6985031468
 11
220.3206303011
 21
32.6770610891
  0
LINE
  5
435
100
AcDbEntity
  8
RUNDUNGEN
100
AcDbLine
 62
7
  6
CONTINUOUS
 10
276.0275605887
 20
32.5374547065
 11
276.238106869
 21
32.5358147235
  0
LINE
  5
436
100
AcDbEntity
  8
0
100
AcDbLine
 62
7
  6
CONTINUOUS
 10
222.2933784703
 20
32.9209427473
 11
221.6863834542
 21
32.9274579538
  0
LINE
  5
437
100
AcDbEntity
  8
0
100
AcDbLine
 62
7
  6
CONTINUOUS
 10
221.358602685
 20
32.867362704
 11
222.103688897
 21
32.8567147223
  0
LINE
  5
438
100
AcDbEntity
  8
RUNDUNGEN
100
AcDbLine
 62
7
  6
CONTINUOUS
 10
276.238106869
 20
32.5358147235
 11
276.4417944693
 21
32.5330876105
  0
LINE
  5
439
100
AcDbEntity
  8
RUNDUNGEN
100
AcDbLine
 62
7
  6
CONTINUOUS
 10
276.4417944693
 20
32.5330876105
 11
276.6377862111
 21
32.5293769345
  0
LINE
  5
43A
100
AcDbEntity
  8
RUNDUNGEN
100
AcDbLine
 62
7
  6
CONTINUOUS
 10
276.6377862111
 20
32.5293769345
 11
276.8253707164
 21
32.5247177389
  0
LINE
  5
43B
100
AcDbEntity
  8
0
100
AcDbLine
 62
7
  6
CONTINUOUS
 10
219.2872345527
 20
32.9293543372
 11
221.358602685
 21
32.867362704
  0
LINE
  5
43C
100
AcDbEntity
  8
0
100
AcDbLine
 62
7
  6
CONTINUOUS
 10
221.6863834542
 20
32.9274579538
 11
219.615015322
 21
32.9894495871
  0
LINE
  5
43D
100
AcDbEntity
  8
RUNDUNGEN
100
AcDbLine
 62
7
  6
CONTINUOUS
 10
276.8253707164
 20
32.5247177389
 11
277.0038144361
 21
32.519215787
  0
LINE
  5
43E
100
AcDbEntity
  8
RUNDUNGEN
100
AcDbLine
 62
7
  6
CONTINUOUS
 10
277.0038144361
 20
32.519215787
 11
277.1723049817
 21
32.5129482884
  0
LINE
  5
43F
100
AcDbEntity
  8
RUNDUNGEN
100
AcDbLine
 62
7
  6
CONTINUOUS
 10
210.5236580778
 20
35.1546499692
 11
210.5552000132
 21
35.1532870616
  0
LINE
  5
440
100
AcDbEntity
  8
RUNDUNGEN
100
AcDbLine
 62
7
  6
CONTINUOUS
 10
277.1723049817
 20
32.5129482884
 11
277.3303073307
 21
32.5059732173
  0
LWPOLYLINE
  5
441
100
AcDbEntity
  8
RUNDUNGEN
100
AcDbPolyline
 62
7
  6
CONTINUOUS
 90
16
 70
0
 10
277.3303073307
 20
32.5059732173
 10
277.4772833441
 20
32.498396048
 10
277.5464276297
 20
32.4944034528
 10
277.6125891562
 20
32.4902827341
 10
277.6756660318
 20
32.4860516132
 10
277.7355914145
 20
32.4817260428
 10
277.792182089
 20
32.47732962
 10
277.845280535
 20
32.4728844888
 10
277.8947403838
 20
32.4684130653
 10
277.9404331616
 20
32.4639427831
 10
277.98207718
 20
32.4595249022
 10
278.0195534257
 20
32.4552028301
 10
278.0522931352
 20
32.45108541
 10
278.0799487275
 20
32.4472782438
 10
278.1019396725
 20
32.4439453516
 10
278.1136266921
 20
32.4420125618
  0
LINE
  5
442
100
AcDbEntity
  8
RUNDUNGEN
100
AcDbLine
 62
7
  6
CONTINUOUS
 10
210.4562468188
 20
35.1580730744
 11
210.5236580778
 21
35.1546499692
  0
LINE
  5
443
100
AcDbEntity
  8
RUNDUNGEN
100
AcDbLine
 62
7
  6
CONTINUOUS
 10
210.4562468188
 20
35.1580730744
 11
210.4587472026
 21
35.157937276
  0
LINE
  5
444
100
AcDbEntity
  8
0
100
AcDbLine
 62
7
  6
CONTINUOUS
 10
245.8676108602
 20
32.9315365275
 11
247.5932137822
 21
32.6403472113
  0
LINE
  5
445
100
AcDbEntity
  8
0
100
AcDbLine
 62
7
  6
CONTINUOUS
 10
248.1393488621
 20
32.8718498589
 11
245.9207153248
 21
33.2462363266
  0
LINE
  5
446
100
AcDbEntity
  8
0
100
AcDbLine
 62
7
  6
CONTINUOUS
 10
244.1559318232
 20
33.6536980144
 11
244.2820486057
 21
33.6201745429
  0
LINE
  5
447
100
AcDbEntity
  8
0
100
AcDbLine
 62
7
  6
CONTINUOUS
 10
244.2820486057
 20
33.6201745429
 11
244.5334759382
 21
33.4239211779
  0
LINE
  5
448
100
AcDbEntity
  8
0
100
AcDbLine
 62
7
  6
CONTINUOUS
 10
244.9261023681
 20
33.3713240735
 11
244.749164508
 21
33.6536980144
  0
LINE
  5
449
100
AcDbEntity
  8
0
100
AcDbLine
 62
7
  6
CONTINUOUS
 10
244.5334759382
 20
33.4239211779
 11
244.6445566679
 21
33.2261478619
  0
LINE
  5
44A
100
AcDbEntity
  8
0
100
AcDbLine
 62
7
  6
CONTINUOUS
 10
245.9995297041
 20
30.7083809714
 11
245.9081354299
 21
30.9179999932
  0
LINE
  5
44B
100
AcDbEntity
  8
0
100
AcDbLine
 62
7
  6
CONTINUOUS
 10
245.0087722611
 20
33.1163924861
 11
244.9261023681
 21
33.3713240735
  0
LINE
  5
44C
100
AcDbEntity
  8
0
100
AcDbLine
 62
7
  6
CONTINUOUS
 10
242.8683410957
 20
31.8993450091
 11
242.8149358645
 21
32.3535706406
  0
LINE
  5
44D
100
AcDbEntity
  8
0
100
AcDbLine
 62
7
  6
CONTINUOUS
 10
244.6445566679
 20
33.2261478619
 11
244.6979606779
 21
32.7719229872
  0
LINE
  5
44E
100
AcDbEntity
  8
0
100
AcDbLine
 62
7
  6
CONTINUOUS
 10
244.9777988372
 20
32.6328278736
 11
245.0070634293
 21
32.8321217775
  0
LINE
  5
44F
100
AcDbEntity
  8
0
100
AcDbLine
 62
7
  6
CONTINUOUS
 10
245.9207153248
 20
33.2462363266
 11
245.8676108602
 21
32.9315365275
  0
LINE
  5
450
100
AcDbEntity
  8
0
100
AcDbLine
 62
7
  6
CONTINUOUS
 10
245.5596049863
 20
31.1062778162
 11
245.5383631737
 21
30.9803977379
  0
LINE
  5
451
100
AcDbEntity
  8
0
100
AcDbLine
 62
7
  6
CONTINUOUS
 10
245.9081354299
 20
30.9179999932
 11
245.9293772425
 21
31.0438800716
  0
LINE
  5
452
100
AcDbEntity
  8
0
100
AcDbLine
 62
7
  6
CONTINUOUS
 10
244.8917112707
 20
32.3192180237
 11
244.9777988372
 21
32.6328278736
  0
LINE
  5
453
100
AcDbEntity
  8
0
100
AcDbLine
 62
7
  6
CONTINUOUS
 10
244.6979606779
 20
32.7719229872
 11
244.5834635657
 21
32.4011542493
  0
LINE
  5
454
100
AcDbEntity
  8
0
100
AcDbLine
 62
7
  6
CONTINUOUS
 10
245.663716321
 20
31.3476381548
 11
245.5596049863
 21
31.1062778162
  0
LINE
  5
455
100
AcDbEntity
  8
0
100
AcDbLine
 62
7
  6
CONTINUOUS
 10
242.8768826725
 20
33.3206997857
 11
242.6211852318
 21
32.8062755241
  0
LINE
  5
456
100
AcDbEntity
  8
0
100
AcDbLine
 62
7
  6
CONTINUOUS
 10
242.9294342179
 20
32.7243386617
 11
243.128310005
 21
33.1244464208
  0
LINE
  5
457
100
AcDbEntity
  8
0
100
AcDbLine
 62
7
  6
CONTINUOUS
 10
244.5834635657
 20
32.4011542493
 11
244.3845877785
 21
32.0010464903
  0
LINE
  5
458
100
AcDbEntity
  8
0
100
AcDbLine
 62
7
  6
CONTINUOUS
 10
244.6360138301
 20
31.8047937621
 11
244.8917112707
 21
32.3192180237
  0
LINE
  5
459
100
AcDbEntity
  8
0
100
AcDbLine
 62
7
  6
CONTINUOUS
 10
243.128310005
 20
33.1244464208
 11
243.3547416124
 21
33.4395774952
  0
LINE
  5
45A
100
AcDbEntity
  8
0
100
AcDbLine
 62
7
  6
CONTINUOUS
 10
244.3845877785
 20
32.0010464903
 11
244.15815493
 21
31.6859161326
  0
LINE
  5
45B
100
AcDbEntity
  8
0
100
AcDbLine
 62
7
  6
CONTINUOUS
 10
243.074904734
 20
33.5786719722
 11
242.8768826725
 21
33.3206997857
  0
LINE
  5
45C
100
AcDbEntity
  8
0
100
AcDbLine
 62
7
  6
CONTINUOUS
 10
243.148648497
 20
33.6536980144
 11
243.074904734
 21
33.5786719722
  0
LWPOLYLINE
  5
45D
100
AcDbEntity
  8
RUNDUNGEN
100
AcDbPolyline
 62
7
  6
CONTINUOUS
 90
3
 70
0
 10
223.1310209354
 20
32.7933345592
 10
223.2960256509
 20
32.8270596082
 10
223.5066016995
 20
32.8669928262
  0
LINE
  5
45E
100
AcDbEntity
  8
0
100
AcDbLine
 62
7
  6
CONTINUOUS
 10
220.9458158592
 20
32.3204762969
 11
221.2735966284
 21
32.3805715468
  0
LINE
  5
45F
100
AcDbEntity
  8
0
100
AcDbLine
 62
7
  6
CONTINUOUS
 10
222.8032401661
 20
32.6610160364
 11
223.1310209354
 21
32.7211112863
  0
LINE
  5
460
100
AcDbEntity
  8
0
100
AcDbLine
 62
7
  6
CONTINUOUS
 10
224.4421441686
 20
32.9614923142
 11
224.9338153225
 21
33.051635189
  0
LINE
  5
461
100
AcDbEntity
  8
RUNDUNGEN
100
AcDbLine
 62
7
  6
CONTINUOUS
 10
223.5066016991
 20
32.8669928288
 11
223.6313465786
 21
32.8898635243
  0
LINE
  5
462
100
AcDbEntity
  8
0
100
AcDbLine
 62
7
  6
CONTINUOUS
 10
224.1052680502
 20
33.0764318429
 11
223.6135968964
 21
32.9862889681
  0
LINE
  5
463
100
AcDbEntity
  8
0
100
AcDbLine
 62
7
  6
CONTINUOUS
 10
219.8350225838
 20
32.470228352
 11
220.9276251609
 21
32.6705458538
  0
LINE
  5
464
100
AcDbEntity
  8
0
100
AcDbLine
 62
7
  6
CONTINUOUS
 10
220.3206303011
 20
32.6770610891
 11
219.3372879543
 21
32.4967753324
  0
LINE
  5
465
100
AcDbEntity
  8
0
100
AcDbLine
 62
7
  6
CONTINUOUS
 10
218.7804043622
 20
33.1309361191
 11
218.8563891224
 21
33.1448671473
  0
LINE
  5
466
100
AcDbEntity
  8
0
100
AcDbLine
 62
7
  6
CONTINUOUS
 10
215.7666519542
 20
32.7550977521
 11
215.3296109546
 21
32.6749707571
  0
LWPOLYLINE
  5
467
100
AcDbEntity
  8
RUNDUNGEN
100
AcDbPolyline
 62
7
  6
CONTINUOUS
 90
4
 70
0
 10
226.4634590165
 20
33.4091023586
 10
227.5367491388
 20
33.6057808609
 10
227.5763294703
 20
33.6126952366
 10
227.619336498
 20
33.6199610731
  0
LINE
  5
468
100
AcDbEntity
  8
RUNDUNGEN
100
AcDbLine
 62
7
  6
CONTINUOUS
 10
227.619336498
 20
33.6199610731
 11
227.6720021919
 21
33.6285476401
  0
LINE
  5
469
100
AcDbEntity
  8
0
100
AcDbLine
 62
7
  6
CONTINUOUS
 10
224.0309021112
 20
32.9155456767
 11
224.4421441686
 21
32.9614923142
  0
LINE
  5
46A
100
AcDbEntity
  8
0
100
AcDbLine
 62
7
  6
CONTINUOUS
 10
223.6135968964
 20
32.9862889681
 11
223.2569850834
 21
32.9503582243
  0
LWPOLYLINE
  5
46B
100
AcDbEntity
  8
RUNDUNGEN
100
AcDbPolyline
 62
7
  6
CONTINUOUS
 90
4
 70
0
 10
269.4996293228
 20
33.6285476728
 10
269.5486176588
 20
33.6205713488
 10
269.5918308679
 20
33.6132908724
 10
269.6316261418
 20
33.6063586206
  0
LINE
  5
46C
100
AcDbEntity
  8
RUNDUNGEN
100
AcDbLine
 62
7
  6
CONTINUOUS
 10
269.6316261418
 20
33.6063586206
 11
271.9969389362
 21
33.1728202576
  0
LINE
  5
46D
100
AcDbEntity
  8
RUNDUNGEN
100
AcDbLine
 62
7
  6
CONTINUOUS
 10
272.1012384208
 20
33.1536980144
 11
273.6649416317
 21
32.8670090321
  0
LINE
  5
46E
100
AcDbEntity
  8
0
100
AcDbLine
 62
7
  6
CONTINUOUS
 10
274.8042978717
 20
33.1236260916
 11
274.640274958
 21
33.1536980144
  0
LINE
  5
46F
100
AcDbEntity
  8
0
100
AcDbLine
 62
7
  6
CONTINUOUS
 10
277.1746158857
 20
33.1013579403
 11
277.6116568072
 21
33.0212309597
  0
LINE
  5
470
100
AcDbEntity
  8
0
100
AcDbLine
 62
7
  6
CONTINUOUS
 10
277.8848076566
 20
32.9711515466
 11
278.4857389627
 21
32.860976941
  0
LINE
  5
471
100
AcDbEntity
  8
0
100
AcDbLine
 62
7
  6
CONTINUOUS
 10
279.0381037464
 20
32.8775080417
 11
278.4371724403
 21
32.9876826473
  0
LINE
  5
472
100
AcDbEntity
  8
0
100
AcDbLine
 62
7
  6
CONTINUOUS
 10
278.1640215909
 20
33.0377620603
 11
277.7269806694
 21
33.117889041
  0
LINE
  5
473
100
AcDbEntity
  8
0
100
AcDbLine
 62
7
  6
CONTINUOUS
 10
279.5419023945
 20
33.0207448601
 11
279.2687515451
 21
33.0708242732
  0
LWPOLYLINE
  5
474
100
AcDbEntity
  8
RUNDUNGEN
100
AcDbPolyline
 62
7
  6
CONTINUOUS
 90
4
 70
0
 10
273.6650365124
 20
32.8669916359
 10
273.8724245345
 20
32.8276840678
 10
274.0864370951
 20
32.7839925172
 10
274.2671899971
 20
32.7439187931
  0
LINE
  5
475
100
AcDbEntity
  8
RUNDUNGEN
100
AcDbLine
 62
7
  6
CONTINUOUS
 10
274.2671899971
 20
32.7439187931
 11
274.4159571788
 21
32.7080357533
  0
LINE
  5
476
100
AcDbEntity
  8
0
100
AcDbLine
 62
7
  6
CONTINUOUS
 10
256.4276868566
 20
33.5845535595
 11
256.7008908904
 21
33.505988505
  0
LINE
  5
477
100
AcDbEntity
  8
0
100
AcDbLine
 62
7
  6
CONTINUOUS
 10
256.3128341979
 20
33.6536980144
 11
256.4276868566
 21
33.5845535595
  0
LINE
  5
478
100
AcDbEntity
  8
0
100
AcDbLine
 62
7
  6
CONTINUOUS
 10
251.6425428196
 20
30.9170954074
 11
250.3870270875
 21
33.1004281148
  0
LINE
  5
479
100
AcDbEntity
  8
0
100
AcDbLine
 62
7
  6
CONTINUOUS
 10
250.1935740155
 20
32.7441526665
 11
251.5637873088
 21
30.2565063549
  0
LINE
  5
47A
100
AcDbEntity
  8
0
100
AcDbLine
 62
7
  6
CONTINUOUS
 10
248.6613882538
 20
32.8094430905
 11
249.1602195881
 21
29.8512058958
  0
LINE
  5
47B
100
AcDbEntity
  8
0
100
AcDbLine
 62
7
  6
CONTINUOUS
 10
249.4238649236
 20
30.5429719067
 11
249.0311679031
 21
32.8717970073
  0
LINE
  5
47C
100
AcDbEntity
  8
0
100
AcDbLine
 62
7
  6
CONTINUOUS
 10
248.0862443975
 20
32.5571500598
 11
248.1393488621
 21
32.8718498589
  0
LINE
  5
47D
100
AcDbEntity
  8
0
100
AcDbLine
 62
7
  6
CONTINUOUS
 10
249.7148890621
 20
29.944736771
 11
250.1935740155
 21
32.7441526665
  0
LINE
  5
47E
100
AcDbEntity
  8
0
100
AcDbLine
 62
7
  6
CONTINUOUS
 10
249.8939866147
 20
33.0172894005
 11
249.4238649236
 21
30.5429719067
  0
LINE
  5
47F
100
AcDbEntity
  8
0
100
AcDbLine
 62
7
  6
CONTINUOUS
 10
247.5912547861
 20
30.375050873
 11
247.6953675314
 21
30.6164109736
  0
LINE
  5
480
100
AcDbEntity
  8
0
100
AcDbLine
 62
7
  6
CONTINUOUS
 10
245.9293772425
 20
31.0438800716
 11
246.0951177568
 21
31.2748407067
  0
LINE
  5
481
100
AcDbEntity
  8
0
100
AcDbLine
 62
7
  6
CONTINUOUS
 10
244.4379930893
 20
31.5468210189
 11
244.6360138301
 21
31.8047937621
  0
LINE
  5
482
100
AcDbEntity
  8
0
100
AcDbLine
 62
7
  6
CONTINUOUS
 10
245.8188373544
 20
31.5156586009
 11
245.663716321
 21
31.3476381548
  0
LINE
  5
483
100
AcDbEntity
  8
0
100
AcDbLine
 62
7
  6
CONTINUOUS
 10
244.2967926414
 20
31.403165255
 11
244.4379930893
 21
31.5468210189
  0
LINE
  5
484
100
AcDbEntity
  8
0
100
AcDbLine
 62
7
  6
CONTINUOUS
 10
244.0712148393
 20
31.2301699133
 11
244.2967926414
 21
31.403165255
  0
LINE
  5
485
100
AcDbEntity
  8
0
100
AcDbLine
 62
7
  6
CONTINUOUS
 10
243.3547416124
 20
33.4395774952
 11
243.7191995158
 21
33.6536980144
  0
LINE
  5
486
100
AcDbEntity
  8
0
100
AcDbLine
 62
7
  6
CONTINUOUS
 10
244.15815493
 20
31.6859161326
 11
243.7638208997
 21
31.4542417916
  0
LWPOLYLINE
  5
487
100
AcDbEntity
  8
RUNDUNGEN
100
AcDbPolyline
 62
7
  6
CONTINUOUS
 90
4
 70
0
 10
219.0473598506
 20
32.4403067072
 10
219.0440392693
 20
32.4394910381
 10
219.0425751239
 20
32.4391499903
 10
219.0482011314
 20
32.4402536056
  0
LINE
  5
488
100
AcDbEntity
  8
0
100
AcDbLine
 62
7
  6
CONTINUOUS
 10
215.7666519542
 20
33.2564676177
 11
215.3296109546
 21
33.1763406227
  0
LINE
  5
489
100
AcDbEntity
  8
0
100
AcDbLine
 62
7
  6
CONTINUOUS
 10
279.5419023945
 20
33.5221147257
 11
279.2687515451
 21
33.5721941388
  0
LWPOLYLINE
  5
48A
100
AcDbEntity
  8
RUNDUNGEN
100
AcDbPolyline
 62
7
  6
CONTINUOUS
 90
3
 70
0
 10
274.4159571788
 20
32.7080357533
 10
274.5339946008
 20
32.677005989
 10
274.5881166801
 20
32.6617476261
  0
LWPOLYLINE
  5
48B
100
AcDbEntity
  8
RUNDUNGEN
100
AcDbPolyline
 62
7
  6
CONTINUOUS
 90
5
 70
0
 10
274.5886678146
 20
32.6615868769
 10
274.7272577869
 20
32.6248913599
 10
275.0088974239
 20
32.5706207546
 10
275.2942444512
 20
32.542332023
 10
275.4598386796
 20
32.5379297467
  0
LINE
  5
48C
100
AcDbEntity
  8
RUNDUNGEN
100
AcDbLine
 62
7
  6
CONTINUOUS
 10
274.5881137253
 20
32.6617484806
 11
274.5886632862
 21
32.6615894255
  0
LINE
  5
48D
100
AcDbEntity
  8
0
100
AcDbLine
 62
7
  6
CONTINUOUS
 10
274.3202353766
 20
32.8295189811
 11
274.5099249379
 21
32.7652909557
  0
LINE
  5
48E
100
AcDbEntity
  8
0
100
AcDbLine
 62
7
  6
CONTINUOUS
 10
251.2498457991
 20
33.245920508
 11
251.6425428196
 21
30.9170954074
  0
LINE
  5
48F
100
AcDbEntity
  8
0
100
AcDbLine
 62
7
  6
CONTINUOUS
 10
252.1184567828
 20
30.3500372301
 11
251.6196254485
 21
33.3082744248
  0
LINE
  5
490
100
AcDbEntity
  8
0
100
AcDbLine
 62
7
  6
CONTINUOUS
 10
247.3872244547
 20
30.6684090148
 11
247.2321034213
 21
30.5003885687
  0
LINE
  5
491
100
AcDbEntity
  8
0
100
AcDbLine
 62
7
  6
CONTINUOUS
 10
247.3022573233
 20
30.1648894068
 11
247.5912547861
 21
30.375050873
  0
LINE
  5
492
100
AcDbEntity
  8
0
100
AcDbLine
 62
7
  6
CONTINUOUS
 10
246.0951177568
 20
31.2748407067
 11
248.0862443975
 21
32.5571500598
  0
LINE
  5
493
100
AcDbEntity
  8
0
100
AcDbLine
 62
7
  6
CONTINUOUS
 10
247.5932137822
 20
32.6403472113
 11
245.8188373544
 21
31.5156586009
  0
LINE
  5
494
100
AcDbEntity
  8
0
100
AcDbLine
 62
7
  6
CONTINUOUS
 10
247.2321034213
 20
30.5003885687
 11
247.0259755104
 21
30.405707539
  0
LINE
  5
495
100
AcDbEntity
  8
0
100
AcDbLine
 62
7
  6
CONTINUOUS
 10
257.0579452672
 20
33.5201272842
 11
257.3203230385
 21
33.6199007727
  0
LINE
  5
496
100
AcDbEntity
  8
0
100
AcDbLine
 62
7
  6
CONTINUOUS
 10
243.8180799759
 20
31.1421519729
 11
244.0712148393
 21
31.2301699133
  0
LINE
  5
497
100
AcDbEntity
  8
0
100
AcDbLine
 62
7
  6
CONTINUOUS
 10
247.0345002327
 20
30.0806080805
 11
247.3022573233
 21
30.1648894068
  0
LWPOLYLINE
  5
498
100
AcDbEntity
  8
RUNDUNGEN
100
AcDbPolyline
 62
7
  6
CONTINUOUS
 90
4
 70
0
 10
274.5881166766
 20
51.8956484017
 10
274.5339945898
 20
51.8803900359
 10
274.4159571911
 20
51.8493602782
 10
274.2671901232
 20
51.8134772651
  0
LWPOLYLINE
  5
499
100
AcDbEntity
  8
RUNDUNGEN
100
AcDbPolyline
 62
7
  6
CONTINUOUS
 90
17
 70
0
 10
278.1233890932
 20
52.1168724763
 10
278.1275924491
 20
52.1179049906
 10
278.1290565945
 20
52.1182460384
 10
278.123067821
 20
52.1170712618
 10
278.1106149313
 20
52.1148714971
 10
278.0918871148
 20
52.1118857568
 10
278.0674149992
 20
52.1083482044
 10
278.0376072965
 20
52.1044185012
 10
278.0030569714
 20
52.1002451158
 10
277.9640719817
 20
52.0959162395
 10
277.9212040337
 20
52.0915281712
 10
277.8745553171
 20
52.0871157717
 10
277.8243702856
 20
52.0827206709
 10
277.7707900746
 20
52.0783660925
 10
277.7139685839
 20
52.0740724419
 10
277.654045702
 20
52.0698588689
 10
277.5911926908
 20
52.0657466696
  0
LWPOLYLINE
  5
49A
100
AcDbEntity
  8
RUNDUNGEN
100
AcDbPolyline
 62
7
  6
CONTINUOUS
 90
4
 70
0
 10
274.2671901232
 20
51.8134772651
 10
274.08643736
 20
51.7734035679
 10
273.8724244282
 20
51.7297119406
 10
273.6650364736
 20
51.6904043851
  0
LINE
  5
49B
100
AcDbEntity
  8
0
100
AcDbLine
 62
7
  6
CONTINUOUS
 10
216.1799545559
 20
51.3476852496
 11
217.28731152
 21
51.133999063
  0
LINE
  5
49C
100
AcDbEntity
  8
0
100
AcDbLine
 62
7
  6
CONTINUOUS
 10
217.7603572134
 20
51.0427156436
 11
218.1975905168
 21
50.9583429252
  0
LINE
  5
49D
100
AcDbEntity
  8
0
100
AcDbLine
 62
7
  6
CONTINUOUS
 10
216.1799545559
 20
51.8490551151
 11
217.28731152
 21
51.6353689286
  0
LINE
  5
49E
100
AcDbEntity
  8
0
100
AcDbLine
 62
7
  6
CONTINUOUS
 10
217.7603572134
 20
51.5440855091
 11
218.2334029068
 21
51.4528020897
  0
LINE
  5
49F
100
AcDbEntity
  8
0
100
AcDbLine
 62
7
  6
CONTINUOUS
 10
218.3165839402
 20
51.6646356445
 11
217.3678047938
 21
51.8477211393
  0
LINE
  5
4A0
100
AcDbEntity
  8
0
100
AcDbLine
 62
7
  6
CONTINUOUS
 10
218.2566475855
 20
51.767665569
 11
218.7296932789
 21
51.6763821495
  0
LINE
  5
4A1
100
AcDbEntity
  8
0
100
AcDbLine
 62
7
  6
CONTINUOUS
 10
275.0622897699
 20
32.7818220578
 11
274.9272301647
 21
32.8360342475
  0
LINE
  5
4A2
100
AcDbEntity
  8
0
100
AcDbLine
 62
7
  6
CONTINUOUS
 10
257.3203230385
 20
33.6199007727
 11
257.3662876886
 21
33.6536980144
  0
LWPOLYLINE
  5
4A3
100
AcDbEntity
  8
RUNDUNGEN
100
AcDbPolyline
 62
7
  6
CONTINUOUS
 90
5
 70
0
 10
273.6649416317
 20
51.6903869966
 10
269.6316367316
 20
50.9510392837
 10
269.5918433891
 20
50.9441073023
 10
269.5486294792
 20
50.9368266403
 10
269.4996296175
 20
50.9288484006
  0
LWPOLYLINE
  5
4A4
100
AcDbEntity
  8
RUNDUNGEN
100
AcDbPolyline
 62
7
  6
CONTINUOUS
 90
7
 70
0
 10
269.4996787536
 20
50.9288562887
 10
269.4828748588
 20
50.9263628925
 10
269.4321030608
 20
50.9203513845
 10
269.3537231508
 20
50.9137315356
 10
269.2470303181
 20
50.9079894914
 10
269.1115685489
 20
50.9043906529
 10
269.0128268461
 20
50.9036980253
  0
LINE
  5
4A5
100
AcDbEntity
  8
RUNDUNGEN
100
AcDbLine
 62
7
  6
CONTINUOUS
 10
211.0667604817
 20
49.4036980144
 11
221.6570079514
 21
49.4036980144
  0
LINE
  5
4A6
100
AcDbEntity
  8
RUNDUNGEN
100
AcDbLine
 62
7
  6
CONTINUOUS
 10
224.7363385038
 20
49.4036980144
 11
246.5139918473
 21
49.4036980144
  0
LINE
  5
4A7
100
AcDbEntity
  8
RUNDUNGEN
100
AcDbLine
 62
7
  6
CONTINUOUS
 10
250.6576398743
 20
49.4036980144
 11
272.4352932331
 21
49.4036980144
  0
LINE
  5
4A8
100
AcDbEntity
  8
RUNDUNGEN
100
AcDbLine
 62
7
  6
CONTINUOUS
 10
275.5146237819
 20
49.4036980144
 11
286.1048712371
 21
49.4036980144
  0
LINE
  5
4A9
100
AcDbEntity
  8
RUNDUNGEN
100
AcDbLine
 62
7
  6
CONTINUOUS
 10
223.5066900867
 20
51.6903869966
 11
223.881982569
 21
51.6215809603
  0
LINE
  5
4AA
100
AcDbEntity
  8
RUNDUNGEN
100
AcDbLine
 62
7
  6
CONTINUOUS
 10
224.9176908994
 20
51.4316944365
 11
225.0703932976
 21
51.4036980144
  0
LINE
  5
4AB
100
AcDbEntity
  8
RUNDUNGEN
100
AcDbLine
 62
7
  6
CONTINUOUS
 10
223.5066017351
 20
51.6904031954
 11
223.3439145369
 21
51.7212548683
  0
LINE
  5
4AC
100
AcDbEntity
  8
0
100
AcDbLine
 62
7
  6
CONTINUOUS
 10
221.3658629702
 20
51.9614034166
 11
221.8415964233
 21
51.8696013413
  0
LINE
  5
4AD
100
AcDbEntity
  8
0
100
AcDbLine
 62
7
  6
CONTINUOUS
 10
223.3439145369
 20
51.8075846377
 11
222.2365575728
 21
52.0212708242
  0
LINE
  5
4AE
100
AcDbEntity
  8
BEZUGSACHSEN
100
AcDbLine
 62
7
  6
CONTINUOUS
 10
257.2460698971
 20
27.2786980144
 11
260.9266778631
 21
33.6536980144
  0
LINE
  5
4AF
100
AcDbEntity
  8
0
100
AcDbLine
 62
7
  6
CONTINUOUS
 10
274.4067282314
 20
32.9020125575
 11
274.2944362
 21
32.8636993815
  0
LINE
  5
4B0
100
AcDbEntity
  8
0
100
AcDbLine
 62
7
  6
CONTINUOUS
 10
274.9272301647
 20
32.8360342475
 11
275.039522172
 21
32.8743474227
  0
LINE
  5
4B1
100
AcDbEntity
  8
RUNDUNGEN
100
AcDbLine
 62
7
  6
CONTINUOUS
 10
277.5911926908
 20
52.0657466696
 11
277.4569116111
 21
52.0578795877
  0
LINE
  5
4B2
100
AcDbEntity
  8
RUNDUNGEN
100
AcDbLine
 62
7
  6
CONTINUOUS
 10
277.4569116111
 20
52.0578795877
 11
277.3116690344
 21
52.0505405658
  0
LWPOLYLINE
  5
4B3
100
AcDbEntity
  8
RUNDUNGEN
100
AcDbPolyline
 62
7
  6
CONTINUOUS
 90
4
 70
0
 10
210.5552037329
 20
49.4041091171
 10
210.5290105212
 20
49.4029889692
 10
210.4984978298
 20
49.4015427378
 10
210.4601024628
 20
49.3995323186
  0
LINE
  5
4B4
100
AcDbEntity
  8
RUNDUNGEN
100
AcDbLine
 62
7
  6
CONTINUOUS
 10
277.3116690344
 20
52.0505405658
 11
277.1560500246
 21
52.0437925389
  0
LINE
  5
4B5
100
AcDbEntity
  8
RUNDUNGEN
100
AcDbLine
 62
7
  6
CONTINUOUS
 10
277.1560500246
 20
52.0437925389
 11
276.9904734159
 21
52.037730742
  0
LINE
  5
4B6
100
AcDbEntity
  8
RUNDUNGEN
100
AcDbLine
 62
7
  6
CONTINUOUS
 10
276.9904734159
 20
52.037730742
 11
276.8154012343
 21
52.0324023107
  0
LINE
  5
4B7
100
AcDbEntity
  8
0
100
AcDbLine
 62
7
  6
CONTINUOUS
 10
218.4764432984
 20
50.9583429252
 11
219.1424611402
 21
50.9772807249
  0
LINE
  5
4B8
100
AcDbEntity
  8
0
100
AcDbLine
 62
7
  6
CONTINUOUS
 10
217.28731152
 20
51.133999063
 11
217.7603572134
 21
51.1474498207
  0
LINE
  5
4B9
100
AcDbEntity
  8
0
100
AcDbLine
 62
7
  6
CONTINUOUS
 10
218.2334029068
 20
51.4528020897
 11
221.8708656435
 21
51.5562310618
  0
LINE
  5
4BA
100
AcDbEntity
  8
0
100
AcDbLine
 62
7
  6
CONTINUOUS
 10
221.3978199501
 20
51.6475144812
 11
217.7603572134
 21
51.5440855091
  0
LINE
  5
4BB
100
AcDbEntity
  8
0
100
AcDbLine
 62
7
  6
CONTINUOUS
 10
217.28731152
 20
51.6353689286
 11
218.3165839402
 21
51.6646356445
  0
LINE
  5
4BC
100
AcDbEntity
  8
0
100
AcDbLine
 62
7
  6
CONTINUOUS
 10
218.7296932789
 20
51.6763821495
 11
223.3439145369
 21
51.8075846377
  0
LINE
  5
4BD
100
AcDbEntity
  8
0
100
AcDbLine
 62
7
  6
CONTINUOUS
 10
221.8415964233
 20
51.8696013413
 11
218.2566475855
 21
51.767665569
  0
LINE
  5
4BE
100
AcDbEntity
  8
0
100
AcDbLine
 62
7
  6
CONTINUOUS
 10
218.1270852633
 20
51.9740449805
 11
219.6604911139
 21
52.0176464143
  0
LWPOLYLINE
  5
4BF
100
AcDbEntity
  8
RUNDUNGEN
100
AcDbPolyline
 62
7
  6
CONTINUOUS
 90
5
 70
0
 10
275.4598387073
 20
52.0194671255
 10
275.3054159646
 20
52.0156371205
 10
275.0201906558
 20
51.9883984896
 10
274.7385413052
 20
51.9351966791
 10
274.5885761301
 20
51.8957826499
  0
LINE
  5
4C0
100
AcDbEntity
  8
RUNDUNGEN
100
AcDbLine
 62
7
  6
CONTINUOUS
 10
276.8154012343
 20
52.0324023107
 11
276.6315454041
 21
52.0278833312
  0
LINE
  5
4C1
100
AcDbEntity
  8
RUNDUNGEN
100
AcDbLine
 62
7
  6
CONTINUOUS
 10
276.6315454041
 20
52.0278833312
 11
276.4395003959
 21
52.0242714815
  0
LINE
  5
4C2
100
AcDbEntity
  8
RUNDUNGEN
100
AcDbLine
 62
7
  6
CONTINUOUS
 10
276.4395003959
 20
52.0242714815
 11
276.2398595611
 21
52.0216000151
  0
LINE
  5
4C3
100
AcDbEntity
  8
RUNDUNGEN
100
AcDbLine
 62
7
  6
CONTINUOUS
 10
276.2398595611
 20
52.0216000151
 11
276.0333345601
 21
52.0199702127
  0
LINE
  5
4C4
100
AcDbEntity
  8
RUNDUNGEN
100
AcDbLine
 62
7
  6
CONTINUOUS
 10
285.6366648651
 20
50.9036980144
 11
211.5349668514
 21
50.9036980144
  0
LINE
  5
4C5
100
AcDbEntity
  8
0
100
AcDbLine
 62
7
  6
CONTINUOUS
 10
219.1445534185
 20
51.4036980144
 11
228.0071774803
 21
51.4036980144
  0
LINE
  5
4C6
100
AcDbEntity
  8
RUNDUNGEN
100
AcDbLine
 62
7
  6
CONTINUOUS
 10
276.0333345601
 20
52.0199702127
 11
275.459838705
 21
52.0194768017
  0
LINE
  5
4C7
100
AcDbEntity
  8
RUNDUNGEN
100
AcDbLine
 62
7
  6
CONTINUOUS
 10
206.6509226118
 20
52.4036980144
 11
220.8358483776
 21
52.4036980144
  0
LINE
  5
4C8
100
AcDbEntity
  8
RUNDUNGEN
100
AcDbLine
 62
7
  6
CONTINUOUS
 10
276.3357834259
 20
52.4036980144
 11
290.5207091066
 21
52.4036980144
  0
LINE
  5
4C9
100
AcDbEntity
  8
RUNDUNGEN
100
AcDbLine
 62
7
  6
CONTINUOUS
 10
286.6479790342
 20
49.4027458243
 11
286.6164319472
 21
49.4041089624
  0
LINE
  5
4CA
100
AcDbEntity
  8
RUNDUNGEN
100
AcDbLine
 62
7
  6
CONTINUOUS
 10
286.7153889906
 20
49.3993227488
 11
286.6479790342
 21
49.4027458243
  0
LINE
  5
4CB
100
AcDbEntity
  8
RUNDUNGEN
100
AcDbLine
 62
7
  6
CONTINUOUS
 10
286.7153889906
 20
49.3993227488
 11
286.7128862442
 21
49.3994586662
  0
LINE
  5
4CC
100
AcDbEntity
  8
0
100
AcDbLine
 62
7
  6
CONTINUOUS
 10
274.2944362
 20
32.8636993815
 11
274.3202353766
 21
32.8295189811
  0
LINE
  5
4CD
100
AcDbEntity
  8
BEZUGSACHSEN
100
AcDbLine
 62
7
  6
CONTINUOUS
 10
260.9266778631
 20
50.9036980144
 11
257.2460698971
 21
57.2786980144
  0
LINE
  5
4CE
100
AcDbEntity
  8
BEZUGSACHSEN
100
AcDbLine
 62
7
  6
CONTINUOUS
 10
257.2460698971
 20
57.2786980144
 11
239.9255618214
 21
57.2786980144
  0
LINE
  5
4CF
100
AcDbEntity
  8
0
100
AcDbLine
 62
7
  6
CONTINUOUS
 10
231.4608158592
 20
58.6786980144
 11
234.3022708814
 21
58.6786980144
  0
LINE
  5
4D0
100
AcDbEntity
  8
0
100
AcDbLine
 62
7
  6
CONTINUOUS
 10
262.869360837
 20
58.6786980144
 11
265.7108158592
 21
58.6786980144
  0
LINE
  5
4D1
100
AcDbEntity
  8
0
100
AcDbLine
 62
7
  6
CONTINUOUS
 10
271.9969389362
 20
33.6536980144
 11
271.9969389362
 21
33.1536980144
  0
LINE
  5
4D2
100
AcDbEntity
  8
RUNDUNGEN
100
AcDbLine
 62
7
  6
CONTINUOUS
 10
272.3358158592
 20
55.0791768074
 11
272.3358158592
 21
51.4467053872
  0
LINE
  5
4D3
100
AcDbEntity
  8
RUNDUNGEN
100
AcDbLine
 62
7
  6
CONTINUOUS
 10
272.3358158592
 20
33.1106906415
 11
272.3358158592
 21
29.4782192213
  0
LINE
  5
4D4
100
AcDbEntity
  8
0
100
AcDbLine
 62
7
  6
CONTINUOUS
 10
272.6190927955
 20
33.6536980144
 11
272.6190927955
 21
33.1536980144
  0
LINE
  5
4D5
100
AcDbEntity
  8
0
100
AcDbLine
 62
7
  6
CONTINUOUS
 10
273.4476401645
 20
33.6536980144
 11
273.4476401645
 21
33.1536980144
  0
LINE
  5
4D6
100
AcDbEntity
  8
0
100
AcDbLine
 62
7
  6
CONTINUOUS
 10
268.8630997471
 20
50.9036980144
 11
268.1532141509
 21
51.747532771
  0
LINE
  5
4D7
100
AcDbEntity
  8
0
100
AcDbLine
 62
7
  6
CONTINUOUS
 10
271.1957277727
 20
51.2376819032
 11
267.1771915099
 21
56.0144805697
  0
LINE
  5
4D8
100
AcDbEntity
  8
0
100
AcDbLine
 62
7
  6
CONTINUOUS
 10
274.2944362
 20
33.1536980144
 11
274.2944362
 21
32.8636993815
  0
LINE
  5
4D9
100
AcDbEntity
  8
0
100
AcDbLine
 62
7
  6
CONTINUOUS
 10
274.4067282314
 20
33.1536980144
 11
274.4067282314
 21
32.9020125575
  0
LINE
  5
4DA
100
AcDbEntity
  8
0
100
AcDbLine
 62
7
  6
CONTINUOUS
 10
274.8498325986
 20
33.1236260916
 11
274.8498325986
 21
32.9385754477
  0
LINE
  5
4DB
100
AcDbEntity
  8
0
100
AcDbLine
 62
7
  6
CONTINUOUS
 10
275.0622897699
 20
32.8743474227
 11
275.0622897699
 21
32.7818220578
  0
LINE
  5
4DC
100
AcDbEntity
  8
0
100
AcDbLine
 62
7
  6
CONTINUOUS
 10
277.1746158857
 20
33.1536980144
 11
277.1746158857
 21
33.1013579403
  0
LINE
  5
4DD
100
AcDbEntity
  8
0
100
AcDbLine
 62
7
  6
CONTINUOUS
 10
277.7269806694
 20
33.1536980144
 11
277.7269806694
 21
33.117889041
  0
LINE
  5
4DE
100
AcDbEntity
  8
RUNDUNGEN
100
AcDbLine
 62
7
  6
CONTINUOUS
 10
267.8826908592
 20
61.9323915811
 11
266.463563112
 21
62.5359264339
  0
LINE
  5
4DF
100
AcDbEntity
  8
0
100
AcDbLine
 62
7
  6
CONTINUOUS
 10
278.1640215909
 20
33.1536980144
 11
278.1640215909
 21
33.0377620603
  0
LINE
  5
4E0
100
AcDbEntity
  8
0
100
AcDbLine
 62
7
  6
CONTINUOUS
 10
278.4872259181
 20
33.6536980144
 11
278.4872259181
 21
33.1536980144
  0
LINE
  5
4E1
100
AcDbEntity
  8
0
100
AcDbLine
 62
7
  6
CONTINUOUS
 10
278.8150066874
 20
33.6536980144
 11
278.8150066874
 21
33.1536980144
  0
LINE
  5
4E2
100
AcDbEntity
  8
0
100
AcDbLine
 62
7
  6
CONTINUOUS
 10
279.0381037464
 20
33.0056672404
 11
279.0381037464
 21
32.8775080417
  0
LINE
  5
4E3
100
AcDbEntity
  8
0
100
AcDbLine
 62
7
  6
CONTINUOUS
 10
279.2687515451
 20
33.5721941388
 11
279.2687515451
 21
33.0708242732
  0
LINE
  5
4E4
100
AcDbEntity
  8
0
100
AcDbLine
 62
7
  6
CONTINUOUS
 10
279.5419023945
 20
33.5221147257
 11
279.5419023945
 21
33.0207448601
  0
LINE
  5
4E5
100
AcDbEntity
  8
RUNDUNGEN
100
AcDbLine
 62
7
  6
CONTINUOUS
 10
286.1366997374
 20
50.4036980144
 11
286.1366997374
 21
49.9036980144
  0
LINE
  5
4E6
100
AcDbEntity
  8
RUNDUNGEN
100
AcDbLine
 62
7
  6
CONTINUOUS
 10
286.1366997374
 20
34.6536980144
 11
286.1366997374
 21
34.1536980144
  0
LINE
  5
4E7
100
AcDbEntity
  8
0
100
AcDbLine
 62
7
  6
CONTINUOUS
 10
290.5858158592
 20
45.4036980144
 11
290.5858158592
 21
39.1536980144
  0
LINE
  5
4E8
100
AcDbEntity
  8
RUNDUNGEN
100
AcDbLine
 62
7
  6
CONTINUOUS
 10
293.5207281669
 20
35.1536980144
 11
293.5207281669
 21
49.4036980144
  0
ARC
  5
4E9
100
AcDbEntity
  8
RUNDUNGEN
100
AcDbCircle
 62
7
  6
CONTINUOUS
 10
214.9130351392
 20
290.1708022013
 40
8.0
100
AcDbArc
 50
193.0
 51
270.0
  0
ARC
  5
4EA
100
AcDbEntity
  8
0
100
AcDbCircle
 62
7
  6
CONTINUOUS
 10
213.2429124463
 20
297.8919101509
 40
3.0
100
AcDbArc
 50
84.2608295227
 51
269.7230171587
  0
ARC
  5
4EB
100
AcDbEntity
  8
0
100
AcDbCircle
 62
7
  6
CONTINUOUS
 10
213.2429124463
 20
297.8919101509
 40
2.1
100
AcDbArc
 50
81.7867892983
 51
278.2132107017
  0
ARC
  5
4EC
100
AcDbEntity
  8
RUNDUNGEN
100
AcDbCircle
 62
7
  6
CONTINUOUS
 10
185.2458158592
 20
339.4644716694
 40
28.5
100
AcDbArc
 50
337.999988371
 51
26.0462731654
  0
ARC
  5
4ED
100
AcDbEntity
  8
RUNDUNGEN
100
AcDbCircle
 62
7
  6
CONTINUOUS
 10
247.0858158592
 20
310.0683190865
 40
26.25
100
AcDbArc
 50
12.267440983
 51
22.0000135623
  0
ARC
  5
4EE
100
AcDbEntity
  8
RUNDUNGEN
100
AcDbCircle
 62
7
  6
CONTINUOUS
 10
247.0858158592
 20
310.0683190865
 40
26.25
100
AcDbArc
 50
359.9999410072
 51
7.8287652405
  0
ARC
  5
4EF
100
AcDbEntity
  8
RUNDUNGEN
100
AcDbCircle
 62
7
  6
CONTINUOUS
 10
221.6509035515
 20
305.4400025553
 40
18.0
100
AcDbArc
 50
158.0
 51
193.0
  0
ARC
  5
4F0
100
AcDbEntity
  8
RUNDUNGEN
100
AcDbCircle
 62
7
  6
CONTINUOUS
 10
220.0858158592
 20
285.9208022013
 40
3.75
100
AcDbArc
 50
270.0
 51
360.0
  0
ARC
  5
4F1
100
AcDbEntity
  8
0
100
AcDbCircle
 62
7
  6
CONTINUOUS
 10
218.3429124463
 20
297.8919101509
 40
3.0
100
AcDbArc
 50
84.2608295227
 51
269.7230171587
  0
ARC
  5
4F2
100
AcDbEntity
  8
0
100
AcDbCircle
 62
7
  6
CONTINUOUS
 10
218.3429124463
 20
297.8919101509
 40
2.1
100
AcDbArc
 50
192.3736251162
 51
278.2132107017
  0
ARC
  5
4F3
100
AcDbEntity
  8
0
100
AcDbCircle
 62
7
  6
CONTINUOUS
 10
218.3429124463
 20
297.8919101509
 40
2.1
100
AcDbArc
 50
81.7867892983
 51
167.4447123387
  0
ARC
  5
4F4
100
AcDbEntity
  8
RUNDUNGEN
100
AcDbCircle
 62
7
  6
CONTINUOUS
 10
226.8358158592
 20
311.6458022013
 40
2.0
100
AcDbArc
 50
90.0
 51
180.0
  0
ARC
  5
4F5
100
AcDbEntity
  8
RUNDUNGEN
100
AcDbCircle
 62
7
  6
CONTINUOUS
 10
225.0358158592
 20
302.8708022013
 40
1.2
100
AcDbArc
 50
180.0
 51
260.3906379947
  0
ARC
  5
4F6
100
AcDbEntity
  8
RUNDUNGEN
100
AcDbCircle
 62
7
  6
CONTINUOUS
 10
222.8358158592
 20
306.0208022013
 40
1.0
100
AcDbArc
 50
0.0
 51
90.0
  0
ARC
  5
4F7
100
AcDbEntity
  8
RUNDUNGEN
100
AcDbCircle
 62
7
  6
CONTINUOUS
 10
238.087923584
 20
326.4208022013
 40
9.0
100
AcDbArc
 50
90.0
 51
158.0000004313
  0
ARC
  5
4F8
100
AcDbEntity
  8
RUNDUNGEN
100
AcDbCircle
 62
7
  6
CONTINUOUS
 10
235.4608158592
 20
314.7708022013
 40
1.125
100
AcDbArc
 50
269.9987534595
 51
356.1774462707
  0
ARC
  5
4F9
100
AcDbEntity
  8
0
100
AcDbCircle
 62
7
  6
CONTINUOUS
 10
233.7058102913
 20
314.6208022013
 40
1.125
100
AcDbArc
 50
90.0
 51
114.1163321166
  0
ARC
  5
4FA
100
AcDbEntity
  8
RUNDUNGEN
100
AcDbCircle
 62
7
  6
CONTINUOUS
 10
237.7058102913
 20
314.6208022013
 40
1.125
100
AcDbArc
 50
90.0
 51
176.1774462707
  0
ARC
  5
4FB
100
AcDbEntity
  8
0
100
AcDbCircle
 62
7
  6
CONTINUOUS
 10
237.7058102913
 20
314.6208022013
 40
1.125
100
AcDbArc
 50
149.617079661
 51
176.1774462707
  0
ARC
  5
4FC
100
AcDbEntity
  8
0
100
AcDbCircle
 62
7
  6
CONTINUOUS
 10
235.5290923785
 20
314.7699921576
 40
1.052455887
100
AcDbArc
 50
348.6617140504
 51
355.9341343537
  0
ARC
  5
4FD
100
AcDbEntity
  8
RUNDUNGEN
100
AcDbCircle
 62
7
  6
CONTINUOUS
 10
223.818650259
 20
317.3208022013
 40
1.0
100
AcDbArc
 50
270.0
 51
344.5649305103
  0
ARC
  5
4FE
100
AcDbEntity
  8
RUNDUNGEN
100
AcDbCircle
 62
7
  6
CONTINUOUS
 10
210.4514336154
 20
345.7917543964
 40
7.5
100
AcDbArc
 50
338.0
 51
15.0
  0
ARC
  5
4FF
100
AcDbEntity
  8
RUNDUNGEN
100
AcDbCircle
 62
7
  6
CONTINUOUS
 10
218.534931981
 20
373.5792773704
 40
7.5
100
AcDbArc
 50
153.0
 51
195.0
  0
ARC
  5
500
100
AcDbEntity
  8
RUNDUNGEN
100
AcDbCircle
 62
7
  6
CONTINUOUS
 10
228.3670894092
 20
392.8759728307
 40
7.5
100
AcDbArc
 50
111.0
 51
153.0
  0
ARC
  5
501
100
AcDbEntity
  8
RUNDUNGEN
100
AcDbCircle
 62
7
  6
CONTINUOUS
 10
250.0858158592
 20
310.0683190865
 40
26.25
100
AcDbArc
 50
172.1713105192
 51
180.0000585716
  0
ARC
  5
502
100
AcDbEntity
  8
RUNDUNGEN
100
AcDbCircle
 62
7
  6
CONTINUOUS
 10
250.0858158592
 20
310.0683190865
 40
26.25
100
AcDbArc
 50
157.9999864103
 51
167.7325652234
  0
ARC
  5
503
100
AcDbEntity
  8
RUNDUNGEN
100
AcDbCircle
 62
7
  6
CONTINUOUS
 10
275.5207281669
 20
305.4400025553
 40
18.0
100
AcDbArc
 50
347.0
 51
22.0
  0
ARC
  5
504
100
AcDbEntity
  8
RUNDUNGEN
100
AcDbCircle
 62
7
  6
CONTINUOUS
 10
277.0858158592
 20
285.9208022013
 40
3.75
100
AcDbArc
 50
180.0
 51
270.0
  0
ARC
  5
505
100
AcDbEntity
  8
RUNDUNGEN
100
AcDbCircle
 62
7
  6
CONTINUOUS
 10
270.3358158592
 20
311.6458022013
 40
2.0
100
AcDbArc
 50
0.0
 51
90.0
  0
ARC
  5
506
100
AcDbEntity
  8
RUNDUNGEN
100
AcDbCircle
 62
7
  6
CONTINUOUS
 10
272.1358158592
 20
302.8708022013
 40
1.2
100
AcDbArc
 50
279.6093620053
 51
360.0
  0
ARC
  5
507
100
AcDbEntity
  8
RUNDUNGEN
100
AcDbCircle
 62
7
  6
CONTINUOUS
 10
274.3358158592
 20
306.0208022013
 40
1.0
100
AcDbArc
 50
90.0
 51
180.0
  0
ARC
  5
508
100
AcDbEntity
  8
RUNDUNGEN
100
AcDbCircle
 62
7
  6
CONTINUOUS
 10
259.0837081345
 20
326.4208022013
 40
9.0
100
AcDbArc
 50
21.9999995874
 51
90.0
  0
ARC
  5
509
100
AcDbEntity
  8
RUNDUNGEN
100
AcDbCircle
 62
7
  6
CONTINUOUS
 10
261.7108158592
 20
314.7708022013
 40
1.125
100
AcDbArc
 50
183.8225537293
 51
270.0010506132
  0
ARC
  5
50A
100
AcDbEntity
  8
0
100
AcDbCircle
 62
7
  6
CONTINUOUS
 10
263.4658214271
 20
314.6208022013
 40
1.125
100
AcDbArc
 50
65.8836678834
 51
90.0
  0
ARC
  5
50B
100
AcDbEntity
  8
0
100
AcDbCircle
 62
7
  6
CONTINUOUS
 10
259.4658214271
 20
314.6208022013
 40
1.125
100
AcDbArc
 50
3.8225537293
 51
30.382920339
  0
ARC
  5
50C
100
AcDbEntity
  8
RUNDUNGEN
100
AcDbCircle
 62
7
  6
CONTINUOUS
 10
259.4658214271
 20
314.6208022013
 40
1.125
100
AcDbArc
 50
3.8225537293
 51
90.0
  0
ARC
  5
50D
100
AcDbEntity
  8
0
100
AcDbCircle
 62
7
  6
CONTINUOUS
 10
259.5282538286
 20
314.6201181231
 40
1.0671103836
100
AcDbArc
 50
4.0670788109
 51
7.3135124284
  0
ARC
  5
50E
100
AcDbEntity
  8
0
100
AcDbCircle
 62
7
  6
CONTINUOUS
 10
261.6420291192
 20
314.7705401331
 40
1.0520103719
100
AcDbArc
 50
184.0738936351
 51
188.6440717582
  0
ARC
  5
50F
100
AcDbEntity
  8
RUNDUNGEN
100
AcDbCircle
 62
7
  6
CONTINUOUS
 10
273.3529814594
 20
317.3208022013
 40
1.0
100
AcDbArc
 50
195.4350714002
 51
269.9999999139
  0
ARC
  5
510
100
AcDbEntity
  8
RUNDUNGEN
100
AcDbCircle
 62
7
  6
CONTINUOUS
 10
282.2585965792
 20
290.1708022013
 40
8.0
100
AcDbArc
 50
270.0
 51
347.0
  0
ARC
  5
511
100
AcDbEntity
  8
RUNDUNGEN
100
AcDbCircle
 62
7
  6
CONTINUOUS
 10
311.9258158592
 20
339.4644716694
 40
28.5
100
AcDbArc
 50
153.9537268346
 51
202.000362381
  0
ARC
  5
512
100
AcDbEntity
  8
RUNDUNGEN
100
AcDbCircle
 62
7
  6
CONTINUOUS
 10
248.5858158592
 20
370.4208022013
 40
42.0
100
AcDbArc
 50
333.9537268346
 51
206.0462731654
  0
CIRCLE
  5
513
100
AcDbEntity
  8
RUNDUNGEN
100
AcDbCircle
 62
7
  6
CONTINUOUS
 10
248.5858158592
 20
370.4208022013
 40
25.0
  0
ARC
  5
514
100
AcDbEntity
  8
RUNDUNGEN
100
AcDbCircle
 62
7
  6
CONTINUOUS
 10
248.5858158592
 20
400.637214749
 40
7.5
100
AcDbArc
 50
69.0
 51
111.0
  0
ARC
  5
515
100
AcDbEntity
  8
RUNDUNGEN
100
AcDbCircle
 62
7
  6
CONTINUOUS
 10
286.720198103
 20
345.7917543964
 40
7.5
100
AcDbArc
 50
165.0
 51
202.0
  0
ARC
  5
516
100
AcDbEntity
  8
RUNDUNGEN
100
AcDbCircle
 62
7
  6
CONTINUOUS
 10
268.8045423093
 20
392.8759728307
 40
7.5
100
AcDbArc
 50
27.0
 51
69.0
  0
ARC
  5
517
100
AcDbEntity
  8
RUNDUNGEN
100
AcDbCircle
 62
7
  6
CONTINUOUS
 10
278.6366997374
 20
373.5792773704
 40
7.5
100
AcDbArc
 50
345.0
 51
27.0
  0
ARC
  5
518
100
AcDbEntity
  8
KONSTRUKTIONSELEMENTE
100
AcDbCircle
 62
7
  6
CONTINUOUS
 10
368.5137218532
 20
121.163464653
 40
20.0823491835
100
AcDbArc
 50
90.0616594192
 51
97.2429972934
  0
ARC
  5
519
100
AcDbEntity
  8
KONSTRUKTIONSELEMENTE
100
AcDbCircle
 62
7
  6
CONTINUOUS
 10
383.4704993177
 20
121.1634807953
 40
20.0823330397
100
AcDbArc
 50
82.7570076702
 51
89.9383436411
  0
ARC
  5
51A
100
AcDbEntity
  8
RUNDUNGEN
100
AcDbCircle
 62
7
  6
CONTINUOUS
 10
347.3671101695
 20
333.1605296149
 40
20.0
100
AcDbArc
 50
355.7636079884
 51
0.0000025006
  0
ARC
  5
51B
100
AcDbEntity
  8
RUNDUNGEN
100
AcDbCircle
 62
7
  6
CONTINUOUS
 10
404.6171101695
 20
333.1605296149
 40
20.0
100
AcDbArc
 50
179.9999995014
 51
184.2365491253
  0
ARC
  5
51C
100
AcDbEntity
  8
RUNDUNGEN
100
AcDbCircle
 62
7
  6
CONTINUOUS
 10
385.8671101695
 20
311.4310747877
 40
20.0
100
AcDbArc
 50
175.7636057382
 51
180.0000124286
  0
ARC
  5
51D
100
AcDbEntity
  8
RUNDUNGEN
100
AcDbCircle
 62
7
  6
CONTINUOUS
 10
366.1171101695
 20
311.4310747877
 40
20.0
100
AcDbArc
 50
359.99998694
 51
4.2363947991
  0
ARC
  5
51E
100
AcDbEntity
  8
RUNDUNGEN
100
AcDbCircle
 62
7
  6
CONTINUOUS
 10
372.8619047257
 20
408.4208023464
 40
4.0000011353
100
AcDbArc
 50
90.0000001723
 51
177.2434893127
  0
ARC
  5
51F
100
AcDbEntity
  8
RUNDUNGEN
100
AcDbCircle
 62
7
  6
CONTINUOUS
 10
379.1223156132
 20
408.4208023464
 40
4.0000011353
100
AcDbArc
 50
2.7565106873
 51
89.9999998277
  0
ARC
  5
520
100
AcDbEntity
  8
RUNDUNGEN
100
AcDbCircle
 62
7
  6
CONTINUOUS
 10
383.1171101695
 20
285.1708022013
 40
3.0
100
AcDbArc
 50
270.0
 51
360.0
  0
ARC
  5
521
100
AcDbEntity
  8
RUNDUNGEN
100
AcDbCircle
 62
7
  6
CONTINUOUS
 10
368.8671101695
 20
285.1708022013
 40
3.0
100
AcDbArc
 50
180.0
 51
270.0
  0
ARC
  5
522
100
AcDbEntity
  8
RUNDUNGEN
100
AcDbCircle
 62
7
  6
CONTINUOUS
 10
397.7421101695
 20
313.7458022013
 40
2.0
100
AcDbArc
 50
0.0
 51
90.0
  0
ARC
  5
523
100
AcDbEntity
  8
RUNDUNGEN
100
AcDbCircle
 62
7
  6
CONTINUOUS
 10
354.2421101695
 20
313.7458022013
 40
2.0
100
AcDbArc
 50
90.0
 51
180.0
  0
ARC
  5
524
100
AcDbEntity
  8
RUNDUNGEN
100
AcDbCircle
 62
7
  6
CONTINUOUS
 10
367.2513313821
 20
317.3208022013
 40
1.0
100
AcDbArc
 50
175.7636044148
 51
183.6166461223
  0
ARC
  5
525
100
AcDbEntity
  8
RUNDUNGEN
100
AcDbCircle
 62
7
  6
CONTINUOUS
 10
384.1171101695
 20
407.637214749
 40
0.5
100
AcDbArc
 50
0.0
 51
90.0
  0
ARC
  5
526
100
AcDbEntity
  8
RUNDUNGEN
100
AcDbCircle
 62
7
  6
CONTINUOUS
 10
367.8671101695
 20
407.637214749
 40
0.5
100
AcDbArc
 50
90.0
 51
180.0
  0
ARC
  5
527
100
AcDbEntity
  8
RUNDUNGEN
100
AcDbCircle
 62
7
  6
CONTINUOUS
 10
368.3671101695
 20
408.637214749
 40
0.5
100
AcDbArc
 50
270.0
 51
357.2436141078
  0
ARC
  5
528
100
AcDbEntity
  8
RUNDUNGEN
100
AcDbCircle
 62
7
  6
CONTINUOUS
 10
383.6171101695
 20
408.637214749
 40
0.5
100
AcDbArc
 50
182.7563858922
 51
270.0
  0
ARC
  5
529
100
AcDbEntity
  8
RUNDUNGEN
100
AcDbCircle
 62
7
  6
CONTINUOUS
 10
232.3358158592
 20
29.4782192213
 40
7.5
100
AcDbArc
 50
180.0
 51
246.0305176822
  0
ARC
  5
52A
100
AcDbEntity
  8
RUNDUNGEN
100
AcDbCircle
 62
7
  6
CONTINUOUS
 10
210.5858158592
 20
39.1536980144
 40
4.0
100
AcDbArc
 50
180.0
 51
269.5620458777
  0
ARC
  5
52B
100
AcDbEntity
  8
RUNDUNGEN
100
AcDbCircle
 62
7
  6
CONTINUOUS
 10
206.6509035515
 20
35.1536980144
 40
3.0
100
AcDbArc
 50
180.0
 51
270.0
  0
ARC
  5
52C
100
AcDbEntity
  8
RUNDUNGEN
100
AcDbCircle
 62
7
  6
CONTINUOUS
 10
220.8358158592
 20
35.1536980144
 40
3.0
100
AcDbArc
 50
270.0006194308
 51
302.5026689293
  0
ARC
  5
52D
100
AcDbEntity
  8
RUNDUNGEN
100
AcDbCircle
 62
7
  6
CONTINUOUS
 10
218.6018384341
 20
33.1536980144
 40
1.0
100
AcDbArc
 50
270.0
 51
313.1301118423
  0
ARC
  5
52E
100
AcDbEntity
  8
RUNDUNGEN
100
AcDbCircle
 62
7
  6
CONTINUOUS
 10
211.534931981
 20
34.1536980144
 40
0.5
100
AcDbArc
 50
180.0
 51
270.0
  0
ARC
  5
52F
100
AcDbEntity
  8
RUNDUNGEN
100
AcDbCircle
 62
7
  6
CONTINUOUS
 10
210.534931981
 20
34.6536980144
 40
0.5
100
AcDbArc
 50
0.0
 51
87.7171700212
  0
ARC
  5
530
100
AcDbEntity
  8
RUNDUNGEN
100
AcDbCircle
 62
7
  6
CONTINUOUS
 10
232.3358158592
 20
55.0791768074
 40
7.5
100
AcDbArc
 50
113.9694823178
 51
180.0
  0
ARC
  5
531
100
AcDbEntity
  8
0
100
AcDbCircle
 62
7
  6
CONTINUOUS
 10
234.5858158592
 20
52.15193353
 40
6.0
100
AcDbArc
 50
99.0126199215
 51
139.9273936575
  0
ARC
  5
532
100
AcDbEntity
  8
RUNDUNGEN
100
AcDbCircle
 62
7
  6
CONTINUOUS
 10
210.5858158592
 20
45.4036980144
 40
4.0
100
AcDbArc
 50
90.4379511629
 51
180.0
  0
ARC
  5
533
100
AcDbEntity
  8
RUNDUNGEN
100
AcDbCircle
 62
7
  6
CONTINUOUS
 10
206.6509035515
 20
49.4036980144
 40
3.0
100
AcDbArc
 50
90.0
 51
180.0
  0
ARC
  5
534
100
AcDbEntity
  8
RUNDUNGEN
100
AcDbCircle
 62
7
  6
CONTINUOUS
 10
220.8358158592
 20
49.4036980144
 40
3.0
100
AcDbArc
 50
60.1244085192
 51
90.0
  0
ARC
  5
535
100
AcDbEntity
  8
RUNDUNGEN
100
AcDbCircle
 62
7
  6
CONTINUOUS
 10
218.6018573936
 20
51.4036980144
 40
0.999992466
100
AcDbArc
 50
44.6165632401
 51
90.0010862999
  0
ARC
  5
536
100
AcDbEntity
  8
RUNDUNGEN
100
AcDbCircle
 62
7
  6
CONTINUOUS
 10
211.534931981
 20
50.4036980144
 40
0.5
100
AcDbArc
 50
90.0
 51
180.0
  0
ARC
  5
537
100
AcDbEntity
  8
RUNDUNGEN
100
AcDbCircle
 62
7
  6
CONTINUOUS
 10
210.534931981
 20
49.9036980144
 40
0.5
100
AcDbArc
 50
272.2828302747
 51
360.0
  0
ARC
  5
538
100
AcDbEntity
  8
RUNDUNGEN
100
AcDbCircle
 62
7
  6
CONTINUOUS
 10
248.5858158592
 20
18.5286980144
 40
47.5
100
AcDbArc
 50
66.0305176822
 51
113.9694823178
  0
ARC
  5
539
100
AcDbEntity
  8
RUNDUNGEN
100
AcDbCircle
 62
7
  6
CONTINUOUS
 10
264.8358158592
 20
29.4782192213
 40
7.5
100
AcDbArc
 50
293.9694823178
 51
360.0
  0
ARC
  5
53A
100
AcDbEntity
  8
RUNDUNGEN
100
AcDbCircle
 62
7
  6
CONTINUOUS
 10
286.5858158592
 20
39.1536980144
 40
4.0
100
AcDbArc
 50
270.4379551692
 51
360.0
  0
ARC
  5
53B
100
AcDbEntity
  8
RUNDUNGEN
100
AcDbCircle
 62
7
  6
CONTINUOUS
 10
290.5207281669
 20
35.1536980144
 40
3.0
100
AcDbArc
 50
270.0
 51
360.0
  0
ARC
  5
53C
100
AcDbEntity
  8
RUNDUNGEN
100
AcDbCircle
 62
7
  6
CONTINUOUS
 10
276.3358158592
 20
35.1536980144
 40
3.0
100
AcDbArc
 50
237.5089151897
 51
269.9993789444
  0
ARC
  5
53D
100
AcDbEntity
  8
RUNDUNGEN
100
AcDbCircle
 62
7
  6
CONTINUOUS
 10
278.5697743248
 20
33.1536980144
 40
0.999992466
100
AcDbArc
 50
222.9308355141
 51
270.0010862999
  0
ARC
  5
53E
100
AcDbEntity
  8
RUNDUNGEN
100
AcDbCircle
 62
7
  6
CONTINUOUS
 10
285.6366997374
 20
34.1536980144
 40
0.5
100
AcDbArc
 50
270.0
 51
360.0
  0
ARC
  5
53F
100
AcDbEntity
  8
RUNDUNGEN
100
AcDbCircle
 62
7
  6
CONTINUOUS
 10
286.6366997374
 20
34.6536980144
 40
0.5
100
AcDbArc
 50
92.2827935224
 51
180.0
  0
ARC
  5
540
100
AcDbEntity
  8
0
100
AcDbCircle
 62
7
  6
CONTINUOUS
 10
248.5858158592
 20
42.2786980144
 40
21.75
100
AcDbArc
 50
203.3778654261
 51
336.6221345739
  0
ARC
  5
541
100
AcDbEntity
  8
0
100
AcDbCircle
 62
7
  6
CONTINUOUS
 10
248.5858158592
 20
42.2786980144
 40
21.75
100
AcDbArc
 50
23.3778654261
 51
156.6221345739
  0
ARC
  5
542
100
AcDbEntity
  8
BEZUGSACHSEN
100
AcDbCircle
 62
7
  6
CONTINUOUS
 10
248.5858158592
 20
42.2786980144
 40
15.0
100
AcDbArc
 50
215.1033767888
 51
324.8966231974
  0
ARC
  5
543
100
AcDbEntity
  8
BEZUGSACHSEN
100
AcDbCircle
 62
7
  6
CONTINUOUS
 10
248.5858158592
 20
42.2786980144
 40
15.0
100
AcDbArc
 50
35.1033768026
 51
144.8966231574
  0
ARC
  5
544
100
AcDbEntity
  8
0
100
AcDbCircle
 62
7
  6
CONTINUOUS
 10
262.5858158592
 20
52.15193353
 40
6.0
100
AcDbArc
 50
40.0726063425
 51
80.9873800785
  0
ARC
  5
545
100
AcDbEntity
  8
RUNDUNGEN
100
AcDbCircle
 62
7
  6
CONTINUOUS
 10
248.5858158592
 20
66.0286980144
 40
47.5
100
AcDbArc
 50
246.0305176822
 51
293.9694823178
  0
ARC
  5
546
100
AcDbEntity
  8
RUNDUNGEN
100
AcDbCircle
 62
7
  6
CONTINUOUS
 10
264.8358158592
 20
55.0791768074
 40
7.5
100
AcDbArc
 50
0.0
 51
66.0305176822
  0
ARC
  5
547
100
AcDbEntity
  8
RUNDUNGEN
100
AcDbCircle
 62
7
  6
CONTINUOUS
 10
286.5858158592
 20
45.4036980144
 40
4.0
100
AcDbArc
 50
0.0
 51
89.5620472433
  0
ARC
  5
548
100
AcDbEntity
  8
RUNDUNGEN
100
AcDbCircle
 62
7
  6
CONTINUOUS
 10
290.5207281669
 20
49.4036980144
 40
3.0
100
AcDbArc
 50
0.0
 51
90.0
  0
ARC
  5
549
100
AcDbEntity
  8
RUNDUNGEN
100
AcDbCircle
 62
7
  6
CONTINUOUS
 10
276.3358158592
 20
49.4036980144
 40
3.0
100
AcDbArc
 50
90.0006194308
 51
122.5084864624
  0
ARC
  5
54A
100
AcDbEntity
  8
RUNDUNGEN
100
AcDbCircle
 62
7
  6
CONTINUOUS
 10
278.5697932843
 20
51.4036980144
 40
1.0
100
AcDbArc
 50
90.0
 51
137.0687126493
  0
ARC
  5
54B
100
AcDbEntity
  8
RUNDUNGEN
100
AcDbCircle
 62
7
  6
CONTINUOUS
 10
285.6366997374
 20
50.4036980144
 40
0.5
100
AcDbArc
 50
0.0
 51
90.0
  0
ARC
  5
54C
100
AcDbEntity
  8
RUNDUNGEN
100
AcDbCircle
 62
7
  6
CONTINUOUS
 10
286.6366997374
 20
49.9036980144
 40
0.5
100
AcDbArc
 50
180.0
 51
267.7172068625
  0
SPLINE
  5
54D
100
AcDbEntity
  8
KONSTRUKTIONSELEMENTE
100
AcDbSpline
 62
7
  6
CONTINUOUS
 70
0
 71
3
 72
11
 73
7
 74
0
 42
0.0000001
 43
0.0000001
 44
0.0000000001
 40
0.0
 40
0.0
 40
0.0
 40
0.0
 40
0.2404100529
 40
0.4855109823
 40
0.7383644672
 40
1.0
 40
1.0
 40
1.0
 40
1.0
 10
235.5954347288
 20
141.2458022073
 30
0.0
 10
235.2281775892
 20
141.2458022073
 30
0.0
 10
234.485120777
 20
141.181781996
 30
0.0
 10
233.3875576613
 20
140.9051945492
 30
0.0
 10
232.3078022071
 20
140.4729041559
 30
0.0
 10
231.6114423568
 20
140.1058971282
 30
0.0
 10
231.2653077835
 20
139.9060562392
 30
0.0
  0
SPLINE
  5
54E
100
AcDbEntity
  8
KONSTRUKTIONSELEMENTE
100
AcDbSpline
 62
7
  6
CONTINUOUS
 70
0
 71
3
 72
11
 73
7
 74
0
 42
0.0000001
 43
0.0000001
 44
0.0000000001
 40
0.0
 40
0.0
 40
0.0
 40
0.0
 40
0.261635542
 40
0.5144890695
 40
0.7595899798
 40
1.0
 40
1.0
 40
1.0
 40
1.0
 10
265.9063239349
 20
139.9060562392
 30
0.0
 10
265.560189339
 20
140.1058971413
 30
0.0
 10
264.8638294016
 20
140.4729042265
 30
0.0
 10
263.7840738531
 20
140.9051946177
 30
0.0
 10
262.6865107088
 20
141.1817820375
 30
0.0
 10
261.9434539517
 20
141.2458022066
 30
0.0
 10
261.5761968507
 20
141.2458022066
 30
0.0
  0
SPLINE
  5
54F
100
AcDbEntity
  8
KONSTRUKTIONSELEMENTE
100
AcDbSpline
 62
7
  6
CONTINUOUS
 70
0
 71
3
 72
11
 73
7
 74
0
 42
0.0000001
 43
0.0000001
 44
0.0000000001
 40
0.0
 40
0.0
 40
0.0
 40
0.0
 40
0.2404100529
 40
0.4855109823
 40
0.7383644672
 40
1.0
 40
1.0
 40
1.0
 40
1.0
 10
261.5761968507
 20
141.2458022066
 30
0.0
 10
261.2089397104
 20
141.2458022066
 30
0.0
 10
260.4658828967
 20
141.1817819979
 30
0.0
 10
259.368319779
 20
140.9051945504
 30
0.0
 10
258.2885643226
 20
140.472904157
 30
0.0
 10
257.5922044709
 20
140.1058971286
 30
0.0
 10
257.2460698971
 20
139.9060562392
 30
0.0
  0
SPLINE
  5
550
100
AcDbEntity
  8
KONSTRUKTIONSELEMENTE
100
AcDbSpline
 62
7
  6
CONTINUOUS
 70
0
 71
3
 72
10
 73
6
 74
0
 42
0.0000001
 43
0.0000001
 44
0.0000000001
 40
0.0
 40
0.0
 40
0.0
 40
0.0
 40
0.4998915772
 40
0.7499458269
 40
1.0
 40
1.0
 40
1.0
 40
1.0
 10
257.2460698971
 20
139.9060562392
 30
0.0
 10
255.8389981278
 20
140.3122428715
 30
0.0
 10
253.6938567003
 20
140.8200478349
 30
0.0
 10
250.7843354707
 20
141.1832918726
 30
0.0
 10
249.3183967565
 20
141.2458022013
 30
0.0
 10
248.5858158584
 20
141.2458022013
 30
0.0
  0
SPLINE
  5
551
100
AcDbEntity
  8
BEZUGSACHSEN
100
AcDbSpline
 62
7
  6
CONTINUOUS
 70
0
 71
3
 72
17
 73
13
 74
0
 42
0.0000001
 43
0.0000001
 44
0.0000000001
 40
0.0
 40
0.0
 40
0.0
 40
0.0
 40
0.1379493374
 40
0.2669046225
 40
0.3865345207
 40
0.4437238645
 40
0.5000000688
 40
0.5562762816
 40
0.6134655876
 40
0.7330954213
 40
0.8620506152
 40
1.0
 40
1.0
 40
1.0
 40
1.0
 10
265.9063239349
 20
127.316310277
 30
0.0
 10
265.5788614808
 20
126.9888478229
 30
0.0
 10
264.9181180233
 20
126.3808857735
 30
0.0
 10
263.8562652325
 20
125.6271705576
 30
0.0
 10
262.912053415
 20
125.1989715227
 30
0.0
 10
262.1465766786
 20
125.0247924326
 30
0.0
 10
261.5761961399
 20
124.9817261179
 30
0.0
 10
261.0058158506
 20
125.0247930478
 30
0.0
 10
260.240339146
 20
125.1989709172
 30
0.0
 10
259.2961284911
 20
125.6271712342
 30
0.0
 10
258.2342757107
 20
126.3808855601
 30
0.0
 10
257.5735324636
 20
126.9888477105
 30
0.0
 10
257.2460698971
 20
127.316310277
 30
0.0
  0
SPLINE
  5
552
100
AcDbEntity
  8
BEZUGSACHSEN
100
AcDbSpline
 62
7
  6
CONTINUOUS
 70
0
 71
3
 72
15
 73
11
 74
0
 42
0.0000001
 43
0.0000001
 44
0.0000000001
 40
0.0
 40
0.0
 40
0.0
 40
0.0
 40
0.1250035726
 40
0.2500177617
 40
0.3750129322
 40
0.5000000785
 40
0.6249871996
 40
0.7499822809
 40
0.8749963857
 40
1.0
 40
1.0
 40
1.0
 40
1.0
 10
257.2460698971
 20
127.316310277
 30
0.0
 10
256.5719893094
 20
126.9792699832
 30
0.0
 10
255.1995165996
 20
126.3516265989
 30
0.0
 10
253.0618738585
 20
125.6029506408
 30
0.0
 10
250.8484479845
 20
125.1112801474
 30
0.0
 10
248.5858145742
 20
124.9383685203
 30
0.0
 10
246.3231815919
 20
125.1112797452
 30
0.0
 10
244.1097571783
 20
125.6029512285
 30
0.0
 10
241.9721150562
 20
126.3516264276
 30
0.0
 10
240.5996426342
 20
126.9792698706
 30
0.0
 10
239.9255618214
 20
127.316310277
 30
0.0
  0
SPLINE
  5
553
100
AcDbEntity
  8
KONSTRUKTIONSELEMENTE
100
AcDbSpline
 62
7
  6
CONTINUOUS
 70
0
 71
3
 72
10
 73
6
 74
0
 42
0.0000001
 43
0.0000001
 44
0.0000000001
 40
0.0
 40
0.0
 40
0.0
 40
0.0
 40
0.2500541975
 40
0.5001084613
 40
1.0
 40
1.0
 40
1.0
 40
1.0
 10
248.5858158584
 20
141.2458022013
 30
0.0
 10
247.8532348891
 20
141.2458022013
 30
0.0
 10
246.3872960623
 20
141.1832918581
 30
0.0
 10
243.477774837
 20
140.8200477912
 30
0.0
 10
241.3326334819
 20
140.3122428402
 30
0.0
 10
239.9255618214
 20
139.9060562392
 30
0.0
  0
SPLINE
  5
554
100
AcDbEntity
  8
KONSTRUKTIONSELEMENTE
100
AcDbSpline
 62
7
  6
CONTINUOUS
 70
0
 71
3
 72
11
 73
7
 74
0
 42
0.0000001
 43
0.0000001
 44
0.0000000001
 40
0.0
 40
0.0
 40
0.0
 40
0.0
 40
0.261635542
 40
0.5144890695
 40
0.7595899798
 40
1.0
 40
1.0
 40
1.0
 40
1.0
 10
239.9255618214
 20
139.9060562392
 30
0.0
 10
239.5794272248
 20
140.1058971417
 30
0.0
 10
238.8830672861
 20
140.4729042275
 30
0.0
 10
237.8033117355
 20
140.9051946192
 30
0.0
 10
236.7057485889
 20
141.1817820386
 30
0.0
 10
235.9626918304
 20
141.2458022073
 30
0.0
 10
235.5954347288
 20
141.2458022073
 30
0.0
  0
SPLINE
  5
555
100
AcDbEntity
  8
BEZUGSACHSEN
100
AcDbSpline
 62
7
  6
CONTINUOUS
 70
0
 71
3
 72
17
 73
13
 74
0
 42
0.0000001
 43
0.0000001
 44
0.0000000001
 40
0.0
 40
0.0
 40
0.0
 40
0.0
 40
0.1379493374
 40
0.2669046225
 40
0.3865345207
 40
0.4437238645
 40
0.5000000688
 40
0.5562762816
 40
0.6134655876
 40
0.7330954213
 40
0.8620506152
 40
1.0
 40
1.0
 40
1.0
 40
1.0
 10
239.9255618214
 20
127.316310277
 30
0.0
 10
239.5980993673
 20
126.9888478229
 30
0.0
 10
238.9373559098
 20
126.3808857735
 30
0.0
 10
237.875503119
 20
125.6271705576
 30
0.0
 10
236.9312913014
 20
125.1989715227
 30
0.0
 10
236.165814565
 20
125.0247924326
 30
0.0
 10
235.5954340264
 20
124.9817261179
 30
0.0
 10
235.0250537371
 20
125.0247930478
 30
0.0
 10
234.2595770324
 20
125.1989709172
 30
0.0
 10
233.3153663775
 20
125.6271712342
 30
0.0
 10
232.2535135972
 20
126.3808855601
 30
0.0
 10
231.59277035
 20
126.9888477105
 30
0.0
 10
231.2653077835
 20
127.316310277
 30
0.0
  0
SPLINE
  5
556
100
AcDbEntity
  8
0
100
AcDbSpline
 62
7
  6
CONTINUOUS
 70
0
 71
3
 72
15
 73
11
 74
0
 42
0.0000001
 43
0.0000001
 44
0.0000000001
 40
0.0
 40
0.0
 40
0.0
 40
0.0
 40
0.3989821922
 40
0.5541334243
 40
0.6808981264
 40
0.7803381539
 40
0.8558793785
 40
0.8881452028
 40
0.9203659806
 40
1.0
 40
1.0
 40
1.0
 40
1.0
 10
235.9108190816
 20
313.8359620264
 30
0.0
 10
235.7938568346
 20
313.8000101331
 30
0.0
 10
235.6266519935
 20
313.764044091
 30
0.0
 10
235.418803745
 20
313.7434271976
 30
0.0
 10
235.3016084375
 20
313.7410699077
 30
0.0
 10
235.2094193377
 20
313.7495208382
 30
0.0
 10
235.1474055627
 20
313.7693468767
 30
0.0
 10
235.1137150041
 20
313.7969299585
 30
0.0
 10
235.0894570164
 20
313.8347440731
 30
0.0
 10
235.0858158592
 20
313.870543458
 30
0.0
 10
235.0858158592
 20
313.8949662477
 30
0.0
  0
SPLINE
  5
557
100
AcDbEntity
  8
0
100
AcDbSpline
 62
7
  6
CONTINUOUS
 70
0
 71
3
 72
10
 73
6
 74
0
 42
0.0000001
 43
0.0000001
 44
0.0000000001
 40
0.0
 40
0.0
 40
0.0
 40
0.0
 40
0.3589757292
 40
0.6204054489
 40
1.0
 40
1.0
 40
1.0
 40
1.0
 10
236.5610080158
 20
314.563077896
 30
0.0
 10
236.5369965496
 20
314.4434384394
 30
0.0
 10
236.4574948782
 20
314.2414477077
 30
0.0
 10
236.2331107838
 20
313.9809349999
 30
0.0
 10
236.0341579551
 20
313.8738739691
 30
0.0
 10
235.9108190816
 20
313.8359620264
 30
0.0
  0
SPLINE
  5
558
100
AcDbEntity
  8
0
100
AcDbSpline
 62
7
  6
CONTINUOUS
 70
0
 71
3
 72
15
 73
11
 74
0
 42
0.0000001
 43
0.0000001
 44
0.0000000001
 40
0.0
 40
0.0
 40
0.0
 40
0.0
 40
0.0796340522
 40
0.1118548702
 40
0.1441206771
 40
0.2196619325
 40
0.319101985
 40
0.4458666811
 40
0.6010178868
 40
1.0
 40
1.0
 40
1.0
 40
1.0
 10
262.0858158592
 20
313.8949662477
 30
0.0
 10
262.0858158592
 20
313.8705434475
 30
0.0
 10
262.0821746766
 20
313.8347440551
 30
0.0
 10
262.057916721
 20
313.7969298902
 30
0.0
 10
262.0242260888
 20
313.7693468653
 30
0.0
 10
261.9622123268
 20
313.7495208047
 30
0.0
 10
261.8700231947
 20
313.7410699125
 30
0.0
 10
261.7528278935
 20
313.7434272095
 30
0.0
 10
261.5449796736
 20
313.7640441065
 30
0.0
 10
261.3777748626
 20
313.8000101397
 30
0.0
 10
261.2608126368
 20
313.8359620264
 30
0.0
  0
SPLINE
  5
559
100
AcDbEntity
  8
0
100
AcDbSpline
 62
7
  6
CONTINUOUS
 70
0
 71
3
 72
10
 73
6
 74
0
 42
0.0000001
 43
0.0000001
 44
0.0000000001
 40
0.0
 40
0.0
 40
0.0
 40
0.0
 40
0.3741684497
 40
0.6357813003
 40
1.0
 40
1.0
 40
1.0
 40
1.0
 10
261.2608126368
 20
313.8359620264
 30
0.0
 10
261.1333617886
 20
313.8751379092
 30
0.0
 10
260.9267706905
 20
313.9881752485
 30
0.0
 10
260.6973240503
 20
314.2667098716
 30
0.0
 10
260.6214408075
 20
314.4841060629
 30
0.0
 10
260.6019684633
 20
314.6124273423
 30
0.0
  0
SPLINE
  5
55A
100
AcDbEntity
  8
0
100
AcDbSpline
 62
7
  6
CONTINUOUS
 70
0
 71
3
 72
9
 73
5
 74
0
 42
0.0000001
 43
0.0000001
 44
0.0000000001
 40
0.0
 40
0.0
 40
0.0
 40
0.0
 40
0.2793886402
 40
1.0
 40
1.0
 40
1.0
 40
1.0
 10
260.5866826808
 20
314.7559597061
 30
0.0
 10
260.5812237299
 20
314.7985515969
 30
0.0
 10
260.5526067557
 20
314.9498113508
 30
0.0
 10
260.4923354924
 20
315.0942578063
 30
0.0
 10
260.4363189645
 20
315.1898009095
 30
0.0
  0
SPLINE
  5
55B
100
AcDbEntity
  8
0
100
AcDbSpline
 62
7
  6
CONTINUOUS
 70
0
 71
3
 72
9
 73
5
 74
0
 42
0.0000001
 43
0.0000001
 44
0.0000000001
 40
0.0
 40
0.0
 40
0.0
 40
0.0
 40
0.2218046944
 40
1.0
 40
1.0
 40
1.0
 40
1.0
 10
236.7353127539
 20
315.1898009095
 30
0.0
 10
236.7158508365
 20
315.1566062068
 30
0.0
 10
236.6351256129
 20
315.0030710791
 30
0.0
 10
236.5885052672
 20
314.8304673775
 30
0.0
 10
236.5789548108
 20
314.6958022013
 30
0.0
  0
SPLINE
  5
55C
100
AcDbEntity
  8
0
100
AcDbSpline
 62
7
  6
CONTINUOUS
 70
0
 71
3
 72
11
 73
7
 74
0
 42
0.0000001
 43
0.0000001
 44
0.0000000001
 40
0.0
 40
0.0
 40
0.0
 40
0.0
 40
0.1111999332
 40
0.279207137
 40
0.5435168897
 40
1.0
 40
1.0
 40
1.0
 40
1.0
 10
235.0858158592
 20
313.8949662477
 30
0.0
 10
235.0858158592
 20
313.9249151101
 30
0.0
 10
235.0951556812
 20
313.9998826414
 30
0.0
 10
235.1232462471
 20
314.1434090874
 30
0.0
 10
235.1661967553
 20
314.3789896749
 30
0.0
 10
235.1842189874
 20
314.5729028713
 30
0.0
 10
235.1874604321
 20
314.6958022013
 30
0.0
  0
SPLINE
  5
55D
100
AcDbEntity
  8
0
100
AcDbSpline
 62
7
  6
CONTINUOUS
 70
0
 71
3
 72
13
 73
9
 74
0
 42
0.0000001
 43
0.0000001
 44
0.0000000001
 40
0.0
 40
0.0
 40
0.0
 40
0.0
 40
0.089515173
 40
0.1765784554
 40
0.3615029035
 40
0.5987483999
 40
0.7635066894
 40
1.0
 40
1.0
 40
1.0
 40
1.0
 10
261.3663339946
 20
315.7458022013
 30
0.0
 10
261.4063548062
 20
315.7458022013
 30
0.0
 10
261.4857369451
 20
315.7355166811
 30
0.0
 10
261.6365465896
 20
315.6727174514
 30
0.0
 10
261.8040400471
 20
315.5065252343
 30
0.0
 10
261.9073620015
 20
315.2604868285
 30
0.0
 10
261.9670557496
 20
314.9810587692
 30
0.0
 10
261.9813835852
 20
314.8014978469
 30
0.0
 10
261.9841712863
 20
314.6958022013
 30
0.0
  0
SPLINE
  5
55E
100
AcDbEntity
  8
0
100
AcDbSpline
 62
7
  6
CONTINUOUS
 70
0
 71
3
 72
11
 73
7
 74
0
 42
0.0000001
 43
0.0000001
 44
0.0000000001
 40
0.0
 40
0.0
 40
0.0
 40
0.0
 40
0.4564658983
 40
0.720787331
 40
0.8887982489
 40
1.0
 40
1.0
 40
1.0
 40
1.0
 10
261.9841712863
 20
314.6958022013
 30
0.0
 10
261.9874126089
 20
314.5729075041
 30
0.0
 10
262.0054343641
 20
314.3789958126
 30
0.0
 10
262.0483841354
 20
314.1434155669
 30
0.0
 10
262.0764757111
 20
313.9998846065
 30
0.0
 10
262.0858158592
 20
313.9249156
 30
0.0
 10
262.0858158592
 20
313.8949662477
 30
0.0
  0
SPLINE
  5
55F
100
AcDbEntity
  8
0
100
AcDbSpline
 62
7
  6
CONTINUOUS
 70
0
 71
3
 72
13
 73
9
 74
0
 42
0.0000001
 43
0.0000001
 44
0.0000000001
 40
0.0
 40
0.0
 40
0.0
 40
0.0
 40
0.2364594828
 40
0.4012338621
 40
0.6384983495
 40
0.8234304846
 40
0.9104882594
 40
1.0
 40
1.0
 40
1.0
 40
1.0
 10
235.1874604321
 20
314.6958022013
 30
0.0
 10
235.1902477341
 20
314.8014827159
 30
0.0
 10
235.204571185
 20
314.981035842
 30
0.0
 10
235.2642617281
 20
315.2604650392
 30
0.0
 10
235.3675858301
 20
315.5065243187
 30
0.0
 10
235.5350904328
 20
315.6727209857
 30
0.0
 10
235.6859005256
 20
315.7355163443
 30
0.0
 10
235.7652784514
 20
315.7458022013
 30
0.0
 10
235.8052977238
 20
315.7458022013
 30
0.0
  0
SPLINE
  5
560
100
AcDbEntity
  8
BEZUGSACHSEN
100
AcDbSpline
 62
7
  6
CONTINUOUS
 70
0
 71
3
 72
11
 73
7
 74
0
 42
0.0000001
 43
0.0000001
 44
0.0000000001
 40
0.0
 40
0.0
 40
0.0
 40
0.0
 40
0.2609371431
 40
0.5135252178
 40
0.7589091182
 40
1.0
 40
1.0
 40
1.0
 40
1.0
 10
231.4727322433
 20
332.5236390904
 30
0.0
 10
231.8029855932
 20
332.7073456633
 30
0.0
 10
232.467521451
 20
333.0438337119
 30
0.0
 10
233.4963057259
 20
333.437622395
 30
0.0
 10
234.5405214516
 20
333.6880780739
 30
0.0
 10
235.2462684603
 20
333.7458022013
 30
0.0
 10
235.5954348017
 20
333.7458022013
 30
0.0
  0
SPLINE
  5
561
100
AcDbEntity
  8
BEZUGSACHSEN
100
AcDbSpline
 62
7
  6
CONTINUOUS
 70
0
 71
3
 72
11
 73
7
 74
0
 42
0.0000001
 43
0.0000001
 44
0.0000000001
 40
0.0
 40
0.0
 40
0.0
 40
0.0
 40
0.2404100005
 40
0.4855110066
 40
0.7383643424
 40
1.0
 40
1.0
 40
1.0
 40
1.0
 10
235.5954348017
 20
333.7458022013
 30
0.0
 10
235.9626918678
 20
333.7458022014
 30
0.0
 10
236.7057487275
 20
333.6817819973
 30
0.0
 10
237.803311693
 20
333.4051946511
 30
0.0
 10
238.8830672672
 20
332.9729042865
 30
0.0
 10
239.579427077
 20
332.605897227
 30
0.0
 10
239.9255618214
 20
332.4060562392
 30
0.0
  0
SPLINE
  5
562
100
AcDbEntity
  8
BEZUGSACHSEN
100
AcDbSpline
 62
7
  6
CONTINUOUS
 70
0
 71
3
 72
10
 73
6
 74
0
 42
0.0000001
 43
0.0000001
 44
0.0000000001
 40
0.0
 40
0.0
 40
0.0
 40
0.0
 40
0.4998915617
 40
0.7499458185
 40
1.0
 40
1.0
 40
1.0
 40
1.0
 10
239.9255618214
 20
332.4060562392
 30
0.0
 10
241.3326335466
 20
332.8122428588
 30
0.0
 10
243.477774949
 20
333.3200478183
 30
0.0
 10
246.3872961769
 20
333.683291867
 30
0.0
 10
247.8532349367
 20
333.7458022014
 30
0.0
 10
248.5858158592
 20
333.7458022014
 30
0.0
  0
SPLINE
  5
563
100
AcDbEntity
  8
BEZUGSACHSEN
100
AcDbSpline
 62
7
  6
CONTINUOUS
 70
0
 71
3
 72
10
 73
6
 74
0
 42
0.0000001
 43
0.0000001
 44
0.0000000001
 40
0.0
 40
0.0
 40
0.0
 40
0.0
 40
0.2500542058
 40
0.5001084765
 40
1.0
 40
1.0
 40
1.0
 40
1.0
 10
248.5858158592
 20
333.7458022014
 30
0.0
 10
249.318396853
 20
333.7458022014
 30
0.0
 10
250.7843357247
 20
333.6832918528
 30
0.0
 10
253.693856949
 20
333.3200477748
 30
0.0
 10
255.8389982794
 20
332.8122428278
 30
0.0
 10
257.2460698971
 20
332.4060562392
 30
0.0
  0
SPLINE
  5
564
100
AcDbEntity
  8
BEZUGSACHSEN
100
AcDbSpline
 62
7
  6
CONTINUOUS
 70
0
 71
3
 72
11
 73
7
 74
0
 42
0.0000001
 43
0.0000001
 44
0.0000000001
 40
0.0
 40
0.0
 40
0.0
 40
0.0
 40
0.2616356616
 40
0.5144890271
 40
0.7595900246
 40
1.0
 40
1.0
 40
1.0
 40
1.0
 10
257.2460698971
 20
332.4060562392
 30
0.0
 10
257.5922046467
 20
332.60589723
 30
0.0
 10
258.2885644997
 20
332.9729043177
 30
0.0
 10
259.3683201155
 20
333.4051946847
 30
0.0
 10
260.46588308
 20
333.6817820075
 30
0.0
 10
261.2089398877
 20
333.7458022013
 30
0.0
 10
261.5761969153
 20
333.7458022013
 30
0.0
  0
SPLINE
  5
565
100
AcDbEntity
  8
BEZUGSACHSEN
100
AcDbSpline
 62
7
  6
CONTINUOUS
 70
0
 71
3
 72
11
 73
7
 74
0
 42
0.0000001
 43
0.0000001
 44
0.0000000001
 40
0.0
 40
0.0
 40
0.0
 40
0.0
 40
0.2410908893
 40
0.4864747939
 40
0.7390628463
 40
1.0
 40
1.0
 40
1.0
 40
1.0
 10
261.5761969153
 20
333.7458022013
 30
0.0
 10
261.9253637441
 20
333.7458022014
 30
0.0
 10
262.6311117354
 20
333.688077891
 30
0.0
 10
263.6753287991
 20
333.4376215529
 30
0.0
 10
264.7041143269
 20
333.043831958
 30
0.0
 10
265.3686509282
 20
332.7073431634
 30
0.0
 10
265.6989046688
 20
332.5236361998
 30
0.0
  0
SPLINE
  5
566
100
AcDbEntity
  8
KONSTRUKTIONSELEMENTE
100
AcDbSpline
 62
7
  6
CONTINUOUS
 70
0
 71
3
 72
9
 73
5
 74
0
 42
0.0000001
 43
0.0000001
 44
0.0000000001
 40
0.0
 40
0.0
 40
0.0
 40
0.0
 40
0.2491345028
 40
1.0
 40
1.0
 40
1.0
 40
1.0
 10
365.9817849542
 20
141.085564047
 30
0.0
 10
365.5589519663
 20
141.0320657391
 30
0.0
 10
363.8681727847
 20
140.7659114835
 30
0.0
 10
362.2107264993
 20
140.3122616824
 30
0.0
 10
360.9921101695
 20
139.9060562392
 30
0.0
  0
SPLINE
  5
567
100
AcDbEntity
  8
KONSTRUKTIONSELEMENTE
100
AcDbSpline
 62
7
  6
CONTINUOUS
 70
0
 71
3
 72
9
 73
5
 74
0
 42
0.0000001
 43
0.0000001
 44
0.0000000001
 40
0.0
 40
0.0
 40
0.0
 40
0.0
 40
0.2512164057
 40
1.0
 40
1.0
 40
1.0
 40
1.0
 10
390.9921101695
 20
139.9060562392
 30
0.0
 10
390.5844600332
 20
140.0419396179
 30
0.0
 10
388.9524781125
 20
140.553160391
 30
0.0
 10
387.2730828208
 20
140.9247975268
 30
0.0
 10
386.0024324554
 20
141.0855643938
 30
0.0
  0
SPLINE
  5
568
100
AcDbEntity
  8
BEZUGSACHSEN
100
AcDbSpline
 62
7
  6
CONTINUOUS
 70
0
 71
3
 72
15
 73
11
 74
0
 42
0.0000001
 43
0.0000001
 44
0.0000000001
 40
0.0
 40
0.0
 40
0.0
 40
0.0
 40
0.12678678
 40
0.2523062995
 40
0.3765643151
 40
0.5000000768
 40
0.6234358136
 40
0.7476937433
 40
0.8732131774
 40
1.0
 40
1.0
 40
1.0
 40
1.0
 10
390.9921101695
 20
127.316310277
 30
0.0
 10
390.4110712478
 20
126.9808472992
 30
0.0
 10
389.2289938184
 20
126.3560080722
 30
0.0
 10
387.3780711725
 20
125.6061209926
 30
0.0
 10
385.4582499278
 20
125.1122483215
 30
0.0
 10
383.492109062
 20
124.938075525
 30
0.0
 10
381.5259685274
 20
125.1122479269
 30
0.0
 10
379.6061486185
 20
125.60612157
 30
0.0
 10
377.7552264546
 20
126.3560079024
 30
0.0
 10
376.5731492861
 20
126.9808471866
 30
0.0
 10
375.9921101695
 20
127.316310277
 30
0.0
  0
SPLINE
  5
569
100
AcDbEntity
  8
KONSTRUKTIONSELEMENTE
100
AcDbSpline
 62
7
  6
CONTINUOUS
 70
0
 71
3
 72
10
 73
6
 74
0
 42
0.0000001
 43
0.0000001
 44
0.0000000001
 40
0.0
 40
0.0
 40
0.0
 40
0.0
 40
0.2489289318
 40
0.4984050404
 40
1.0
 40
1.0
 40
1.0
 40
1.0
 10
383.492110042
 20
141.2458022073
 30
0.0
 10
382.8574917737
 20
141.2458022073
 30
0.0
 10
381.5859714712
 20
141.1831239282
 30
0.0
 10
379.059939196
 20
140.8185777885
 30
0.0
 10
377.2052520967
 20
140.3104368816
 30
0.0
 10
375.9921101695
 20
139.9060562392
 30
0.0
  0
SPLINE
  5
56A
100
AcDbEntity
  8
KONSTRUKTIONSELEMENTE
100
AcDbSpline
 62
7
  6
CONTINUOUS
 70
0
 71
3
 72
10
 73
6
 74
0
 42
0.0000001
 43
0.0000001
 44
0.0000000001
 40
0.0
 40
0.0
 40
0.0
 40
0.0
 40
0.5015950115
 40
0.7510711018
 40
1.0
 40
1.0
 40
1.0
 40
1.0
 10
375.9921101695
 20
139.9060562392
 30
0.0
 10
374.7789680759
 20
140.310436937
 30
0.0
 10
372.9242808247
 20
140.8185778686
 30
0.0
 10
370.3982484564
 20
141.1831239691
 30
0.0
 10
369.1267282428
 20
141.2458022076
 30
0.0
 10
368.4921100389
 20
141.2458022076
 30
0.0
  0
SPLINE
  5
56B
100
AcDbEntity
  8
BEZUGSACHSEN
100
AcDbSpline
 62
7
  6
CONTINUOUS
 70
0
 71
3
 72
15
 73
11
 74
0
 42
0.0000001
 43
0.0000001
 44
0.0000000001
 40
0.0
 40
0.0
 40
0.0
 40
0.0
 40
0.12678678
 40
0.2523062995
 40
0.3765643151
 40
0.5000000768
 40
0.6234358136
 40
0.7476937433
 40
0.8732131774
 40
1.0
 40
1.0
 40
1.0
 40
1.0
 10
375.9921101695
 20
127.316310277
 30
0.0
 10
375.4110712478
 20
126.9808472992
 30
0.0
 10
374.2289938184
 20
126.3560080722
 30
0.0
 10
372.3780711725
 20
125.6061209926
 30
0.0
 10
370.4582499278
 20
125.1122483215
 30
0.0
 10
368.492109062
 20
124.938075525
 30
0.0
 10
366.5259685274
 20
125.1122479269
 30
0.0
 10
364.6061486185
 20
125.60612157
 30
0.0
 10
362.7552264546
 20
126.3560079024
 30
0.0
 10
361.5731492861
 20
126.9808471866
 30
0.0
 10
360.9921101695
 20
127.316310277
 30
0.0
  0
SPLINE
  5
56C
100
AcDbEntity
  8
BEZUGSACHSEN
100
AcDbSpline
 62
7
  6
CONTINUOUS
 70
0
 71
3
 72
9
 73
5
 74
0
 42
0.0000001
 43
0.0000001
 44
0.0000000001
 40
0.0
 40
0.0
 40
0.0
 40
0.0
 40
0.4983885045
 40
1.0
 40
1.0
 40
1.0
 40
1.0
 10
385.116706494
 20
333.678329684
 30
0.0
 10
386.1138087665
 20
333.5959066831
 30
0.0
 10
388.1036289097
 20
333.2786976667
 30
0.0
 10
390.0368115151
 20
332.7244891239
 30
0.0
 10
390.9921101695
 20
332.4060562392
 30
0.0
  0
SPLINE
  5
56D
100
AcDbEntity
  8
BEZUGSACHSEN
100
AcDbSpline
 62
7
  6
CONTINUOUS
 70
0
 71
3
 72
9
 73
5
 74
0
 42
0.0000001
 43
0.0000001
 44
0.0000000001
 40
0.0
 40
0.0
 40
0.0
 40
0.0
 40
0.5016113863
 40
1.0
 40
1.0
 40
1.0
 40
1.0
 10
360.9921101695
 20
332.4060562392
 30
0.0
 10
361.9473068968
 20
332.7244551483
 30
0.0
 10
363.8802803443
 20
333.2786129864
 30
0.0
 10
365.8698797044
 20
333.5958305617
 30
0.0
 10
366.8668733818
 20
333.6782767718
 30
0.0
  0
ELLIPSE
  5
56E
100
AcDbEntity
  8
0
100
AcDbEllipse
 62
7
  6
CONTINUOUS
 10
234.0391267913
 20
314.6208022013
 30
0.0
 11
1.1462157754
 21
0.0
 31
0.0
 40
0.981490592
 41
1.5707963268
 42
3.0748765052
  0
ELLIPSE
  5
56F
100
AcDbEntity
  8
0
100
AcDbEllipse
 62
7
  6
CONTINUOUS
 10
263.1325049271
 20
314.6208022013
 30
0.0
 11
1.1462157754
 21
-0.0
 31
0.0
 40
0.981490592
 41
0.0667161484
 42
1.5707963268
  0
ELLIPSE
  5
570
100
AcDbEntity
  8
0
100
AcDbEllipse
 62
7
  6
CONTINUOUS
 10
265.4198365127
 20
314.7708022013
 30
0.0
 11
1.1462157754
 21
-0.0
 31
0.0
 40
0.981490592
 41
-3.0748765052
 42
-1.5707963268
  0
ELLIPSE
  5
571
100
AcDbEntity
  8
0
100
AcDbEllipse
 62
7
  6
CONTINUOUS
 10
231.7517952057
 20
314.7708022013
 30
0.0
 11
1.1462157754
 21
0.0
 31
0.0
 40
0.981490592
 41
-1.5707963268
 42
-0.0667161484
  0
ELLIPSE
  5
572
100
AcDbEntity
  8
0
100
AcDbEllipse
 62
7
  6
CONTINUOUS
 10
218.7647241824
 20
70.9036980144
 30
0.0
 11
0.0
 21
20.0
 31
0.0
 40
0.383864035
 41
-3.2155316912
 42
-3.2108549809
  0
ELLIPSE
  5
573
100
AcDbEntity
  8
0
100
AcDbEllipse
 62
7
  6
CONTINUOUS
 10
214.6275968959
 20
70.9036980144
 30
0.0
 11
52.1017812939
 21
0.0
 31
0.0
 40
0.383864035
 41
4.7816513077
 42
4.786328018
  0
ELLIPSE
  5
574
100
AcDbEntity
  8
0
100
AcDbEllipse
 62
7
  6
CONTINUOUS
 10
218.2321564517
 20
13.6536980144
 30
0.0
 11
0.0
 21
20.0
 31
0.0
 40
0.4040262258
 41
0.0173489219
 42
0.0346952116
  0
ELLIPSE
  5
575
100
AcDbEntity
  8
0
100
AcDbEllipse
 62
7
  6
CONTINUOUS
 10
218.0798858842
 20
13.6536980144
 30
0.0
 11
0.0
 21
20.0
 31
0.0
 40
0.1845418734
 41
0.0346952116
 42
0.0713419809
  0
ELLIPSE
  5
576
100
AcDbEntity
  8
0
100
AcDbEllipse
 62
7
  6
CONTINUOUS
 10
222.3264408994
 20
51.4683189049
 30
0.0
 11
2.59125
 21
0.0
 31
0.0
 40
0.0740740741
 41
5.9398128887
 42
8.2205007769
  0
ELLIPSE
  5
577
100
AcDbEntity
  8
0
100
AcDbEllipse
 62
7
  6
CONTINUOUS
 10
219.2082560643
 20
51.9351629697
 30
0.0
 11
3.1297000267
 21
0.0449494414
 31
0.0
 40
0.0540788191
 41
6.5376558181
 42
9.6792484717
  0
ELLIPSE
  5
578
100
AcDbEntity
  8
0
100
AcDbEllipse
 62
7
  6
CONTINUOUS
 10
218.6001309567
 20
51.882761561
 30
0.0
 11
1.32
 21
0.0
 31
0.0
 40
0.0740740741
 41
1.9373154697
 42
3.5081117965
  0
ELLIPSE
  5
579
100
AcDbEntity
  8
0
100
AcDbEllipse
 62
7
  6
CONTINUOUS
 10
220.1335368073
 20
51.9263629948
 30
0.0
 11
1.32
 21
-0.0
 31
0.0
 40
0.0740740741
 41
0.3665191429
 42
1.9373154697
  0
ELLIPSE
  5
57A
100
AcDbEntity
  8
0
100
AcDbEllipse
 62
7
  6
CONTINUOUS
 10
219.2082560643
 20
51.4337931041
 30
0.0
 11
3.1297000267
 21
0.0449494414
 31
0.0
 40
0.0540788191
 41
3.140816054
 42
3.3960631645
  0
ELLIPSE
  5
57B
100
AcDbEntity
  8
0
100
AcDbEllipse
 62
7
  6
CONTINUOUS
 10
222.3264408994
 20
51.4683189049
 30
0.0
 11
1.27125
 21
0.0
 31
0.0
 40
0.0740740741
 41
5.6398634114
 42
8.2205007769
  0
ENDSEC
  0
SECTION
  2
OBJECTS
  0
DICTIONARY
  5
C
100
AcDbDictionary
280
0
281
1
  3
ACAD_GROUP
350
D
  3
ACAD_MLINESTYLE
350
17
  3
ACAD_LAYOUT
350
1A
  3
ACAD_PLOTSETTINGS
350
19
  3
ACAD_PLOTSTYLENAME
350
E
  0
DICTIONARY
  5
D
102
{ACAD_REACTORS
330
C
102
}
100
AcDbDictionary
280
0
281
1
  0
ACDBDICTIONARYWDFLT
  5
E
102
{ACAD_REACTORS
330
C
102
}
100
AcDbDictionary
281
1
  3
Normal
350
F
100
AcDbDictionaryWithDefault
340
F
  0
DICTIONARY
  5
17
102
{ACAD_REACTORS
330
C
102
}
100
AcDbDictionary
280
0
281
1
  3
Standard
350
18
  0
DICTIONARY
  5
19
102
{ACAD_REACTORS
330
C
102
}
100
AcDbDictionary
281
1
  0
DICTIONARY
  5
1A
102
{ACAD_REACTORS
330
C
102
}
100
AcDbDictionary
281
1
  3
Model
350
57C
  3
Layout1
350
57D
  0
ACDBPLACEHOLDER
  5
F
102
{ACAD_REACTORS
330
E
102
}
  0
MLINESTYLE
  5
18
102
{ACAD_REACTORS
330
17
102
}
100
AcDbMlineStyle
  2
STANDARD
 70
0
  3

 62
256
 51
90.0
 52
90.0
 71
2
 49
0.5
 62
256
  6
BYLAYER
 49
-0.5
 62
256
  6
BYLAYER
  0
LAYOUT
  5
57C
102
{ACAD_REACTORS
330
1A
102
}
100
AcDbPlotSettings
  1

  2
none_device
  4
ISO_A2_(594.00_x_420.00_MM)
  6

 40
0.0
 41
0.0
 42
0.0
 43
0.0
 44
594.0
 45
420.0
 46
0.0
 47
0.0
 48
0.0
 49
0.0
140
0.0
141
0.0
142
1.0
143
1.0
 70
1024
 72
1
 73
0
 74
0
  7

 75
0
147
1.0
148
0.0
149
0.0
100
AcDbLayout
  1
Model
 70
0
 71
0
 10
0.0
 20
0.0
 11
594.0
 21
420.0
 12
0.0
 22
0.0
 32
0.0
 14
0.0
 24
0.0
 34
0.0
 15
0.0
 25
0.0
 35
0.0
146
0.0
 13
0.0
 23
0.0
 33
0.0
 16
1.0
 26
0.0
 36
0.0
 17
0.0
 27
1.0
 37
0.0
 76
0
330
20F
345
0
346
0
  0
LAYOUT
  5
57D
102
{ACAD_REACTORS
330
1A
102
}
100
AcDbPlotSettings
  1

  2
none_device
  4
ISO_A2_(594.00_x_420.00_MM)
  6

 40
0.0
 41
0.0
 42
0.0
 43
0.0
 44
594.0
 45
420.0
 46
0.0
 47
0.0
 48
0.0
 49
0.0
140
0.0
141
0.0
142
1.0
143
1.0
 70
0
 72
1
 73
0
 74
0
  7

 75
0
147
1.0
148
0.0
149
0.0
100
AcDbLayout
  1
Layout1
 70
0
 71
1
 10
0.0
 20
0.0
 11
594.0
 21
420.0
 12
0.0
 22
0.0
 32
0.0
 14
0.0
 24
0.0
 34
0.0
 15
0.0
 25
0.0
 35
0.0
146
0.0
 13
0.0
 23
0.0
 33
0.0
 16
1.0
 26
0.0
 36
0.0
 17
0.0
 27
1.0
 37
0.0
 76
0
330
210
345
0
346
0
  0
ENDSEC
  0
EOF
