999
DXF file: 001-m35812-p-2.dxf
999
Pro/ENGINEER 2011490 by Parametric Technology Corporation
  0
SECTION
  2
HEADER
  9
$ACADVER
  1
AC1015
  9
$DWGCODEPAGE
  3
ANSI_1252
  9
$EXTMAX
 10
594.0
 20
420.0
 30
0.0
  9
$EXTMIN
 10
0.0
 20
0.0
 30
0.0
  9
$LIMMIN
 10
0.0
 20
0.0
  9
$LIMMAX
 10
594.0
 20
420.0
  9
$VIEWCTR
 10
297.0
 20
210.0
  9
$VIEWSIZE
 40
420.0
  9
$CLAYER
  8
0
  9
$LTSCALE
 40
32.67
  9
$CELTYPE
  6
BYLAYER
  9
$DIMSCALE
 40
1.0
  9
$DIMASZ
 40
3.5
  9
$DIMEXO
 40
3.7125
  9
$DIMDLI
 40
22.572
  9
$DIMEXE
 40
10.692
  9
$DIMCEN
 40
5.346
  9
$DIMLFAC
 40
1.0
  9
$DIMBLK
  1
_FILLED
  9
$DIMTXT
 40
3.5
  9
$DIMTOL
 70
1
  9
$DIMLIM
 70
0
  9
$DIMTFAC
 40
1.0
  9
$DIMTP
 40
0.005
  9
$DIMTM
 40
0.005
  9
$PDMODE
 70
3
  9
$PDSIZE
 40
0.3125
  9
$HANDSEED
  5
60B
  9
$TILEMODE
 70
1
  9
$MEASUREMENT
 70
1
  9
$INSUNITS
 70
4
  0
ENDSEC
  0
SECTION
  2
CLASSES
  0
CLASS
  1
ACDBDICTIONARYWDFLT
  2
AcDbDictionaryWithDefault
  3
AutoCAD 2000
 90
0
280
0
281
0
  0
CLASS
  1
ACDBPLACEHOLDER
  2
AcDbPlaceHolder
  3
AutoCAD 2000
 90
0
280
0
281
0
  0
CLASS
  1
LAYOUT
  2
AcDbLayout
  3
AutoCAD 2000
 90
0
280
0
281
0
  0
ENDSEC
  0
SECTION
  2
TABLES
  0
TABLE
  2
VPORT
  5
8
100
AcDbSymbolTable
 70
2
  0
VPORT
  5
1F4
100
AcDbSymbolTableRecord
100
AcDbViewportTableRecord
  2
*ACTIVE
 70
0
 10
0.0
 20
0.0
 11
1.0
 21
1.0
 12
297.0
 22
210.0
 13
0.0
 23
0.0
 14
1.0
 24
1.0
 15
0.0
 25
0.0
 16
0.0
 26
0.0
 36
1.0
 17
0.0
 27
0.0
 37
0.0
 40
420.0
 41
1.4142857143
 42
50.0
 43
0.0
 44
0.0
 50
0.0
 51
0.0
 71
0
 72
100
 73
1
 74
1
 75
0
 76
0
 77
0
 78
0
  0
ENDTAB
  0
TABLE
  2
LTYPE
  5
5
100
AcDbSymbolTable
 70
6
  0
LTYPE
  5
14
100
AcDbSymbolTableRecord
100
AcDbLinetypeTableRecord
  2
BYBLOCK
 70
0
  3

 72
65
 73
0
 40
0.0
  0
LTYPE
  5
15
100
AcDbSymbolTableRecord
100
AcDbLinetypeTableRecord
  2
BYLAYER
 70
0
  3

 72
65
 73
0
 40
0.0
  0
LTYPE
  5
16
100
AcDbSymbolTableRecord
100
AcDbLinetypeTableRecord
  2
CONTINUOUS
 70
64
  3
Solid line
 72
65
 73
0
 40
0.0
  0
LTYPE
  5
1F5
100
AcDbSymbolTableRecord
100
AcDbLinetypeTableRecord
  2
CENTER
 70
64
  3
____ _ ____ _ ____ _ ____ _ ____ _ ____ _ ____
 72
65
 73
4
 40
0.6
 49
0.375
 74
0
 49
-0.075
 74
0
 49
0.075
 74
0
 49
-0.075
 74
0
  0
LTYPE
  5
1F6
100
AcDbSymbolTableRecord
100
AcDbLinetypeTableRecord
  2
HIDDEN
 70
64
  3
- - - - - - - - - - - - - - - - - - - -
 72
65
 73
2
 40
0.2
 49
0.1
 74
0
 49
-0.1
 74
0
  0
LTYPE
  5
1F7
100
AcDbSymbolTableRecord
100
AcDbLinetypeTableRecord
  2
PHANTOM
 70
64
  3
_____ _ _ _____ _ _ _____ _ _ _____
 72
65
 73
6
 40
0.8
 49
0.45
 74
0
 49
-0.05
 74
0
 49
0.1
 74
0
 49
-0.05
 74
0
 49
0.1
 74
0
 49
-0.05
 74
0
  0
LTYPE
  5
1F8
100
AcDbSymbolTableRecord
100
AcDbLinetypeTableRecord
  2
DOT
 70
64
  3
. . . . . . . . . . . . . . . . . . . .
 72
65
 73
2
 40
0.2
 49
0.1
 74
0
 49
-0.1
 74
0
  0
LTYPE
  5
1F9
100
AcDbSymbolTableRecord
100
AcDbLinetypeTableRecord
  2
DASHED
 70
64
  3
- - - - - - - - - - - - - - - - - - - -
 72
65
 73
2
 40
0.2
 49
0.1
 74
0
 49
-0.1
 74
0
  0
ENDTAB
  0
TABLE
  2
LAYER
  5
2
100
AcDbSymbolTable
 70
36
  0
LAYER
  5
10
100
AcDbSymbolTableRecord
100
AcDbLayerTableRecord
  2
0
 70
0
 62
7
  6
CONTINUOUS
370
-3
390
F
  0
LAYER
  5
1FA
100
AcDbSymbolTableRecord
100
AcDbLayerTableRecord
  2
DEFAULT_1
 70
0
 62
7
  6
CENTER
370
-3
390
F
  0
LAYER
  5
1FB
100
AcDbSymbolTableRecord
100
AcDbLayerTableRecord
  2
DEFAULT_2
 70
0
 62
8
  6
HIDDEN
370
-3
390
F
  0
LAYER
  5
1FC
100
AcDbSymbolTableRecord
100
AcDbLayerTableRecord
  2
DEFAULT_3
 70
0
 62
7
  6
PHANTOM
370
-3
390
F
  0
LAYER
  5
1FD
100
AcDbSymbolTableRecord
100
AcDbLayerTableRecord
  2
AUSFORMSCHRAEGEN
 70
0
 62
7
  6
CONTINUOUS
370
-3
390
F
  0
LAYER
  5
1FE
100
AcDbSymbolTableRecord
100
AcDbLayerTableRecord
  2
BEZUGSACHSEN
 70
0
 62
7
  6
CONTINUOUS
370
-3
390
F
  0
LAYER
  5
1FF
100
AcDbSymbolTableRecord
100
AcDbLayerTableRecord
  2
BEZUGSEBENEN
 70
0
 62
7
  6
CONTINUOUS
370
-3
390
F
  0
LAYER
  5
200
100
AcDbSymbolTableRecord
100
AcDbLayerTableRecord
  2
BG_STARTBEZUEGE
 70
0
 62
7
  6
CONTINUOUS
370
-3
390
F
  0
LAYER
  5
201
100
AcDbSymbolTableRecord
100
AcDbLayerTableRecord
  2
FASEN
 70
0
 62
7
  6
CONTINUOUS
370
-3
390
F
  0
LAYER
  5
202
100
AcDbSymbolTableRecord
100
AcDbLayerTableRecord
  2
GEWINDE
 70
0
 62
7
  6
CONTINUOUS
370
-3
390
F
  0
LAYER
  5
203
100
AcDbSymbolTableRecord
100
AcDbLayerTableRecord
  2
HILFEN
 70
0
 62
7
  6
CONTINUOUS
370
-3
390
F
  0
LAYER
  5
204
100
AcDbSymbolTableRecord
100
AcDbLayerTableRecord
  2
KONSTRUKTIONSELEMENTE
 70
0
 62
7
  6
CONTINUOUS
370
-3
390
F
  0
LAYER
  5
205
100
AcDbSymbolTableRecord
100
AcDbLayerTableRecord
  2
KURVEN
 70
0
 62
7
  6
CONTINUOUS
370
-3
390
F
  0
LAYER
  5
206
100
AcDbSymbolTableRecord
100
AcDbLayerTableRecord
  2
NORM
 70
0
 62
7
  6
CONTINUOUS
370
-3
390
F
  0
LAYER
  5
207
100
AcDbSymbolTableRecord
100
AcDbLayerTableRecord
  2
PLATZIERUNG
 70
0
 62
7
  6
CONTINUOUS
370
-3
390
F
  0
LAYER
  5
208
100
AcDbSymbolTableRecord
100
AcDbLayerTableRecord
  2
PLAZIERUNG
 70
0
 62
7
  6
CONTINUOUS
370
-3
390
F
  0
LAYER
  5
209
100
AcDbSymbolTableRecord
100
AcDbLayerTableRecord
  2
RUNDUNGEN
 70
0
 62
7
  6
CONTINUOUS
370
-3
390
F
  0
LAYER
  5
20A
100
AcDbSymbolTableRecord
100
AcDbLayerTableRecord
  2
TEIL_STARTBEZUEGE
 70
0
 62
7
  6
CONTINUOUS
370
-3
390
F
  0
LAYER
  5
20B
100
AcDbSymbolTableRecord
100
AcDbLayerTableRecord
  2
T_STARTBEZUEGE
 70
0
 62
7
  6
CONTINUOUS
370
-3
390
F
  0
LAYER
  5
20C
100
AcDbSymbolTableRecord
100
AcDbLayerTableRecord
  2
ZEICHNUNGSBEMASSUNGEN
 70
0
 62
7
  6
CONTINUOUS
370
-3
390
F
  0
ENDTAB
  0
TABLE
  2
STYLE
  5
3
100
AcDbSymbolTable
 70
1
  0
STYLE
  5
11
100
AcDbSymbolTableRecord
100
AcDbTextStyleTableRecord
  2
STANDARD
 70
0
 40
0.0
 41
0.7
 50
0.0
 71
0
 42
0.2
  3
txt
  4

  0
STYLE
  5
20D
100
AcDbSymbolTableRecord
100
AcDbTextStyleTableRecord
  2
TEXTSTYLE_1
 70
0
 40
0.0
 41
0.8
 50
0.0
 71
0
 42
0.2
  3
gdt
  4

  0
ENDTAB
  0
TABLE
  2
VIEW
  5
6
100
AcDbSymbolTable
 70
0
  0
ENDTAB
  0
TABLE
  2
UCS
  5
7
100
AcDbSymbolTable
 70
0
  0
ENDTAB
  0
TABLE
  2
APPID
  5
9
100
AcDbSymbolTable
 70
1
  0
APPID
  5
20E
100
AcDbSymbolTableRecord
100
AcDbRegAppTableRecord
  2
ACAD
 70
0
  0
ENDTAB
  0
TABLE
  2
BLOCK_RECORD
  5
1
100
AcDbSymbolTable
 70
0
  0
BLOCK_RECORD
  5
20F
100
AcDbSymbolTableRecord
100
AcDbBlockTableRecord
  2
*Model_Space
  0
BLOCK_RECORD
  5
210
100
AcDbSymbolTableRecord
100
AcDbBlockTableRecord
  2
*Paper_Space
  0
ENDTAB
  0
TABLE
  2
DIMSTYLE
  5
A
100
AcDbSymbolTable
 70
1
100
AcDbDimStyleTable
 71
0
  0
DIMSTYLE
105
211
100
AcDbSymbolTableRecord
100
AcDbDimStyleTableRecord
  2
STANDARD
 70
0
  3

  4

 40
1.0
 41
3.5
 42
0.0625
 43
0.38
 44
0.18
 45
0.0
 46
0.0
 47
0.005
 48
0.005
140
3.5
141
0.09
142
0.0
143
25.4
144
1.0
145
0.0
146
1.0
147
0.09
 71
1.0
 72
0.0
 73
0
 74
0
 75
0
 76
0
 77
1
 78
8
170
0
171
2
172
0
173
0
174
0
175
0
176
0
177
0
178
5
270
2
271
3
272
3
273
2
274
2
275
0
280
0
281
0
282
0
283
1
284
8
285
0
286
0
287
3
288
0
340
11
  0
ENDTAB
  0
ENDSEC
  0
SECTION
  2
BLOCKS
  0
BLOCK
  5
20
100
AcDbEntity
  8
0
100
AcDbBlockBegin
  2
*Model_Space
 70
0
 10
0.0
 20
0.0
 30
0.0
  3
*Model_Space
  1

  0
ENDBLK
  5
21
100
AcDbEntity
  8
0
100
AcDbBlockEnd
  0
BLOCK
  5
1C
100
AcDbEntity
  8
0
100
AcDbBlockBegin
  2
*Paper_Space
 70
0
 10
0.0
 20
0.0
 30
0.0
  3
*Paper_Space
  1

  0
ENDBLK
  5
1D
100
AcDbEntity
  8
0
100
AcDbBlockEnd
  0
ENDSEC
  0
SECTION
  2
ENTITIES
  0
MTEXT
  5
212
100
AcDbEntity
  8
0
100
AcDbMText
 62
5
  6
CONTINUOUS
  7
STANDARD
 71
1
 72
1
 10
331.0218732039
 20
292.768444388
 30
0.0
 11
0.0
 21
1.0
 31
0.0
 44
0.9
  1
RUD ACP 2,5t M16
 40
4.0
 41
49.4285714286
  0
MTEXT
  5
213
100
AcDbEntity
  8
0
100
AcDbMText
 62
5
  6
CONTINUOUS
  7
STANDARD
 71
1
 72
1
 10
202.3110031679
 20
297.3485744456
 30
0.0
 11
1.0
 21
0.0
 31
0.0
 44
0.9
  1
RUD
 40
4.0
 41
10.6666666667
  0
MTEXT
  5
214
100
AcDbEntity
  8
0
100
AcDbMText
 62
5
  6
CONTINUOUS
  7
STANDARD
 71
1
 72
1
 10
182.672249208
 20
60.0865385428
 30
0.0
 11
1.0
 21
0.0
 31
0.0
 44
0.9
  1
RUD ACP 2,5t M16
 40
4.0
 41
49.4285714286
  0
LINE
  5
215
100
AcDbEntity
  8
0
100
AcDbLine
 62
7
  6
CONTINUOUS
 10
0.0
 20
0.0
 11
0.0
 21
420.0
  0
LINE
  5
216
100
AcDbEntity
  8
0
100
AcDbLine
 62
7
  6
CONTINUOUS
 10
0.0
 20
0.0
 11
594.0
 21
0.0
  0
LINE
  5
217
100
AcDbEntity
  8
0
100
AcDbLine
 62
7
  6
CONTINUOUS
 10
0.0
 20
420.0
 11
594.0
 21
420.0
  0
LINE
  5
218
100
AcDbEntity
  8
0
100
AcDbLine
 62
7
  6
CONTINUOUS
 10
594.0
 20
0.0
 11
594.0
 21
420.0
  0
LINE
  5
219
100
AcDbEntity
  8
BEZUGSACHSEN
100
AcDbLine
 62
7
  6
CONTINUOUS
 10
201.0624524815
 20
122.5036512233
 11
214.6624524815
 21
122.5036512233
  0
LINE
  5
21A
100
AcDbEntity
  8
BEZUGSACHSEN
100
AcDbLine
 62
7
  6
CONTINUOUS
 10
199.8624524815
 20
123.7036512233
 11
215.8624524815
 21
123.7036512233
  0
LINE
  5
21B
100
AcDbEntity
  8
RUNDUNGEN
100
AcDbLine
 62
7
  6
CONTINUOUS
 10
186.7274769373
 20
381.0656942305
 11
205.5778568032
 21
388.3016771078
  0
LINE
  5
21C
100
AcDbEntity
  8
BEZUGSACHSEN
100
AcDbLine
 62
7
  6
CONTINUOUS
 10
216.8624524806
 20
146.5036512233
 11
198.8624524824
 21
146.5036512233
  0
LINE
  5
21D
100
AcDbEntity
  8
KONSTRUKTIONSELEMENTE
100
AcDbLine
 62
7
  6
CONTINUOUS
 10
192.8624524815
 20
162.5036512217
 11
222.8624524815
 21
162.5036512217
  0
LINE
  5
21E
100
AcDbEntity
  8
BEZUGSACHSEN
100
AcDbLine
 62
7
  6
CONTINUOUS
 10
201.0624524815
 20
122.5036512233
 11
199.8624524815
 21
123.7036512233
  0
LINE
  5
21F
100
AcDbEntity
  8
KONSTRUKTIONSELEMENTE
100
AcDbLine
 62
7
  6
CONTINUOUS
 10
192.8624524815
 20
166.5036512217
 11
222.8624524815
 21
166.5036512217
  0
LINE
  5
220
100
AcDbEntity
  8
BEZUGSACHSEN
100
AcDbLine
 62
7
  6
CONTINUOUS
 10
198.8624524824
 20
146.5036512233
 11
194.0060460223
 21
151.3600576834
  0
LINE
  5
221
100
AcDbEntity
  8
RUNDUNGEN
100
AcDbLine
 62
7
  6
CONTINUOUS
 10
174.1651613786
 20
360.0175591052
 11
183.3319060239
 21
378.0083084474
  0
LINE
  5
222
100
AcDbEntity
  8
KONSTRUKTIONSELEMENTE
100
AcDbLine
 62
7
  6
CONTINUOUS
 10
219.8624524803
 20
162.5036512217
 11
221.7188589407
 21
161.4318544521
  0
LINE
  5
223
100
AcDbEntity
  8
0
100
AcDbLine
 62
7
  6
CONTINUOUS
 10
183.9690105563
 20
321.3299444485
 11
183.4266152556
 21
321.0098179748
  0
LINE
  5
224
100
AcDbEntity
  8
0
100
AcDbLine
 62
7
  6
CONTINUOUS
 10
183.9716090212
 20
320.6548098721
 11
184.3019886126
 21
320.7909620526
  0
LINE
  5
225
100
AcDbEntity
  8
0
100
AcDbLine
 62
7
  6
CONTINUOUS
 10
183.4266152556
 20
321.0098179748
 11
183.0741226098
 21
320.4781510626
  0
LINE
  5
226
100
AcDbEntity
  8
0
100
AcDbLine
 62
7
  6
CONTINUOUS
 10
183.7127676664
 20
320.3549380393
 11
183.9716090212
 21
320.6548098721
  0
LINE
  5
227
100
AcDbEntity
  8
0
100
AcDbLine
 62
7
  6
CONTINUOUS
 10
181.6966586726
 20
316.0464591763
 11
181.2726275221
 21
315.6785112532
  0
LINE
  5
228
100
AcDbEntity
  8
0
100
AcDbLine
 62
7
  6
CONTINUOUS
 10
181.9359849019
 20
315.2756803747
 11
182.3131901389
 21
315.5277300949
  0
LINE
  5
229
100
AcDbEntity
  8
0
100
AcDbLine
 62
7
  6
CONTINUOUS
 10
185.0459546737
 20
311.7272849543
 11
184.6687493538
 21
311.4752352675
  0
LINE
  5
22A
100
AcDbEntity
  8
BEZUGSACHSEN
100
AcDbLine
 62
7
  6
CONTINUOUS
 10
194.006046021
 20
316.4318544536
 11
195.8624524815
 21
317.5036512233
  0
LINE
  5
22B
100
AcDbEntity
  8
0
100
AcDbLine
 62
7
  6
CONTINUOUS
 10
182.3574173195
 20
316.3187622111
 11
181.6966586726
 21
316.0464591763
  0
LINE
  5
22C
100
AcDbEntity
  8
0
100
AcDbLine
 62
7
  6
CONTINUOUS
 10
184.6245222561
 20
310.6842031179
 11
185.2852812124
 21
310.9565067991
  0
LINE
  5
22D
100
AcDbEntity
  8
RUNDUNGEN
100
AcDbLine
 62
7
  6
CONTINUOUS
 10
170.1037895339
 20
298.9537395347
 11
180.5650698994
 21
324.8463170372
  0
LINE
  5
22E
100
AcDbEntity
  8
0
100
AcDbLine
 62
7
  6
CONTINUOUS
 10
183.0741226098
 20
320.4781510626
 11
181.9503025616
 21
317.6965988357
  0
LINE
  5
22F
100
AcDbEntity
  8
0
100
AcDbLine
 62
7
  6
CONTINUOUS
 10
180.9201346083
 20
315.1468436778
 11
180.4987021907
 21
314.1037618414
  0
LINE
  5
230
100
AcDbEntity
  8
0
100
AcDbLine
 62
7
  6
CONTINUOUS
 10
178.6256691343
 20
309.4678423475
 11
178.2510625633
 21
308.5406585482
  0
LINE
  5
231
100
AcDbEntity
  8
0
100
AcDbLine
 62
7
  6
CONTINUOUS
 10
182.8230771857
 20
318.1528768268
 11
183.7127676664
 21
320.3549380393
  0
LINE
  5
232
100
AcDbEntity
  8
0
100
AcDbLine
 62
7
  6
CONTINUOUS
 10
181.208885484
 20
313.8168291657
 11
181.6303179016
 21
314.8599110021
  0
LINE
  5
233
100
AcDbEntity
  8
0
100
AcDbLine
 62
7
  6
CONTINUOUS
 10
181.2726275221
 20
315.6785112532
 11
180.9201346083
 21
315.1468436778
  0
LINE
  5
234
100
AcDbEntity
  8
0
100
AcDbLine
 62
7
  6
CONTINUOUS
 10
185.7093121261
 20
311.3244540465
 11
186.0618053181
 21
311.8561222809
  0
LINE
  5
235
100
AcDbEntity
  8
0
100
AcDbLine
 62
7
  6
CONTINUOUS
 10
181.6303179016
 20
314.8599110021
 11
181.9359849019
 21
315.2756803747
  0
LINE
  5
236
100
AcDbEntity
  8
0
100
AcDbLine
 62
7
  6
CONTINUOUS
 10
185.3516219419
 20
312.14305499
 11
185.0459546737
 21
311.7272849543
  0
LINE
  5
237
100
AcDbEntity
  8
0
100
AcDbLine
 62
7
  6
CONTINUOUS
 10
185.2852812124
 20
310.9565067991
 11
185.7093121261
 21
311.3244540465
  0
LINE
  5
238
100
AcDbEntity
  8
0
100
AcDbLine
 62
7
  6
CONTINUOUS
 10
227.3167719755
 20
320.4877618198
 11
226.7249524815
 21
320.2486512233
  0
LINE
  5
239
100
AcDbEntity
  8
0
100
AcDbLine
 62
7
  6
CONTINUOUS
 10
232.3908276298
 20
318.4933080905
 11
232.1540995338
 21
318.3976637313
  0
LINE
  5
23A
100
AcDbEntity
  8
0
100
AcDbLine
 62
7
  6
CONTINUOUS
 10
228.4106821519
 20
316.0763238777
 11
229.0025016459
 21
316.3154344743
  0
LINE
  5
23B
100
AcDbEntity
  8
0
100
AcDbLine
 62
7
  6
CONTINUOUS
 10
232.4350544789
 20
317.7022758404
 11
232.6717825749
 21
317.7979201996
  0
LINE
  5
23C
100
AcDbEntity
  8
0
100
AcDbLine
 62
7
  6
CONTINUOUS
 10
180.4987021907
 20
314.1037618414
 11
180.3829367734
 21
313.4764493776
  0
LINE
  5
23D
100
AcDbEntity
  8
0
100
AcDbLine
 62
7
  6
CONTINUOUS
 10
182.7151080306
 20
315.500161826
 11
182.9960629757
 21
316.1955497169
  0
LINE
  5
23E
100
AcDbEntity
  8
0
100
AcDbLine
 62
7
  6
CONTINUOUS
 10
184.5985357505
 20
317.4355450037
 11
185.4882262313
 21
319.6376062162
  0
LINE
  5
23F
100
AcDbEntity
  8
0
100
AcDbLine
 62
7
  6
CONTINUOUS
 10
185.3087190438
 20
317.148612328
 11
186.151583879
 21
319.2347760008
  0
LINE
  5
240
100
AcDbEntity
  8
0
100
AcDbLine
 62
7
  6
CONTINUOUS
 10
182.529079146
 20
308.5648466753
 11
181.6862142773
 21
306.4786829197
  0
LINE
  5
241
100
AcDbEntity
  8
0
100
AcDbLine
 62
7
  6
CONTINUOUS
 10
185.7184324325
 20
315.09564106
 11
185.4374774874
 21
314.4002531691
  0
LINE
  5
242
100
AcDbEntity
  8
0
100
AcDbLine
 62
7
  6
CONTINUOUS
 10
182.1128439597
 20
306.1714964321
 11
183.0493604544
 21
308.4894560962
  0
LINE
  5
243
100
AcDbEntity
  8
0
100
AcDbLine
 62
7
  6
CONTINUOUS
 10
185.7730543595
 20
313.1861368264
 11
185.3516219419
 21
312.14305499
  0
LINE
  5
244
100
AcDbEntity
  8
0
100
AcDbLine
 62
7
  6
CONTINUOUS
 10
183.0649524815
 20
304.4386512233
 11
183.3459074266
 21
305.1340391142
  0
LINE
  5
245
100
AcDbEntity
  8
0
100
AcDbLine
 62
7
  6
CONTINUOUS
 10
184.6570304589
 20
308.3791824947
 11
184.9379854039
 21
309.0745703856
  0
LINE
  5
246
100
AcDbEntity
  8
0
100
AcDbLine
 62
7
  6
CONTINUOUS
 10
186.0618053181
 20
311.8561222809
 11
186.4832377357
 21
312.8992041173
  0
LINE
  5
247
100
AcDbEntity
  8
0
100
AcDbLine
 62
7
  6
CONTINUOUS
 10
187.513405689
 20
315.4489592752
 11
187.794360902
 21
316.1443478293
  0
LINE
  5
248
100
AcDbEntity
  8
RUNDUNGEN
100
AcDbLine
 62
7
  6
CONTINUOUS
 10
191.5074811654
 20
314.6755006525
 11
188.173144031
 21
306.4227266462
  0
LINE
  5
249
100
AcDbEntity
  8
0
100
AcDbLine
 62
7
  6
CONTINUOUS
 10
235.2380825321
 20
315.1947179291
 11
232.1606212628
 21
313.9513428673
  0
LINE
  5
24A
100
AcDbEntity
  8
0
100
AcDbLine
 62
7
  6
CONTINUOUS
 10
232.9865697055
 20
313.6109637423
 11
234.8803921525
 21
314.376117678
  0
LINE
  5
24B
100
AcDbEntity
  8
0
100
AcDbLine
 62
7
  6
CONTINUOUS
 10
233.0204023247
 20
310.1193945798
 11
232.7836745603
 21
310.0237503546
  0
LINE
  5
24C
100
AcDbEntity
  8
0
100
AcDbLine
 62
7
  6
CONTINUOUS
 10
236.2383409644
 20
311.0150764262
 11
236.8301603754
 21
311.2541869893
  0
LINE
  5
24D
100
AcDbEntity
  8
0
100
AcDbLine
 62
7
  6
CONTINUOUS
 10
232.8994397096
 20
309.3964385539
 11
233.3728952385
 21
309.5877270043
  0
LINE
  5
24E
100
AcDbEntity
  8
0
100
AcDbLine
 62
7
  6
CONTINUOUS
 10
235.5229604096
 20
309.3778744638
 11
235.0495048807
 21
309.1865860133
  0
LINE
  5
24F
100
AcDbEntity
  8
0
100
AcDbLine
 62
7
  6
CONTINUOUS
 10
236.8444780351
 20
308.8332685283
 11
235.8975666458
 21
308.4506914934
  0
LINE
  5
250
100
AcDbEntity
  8
0
100
AcDbLine
 62
7
  6
CONTINUOUS
 10
235.4241111169
 20
308.259403043
 11
233.0568332239
 21
307.3029606904
  0
LINE
  5
251
100
AcDbEntity
  8
0
100
AcDbLine
 62
7
  6
CONTINUOUS
 10
178.9051318883
 20
286.21238522
 11
178.9051318883
 21
286.9678030051
  0
LINE
  5
252
100
AcDbEntity
  8
0
100
AcDbLine
 62
7
  6
CONTINUOUS
 10
178.9051318883
 20
290.4319046203
 11
178.9051318883
 21
291.1873224055
  0
LINE
  5
253
100
AcDbEntity
  8
0
100
AcDbLine
 62
7
  6
CONTINUOUS
 10
181.1399459802
 20
313.3054149048
 11
181.208885484
 21
313.8168291657
  0
LINE
  5
254
100
AcDbEntity
  8
0
100
AcDbLine
 62
7
  6
CONTINUOUS
 10
185.8419935954
 20
313.6975504242
 11
185.7730543595
 21
313.1861368264
  0
LINE
  5
255
100
AcDbEntity
  8
0
100
AcDbLine
 62
7
  6
CONTINUOUS
 10
186.151583879
 20
319.2347760008
 11
186.2673487604
 21
319.8620871383
  0
LINE
  5
256
100
AcDbEntity
  8
0
100
AcDbLine
 62
7
  6
CONTINUOUS
 10
186.4832377357
 20
312.8992041173
 11
186.5990028747
 21
313.5265159221
  0
LINE
  5
257
100
AcDbEntity
  8
0
100
AcDbLine
 62
7
  6
CONTINUOUS
 10
232.6717825749
 20
317.7979201996
 11
233.0984123242
 21
318.1051065213
  0
LINE
  5
258
100
AcDbEntity
  8
0
100
AcDbLine
 62
7
  6
CONTINUOUS
 10
233.5276903707
 20
306.8191145979
 11
235.6582404164
 21
307.6799126918
  0
LINE
  5
259
100
AcDbEntity
  8
0
100
AcDbLine
 62
7
  6
CONTINUOUS
 10
236.1316959453
 20
307.8712011422
 11
237.0786073346
 21
308.253778177
  0
LINE
  5
25A
100
AcDbEntity
  8
0
100
AcDbLine
 62
7
  6
CONTINUOUS
 10
232.7654838003
 20
305.2978115684
 11
233.2389393707
 21
305.4891000356
  0
LINE
  5
25B
100
AcDbEntity
  8
0
100
AcDbLine
 62
7
  6
CONTINUOUS
 10
236.173324661
 20
306.4050344496
 11
236.6467801899
 21
306.5963229001
  0
LINE
  5
25C
100
AcDbEntity
  8
0
100
AcDbLine
 62
7
  6
CONTINUOUS
 10
180.3829367734
 20
313.4764493776
 11
180.4323614198
 21
312.9172136672
  0
LINE
  5
25D
100
AcDbEntity
  8
0
100
AcDbLine
 62
7
  6
CONTINUOUS
 10
182.6551318883
 20
288.3198538127
 11
182.6551318883
 21
289.0752715979
  0
LINE
  5
25E
100
AcDbEntity
  8
0
100
AcDbLine
 62
7
  6
CONTINUOUS
 10
183.1551318883
 20
286.21238522
 11
183.1551318883
 21
286.9678030051
  0
LINE
  5
25F
100
AcDbEntity
  8
0
100
AcDbLine
 62
7
  6
CONTINUOUS
 10
183.1551318883
 20
290.4319046203
 11
183.1551318883
 21
291.1873224055
  0
LINE
  5
260
100
AcDbEntity
  8
RUNDUNGEN
100
AcDbLine
 62
7
  6
CONTINUOUS
 10
186.8624524815
 20
299.6797247948
 11
186.8624524815
 21
289.5536512233
  0
LINE
  5
261
100
AcDbEntity
  8
RUNDUNGEN
100
AcDbLine
 62
7
  6
CONTINUOUS
 10
186.8624524815
 20
279.8036511556
 11
186.8624524815
 21
276.6786512233
  0
LINE
  5
262
100
AcDbEntity
  8
RUNDUNGEN
100
AcDbLine
 62
7
  6
CONTINUOUS
 10
187.6124524815
 20
299.2536512233
 11
187.6124524815
 21
276.7536512233
  0
LINE
  5
263
100
AcDbEntity
  8
0
100
AcDbLine
 62
7
  6
CONTINUOUS
 10
187.8624524815
 20
276.0036512233
 11
187.8624524815
 21
271.7536512233
  0
LINE
  5
264
100
AcDbEntity
  8
0
100
AcDbLine
 62
7
  6
CONTINUOUS
 10
189.8624524815
 20
307.5036512233
 11
189.8624524815
 21
302.5036512233
  0
LINE
  5
265
100
AcDbEntity
  8
0
100
AcDbLine
 62
7
  6
CONTINUOUS
 10
185.5103398216
 20
320.0331222742
 11
185.4882262313
 21
319.6376062162
  0
LINE
  5
266
100
AcDbEntity
  8
0
100
AcDbLine
 62
7
  6
CONTINUOUS
 10
231.0953461571
 20
313.5209437869
 11
230.7155421043
 21
313.0978595603
  0
LINE
  5
267
100
AcDbEntity
  8
0
100
AcDbLine
 62
7
  6
CONTINUOUS
 10
230.9964970494
 20
312.4024716694
 11
231.3763011021
 21
312.8255558959
  0
LINE
  5
268
100
AcDbEntity
  8
0
100
AcDbLine
 62
7
  6
CONTINUOUS
 10
233.3728952385
 20
309.5877270043
 11
233.8710629884
 21
310.0586340401
  0
LINE
  5
269
100
AcDbEntity
  8
0
100
AcDbLine
 62
7
  6
CONTINUOUS
 10
233.3286682237
 20
310.3787591875
 11
233.0204023247
 21
310.1193945798
  0
LINE
  5
26A
100
AcDbEntity
  8
0
100
AcDbLine
 62
7
  6
CONTINUOUS
 10
233.2194242867
 20
306.5597506868
 11
233.5276903707
 21
306.8191145979
  0
LINE
  5
26B
100
AcDbEntity
  8
RUNDUNGEN
100
AcDbLine
 62
7
  6
CONTINUOUS
 10
177.345213897
 20
275.8971889663
 11
170.1572215428
 21
292.8310377595
  0
LINE
  5
26C
100
AcDbEntity
  8
0
100
AcDbLine
 62
7
  6
CONTINUOUS
 10
186.5990028747
 20
313.5265159221
 11
186.5495784652
 21
314.0857523082
  0
LINE
  5
26D
100
AcDbEntity
  8
0
100
AcDbLine
 62
7
  6
CONTINUOUS
 10
191.339735902
 20
302.0536512233
 11
191.339735902
 21
300.2536512233
  0
LINE
  5
26E
100
AcDbEntity
  8
0
100
AcDbLine
 62
7
  6
CONTINUOUS
 10
192.685169061
 20
300.2536512233
 11
192.685169061
 21
302.0536512233
  0
LINE
  5
26F
100
AcDbEntity
  8
KONSTRUKTIONSELEMENTE
100
AcDbLine
 62
7
  6
CONTINUOUS
 10
192.8624524815
 20
162.5036512217
 11
192.8624524815
 21
166.5036512217
  0
LINE
  5
270
100
AcDbEntity
  8
KONSTRUKTIONSELEMENTE
100
AcDbLine
 62
7
  6
CONTINUOUS
 10
194.0060460223
 20
161.4318544521
 11
194.0060460223
 21
151.3600576834
  0
LINE
  5
271
100
AcDbEntity
  8
BEZUGSACHSEN
100
AcDbLine
 62
7
  6
CONTINUOUS
 10
194.006046021
 20
308.0036512233
 11
194.006046021
 21
316.4318544536
  0
LINE
  5
272
100
AcDbEntity
  8
RUNDUNGEN
100
AcDbLine
 62
7
  6
CONTINUOUS
 10
194.3624524815
 20
300.7536512233
 11
194.3624524815
 21
301.5036512233
  0
LINE
  5
273
100
AcDbEntity
  8
0
100
AcDbLine
 62
7
  6
CONTINUOUS
 10
196.0276726849
 20
300.7536512233
 11
196.0276726849
 21
301.5036512233
  0
LINE
  5
274
100
AcDbEntity
  8
0
100
AcDbLine
 62
7
  6
CONTINUOUS
 10
196.1124524815
 20
302.5036512233
 11
196.1124524815
 21
300.2536512233
  0
LINE
  5
275
100
AcDbEntity
  8
0
100
AcDbLine
 62
7
  6
CONTINUOUS
 10
196.1124524815
 20
276.7536512233
 11
196.1124524815
 21
276.0036512233
  0
LINE
  5
276
100
AcDbEntity
  8
KONSTRUKTIONSELEMENTE
100
AcDbLine
 62
7
  6
CONTINUOUS
 10
196.8624524815
 20
307.5036512233
 11
196.8624524815
 21
308.0036512233
  0
LINE
  5
277
100
AcDbEntity
  8
BEZUGSACHSEN
100
AcDbLine
 62
7
  6
CONTINUOUS
 10
196.8624524815
 20
307.5036512233
 11
196.8624524815
 21
308.0036512233
  0
LINE
  5
278
100
AcDbEntity
  8
RUNDUNGEN
100
AcDbLine
 62
7
  6
CONTINUOUS
 10
197.9324524815
 20
300.7536613347
 11
197.9324524815
 21
301.5036512233
  0
LINE
  5
279
100
AcDbEntity
  8
0
100
AcDbLine
 62
7
  6
CONTINUOUS
 10
230.7155421043
 20
313.0978595603
 11
230.3825640065
 21
312.5588771477
  0
LINE
  5
27A
100
AcDbEntity
  8
0
100
AcDbLine
 62
7
  6
CONTINUOUS
 10
232.6522675835
 20
318.8685705025
 11
232.3908276298
 21
318.4933080905
  0
LINE
  5
27B
100
AcDbEntity
  8
0
100
AcDbLine
 62
7
  6
CONTINUOUS
 10
233.5901083113
 20
310.7540212679
 11
233.3286682237
 21
310.3787591875
  0
LINE
  5
27C
100
AcDbEntity
  8
0
100
AcDbLine
 62
7
  6
CONTINUOUS
 10
233.0568332239
 20
307.3029606904
 11
232.6770294805
 21
306.8798758174
  0
LINE
  5
27D
100
AcDbEntity
  8
0
100
AcDbLine
 62
7
  6
CONTINUOUS
 10
181.2361962721
 20
312.8620767341
 11
181.1399459802
 21
313.3054149048
  0
LINE
  5
27E
100
AcDbEntity
  8
0
100
AcDbLine
 62
7
  6
CONTINUOUS
 10
185.7457432206
 20
314.1408886284
 11
185.8419935954
 21
313.6975504242
  0
LINE
  5
27F
100
AcDbEntity
  8
BEZUGSACHSEN
100
AcDbLine
 62
7
  6
CONTINUOUS
 10
199.8624524815
 20
271.7536512233
 11
199.8624524815
 21
166.5036512217
  0
LINE
  5
280
100
AcDbEntity
  8
BEZUGSACHSEN
100
AcDbLine
 62
7
  6
CONTINUOUS
 10
199.8624524815
 20
146.5036512233
 11
199.8624524815
 21
123.7036512233
  0
LINE
  5
281
100
AcDbEntity
  8
KONSTRUKTIONSELEMENTE
100
AcDbLine
 62
7
  6
CONTINUOUS
 10
200.9342492519
 20
161.4318544521
 11
200.9342492519
 21
151.3600576834
  0
LINE
  5
282
100
AcDbEntity
  8
BEZUGSACHSEN
100
AcDbLine
 62
7
  6
CONTINUOUS
 10
200.9342492512
 20
308.0036512233
 11
200.9342492512
 21
316.4318544536
  0
LINE
  5
283
100
AcDbEntity
  8
0
100
AcDbLine
 62
7
  6
CONTINUOUS
 10
207.8680355405
 20
317.5036512233
 11
207.8680355405
 21
317.7036512233
  0
LINE
  5
284
100
AcDbEntity
  8
0
100
AcDbLine
 62
7
  6
CONTINUOUS
 10
208.1778901857
 20
317.5036512233
 11
208.1778901857
 21
317.7036512233
  0
LINE
  5
285
100
AcDbEntity
  8
0
100
AcDbLine
 62
7
  6
CONTINUOUS
 10
208.3229250329
 20
317.5036512233
 11
208.3229250329
 21
317.7036512233
  0
LINE
  5
286
100
AcDbEntity
  8
0
100
AcDbLine
 62
7
  6
CONTINUOUS
 10
233.0984123242
 20
318.1051065213
 11
233.3845644671
 21
318.75998712
  0
LINE
  5
287
100
AcDbEntity
  8
0
100
AcDbLine
 62
7
  6
CONTINUOUS
 10
233.8710629884
 20
310.0586340401
 11
234.2040413127
 21
310.5976157728
  0
LINE
  5
288
100
AcDbEntity
  8
0
100
AcDbLine
 62
7
  6
CONTINUOUS
 10
180.4323614198
 20
312.9172136672
 11
180.7185135627
 21
312.2623330684
  0
LINE
  5
289
100
AcDbEntity
  8
0
100
AcDbLine
 62
7
  6
CONTINUOUS
 10
186.2673487604
 20
319.8620871383
 11
186.0995607678
 21
320.4691462876
  0
LINE
  5
28A
100
AcDbEntity
  8
RUNDUNGEN
100
AcDbLine
 62
7
  6
CONTINUOUS
 10
180.8120499691
 20
328.8844054828
 11
173.6875508277
 21
355.4733982569
  0
LINE
  5
28B
100
AcDbEntity
  8
0
100
AcDbLine
 62
7
  6
CONTINUOUS
 10
209.200846503
 20
317.5036512233
 11
209.200846503
 21
317.7036512233
  0
LINE
  5
28C
100
AcDbEntity
  8
0
100
AcDbLine
 62
7
  6
CONTINUOUS
 10
209.4689511582
 20
317.5036512233
 11
209.4689511582
 21
317.7036512233
  0
LINE
  5
28D
100
AcDbEntity
  8
0
100
AcDbLine
 62
7
  6
CONTINUOUS
 10
209.8304483428
 20
317.5036512233
 11
209.8304483428
 21
317.7036512233
  0
LINE
  5
28E
100
AcDbEntity
  8
0
100
AcDbLine
 62
7
  6
CONTINUOUS
 10
209.9274496219
 20
317.5036512233
 11
209.9274496219
 21
317.7036512233
  0
LINE
  5
28F
100
AcDbEntity
  8
0
100
AcDbLine
 62
7
  6
CONTINUOUS
 10
209.9998112746
 20
317.5036512233
 11
209.9998112746
 21
317.7036512233
  0
LINE
  5
290
100
AcDbEntity
  8
0
100
AcDbLine
 62
7
  6
CONTINUOUS
 10
210.0274369754
 20
317.5036512233
 11
210.0274369754
 21
317.7036512233
  0
LINE
  5
291
100
AcDbEntity
  8
0
100
AcDbLine
 62
7
  6
CONTINUOUS
 10
210.5368045438
 20
317.5036512233
 11
210.5368045438
 21
317.7036512233
  0
LINE
  5
292
100
AcDbEntity
  8
0
100
AcDbLine
 62
7
  6
CONTINUOUS
 10
210.5407565738
 20
317.5036512233
 11
210.5407565738
 21
317.7036512233
  0
LINE
  5
293
100
AcDbEntity
  8
0
100
AcDbLine
 62
7
  6
CONTINUOUS
 10
210.6390155308
 20
317.5036512233
 11
210.6390155308
 21
317.7036512233
  0
LINE
  5
294
100
AcDbEntity
  8
0
100
AcDbLine
 62
7
  6
CONTINUOUS
 10
210.7824523309
 20
317.5036512233
 11
210.7824523309
 21
317.7036512233
  0
LINE
  5
295
100
AcDbEntity
  8
0
100
AcDbLine
 62
7
  6
CONTINUOUS
 10
210.9956313127
 20
317.5036512233
 11
210.9956313127
 21
317.7036512233
  0
LINE
  5
296
100
AcDbEntity
  8
0
100
AcDbLine
 62
7
  6
CONTINUOUS
 10
211.1842456902
 20
317.5036512233
 11
211.1842456902
 21
317.7036512233
  0
LINE
  5
297
100
AcDbEntity
  8
0
100
AcDbLine
 62
7
  6
CONTINUOUS
 10
211.4426022474
 20
317.5036512233
 11
211.4426022474
 21
317.7036512233
  0
LINE
  5
298
100
AcDbEntity
  8
0
100
AcDbLine
 62
7
  6
CONTINUOUS
 10
211.6763942023
 20
317.5036512233
 11
211.6763942023
 21
317.7036512233
  0
LINE
  5
299
100
AcDbEntity
  8
0
100
AcDbLine
 62
7
  6
CONTINUOUS
 10
211.9553637306
 20
317.5036512233
 11
211.9553637306
 21
317.7036512233
  0
LINE
  5
29A
100
AcDbEntity
  8
0
100
AcDbLine
 62
7
  6
CONTINUOUS
 10
212.1400259431
 20
317.5036512233
 11
212.1400259431
 21
317.7036512233
  0
LINE
  5
29B
100
AcDbEntity
  8
0
100
AcDbLine
 62
7
  6
CONTINUOUS
 10
212.3047644088
 20
317.5036512233
 11
212.3047644088
 21
317.7036512233
  0
LINE
  5
29C
100
AcDbEntity
  8
0
100
AcDbLine
 62
7
  6
CONTINUOUS
 10
213.2160988561
 20
317.5036512233
 11
213.2160988561
 21
317.7036512233
  0
LINE
  5
29D
100
AcDbEntity
  8
0
100
AcDbLine
 62
7
  6
CONTINUOUS
 10
213.4423668186
 20
317.5036512233
 11
213.4423668186
 21
317.7036512233
  0
LINE
  5
29E
100
AcDbEntity
  8
0
100
AcDbLine
 62
7
  6
CONTINUOUS
 10
213.6670687003
 20
317.5036512233
 11
213.6670687003
 21
317.7036512233
  0
LINE
  5
29F
100
AcDbEntity
  8
0
100
AcDbLine
 62
7
  6
CONTINUOUS
 10
213.9645835276
 20
317.5036512233
 11
213.9645835276
 21
317.7036512233
  0
LINE
  5
2A0
100
AcDbEntity
  8
0
100
AcDbLine
 62
7
  6
CONTINUOUS
 10
214.1861541201
 20
317.5036512233
 11
214.1861541201
 21
317.7036512233
  0
LINE
  5
2A1
100
AcDbEntity
  8
0
100
AcDbLine
 62
7
  6
CONTINUOUS
 10
214.4061586
 20
317.5036512233
 11
214.4061586
 21
317.7036512233
  0
LINE
  5
2A2
100
AcDbEntity
  8
KONSTRUKTIONSELEMENTE
100
AcDbLine
 62
7
  6
CONTINUOUS
 10
214.7906557111
 20
161.4318544521
 11
214.7906557111
 21
151.3600576834
  0
LINE
  5
2A3
100
AcDbEntity
  8
BEZUGSACHSEN
100
AcDbLine
 62
7
  6
CONTINUOUS
 10
214.7906557118
 20
308.0036512233
 11
214.7906557118
 21
316.4318544536
  0
LINE
  5
2A4
100
AcDbEntity
  8
0
100
AcDbLine
 62
7
  6
CONTINUOUS
 10
214.914604782
 20
317.5036512233
 11
214.914604782
 21
317.7036512233
  0
LINE
  5
2A5
100
AcDbEntity
  8
0
100
AcDbLine
 62
7
  6
CONTINUOUS
 10
214.9757881168
 20
317.5036512233
 11
214.9757881168
 21
317.7036512233
  0
LINE
  5
2A6
100
AcDbEntity
  8
0
100
AcDbLine
 62
7
  6
CONTINUOUS
 10
215.1225021305
 20
317.5036512233
 11
215.1225021305
 21
317.7036512233
  0
LINE
  5
2A7
100
AcDbEntity
  8
0
100
AcDbLine
 62
7
  6
CONTINUOUS
 10
215.3369822239
 20
317.5036512233
 11
215.3369822239
 21
317.7036512233
  0
LINE
  5
2A8
100
AcDbEntity
  8
0
100
AcDbLine
 62
7
  6
CONTINUOUS
 10
215.5869915768
 20
317.5036512233
 11
215.5869915768
 21
317.7036512233
  0
LINE
  5
2A9
100
AcDbEntity
  8
BEZUGSACHSEN
100
AcDbLine
 62
7
  6
CONTINUOUS
 10
215.8624524815
 20
123.7036512233
 11
215.8624524815
 21
146.5036512233
  0
LINE
  5
2AA
100
AcDbEntity
  8
BEZUGSACHSEN
100
AcDbLine
 62
7
  6
CONTINUOUS
 10
215.8624524815
 20
166.5036512217
 11
215.8624524815
 21
271.7536512233
  0
LINE
  5
2AB
100
AcDbEntity
  8
0
100
AcDbLine
 62
7
  6
CONTINUOUS
 10
215.872530084
 20
317.5036512233
 11
215.872530084
 21
317.7036512233
  0
LINE
  5
2AC
100
AcDbEntity
  8
0
100
AcDbLine
 62
7
  6
CONTINUOUS
 10
216.0758290838
 20
317.5036512233
 11
216.0758290838
 21
317.7036512233
  0
LINE
  5
2AD
100
AcDbEntity
  8
0
100
AcDbLine
 62
7
  6
CONTINUOUS
 10
216.3146569014
 20
317.5036512233
 11
216.3146569014
 21
317.7036512233
  0
LINE
  5
2AE
100
AcDbEntity
  8
0
100
AcDbLine
 62
7
  6
CONTINUOUS
 10
216.453481006
 20
317.5036512233
 11
216.453481006
 21
317.7036512233
  0
LINE
  5
2AF
100
AcDbEntity
  8
0
100
AcDbLine
 62
7
  6
CONTINUOUS
 10
216.5225543595
 20
317.5036512233
 11
216.5225543595
 21
317.7036512233
  0
LINE
  5
2B0
100
AcDbEntity
  8
0
100
AcDbLine
 62
7
  6
CONTINUOUS
 10
216.6903241348
 20
317.5036512233
 11
216.6903241348
 21
317.7036512233
  0
LINE
  5
2B1
100
AcDbEntity
  8
0
100
AcDbLine
 62
7
  6
CONTINUOUS
 10
216.9436249911
 20
317.5036512233
 11
216.9436249911
 21
317.7036512233
  0
LINE
  5
2B2
100
AcDbEntity
  8
0
100
AcDbLine
 62
7
  6
CONTINUOUS
 10
217.1824532153
 20
317.5036512233
 11
217.1824532153
 21
317.7036512233
  0
LINE
  5
2B3
100
AcDbEntity
  8
0
100
AcDbLine
 62
7
  6
CONTINUOUS
 10
217.3212773198
 20
317.5036512233
 11
217.3212773198
 21
317.7036512233
  0
LINE
  5
2B4
100
AcDbEntity
  8
0
100
AcDbLine
 62
7
  6
CONTINUOUS
 10
217.3923353622
 20
317.5036512233
 11
217.3923353622
 21
317.7036512233
  0
LINE
  5
2B5
100
AcDbEntity
  8
0
100
AcDbLine
 62
7
  6
CONTINUOUS
 10
217.4311557535
 20
317.5036512233
 11
217.4311557535
 21
317.7036512233
  0
LINE
  5
2B6
100
AcDbEntity
  8
0
100
AcDbLine
 62
7
  6
CONTINUOUS
 10
217.8387089646
 20
317.5036512233
 11
217.8387089646
 21
317.7036512233
  0
LINE
  5
2B7
100
AcDbEntity
  8
0
100
AcDbLine
 62
7
  6
CONTINUOUS
 10
217.87883693
 20
317.5036512233
 11
217.87883693
 21
317.7036512233
  0
LINE
  5
2B8
100
AcDbEntity
  8
0
100
AcDbLine
 62
7
  6
CONTINUOUS
 10
218.0391410388
 20
317.5036512233
 11
218.0391410388
 21
317.7036512233
  0
LINE
  5
2B9
100
AcDbEntity
  8
RUNDUNGEN
100
AcDbLine
 62
7
  6
CONTINUOUS
 10
218.4324524815
 20
300.7535701765
 11
218.4324524815
 21
301.5036512233
  0
LINE
  5
2BA
100
AcDbEntity
  8
RUNDUNGEN
100
AcDbLine
 62
7
  6
CONTINUOUS
 10
242.0373541353
 20
355.4733982569
 11
234.9128549939
 21
328.8844054828
  0
LINE
  5
2BB
100
AcDbEntity
  8
0
100
AcDbLine
 62
7
  6
CONTINUOUS
 10
181.4976366913
 20
312.4868145197
 11
181.2361962721
 21
312.8620767341
  0
LINE
  5
2BC
100
AcDbEntity
  8
0
100
AcDbLine
 62
7
  6
CONTINUOUS
 10
186.5495784652
 20
314.0857523082
 11
186.263426013
 21
314.7406322606
  0
LINE
  5
2BD
100
AcDbEntity
  8
0
100
AcDbLine
 62
7
  6
CONTINUOUS
 10
185.3672638841
 20
320.3605629052
 11
185.5103398216
 21
320.0331222742
  0
LINE
  5
2BE
100
AcDbEntity
  8
KONSTRUKTIONSELEMENTE
100
AcDbLine
 62
7
  6
CONTINUOUS
 10
218.8624524815
 20
307.5036512233
 11
218.8624524815
 21
308.0036512233
  0
LINE
  5
2BF
100
AcDbEntity
  8
BEZUGSACHSEN
100
AcDbLine
 62
7
  6
CONTINUOUS
 10
218.8624524815
 20
307.5036512233
 11
218.8624524815
 21
308.0036512233
  0
LINE
  5
2C0
100
AcDbEntity
  8
0
100
AcDbLine
 62
7
  6
CONTINUOUS
 10
219.6124524815
 20
302.5036512233
 11
219.6124524815
 21
300.2536512233
  0
LINE
  5
2C1
100
AcDbEntity
  8
0
100
AcDbLine
 62
7
  6
CONTINUOUS
 10
219.6124524815
 20
276.7536512233
 11
219.6124524815
 21
276.0036512233
  0
LINE
  5
2C2
100
AcDbEntity
  8
0
100
AcDbLine
 62
7
  6
CONTINUOUS
 10
219.8487684465
 20
300.7536512233
 11
219.8487684465
 21
301.5036512233
  0
LINE
  5
2C3
100
AcDbEntity
  8
RUNDUNGEN
100
AcDbLine
 62
7
  6
CONTINUOUS
 10
221.3624524815
 20
300.7536512233
 11
221.3624524815
 21
301.5036512233
  0
LINE
  5
2C4
100
AcDbEntity
  8
KONSTRUKTIONSELEMENTE
100
AcDbLine
 62
7
  6
CONTINUOUS
 10
221.7188589407
 20
161.4318544521
 11
221.7188589407
 21
151.3600576834
  0
LINE
  5
2C5
100
AcDbEntity
  8
BEZUGSACHSEN
100
AcDbLine
 62
7
  6
CONTINUOUS
 10
221.7188589421
 20
308.0036512233
 11
221.7188589421
 21
316.4318544536
  0
LINE
  5
2C6
100
AcDbEntity
  8
KONSTRUKTIONSELEMENTE
100
AcDbLine
 62
7
  6
CONTINUOUS
 10
222.8624524815
 20
162.5036512217
 11
222.8624524815
 21
166.5036512217
  0
LINE
  5
2C7
100
AcDbEntity
  8
0
100
AcDbLine
 62
7
  6
CONTINUOUS
 10
223.039735902
 20
300.2536512233
 11
223.039735902
 21
302.0536512233
  0
LINE
  5
2C8
100
AcDbEntity
  8
0
100
AcDbLine
 62
7
  6
CONTINUOUS
 10
224.385169061
 20
302.0536512233
 11
224.385169061
 21
300.2536512233
  0
LINE
  5
2C9
100
AcDbEntity
  8
0
100
AcDbLine
 62
7
  6
CONTINUOUS
 10
225.8624524815
 20
307.5036512233
 11
225.8624524815
 21
302.5036512233
  0
LINE
  5
2CA
100
AcDbEntity
  8
0
100
AcDbLine
 62
7
  6
CONTINUOUS
 10
227.8624524815
 20
276.0036512233
 11
227.8624524815
 21
271.7536512233
  0
LINE
  5
2CB
100
AcDbEntity
  8
0
100
AcDbLine
 62
7
  6
CONTINUOUS
 10
230.3825640065
 20
312.5588771477
 11
230.2616016283
 21
311.8359204461
  0
LINE
  5
2CC
100
AcDbEntity
  8
0
100
AcDbLine
 62
7
  6
CONTINUOUS
 10
234.2040413127
 20
310.5976157728
 11
234.3250036598
 21
311.3205724619
  0
LINE
  5
2CD
100
AcDbEntity
  8
0
100
AcDbLine
 62
7
  6
CONTINUOUS
 10
230.9002467575
 20
311.9591334987
 11
230.9964970494
 21
312.4024716694
  0
LINE
  5
2CE
100
AcDbEntity
  8
0
100
AcDbLine
 62
7
  6
CONTINUOUS
 10
232.7485178754
 20
319.3119086731
 11
232.6522675835
 21
318.8685705025
  0
LINE
  5
2CF
100
AcDbEntity
  8
0
100
AcDbLine
 62
7
  6
CONTINUOUS
 10
232.6770294805
 20
306.8798758174
 11
232.5807791679
 21
306.4365376384
  0
LINE
  5
2D0
100
AcDbEntity
  8
0
100
AcDbLine
 62
7
  6
CONTINUOUS
 10
233.6863586032
 20
311.1973594386
 11
233.5901083113
 21
310.7540212679
  0
LINE
  5
2D1
100
AcDbEntity
  8
0
100
AcDbLine
 62
7
  6
CONTINUOUS
 10
233.1231739948
 20
306.1164125162
 11
233.2194242867
 21
306.5597506868
  0
LINE
  5
2D2
100
AcDbEntity
  8
0
100
AcDbLine
 62
7
  6
CONTINUOUS
 10
187.8624524815
 20
271.7536512233
 11
227.8624524815
 21
271.7536512233
  0
LINE
  5
2D3
100
AcDbEntity
  8
RUNDUNGEN
100
AcDbLine
 62
7
  6
CONTINUOUS
 10
236.5386813591
 20
274.6786512233
 11
230.8624524815
 21
274.6786512233
  0
LINE
  5
2D4
100
AcDbEntity
  8
RUNDUNGEN
100
AcDbLine
 62
7
  6
CONTINUOUS
 10
184.8624524815
 20
274.6786512233
 11
179.1862236039
 21
274.6786512233
  0
LINE
  5
2D5
100
AcDbEntity
  8
0
100
AcDbLine
 62
7
  6
CONTINUOUS
 10
187.8624524815
 20
276.0036512233
 11
227.8624524815
 21
276.0036512233
  0
LINE
  5
2D6
100
AcDbEntity
  8
RUNDUNGEN
100
AcDbLine
 62
7
  6
CONTINUOUS
 10
187.6124524815
 20
276.7536512233
 11
228.1124524815
 21
276.7536512233
  0
LINE
  5
2D7
100
AcDbEntity
  8
0
100
AcDbLine
 62
7
  6
CONTINUOUS
 10
178.2510625633
 20
308.5406585482
 11
183.0649524815
 21
304.4386512233
  0
LINE
  5
2D8
100
AcDbEntity
  8
0
100
AcDbLine
 62
7
  6
CONTINUOUS
 10
180.7185135627
 20
312.2623330684
 11
181.0983175325
 21
311.8392488754
  0
LINE
  5
2D9
100
AcDbEntity
  8
0
100
AcDbLine
 62
7
  6
CONTINUOUS
 10
186.0995607678
 20
320.4691462876
 11
185.7665827114
 21
321.0081286835
  0
LINE
  5
2DA
100
AcDbEntity
  8
0
100
AcDbLine
 62
7
  6
CONTINUOUS
 10
232.5807791679
 20
306.4365376384
 11
232.6028927479
 21
306.0410215761
  0
LINE
  5
2DB
100
AcDbEntity
  8
RUNDUNGEN
100
AcDbLine
 62
7
  6
CONTINUOUS
 10
228.1124524815
 20
299.2536512233
 11
228.1124524815
 21
276.7536512233
  0
LINE
  5
2DC
100
AcDbEntity
  8
RUNDUNGEN
100
AcDbLine
 62
7
  6
CONTINUOUS
 10
228.8624524815
 20
276.6786512233
 11
228.8624524815
 21
279.8036512492
  0
LINE
  5
2DD
100
AcDbEntity
  8
RUNDUNGEN
100
AcDbLine
 62
7
  6
CONTINUOUS
 10
228.8624524815
 20
289.5536512233
 11
228.8624524815
 21
299.6798056588
  0
LINE
  5
2DE
100
AcDbEntity
  8
0
100
AcDbLine
 62
7
  6
CONTINUOUS
 10
233.3845644671
 20
318.75998712
 11
233.4339889795
 21
319.319223162
  0
LINE
  5
2DF
100
AcDbEntity
  8
RUNDUNGEN
100
AcDbLine
 62
7
  6
CONTINUOUS
 10
245.5676834202
 20
292.8310377595
 11
238.379691066
 21
275.8971889663
  0
LINE
  5
2E0
100
AcDbEntity
  8
0
100
AcDbLine
 62
7
  6
CONTINUOUS
 10
181.9242663067
 20
312.1796278664
 11
181.4976366913
 21
312.4868145197
  0
LINE
  5
2E1
100
AcDbEntity
  8
0
100
AcDbLine
 62
7
  6
CONTINUOUS
 10
181.6862142773
 20
306.4786829197
 11
178.9118213442
 21
308.8129619145
  0
LINE
  5
2E2
100
AcDbEntity
  8
0
100
AcDbLine
 62
7
  6
CONTINUOUS
 10
183.3459074266
 20
305.1340391142
 11
182.1128439597
 21
306.1714964321
  0
LINE
  5
2E3
100
AcDbEntity
  8
0
100
AcDbLine
 62
7
  6
CONTINUOUS
 10
185.4374774874
 20
314.4002531691
 11
185.7457432206
 21
314.1408886284
  0
LINE
  5
2E4
100
AcDbEntity
  8
0
100
AcDbLine
 62
7
  6
CONTINUOUS
 10
181.1968871752
 20
288.3198538127
 11
182.6551318883
 21
288.3198538127
  0
LINE
  5
2E5
100
AcDbEntity
  8
0
100
AcDbLine
 62
7
  6
CONTINUOUS
 10
182.6551318883
 20
289.0752715979
 11
181.1958743049
 21
289.0752715979
  0
LINE
  5
2E6
100
AcDbEntity
  8
RUNDUNGEN
100
AcDbLine
 62
7
  6
CONTINUOUS
 10
184.8624524815
 20
295.6786512233
 11
184.6479140885
 21
295.6786512233
  0
LINE
  5
2E7
100
AcDbEntity
  8
0
100
AcDbLine
 62
7
  6
CONTINUOUS
 10
181.0983175325
 20
311.8392488754
 11
181.6433113617
 21
311.4842399755
  0
LINE
  5
2E8
100
AcDbEntity
  8
0
100
AcDbLine
 62
7
  6
CONTINUOUS
 10
186.263426013
 20
314.7406322606
 11
185.7184324325
 21
315.09564106
  0
LINE
  5
2E9
100
AcDbEntity
  8
0
100
AcDbLine
 62
7
  6
CONTINUOUS
 10
185.058997883
 20
320.6199267827
 11
185.3672638841
 21
320.3605629052
  0
LINE
  5
2EA
100
AcDbEntity
  8
0
100
AcDbLine
 62
7
  6
CONTINUOUS
 10
185.7665827114
 20
321.0081286835
 11
185.4583167103
 21
321.2674925611
  0
LINE
  5
2EB
100
AcDbEntity
  8
RUNDUNGEN
100
AcDbLine
 62
7
  6
CONTINUOUS
 10
227.5517598746
 20
306.4227292635
 11
224.2174236951
 21
314.6755009062
  0
LINE
  5
2EC
100
AcDbEntity
  8
0
100
AcDbLine
 62
7
  6
CONTINUOUS
 10
232.6028927479
 20
306.0410215761
 11
232.7654838003
 21
305.2978115684
  0
LINE
  5
2ED
100
AcDbEntity
  8
0
100
AcDbLine
 62
7
  6
CONTINUOUS
 10
233.4339889795
 20
319.319223162
 11
233.2713979166
 21
320.0624331655
  0
LINE
  5
2EE
100
AcDbEntity
  8
0
100
AcDbLine
 62
7
  6
CONTINUOUS
 10
230.2616016283
 20
311.8359204461
 11
230.3773667673
 21
311.2086086413
  0
LINE
  5
2EF
100
AcDbEntity
  8
0
100
AcDbLine
 62
7
  6
CONTINUOUS
 10
233.2389393707
 20
305.4891000356
 11
233.1231739948
 21
306.1164125162
  0
LINE
  5
2F0
100
AcDbEntity
  8
0
100
AcDbLine
 62
7
  6
CONTINUOUS
 10
232.632752659
 20
319.9392206396
 11
232.7485178754
 21
319.3119086731
  0
LINE
  5
2F1
100
AcDbEntity
  8
0
100
AcDbLine
 62
7
  6
CONTINUOUS
 10
234.3250036598
 20
311.3205724619
 11
234.2092385105
 21
311.9478842625
  0
LINE
  5
2F2
100
AcDbEntity
  8
0
100
AcDbLine
 62
7
  6
CONTINUOUS
 10
230.9691862613
 20
311.4477192378
 11
230.9002467575
 21
311.9591334987
  0
LINE
  5
2F3
100
AcDbEntity
  8
0
100
AcDbLine
 62
7
  6
CONTINUOUS
 10
233.6174190994
 20
311.7087736995
 11
233.6863586032
 21
311.1973594386
  0
LINE
  5
2F4
100
AcDbEntity
  8
RUNDUNGEN
100
AcDbLine
 62
7
  6
CONTINUOUS
 10
227.1124524815
 20
300.2536512233
 11
218.9324291616
 21
300.2536512233
  0
LINE
  5
2F5
100
AcDbEntity
  8
RUNDUNGEN
100
AcDbLine
 62
7
  6
CONTINUOUS
 10
197.4325021344
 20
300.2536512233
 11
188.6124524815
 21
300.2536512233
  0
LINE
  5
2F6
100
AcDbEntity
  8
0
100
AcDbLine
 62
7
  6
CONTINUOUS
 10
185.2899278776
 20
300.2536512233
 11
188.6124524815
 21
300.2536512233
  0
LINE
  5
2F7
100
AcDbEntity
  8
0
100
AcDbLine
 62
7
  6
CONTINUOUS
 10
227.1124524815
 20
300.2536512233
 11
230.4349770854
 21
300.2536512233
  0
LINE
  5
2F8
100
AcDbEntity
  8
RUNDUNGEN
100
AcDbLine
 62
7
  6
CONTINUOUS
 10
220.8624524815
 20
302.0036512233
 11
220.8097695876
 21
302.0036512233
  0
LINE
  5
2F9
100
AcDbEntity
  8
0
100
AcDbLine
 62
7
  6
CONTINUOUS
 10
220.8097695876
 20
302.0036512233
 11
219.6124524815
 21
302.0036512233
  0
LINE
  5
2FA
100
AcDbEntity
  8
RUNDUNGEN
100
AcDbLine
 62
7
  6
CONTINUOUS
 10
217.9324524815
 20
302.0036512233
 11
198.4324524815
 21
302.0036512233
  0
LINE
  5
2FB
100
AcDbEntity
  8
0
100
AcDbLine
 62
7
  6
CONTINUOUS
 10
194.9390655215
 20
302.0036512233
 11
196.1124524815
 21
302.0036512233
  0
LINE
  5
2FC
100
AcDbEntity
  8
RUNDUNGEN
100
AcDbLine
 62
7
  6
CONTINUOUS
 10
194.8624524815
 20
302.0036512233
 11
196.1124524815
 21
302.0036512233
  0
LINE
  5
2FD
100
AcDbEntity
  8
0
100
AcDbLine
 62
7
  6
CONTINUOUS
 10
185.2899278776
 20
302.0536512233
 11
196.1124524815
 21
302.0536512233
  0
LINE
  5
2FE
100
AcDbEntity
  8
0
100
AcDbLine
 62
7
  6
CONTINUOUS
 10
219.6124524815
 20
302.0536512233
 11
230.4349770854
 21
302.0536512233
  0
LINE
  5
2FF
100
AcDbEntity
  8
0
100
AcDbLine
 62
7
  6
CONTINUOUS
 10
189.8624524815
 20
302.5036512233
 11
225.8624524815
 21
302.5036512233
  0
LINE
  5
300
100
AcDbEntity
  8
RUNDUNGEN
100
AcDbLine
 62
7
  6
CONTINUOUS
 10
229.1930701204
 20
303.6786512233
 11
230.8919393854
 21
303.6786512233
  0
LINE
  5
301
100
AcDbEntity
  8
0
100
AcDbLine
 62
7
  6
CONTINUOUS
 10
181.8029453615
 20
305.514031537
 11
182.8942697871
 21
305.514031537
  0
LINE
  5
302
100
AcDbEntity
  8
0
100
AcDbLine
 62
7
  6
CONTINUOUS
 10
232.718181649
 20
305.514031537
 11
233.2343384665
 21
305.514031537
  0
LINE
  5
303
100
AcDbEntity
  8
0
100
AcDbLine
 62
7
  6
CONTINUOUS
 10
183.4187697607
 20
310.7669082194
 11
184.0574150853
 21
310.6436958592
  0
LINE
  5
304
100
AcDbEntity
  8
0
100
AcDbLine
 62
7
  6
CONTINUOUS
 10
181.6433113617
 20
311.4842399755
 11
183.4187697607
 21
310.7669082194
  0
LINE
  5
305
100
AcDbEntity
  8
0
100
AcDbLine
 62
7
  6
CONTINUOUS
 10
183.6997247058
 20
311.4622961103
 11
181.9242663067
 21
312.1796278664
  0
LINE
  5
306
100
AcDbEntity
  8
0
100
AcDbLine
 62
7
  6
CONTINUOUS
 10
181.9503025616
 20
317.6965988357
 11
187.513405689
 21
315.4489592752
  0
LINE
  5
307
100
AcDbEntity
  8
0
100
AcDbLine
 62
7
  6
CONTINUOUS
 10
187.794360902
 20
316.1443478293
 11
185.3087190438
 21
317.148612328
  0
LINE
  5
308
100
AcDbEntity
  8
0
100
AcDbLine
 62
7
  6
CONTINUOUS
 10
184.5985357505
 20
317.4355450037
 11
182.8230771857
 21
318.1528768268
  0
LINE
  5
309
100
AcDbEntity
  8
0
100
AcDbLine
 62
7
  6
CONTINUOUS
 10
230.6583217124
 20
310.5132207503
 11
231.0108146365
 21
309.9815531791
  0
LINE
  5
30A
100
AcDbEntity
  8
0
100
AcDbLine
 62
7
  6
CONTINUOUS
 10
228.0751054137
 20
314.8622072035
 11
228.3092345793
 21
314.2827171839
  0
LINE
  5
30B
100
AcDbEntity
  8
0
100
AcDbLine
 62
7
  6
CONTINUOUS
 10
230.3773667673
 20
311.2086086413
 11
230.6583217124
 21
310.5132207503
  0
LINE
  5
30C
100
AcDbEntity
  8
0
100
AcDbLine
 62
7
  6
CONTINUOUS
 10
228.4106821519
 20
316.0763238777
 11
226.7249524815
 21
320.2486512233
  0
LINE
  5
30D
100
AcDbEntity
  8
0
100
AcDbLine
 62
7
  6
CONTINUOUS
 10
231.2501412064
 20
310.7523313469
 11
230.9691862613
 21
311.4477192378
  0
LINE
  5
30E
100
AcDbEntity
  8
0
100
AcDbLine
 62
7
  6
CONTINUOUS
 10
229.8921923945
 20
314.1133725986
 11
229.658063095
 21
314.6928629498
  0
LINE
  5
30F
100
AcDbEntity
  8
0
100
AcDbLine
 62
7
  6
CONTINUOUS
 10
229.0025016459
 20
316.3154344743
 11
227.6913785801
 21
319.5605779376
  0
LINE
  5
310
100
AcDbEntity
  8
0
100
AcDbLine
 62
7
  6
CONTINUOUS
 10
231.3763011021
 20
312.8255558959
 11
231.0953461571
 21
313.5209437869
  0
LINE
  5
311
100
AcDbEntity
  8
0
100
AcDbLine
 62
7
  6
CONTINUOUS
 10
232.1606212628
 20
313.9513428673
 11
232.4884021214
 21
313.1400567735
  0
LINE
  5
312
100
AcDbEntity
  8
0
100
AcDbLine
 62
7
  6
CONTINUOUS
 10
233.3364641543
 20
312.4041615904
 11
233.6174190994
 21
311.7087736995
  0
LINE
  5
313
100
AcDbEntity
  8
0
100
AcDbLine
 62
7
  6
CONTINUOUS
 10
235.0495048807
 20
309.1865860133
 11
235.4241111169
 21
308.259403043
  0
LINE
  5
314
100
AcDbEntity
  8
0
100
AcDbLine
 62
7
  6
CONTINUOUS
 10
235.6582404164
 20
307.6799126918
 11
236.173324661
 21
306.4050344496
  0
LINE
  5
315
100
AcDbEntity
  8
0
100
AcDbLine
 62
7
  6
CONTINUOUS
 10
234.2092385105
 20
311.9478842625
 11
233.9282835654
 21
312.6432721535
  0
LINE
  5
316
100
AcDbEntity
  8
0
100
AcDbLine
 62
7
  6
CONTINUOUS
 10
236.6467801899
 20
306.5963229001
 11
236.1316959453
 21
307.8712011422
  0
LINE
  5
317
100
AcDbEntity
  8
0
100
AcDbLine
 62
7
  6
CONTINUOUS
 10
235.8975666458
 20
308.4506914934
 11
235.5229604096
 21
309.3778744638
  0
LINE
  5
318
100
AcDbEntity
  8
0
100
AcDbLine
 62
7
  6
CONTINUOUS
 10
231.0328787301
 20
321.8543495598
 11
231.2670078496
 21
321.2748596542
  0
LINE
  5
319
100
AcDbEntity
  8
0
100
AcDbLine
 62
7
  6
CONTINUOUS
 10
237.0786073346
 20
308.253778177
 11
236.8444780351
 21
308.8332685283
  0
LINE
  5
31A
100
AcDbEntity
  8
0
100
AcDbLine
 62
7
  6
CONTINUOUS
 10
232.445449407
 20
320.4028124564
 11
232.632752659
 21
319.9392206396
  0
LINE
  5
31B
100
AcDbEntity
  8
0
100
AcDbLine
 62
7
  6
CONTINUOUS
 10
234.8803921525
 20
314.376117678
 11
236.2383409644
 21
311.0150764262
  0
LINE
  5
31C
100
AcDbEntity
  8
0
100
AcDbLine
 62
7
  6
CONTINUOUS
 10
236.8301603754
 20
311.2541869893
 11
235.2380825321
 21
315.1947179291
  0
LINE
  5
31D
100
AcDbEntity
  8
0
100
AcDbLine
 62
7
  6
CONTINUOUS
 10
233.2713979166
 20
320.0624331655
 11
233.0840945976
 21
320.5260251481
  0
LINE
  5
31E
100
AcDbEntity
  8
0
100
AcDbLine
 62
7
  6
CONTINUOUS
 10
184.6687493538
 20
311.4752352675
 11
184.2200061481
 21
311.3869058628
  0
LINE
  5
31F
100
AcDbEntity
  8
0
100
AcDbLine
 62
7
  6
CONTINUOUS
 10
231.9147731705
 20
317.6268852612
 11
232.4350544789
 21
317.7022758404
  0
LINE
  5
320
100
AcDbEntity
  8
0
100
AcDbLine
 62
7
  6
CONTINUOUS
 10
184.0574150853
 20
310.6436958592
 11
184.6245222561
 21
310.6842031179
  0
LINE
  5
321
100
AcDbEntity
  8
0
100
AcDbLine
 62
7
  6
CONTINUOUS
 10
232.7836745603
 20
310.0237503546
 11
232.3817570001
 21
309.9961822196
  0
LINE
  5
322
100
AcDbEntity
  8
0
100
AcDbLine
 62
7
  6
CONTINUOUS
 10
232.2139683887
 20
309.3891243631
 11
232.8994397096
 21
309.3964385539
  0
LINE
  5
323
100
AcDbEntity
  8
0
100
AcDbLine
 62
7
  6
CONTINUOUS
 10
189.8624524815
 20
307.5036512233
 11
225.8624524815
 21
307.5036512233
  0
LINE
  5
324
100
AcDbEntity
  8
KONSTRUKTIONSELEMENTE
100
AcDbLine
 62
7
  6
CONTINUOUS
 10
194.006046021
 20
308.0036512233
 11
221.7188589421
 21
308.0036512233
  0
LINE
  5
325
100
AcDbEntity
  8
0
100
AcDbLine
 62
7
  6
CONTINUOUS
 10
184.9379854039
 20
309.0745703856
 11
178.6256691343
 21
309.4678423475
  0
LINE
  5
326
100
AcDbEntity
  8
0
100
AcDbLine
 62
7
  6
CONTINUOUS
 10
183.0493604544
 20
308.4894560962
 11
184.6570304589
 21
308.3791824947
  0
LINE
  5
327
100
AcDbEntity
  8
0
100
AcDbLine
 62
7
  6
CONTINUOUS
 10
178.9118213442
 20
308.8129619145
 11
182.529079146
 21
308.5648466753
  0
LINE
  5
328
100
AcDbEntity
  8
0
100
AcDbLine
 62
7
  6
CONTINUOUS
 10
182.3131901389
 20
315.5277300949
 11
182.7151080306
 21
315.500161826
  0
LINE
  5
329
100
AcDbEntity
  8
0
100
AcDbLine
 62
7
  6
CONTINUOUS
 10
184.2200061481
 20
311.3869058628
 11
183.6997247058
 21
311.4622961103
  0
LINE
  5
32A
100
AcDbEntity
  8
0
100
AcDbLine
 62
7
  6
CONTINUOUS
 10
182.9960629757
 20
316.1955497169
 11
182.3574173195
 21
316.3187622111
  0
LINE
  5
32B
100
AcDbEntity
  8
0
100
AcDbLine
 62
7
  6
CONTINUOUS
 10
232.3817570001
 20
309.9961822196
 11
231.9330137116
 21
310.0845115909
  0
LINE
  5
32C
100
AcDbEntity
  8
0
100
AcDbLine
 62
7
  6
CONTINUOUS
 10
231.6000356138
 20
309.5455291783
 11
232.2139683887
 21
309.3891243631
  0
LINE
  5
32D
100
AcDbEntity
  8
0
100
AcDbLine
 62
7
  6
CONTINUOUS
 10
184.7039059048
 20
320.7633932545
 11
185.058997883
 21
320.6199267827
  0
LINE
  5
32E
100
AcDbEntity
  8
0
100
AcDbLine
 62
7
  6
CONTINUOUS
 10
185.4583167103
 20
321.2674925611
 11
184.9848608499
 21
321.4587811455
  0
LINE
  5
32F
100
AcDbEntity
  8
0
100
AcDbLine
 62
7
  6
CONTINUOUS
 10
231.9330137116
 20
310.0845115909
 11
231.5558084746
 21
310.3365613111
  0
LINE
  5
330
100
AcDbEntity
  8
0
100
AcDbLine
 62
7
  6
CONTINUOUS
 10
231.0108146365
 20
309.9815531791
 11
231.6000356138
 21
309.5455291783
  0
LINE
  5
331
100
AcDbEntity
  8
0
100
AcDbLine
 62
7
  6
CONTINUOUS
 10
231.5558084746
 20
310.3365613111
 11
231.2501412064
 21
310.7523313469
  0
LINE
  5
332
100
AcDbEntity
  8
0
100
AcDbLine
 62
7
  6
CONTINUOUS
 10
233.0307968861
 20
312.8199316262
 11
233.3364641543
 21
312.4041615904
  0
LINE
  5
333
100
AcDbEntity
  8
0
100
AcDbLine
 62
7
  6
CONTINUOUS
 10
233.9282835654
 20
312.6432721535
 11
233.5757906516
 21
313.1749397289
  0
LINE
  5
334
100
AcDbEntity
  8
0
100
AcDbLine
 62
7
  6
CONTINUOUS
 10
232.0929563927
 20
320.9344802805
 11
232.445449407
 21
320.4028124564
  0
LINE
  5
335
100
AcDbEntity
  8
0
100
AcDbLine
 62
7
  6
CONTINUOUS
 10
233.0840945976
 20
320.5260251481
 11
232.6379499573
 21
321.2894888806
  0
LINE
  5
336
100
AcDbEntity
  8
RUNDUNGEN
100
AcDbLine
 62
7
  6
CONTINUOUS
 10
235.1598350636
 20
324.8463170372
 11
237.8695922579
 21
318.1394326297
  0
LINE
  5
337
100
AcDbEntity
  8
RUNDUNGEN
100
AcDbLine
 62
7
  6
CONTINUOUS
 10
239.8732489977
 20
313.1802081743
 11
245.6211154291
 21
298.9537395347
  0
LINE
  5
338
100
AcDbEntity
  8
0
100
AcDbLine
 62
7
  6
CONTINUOUS
 10
231.5531600845
 20
321.929740025
 11
231.0328787301
 21
321.8543495598
  0
LINE
  5
339
100
AcDbEntity
  8
BEZUGSACHSEN
100
AcDbLine
 62
7
  6
CONTINUOUS
 10
195.8629900458
 20
317.5036512233
 11
219.861914917
 21
317.5036512233
  0
LINE
  5
33A
100
AcDbEntity
  8
0
100
AcDbLine
 62
7
  6
CONTINUOUS
 10
232.4011631629
 20
317.6973648703
 11
231.5567141922
 21
317.6973648703
  0
LINE
  5
33B
100
AcDbEntity
  8
0
100
AcDbLine
 62
7
  6
CONTINUOUS
 10
228.4441655236
 20
317.6973648703
 11
227.7557390777
 21
317.6973648703
  0
LINE
  5
33C
100
AcDbEntity
  8
0
100
AcDbLine
 62
7
  6
CONTINUOUS
 10
185.5304294624
 20
317.6973648703
 11
184.7043178431
 21
317.6973648703
  0
LINE
  5
33D
100
AcDbEntity
  8
0
100
AcDbLine
 62
7
  6
CONTINUOUS
 10
183.9505088408
 20
317.6973648703
 11
181.9506120597
 21
317.6973648703
  0
LINE
  5
33E
100
AcDbEntity
  8
0
100
AcDbLine
 62
7
  6
CONTINUOUS
 10
207.8680355405
 20
317.7036512233
 11
210.0274369754
 21
317.7036512233
  0
LINE
  5
33F
100
AcDbEntity
  8
0
100
AcDbLine
 62
7
  6
CONTINUOUS
 10
210.5407565738
 20
317.7036512233
 11
212.3001235335
 21
317.7036512233
  0
LINE
  5
340
100
AcDbEntity
  8
0
100
AcDbLine
 62
7
  6
CONTINUOUS
 10
212.3047644088
 20
317.7036512233
 11
218.0391410388
 21
317.7036512233
  0
LINE
  5
341
100
AcDbEntity
  8
RUNDUNGEN
100
AcDbLine
 62
7
  6
CONTINUOUS
 10
216.7999516205
 20
319.6786512233
 11
198.9249533425
 21
319.6786512233
  0
LINE
  5
342
100
AcDbEntity
  8
0
100
AcDbLine
 62
7
  6
CONTINUOUS
 10
184.3019886126
 20
320.7909620526
 11
184.7039059048
 21
320.7633932545
  0
LINE
  5
343
100
AcDbEntity
  8
0
100
AcDbLine
 62
7
  6
CONTINUOUS
 10
184.9848608499
 20
321.4587811455
 11
184.5829435577
 21
321.4863499436
  0
LINE
  5
344
100
AcDbEntity
  8
0
100
AcDbLine
 62
7
  6
CONTINUOUS
 10
232.1540995338
 20
318.3976637313
 11
231.5869923119
 21
318.438171355
  0
LINE
  5
345
100
AcDbEntity
  8
0
100
AcDbLine
 62
7
  6
CONTINUOUS
 10
228.3092345793
 20
314.2827171839
 11
229.8921923945
 21
314.1133725986
  0
LINE
  5
346
100
AcDbEntity
  8
0
100
AcDbLine
 62
7
  6
CONTINUOUS
 10
229.658063095
 20
314.6928629498
 11
228.0751054137
 21
314.8622072035
  0
LINE
  5
347
100
AcDbEntity
  8
0
100
AcDbLine
 62
7
  6
CONTINUOUS
 10
231.4660298308
 20
317.7152149976
 11
231.9147731705
 21
317.6268852612
  0
LINE
  5
348
100
AcDbEntity
  8
0
100
AcDbLine
 62
7
  6
CONTINUOUS
 10
231.2670078496
 20
321.2748596542
 11
231.7157511557
 21
321.1865300007
  0
LINE
  5
349
100
AcDbEntity
  8
0
100
AcDbLine
 62
7
  6
CONTINUOUS
 10
231.5869923119
 20
318.438171355
 11
227.3167719755
 21
320.4877618198
  0
LINE
  5
34A
100
AcDbEntity
  8
0
100
AcDbLine
 62
7
  6
CONTINUOUS
 10
227.6913785801
 20
319.5605779376
 11
231.4660298308
 21
317.7152149976
  0
LINE
  5
34B
100
AcDbEntity
  8
BEZUGSACHSEN
100
AcDbLine
 62
7
  6
CONTINUOUS
 10
221.7188589421
 20
316.4318544536
 11
219.8624524815
 21
317.5036512233
  0
LINE
  5
34C
100
AcDbEntity
  8
0
100
AcDbLine
 62
7
  6
CONTINUOUS
 10
232.4884021214
 20
313.1400567735
 11
233.0307968861
 21
312.8199316262
  0
LINE
  5
34D
100
AcDbEntity
  8
0
100
AcDbLine
 62
7
  6
CONTINUOUS
 10
231.7157511557
 20
321.1865300007
 11
232.0929563927
 21
320.9344802805
  0
LINE
  5
34E
100
AcDbEntity
  8
0
100
AcDbLine
 62
7
  6
CONTINUOUS
 10
233.5757906516
 20
313.1749397289
 11
232.9865697055
 21
313.6109637423
  0
LINE
  5
34F
100
AcDbEntity
  8
0
100
AcDbLine
 62
7
  6
CONTINUOUS
 10
232.6379499573
 20
321.2894888806
 11
232.2139189073
 21
321.657436555
  0
LINE
  5
350
100
AcDbEntity
  8
0
100
AcDbLine
 62
7
  6
CONTINUOUS
 10
184.5829435577
 20
321.4863499436
 11
183.9690105563
 21
321.3299444485
  0
LINE
  5
351
100
AcDbEntity
  8
0
100
AcDbLine
 62
7
  6
CONTINUOUS
 10
232.2139189073
 20
321.657436555
 11
231.5531600845
 21
321.929740025
  0
LINE
  5
352
100
AcDbEntity
  8
BEZUGSACHSEN
100
AcDbLine
 62
7
  6
CONTINUOUS
 10
221.7188589407
 20
151.3600576834
 11
216.8624524806
 21
146.5036512233
  0
LINE
  5
353
100
AcDbEntity
  8
KONSTRUKTIONSELEMENTE
100
AcDbLine
 62
7
  6
CONTINUOUS
 10
195.8624524827
 20
162.5036512217
 11
194.0060460223
 21
161.4318544521
  0
LINE
  5
354
100
AcDbEntity
  8
RUNDUNGEN
100
AcDbLine
 62
7
  6
CONTINUOUS
 10
232.3929989391
 20
378.0083084474
 11
241.5597435844
 21
360.0175591052
  0
LINE
  5
355
100
AcDbEntity
  8
BEZUGSACHSEN
100
AcDbLine
 62
7
  6
CONTINUOUS
 10
215.8624524815
 20
123.7036512233
 11
214.6624524815
 21
122.5036512233
  0
LINE
  5
356
100
AcDbEntity
  8
RUNDUNGEN
100
AcDbLine
 62
7
  6
CONTINUOUS
 10
210.1470481599
 20
388.3016771078
 11
228.9974280257
 21
381.0656942305
  0
LINE
  5
357
100
AcDbEntity
  8
BEZUGSACHSEN
100
AcDbLine
 62
7
  6
CONTINUOUS
 10
325.742648328
 20
122.5036512233
 11
339.342648328
 21
122.5036512233
  0
LINE
  5
358
100
AcDbEntity
  8
BEZUGSACHSEN
100
AcDbLine
 62
7
  6
CONTINUOUS
 10
324.542648328
 20
123.7036512233
 11
340.542648328
 21
123.7036512233
  0
LINE
  5
359
100
AcDbEntity
  8
BEZUGSACHSEN
100
AcDbLine
 62
7
  6
CONTINUOUS
 10
341.5422439369
 20
146.5036512233
 11
323.5430527192
 21
146.5036512233
  0
LINE
  5
35A
100
AcDbEntity
  8
KONSTRUKTIONSELEMENTE
100
AcDbLine
 62
7
  6
CONTINUOUS
 10
317.542648328
 20
162.5036512217
 11
347.542648328
 21
162.5036512217
  0
LINE
  5
35B
100
AcDbEntity
  8
KONSTRUKTIONSELEMENTE
100
AcDbLine
 62
7
  6
CONTINUOUS
 10
317.542648328
 20
166.5036512217
 11
347.542648328
 21
166.5036512217
  0
LINE
  5
35C
100
AcDbEntity
  8
BEZUGSACHSEN
100
AcDbLine
 62
7
  6
CONTINUOUS
 10
325.742648328
 20
122.5036512233
 11
324.542648328
 21
123.7036512233
  0
LINE
  5
35D
100
AcDbEntity
  8
BEZUGSACHSEN
100
AcDbLine
 62
7
  6
CONTINUOUS
 10
320.5059789933
 20
149.5403205589
 11
323.5426483289
 21
146.5036512233
  0
LINE
  5
35E
100
AcDbEntity
  8
0
100
AcDbLine
 62
7
  6
CONTINUOUS
 10
312.292648328
 20
276.7536512233
 11
312.292648328
 21
301.0036512233
  0
LINE
  5
35F
100
AcDbEntity
  8
0
100
AcDbLine
 62
7
  6
CONTINUOUS
 10
312.542648328
 20
276.0036512233
 11
312.542648328
 21
271.7536512233
  0
LINE
  5
360
100
AcDbEntity
  8
0
100
AcDbLine
 62
7
  6
CONTINUOUS
 10
314.542648328
 20
307.5036512233
 11
314.542648328
 21
302.5036512233
  0
LINE
  5
361
100
AcDbEntity
  8
KONSTRUKTIONSELEMENTE
100
AcDbLine
 62
7
  6
CONTINUOUS
 10
317.542648328
 20
162.5036512217
 11
317.542648328
 21
166.5036512217
  0
LINE
  5
362
100
AcDbEntity
  8
BEZUGSACHSEN
100
AcDbLine
 62
7
  6
CONTINUOUS
 10
320.5426483292
 20
151.3600576834
 11
320.5426483292
 21
149.5035969383
  0
LINE
  5
363
100
AcDbEntity
  8
KONSTRUKTIONSELEMENTE
100
AcDbLine
 62
7
  6
CONTINUOUS
 10
320.5426483292
 20
151.3600576834
 11
320.5426483292
 21
162.5036512276
  0
LINE
  5
364
100
AcDbEntity
  8
BEZUGSACHSEN
100
AcDbLine
 62
7
  6
CONTINUOUS
 10
320.542648328
 20
308.0036512233
 11
320.542648328
 21
317.5036512234
  0
LINE
  5
365
100
AcDbEntity
  8
0
100
AcDbLine
 62
7
  6
CONTINUOUS
 10
320.792648328
 20
302.5036512233
 11
320.792648328
 21
302.0036512233
  0
LINE
  5
366
100
AcDbEntity
  8
0
100
AcDbLine
 62
7
  6
CONTINUOUS
 10
320.792648328
 20
276.7536512233
 11
320.792648328
 21
276.0036512233
  0
LINE
  5
367
100
AcDbEntity
  8
0
100
AcDbLine
 62
7
  6
CONTINUOUS
 10
324.042648328
 20
305.514031537
 11
324.3835756451
 21
309.3778744638
  0
LINE
  5
368
100
AcDbEntity
  8
0
100
AcDbLine
 62
7
  6
CONTINUOUS
 10
324.3845682833
 20
309.3891243631
 11
324.8968265391
 21
315.1947179291
  0
LINE
  5
369
100
AcDbEntity
  8
0
100
AcDbLine
 62
7
  6
CONTINUOUS
 10
324.9746152993
 20
316.0763238777
 11
325.117648328
 21
317.6973648703
  0
LINE
  5
36A
100
AcDbEntity
  8
RUNDUNGEN
100
AcDbLine
 62
7
  6
CONTINUOUS
 10
324.0890890762
 20
301.2049797027
 11
325.4962065148
 21
317.1523106735
  0
LINE
  5
36B
100
AcDbEntity
  8
BEZUGSACHSEN
100
AcDbLine
 62
7
  6
CONTINUOUS
 10
321.542648328
 20
307.5036512233
 11
321.542648328
 21
308.0036512233
  0
LINE
  5
36C
100
AcDbEntity
  8
RUNDUNGEN
100
AcDbLine
 62
7
  6
CONTINUOUS
 10
324.042648328
 20
300.1502658963
 11
324.042648328
 21
276.6786512233
  0
LINE
  5
36D
100
AcDbEntity
  8
0
100
AcDbLine
 62
7
  6
CONTINUOUS
 10
324.042648328
 20
305.2978115684
 11
324.042648328
 21
305.514031537
  0
LINE
  5
36E
100
AcDbEntity
  8
BEZUGSACHSEN
100
AcDbLine
 62
7
  6
CONTINUOUS
 10
324.542648328
 20
123.7036512233
 11
324.542648328
 21
146.5036512233
  0
LINE
  5
36F
100
AcDbEntity
  8
BEZUGSACHSEN
100
AcDbLine
 62
7
  6
CONTINUOUS
 10
324.542648328
 20
166.5036512217
 11
324.542648328
 21
271.7536512233
  0
LINE
  5
370
100
AcDbEntity
  8
0
100
AcDbLine
 62
7
  6
CONTINUOUS
 10
325.117648328
 20
317.6973648703
 11
325.117648328
 21
321.929740025
  0
LINE
  5
371
100
AcDbEntity
  8
RUNDUNGEN
100
AcDbLine
 62
7
  6
CONTINUOUS
 10
325.542648328
 20
388.2250384257
 11
325.542648328
 21
318.207036572
  0
LINE
  5
372
100
AcDbEntity
  8
RUNDUNGEN
100
AcDbLine
 62
7
  6
CONTINUOUS
 10
326.817648328
 20
322.5461683843
 11
326.817648328
 21
391.6786512233
  0
LINE
  5
373
100
AcDbEntity
  8
KONSTRUKTIONSELEMENTE
100
AcDbLine
 62
7
  6
CONTINUOUS
 10
332.542648328
 20
161.4318544521
 11
332.542648328
 21
151.3600576834
  0
LINE
  5
374
100
AcDbEntity
  8
RUNDUNGEN
100
AcDbLine
 62
7
  6
CONTINUOUS
 10
338.267648328
 20
391.6785706944
 11
338.267648328
 21
322.5461683843
  0
LINE
  5
375
100
AcDbEntity
  8
RUNDUNGEN
100
AcDbLine
 62
7
  6
CONTINUOUS
 10
339.542648328
 20
388.2250384259
 11
339.542648328
 21
318.2070365578
  0
LINE
  5
376
100
AcDbEntity
  8
RUNDUNGEN
100
AcDbLine
 62
7
  6
CONTINUOUS
 10
339.5890901413
 20
317.1523106732
 11
340.9962065283
 21
301.2049916198
  0
LINE
  5
377
100
AcDbEntity
  8
0
100
AcDbLine
 62
7
  6
CONTINUOUS
 10
339.7636385649
 20
317.5036512233
 11
339.7636385649
 21
317.7036512233
  0
LINE
  5
378
100
AcDbEntity
  8
0
100
AcDbLine
 62
7
  6
CONTINUOUS
 10
339.967648328
 20
325.3714296945
 11
339.967648328
 21
322.3477771942
  0
LINE
  5
379
100
AcDbEntity
  8
0
100
AcDbLine
 62
7
  6
CONTINUOUS
 10
339.967648328
 20
317.7036512233
 11
339.967648328
 21
322.2859324427
  0
LINE
  5
37A
100
AcDbEntity
  8
BEZUGSACHSEN
100
AcDbLine
 62
7
  6
CONTINUOUS
 10
340.542648328
 20
123.7036512233
 11
340.542648328
 21
146.5036512233
  0
LINE
  5
37B
100
AcDbEntity
  8
BEZUGSACHSEN
100
AcDbLine
 62
7
  6
CONTINUOUS
 10
340.542648328
 20
166.5036512217
 11
340.542648328
 21
271.7536512233
  0
LINE
  5
37C
100
AcDbEntity
  8
0
100
AcDbLine
 62
7
  6
CONTINUOUS
 10
340.6191907405
 20
317.5036512233
 11
340.6191907405
 21
317.7036512233
  0
LINE
  5
37D
100
AcDbEntity
  8
RUNDUNGEN
100
AcDbLine
 62
7
  6
CONTINUOUS
 10
341.042648328
 20
300.1502658963
 11
341.042648328
 21
276.6786512233
  0
LINE
  5
37E
100
AcDbEntity
  8
0
100
AcDbLine
 62
7
  6
CONTINUOUS
 10
341.2885415618
 20
317.5036512233
 11
341.2885415618
 21
317.7036512233
  0
LINE
  5
37F
100
AcDbEntity
  8
0
100
AcDbLine
 62
7
  6
CONTINUOUS
 10
341.4212506937
 20
317.5036512233
 11
341.4212506937
 21
317.7036512233
  0
LINE
  5
380
100
AcDbEntity
  8
0
100
AcDbLine
 62
7
  6
CONTINUOUS
 10
341.9520872213
 20
317.5036512233
 11
341.9520872213
 21
317.7036512233
  0
LINE
  5
381
100
AcDbEntity
  8
0
100
AcDbLine
 62
7
  6
CONTINUOUS
 10
342.0847964164
 20
317.5036512233
 11
342.0847964164
 21
317.7036512233
  0
LINE
  5
382
100
AcDbEntity
  8
0
100
AcDbLine
 62
7
  6
CONTINUOUS
 10
342.2515101008
 20
317.5036512233
 11
342.2515101008
 21
317.7036512233
  0
LINE
  5
383
100
AcDbEntity
  8
0
100
AcDbLine
 62
7
  6
CONTINUOUS
 10
342.4367838738
 20
317.5036512233
 11
342.4367838738
 21
317.7036512233
  0
LINE
  5
384
100
AcDbEntity
  8
0
100
AcDbLine
 62
7
  6
CONTINUOUS
 10
342.5233377772
 20
317.5036512233
 11
342.5233377772
 21
317.7036512233
  0
LINE
  5
385
100
AcDbEntity
  8
0
100
AcDbLine
 62
7
  6
CONTINUOUS
 10
342.6856386753
 20
317.5036512233
 11
342.6856386753
 21
317.7036512233
  0
LINE
  5
386
100
AcDbEntity
  8
BEZUGSACHSEN
100
AcDbLine
 62
7
  6
CONTINUOUS
 10
343.542648328
 20
307.5036512233
 11
343.542648328
 21
308.0036512233
  0
LINE
  5
387
100
AcDbEntity
  8
0
100
AcDbLine
 62
7
  6
CONTINUOUS
 10
344.292648328
 20
302.5036512233
 11
344.292648328
 21
302.0536512233
  0
LINE
  5
388
100
AcDbEntity
  8
0
100
AcDbLine
 62
7
  6
CONTINUOUS
 10
344.292648328
 20
276.7536512233
 11
344.292648328
 21
276.0036512233
  0
LINE
  5
389
100
AcDbEntity
  8
KONSTRUKTIONSELEMENTE
100
AcDbLine
 62
7
  6
CONTINUOUS
 10
344.5426483268
 20
162.5036512276
 11
344.5426483268
 21
151.3600576834
  0
LINE
  5
38A
100
AcDbEntity
  8
BEZUGSACHSEN
100
AcDbLine
 62
7
  6
CONTINUOUS
 10
344.5426483268
 20
149.5035969383
 11
344.5426483268
 21
151.3600576834
  0
LINE
  5
38B
100
AcDbEntity
  8
BEZUGSACHSEN
100
AcDbLine
 62
7
  6
CONTINUOUS
 10
344.542648328
 20
308.0036512233
 11
344.542648328
 21
317.5036512234
  0
LINE
  5
38C
100
AcDbEntity
  8
0
100
AcDbLine
 62
7
  6
CONTINUOUS
 10
346.6870253402
 20
302.0536512233
 11
346.6870253402
 21
300.2536512233
  0
LINE
  5
38D
100
AcDbEntity
  8
0
100
AcDbLine
 62
7
  6
CONTINUOUS
 10
347.042648328
 20
300.2536512233
 11
347.042648328
 21
302.0036512233
  0
LINE
  5
38E
100
AcDbEntity
  8
KONSTRUKTIONSELEMENTE
100
AcDbLine
 62
7
  6
CONTINUOUS
 10
347.542648328
 20
162.5036512217
 11
347.542648328
 21
166.5036512217
  0
LINE
  5
38F
100
AcDbEntity
  8
0
100
AcDbLine
 62
7
  6
CONTINUOUS
 10
352.542648328
 20
271.7536512233
 11
312.542648328
 21
271.7536512233
  0
LINE
  5
390
100
AcDbEntity
  8
RUNDUNGEN
100
AcDbLine
 62
7
  6
CONTINUOUS
 10
326.042648328
 20
274.6786512233
 11
339.042648328
 21
274.6786512233
  0
LINE
  5
391
100
AcDbEntity
  8
0
100
AcDbLine
 62
7
  6
CONTINUOUS
 10
352.542648328
 20
276.0036512233
 11
340.9227570905
 21
276.0036512233
  0
LINE
  5
392
100
AcDbEntity
  8
0
100
AcDbLine
 62
7
  6
CONTINUOUS
 10
324.1624659992
 20
276.0036512233
 11
312.542648328
 21
276.0036512233
  0
LINE
  5
393
100
AcDbEntity
  8
RUNDUNGEN
100
AcDbLine
 62
7
  6
CONTINUOUS
 10
312.292648328
 20
276.7536512233
 11
324.042648328
 21
276.7536512233
  0
LINE
  5
394
100
AcDbEntity
  8
RUNDUNGEN
100
AcDbLine
 62
7
  6
CONTINUOUS
 10
341.042648328
 20
276.7536512233
 11
352.792648328
 21
276.7536512233
  0
LINE
  5
395
100
AcDbEntity
  8
0
100
AcDbLine
 62
7
  6
CONTINUOUS
 10
350.542648328
 20
307.5036512233
 11
350.542648328
 21
302.5036512233
  0
LINE
  5
396
100
AcDbEntity
  8
0
100
AcDbLine
 62
7
  6
CONTINUOUS
 10
352.542648328
 20
276.0036512233
 11
352.542648328
 21
271.7536512233
  0
LINE
  5
397
100
AcDbEntity
  8
0
100
AcDbLine
 62
7
  6
CONTINUOUS
 10
352.792648328
 20
276.7536512233
 11
352.792648328
 21
301.0036512233
  0
LINE
  5
398
100
AcDbEntity
  8
RUNDUNGEN
100
AcDbLine
 62
7
  6
CONTINUOUS
 10
349.2284152255
 20
300.2536512233
 11
341.0418899909
 21
300.2536512233
  0
LINE
  5
399
100
AcDbEntity
  8
RUNDUNGEN
100
AcDbLine
 62
7
  6
CONTINUOUS
 10
324.0434066651
 20
300.2536512233
 11
314.8755590453
 21
300.2536512233
  0
LINE
  5
39A
100
AcDbEntity
  8
RUNDUNGEN
100
AcDbLine
 62
7
  6
CONTINUOUS
 10
351.7922875498
 20
302.0036512233
 11
347.042648328
 21
302.0036512233
  0
LINE
  5
39B
100
AcDbEntity
  8
RUNDUNGEN
100
AcDbLine
 62
7
  6
CONTINUOUS
 10
324.1595600927
 20
302.0036512233
 11
313.2927320302
 21
302.0036512233
  0
LINE
  5
39C
100
AcDbEntity
  8
0
100
AcDbLine
 62
7
  6
CONTINUOUS
 10
340.9213247986
 20
302.0536512233
 11
346.6870253402
 21
302.0536512233
  0
LINE
  5
39D
100
AcDbEntity
  8
0
100
AcDbLine
 62
7
  6
CONTINUOUS
 10
350.542648328
 20
302.5036512233
 11
340.8816189163
 21
302.5036512233
  0
LINE
  5
39E
100
AcDbEntity
  8
0
100
AcDbLine
 62
7
  6
CONTINUOUS
 10
324.2036777398
 20
302.5036512233
 11
314.542648328
 21
302.5036512233
  0
LINE
  5
39F
100
AcDbEntity
  8
0
100
AcDbLine
 62
7
  6
CONTINUOUS
 10
324.4502212997
 20
305.2978115684
 11
324.042648328
 21
305.2978115684
  0
LINE
  5
3A0
100
AcDbEntity
  8
0
100
AcDbLine
 62
7
  6
CONTINUOUS
 10
324.4670996938
 20
305.4891000356
 11
324.042648328
 21
305.4891000356
  0
LINE
  5
3A1
100
AcDbEntity
  8
0
100
AcDbLine
 62
7
  6
CONTINUOUS
 10
324.5224507951
 20
306.1164125162
 11
324.0957995909
 21
306.1164125162
  0
LINE
  5
3A2
100
AcDbEntity
  8
0
100
AcDbLine
 62
7
  6
CONTINUOUS
 10
324.5479174362
 20
306.4050344496
 11
324.1212662321
 21
306.4050344496
  0
LINE
  5
3A3
100
AcDbEntity
  8
0
100
AcDbLine
 62
7
  6
CONTINUOUS
 10
324.5647958289
 20
306.5963229001
 11
324.1381446248
 21
306.5963229001
  0
LINE
  5
3A4
100
AcDbEntity
  8
0
100
AcDbLine
 62
7
  6
CONTINUOUS
 10
350.542648328
 20
307.5036512233
 11
340.4404424457
 21
307.5036512233
  0
LINE
  5
3A5
100
AcDbEntity
  8
0
100
AcDbLine
 62
7
  6
CONTINUOUS
 10
324.2182030062
 20
307.5036512233
 11
314.542648328
 21
307.5036512233
  0
LINE
  5
3A6
100
AcDbEntity
  8
0
100
AcDbLine
 62
7
  6
CONTINUOUS
 10
324.6772850856
 20
307.8712011422
 11
324.2506338814
 21
307.8712011422
  0
LINE
  5
3A7
100
AcDbEntity
  8
KONSTRUKTIONSELEMENTE
100
AcDbLine
 62
7
  6
CONTINUOUS
 10
320.542648328
 20
308.0036512233
 11
324.2623206533
 21
308.0036512233
  0
LINE
  5
3A8
100
AcDbEntity
  8
KONSTRUKTIONSELEMENTE
100
AcDbLine
 62
7
  6
CONTINUOUS
 10
340.3963247986
 20
308.0036512233
 11
344.542648328
 21
308.0036512233
  0
LINE
  5
3A9
100
AcDbEntity
  8
0
100
AcDbLine
 62
7
  6
CONTINUOUS
 10
324.7110418828
 20
308.253778177
 11
324.2843906786
 21
308.253778177
  0
LINE
  5
3AA
100
AcDbEntity
  8
0
100
AcDbLine
 62
7
  6
CONTINUOUS
 10
324.7621733844
 20
308.8332685283
 11
324.3355221802
 21
308.8332685283
  0
LINE
  5
3AB
100
AcDbEntity
  8
0
100
AcDbLine
 62
7
  6
CONTINUOUS
 10
324.8102268493
 20
309.3778744638
 11
324.3835756451
 21
309.3778744638
  0
LINE
  5
3AC
100
AcDbEntity
  8
0
100
AcDbLine
 62
7
  6
CONTINUOUS
 10
324.8112194874
 20
309.3891243631
 11
324.3845682833
 21
309.3891243631
  0
LINE
  5
3AD
100
AcDbEntity
  8
0
100
AcDbLine
 62
7
  6
CONTINUOUS
 10
324.8118648572
 20
309.3964385539
 11
324.3852136531
 21
309.3964385539
  0
LINE
  5
3AE
100
AcDbEntity
  8
0
100
AcDbLine
 62
7
  6
CONTINUOUS
 10
324.8287432499
 20
309.5877270043
 11
324.4020920458
 21
309.5877270043
  0
LINE
  5
3AF
100
AcDbEntity
  8
0
100
AcDbLine
 62
7
  6
CONTINUOUS
 10
324.8702938707
 20
310.0586340401
 11
324.4436426666
 21
310.0586340401
  0
LINE
  5
3B0
100
AcDbEntity
  8
0
100
AcDbLine
 62
7
  6
CONTINUOUS
 10
324.9178510824
 20
310.5976157728
 11
324.4911998783
 21
310.5976157728
  0
LINE
  5
3B1
100
AcDbEntity
  8
0
100
AcDbLine
 62
7
  6
CONTINUOUS
 10
324.954685846
 20
311.0150764262
 11
324.5280346418
 21
311.0150764262
  0
LINE
  5
3B2
100
AcDbEntity
  8
0
100
AcDbLine
 62
7
  6
CONTINUOUS
 10
324.9757838368
 20
311.2541869893
 11
324.5491326327
 21
311.2541869893
  0
LINE
  5
3B3
100
AcDbEntity
  8
0
100
AcDbLine
 62
7
  6
CONTINUOUS
 10
325.3234777433
 20
315.1947179291
 11
324.8968265391
 21
315.1947179291
  0
LINE
  5
3B4
100
AcDbEntity
  8
0
100
AcDbLine
 62
7
  6
CONTINUOUS
 10
325.4012665034
 20
316.0763238777
 11
324.9746152993
 21
316.0763238777
  0
LINE
  5
3B5
100
AcDbEntity
  8
0
100
AcDbLine
 62
7
  6
CONTINUOUS
 10
325.4223644972
 20
316.3154344743
 11
324.9957132931
 21
316.3154344743
  0
LINE
  5
3B6
100
AcDbEntity
  8
BEZUGSACHSEN
100
AcDbLine
 62
7
  6
CONTINUOUS
 10
320.542648328
 20
317.5036512233
 11
325.1005559474
 21
317.5036512233
  0
LINE
  5
3B7
100
AcDbEntity
  8
BEZUGSACHSEN
100
AcDbLine
 62
7
  6
CONTINUOUS
 10
339.5633772598
 20
317.5036512233
 11
344.5426483281
 21
317.5036512233
  0
LINE
  5
3B8
100
AcDbEntity
  8
0
100
AcDbLine
 62
7
  6
CONTINUOUS
 10
325.5286161439
 20
317.6268852612
 11
325.111429539
 21
317.6268852612
  0
LINE
  5
3B9
100
AcDbEntity
  8
0
100
AcDbLine
 62
7
  6
CONTINUOUS
 10
325.5320276542
 20
317.7022758404
 11
325.117648328
 21
317.7022758404
  0
LINE
  5
3BA
100
AcDbEntity
  8
0
100
AcDbLine
 62
7
  6
CONTINUOUS
 10
339.5466182077
 20
317.7036512233
 11
342.6856386753
 21
317.7036512233
  0
LINE
  5
3BB
100
AcDbEntity
  8
0
100
AcDbLine
 62
7
  6
CONTINUOUS
 10
325.5356722925
 20
317.7979201996
 11
325.117648328
 21
317.7979201996
  0
LINE
  5
3BC
100
AcDbEntity
  8
0
100
AcDbLine
 62
7
  6
CONTINUOUS
 10
325.5422154148
 20
318.1051065213
 11
325.117648328
 21
318.1051065213
  0
LINE
  5
3BD
100
AcDbEntity
  8
0
100
AcDbLine
 62
7
  6
CONTINUOUS
 10
325.542648328
 20
318.75998712
 11
325.117648328
 21
318.75998712
  0
LINE
  5
3BE
100
AcDbEntity
  8
0
100
AcDbLine
 62
7
  6
CONTINUOUS
 10
339.542648328
 20
318.762727038
 11
339.967648328
 21
318.762727038
  0
LINE
  5
3BF
100
AcDbEntity
  8
0
100
AcDbLine
 62
7
  6
CONTINUOUS
 10
325.542648328
 20
319.319223162
 11
325.117648328
 21
319.319223162
  0
LINE
  5
3C0
100
AcDbEntity
  8
0
100
AcDbLine
 62
7
  6
CONTINUOUS
 10
325.542648328
 20
320.0624331655
 11
325.117648328
 21
320.0624331655
  0
LINE
  5
3C1
100
AcDbEntity
  8
0
100
AcDbLine
 62
7
  6
CONTINUOUS
 10
339.542648328
 20
320.2506208427
 11
339.967648328
 21
320.2506208427
  0
LINE
  5
3C2
100
AcDbEntity
  8
0
100
AcDbLine
 62
7
  6
CONTINUOUS
 10
325.542648328
 20
320.5260251481
 11
325.117648328
 21
320.5260251481
  0
LINE
  5
3C3
100
AcDbEntity
  8
0
100
AcDbLine
 62
7
  6
CONTINUOUS
 10
325.542648328
 20
321.2894888806
 11
325.117648328
 21
321.2894888806
  0
LINE
  5
3C4
100
AcDbEntity
  8
0
100
AcDbLine
 62
7
  6
CONTINUOUS
 10
325.542648328
 20
321.657436555
 11
325.117648328
 21
321.657436555
  0
LINE
  5
3C5
100
AcDbEntity
  8
0
100
AcDbLine
 62
7
  6
CONTINUOUS
 10
325.542648328
 20
321.929740025
 11
325.117648328
 21
321.929740025
  0
LINE
  5
3C6
100
AcDbEntity
  8
0
100
AcDbLine
 62
7
  6
CONTINUOUS
 10
339.542648328
 20
322.3477771942
 11
339.967648328
 21
322.3477771942
  0
LINE
  5
3C7
100
AcDbEntity
  8
0
100
AcDbLine
 62
7
  6
CONTINUOUS
 10
339.542648328
 20
323.3952544327
 11
339.967648328
 21
323.3952544327
  0
LINE
  5
3C8
100
AcDbEntity
  8
0
100
AcDbLine
 62
7
  6
CONTINUOUS
 10
339.542648328
 20
324.9008029847
 11
339.967648328
 21
324.9008029847
  0
LINE
  5
3C9
100
AcDbEntity
  8
0
100
AcDbLine
 62
7
  6
CONTINUOUS
 10
339.542648328
 20
325.0355941298
 11
339.967648328
 21
325.0355941298
  0
LINE
  5
3CA
100
AcDbEntity
  8
0
100
AcDbLine
 62
7
  6
CONTINUOUS
 10
339.542648328
 20
325.3714296945
 11
339.967648328
 21
325.3714296945
  0
LINE
  5
3CB
100
AcDbEntity
  8
BEZUGSACHSEN
100
AcDbLine
 62
7
  6
CONTINUOUS
 10
344.5793176627
 20
149.5403205589
 11
341.5426483271
 21
146.5036512233
  0
LINE
  5
3CC
100
AcDbEntity
  8
BEZUGSACHSEN
100
AcDbLine
 62
7
  6
CONTINUOUS
 10
339.342648328
 20
122.5036512233
 11
340.542648328
 21
123.7036512233
  0
LINE
  5
3CD
100
AcDbEntity
  8
RUNDUNGEN
100
AcDbLine
 62
7
  6
CONTINUOUS
 10
339.042648328
 20
388.7251018889
 11
338.767648328
 21
388.7251018889
  0
LINE
  5
3CE
100
AcDbEntity
  8
RUNDUNGEN
100
AcDbLine
 62
7
  6
CONTINUOUS
 10
326.317648328
 20
388.7251018889
 11
326.042648328
 21
388.7251018889
  0
LINE
  5
3CF
100
AcDbEntity
  8
0
100
AcDbLine
 62
7
  6
CONTINUOUS
 10
336.767648328
 20
393.1786512233
 11
328.317648328
 21
393.1786512233
  0
LINE
  5
3D0
100
AcDbEntity
  8
0
100
AcDbLine
 62
7
  6
CONTINUOUS
 10
168.8624524815
 20
62.2375532911
 11
168.8624524815
 21
53.7875532911
  0
LINE
  5
3D1
100
AcDbEntity
  8
BEZUGSACHSEN
100
AcDbLine
 62
7
  6
CONTINUOUS
 10
169.5212603704
 20
64.5125532911
 11
169.5212603704
 21
63.478945571
  0
LINE
  5
3D2
100
AcDbEntity
  8
BEZUGSACHSEN
100
AcDbLine
 62
7
  6
CONTINUOUS
 10
169.5212603704
 20
52.5461610111
 11
169.5212603704
 21
51.5125532911
  0
LINE
  5
3D3
100
AcDbEntity
  8
RUNDUNGEN
100
AcDbLine
 62
7
  6
CONTINUOUS
 10
173.4703279703
 20
64.5125532911
 11
173.4703279703
 21
64.2375532911
  0
LINE
  5
3D4
100
AcDbEntity
  8
RUNDUNGEN
100
AcDbLine
 62
7
  6
CONTINUOUS
 10
173.4703279703
 20
51.7875532911
 11
173.4703279703
 21
51.5125532911
  0
LINE
  5
3D5
100
AcDbEntity
  8
0
100
AcDbLine
 62
7
  6
CONTINUOUS
 10
176.1551318883
 20
49.5125532911
 11
176.1551318883
 21
49.0125532911
  0
LINE
  5
3D6
100
AcDbEntity
  8
0
100
AcDbLine
 62
7
  6
CONTINUOUS
 10
178.2510625633
 20
50.2062598198
 11
178.2510625633
 21
49.7796086156
  0
LINE
  5
3D7
100
AcDbEntity
  8
0
100
AcDbLine
 62
7
  6
CONTINUOUS
 10
178.6256691343
 20
50.288070155
 11
178.6256691343
 21
49.8614189508
  0
LINE
  5
3D8
100
AcDbEntity
  8
0
100
AcDbLine
 62
7
  6
CONTINUOUS
 10
178.9051318883
 20
49.5125532911
 11
178.9051318883
 21
49.0125532911
  0
LINE
  5
3D9
100
AcDbEntity
  8
0
100
AcDbLine
 62
7
  6
CONTINUOUS
 10
180.3829367734
 20
50.6417707753
 11
180.3829367734
 21
50.2151195711
  0
LINE
  5
3DA
100
AcDbEntity
  8
0
100
AcDbLine
 62
7
  6
CONTINUOUS
 10
180.4051318883
 20
49.5125532911
 11
180.4051318883
 21
49.0125532911
  0
LINE
  5
3DB
100
AcDbEntity
  8
0
100
AcDbLine
 62
7
  6
CONTINUOUS
 10
180.4987021907
 20
50.697121875
 11
180.4987021907
 21
50.2704706709
  0
LINE
  5
3DC
100
AcDbEntity
  8
0
100
AcDbLine
 62
7
  6
CONTINUOUS
 10
180.5507595805
 20
65.9297093412
 11
180.5507595805
 21
65.503058137
  0
LINE
  5
3DD
100
AcDbEntity
  8
0
100
AcDbLine
 62
7
  6
CONTINUOUS
 10
180.9201346083
 20
50.7891585077
 11
180.9201346083
 21
50.3625073035
  0
LINE
  5
3DE
100
AcDbEntity
  8
0
100
AcDbLine
 62
7
  6
CONTINUOUS
 10
181.2361962721
 20
50.2451530819
 11
181.2361962721
 21
50.1609102202
  0
LINE
  5
3DF
100
AcDbEntity
  8
0
100
AcDbLine
 62
7
  6
CONTINUOUS
 10
181.2726275221
 20
50.8360703525
 11
181.2726275221
 21
50.4094191484
  0
LINE
  5
3E0
100
AcDbEntity
  8
0
100
AcDbLine
 62
7
  6
CONTINUOUS
 10
181.4976366913
 20
50.3082134628
 11
181.4976366913
 21
50.1277988484
  0
LINE
  5
3E1
100
AcDbEntity
  8
0
100
AcDbLine
 62
7
  6
CONTINUOUS
 10
181.5782025429
 20
65.2448948676
 11
181.5782025429
 21
65.6715460717
  0
LINE
  5
3E2
100
AcDbEntity
  8
0
100
AcDbLine
 62
7
  6
CONTINUOUS
 10
181.6862142773
 20
49.7868440846
 11
181.6862142773
 21
49.5976695896
  0
LINE
  5
3E3
100
AcDbEntity
  8
0
100
AcDbLine
 62
7
  6
CONTINUOUS
 10
181.6966586726
 20
50.8685363458
 11
181.6966586726
 21
50.4418851416
  0
LINE
  5
3E4
100
AcDbEntity
  8
0
100
AcDbLine
 62
7
  6
CONTINUOUS
 10
181.9242663067
 20
50.3738752474
 11
181.9242663067
 21
50.1006941437
  0
LINE
  5
3E5
100
AcDbEntity
  8
0
100
AcDbLine
 62
7
  6
CONTINUOUS
 10
181.9503025616
 20
51.0016922652
 11
181.9503025616
 21
50.5874856998
  0
LINE
  5
3E6
100
AcDbEntity
  8
0
100
AcDbLine
 62
7
  6
CONTINUOUS
 10
181.9802913823
 20
65.1524704054
 11
181.9802913823
 21
65.5791216095
  0
LINE
  5
3E7
100
AcDbEntity
  8
0
100
AcDbLine
 62
7
  6
CONTINUOUS
 10
182.3574173195
 20
50.572972314
 11
182.3574173195
 21
50.46591188
  0
LINE
  5
3E8
100
AcDbEntity
  8
0
100
AcDbLine
 62
7
  6
CONTINUOUS
 10
182.3823802217
 20
65.0600459431
 11
182.3823802217
 21
65.4866971473
  0
LINE
  5
3E9
100
AcDbEntity
  8
0
100
AcDbLine
 62
7
  6
CONTINUOUS
 10
182.4021381986
 20
65.7128890872
 11
182.4021381986
 21
65.8054964201
  0
LINE
  5
3EA
100
AcDbEntity
  8
0
100
AcDbLine
 62
7
  6
CONTINUOUS
 10
182.4530841001
 20
65.5951352672
 11
182.4530841001
 21
65.7011786216
  0
LINE
  5
3EB
100
AcDbEntity
  8
0
100
AcDbLine
 62
7
  6
CONTINUOUS
 10
182.804227038
 20
65.6070286035
 11
182.804227038
 21
65.7130719579
  0
LINE
  5
3EC
100
AcDbEntity
  8
0
100
AcDbLine
 62
7
  6
CONTINUOUS
 10
182.9960629757
 20
50.5502049969
 11
182.9960629757
 21
50.4550401893
  0
LINE
  5
3ED
100
AcDbEntity
  8
0
100
AcDbLine
 62
7
  6
CONTINUOUS
 10
183.0741226098
 20
51.0125532911
 11
183.0741226098
 21
50.5875532911
  0
LINE
  5
3EE
100
AcDbEntity
  8
0
100
AcDbLine
 62
7
  6
CONTINUOUS
 10
183.1551318883
 20
49.5125532911
 11
183.1551318883
 21
49.0125532911
  0
LINE
  5
3EF
100
AcDbEntity
  8
0
100
AcDbLine
 62
7
  6
CONTINUOUS
 10
183.1568581566
 20
65.0125532911
 11
183.1568581566
 21
65.4375532911
  0
LINE
  5
3F0
100
AcDbEntity
  8
0
100
AcDbLine
 62
7
  6
CONTINUOUS
 10
183.3459074266
 20
49.7732959753
 11
183.3459074266
 21
49.5125532911
  0
LINE
  5
3F1
100
AcDbEntity
  8
0
100
AcDbLine
 62
7
  6
CONTINUOUS
 10
183.4266152556
 20
51.0125532911
 11
183.4266152556
 21
50.5875532911
  0
LINE
  5
3F2
100
AcDbEntity
  8
RUNDUNGEN
100
AcDbLine
 62
7
  6
CONTINUOUS
 10
193.5080221018
 20
75.633390732
 11
191.3954195145
 21
74.7637265868
  0
LINE
  5
3F3
100
AcDbEntity
  8
0
100
AcDbLine
 62
7
  6
CONTINUOUS
 10
183.558946996
 20
65.0125532911
 11
183.558946996
 21
65.4375532911
  0
LINE
  5
3F4
100
AcDbEntity
  8
0
100
AcDbLine
 62
7
  6
CONTINUOUS
 10
183.6997247058
 20
50.4640513694
 11
183.6997247058
 21
50.0374001652
  0
LINE
  5
3F5
100
AcDbEntity
  8
0
100
AcDbLine
 62
7
  6
CONTINUOUS
 10
183.9690105563
 20
51.0125532911
 11
183.9690105563
 21
50.5875532911
  0
LINE
  5
3F6
100
AcDbEntity
  8
0
100
AcDbLine
 62
7
  6
CONTINUOUS
 10
184.2200061481
 20
50.4573992887
 11
184.2200061481
 21
50.0307480845
  0
LINE
  5
3F7
100
AcDbEntity
  8
0
100
AcDbLine
 62
7
  6
CONTINUOUS
 10
184.4425719371
 20
65.0125532911
 11
184.4425719371
 21
65.4375532911
  0
LINE
  5
3F8
100
AcDbEntity
  8
0
100
AcDbLine
 62
7
  6
CONTINUOUS
 10
184.5829435577
 20
51.0125532911
 11
184.5829435577
 21
50.5875532911
  0
LINE
  5
3F9
100
AcDbEntity
  8
0
100
AcDbLine
 62
7
  6
CONTINUOUS
 10
184.5985357505
 20
50.5875532911
 11
184.5985357505
 21
50.5644515381
  0
LINE
  5
3FA
100
AcDbEntity
  8
0
100
AcDbLine
 62
7
  6
CONTINUOUS
 10
184.6687493538
 20
50.4651930597
 11
184.6687493538
 21
50.0385418555
  0
LINE
  5
3FB
100
AcDbEntity
  8
0
100
AcDbLine
 62
7
  6
CONTINUOUS
 10
184.9379854039
 20
49.9801431801
 11
184.9379854039
 21
49.8267184836
  0
LINE
  5
3FC
100
AcDbEntity
  8
0
100
AcDbLine
 62
7
  6
CONTINUOUS
 10
184.9848608499
 20
51.0125532911
 11
184.9848608499
 21
50.5875532911
  0
LINE
  5
3FD
100
AcDbEntity
  8
0
100
AcDbLine
 62
7
  6
CONTINUOUS
 10
185.0459546737
 20
50.4771276434
 11
185.0459546737
 21
50.0607815338
  0
LINE
  5
3FE
100
AcDbEntity
  8
0
100
AcDbLine
 62
7
  6
CONTINUOUS
 10
185.3516219419
 20
50.466230797
 11
185.3516219419
 21
50.0974671252
  0
LINE
  5
3FF
100
AcDbEntity
  8
0
100
AcDbLine
 62
7
  6
CONTINUOUS
 10
185.4374774874
 20
50.4631701006
 11
185.4374774874
 21
50.2966316704
  0
LINE
  5
400
100
AcDbEntity
  8
0
100
AcDbLine
 62
7
  6
CONTINUOUS
 10
185.4583167103
 20
51.0125532911
 11
185.4583167103
 21
50.5875532911
  0
LINE
  5
401
100
AcDbEntity
  8
0
100
AcDbLine
 62
7
  6
CONTINUOUS
 10
185.5419760448
 20
65.0125532911
 11
185.5419760448
 21
65.4375532911
  0
LINE
  5
402
100
AcDbEntity
  8
0
100
AcDbLine
 62
7
  6
CONTINUOUS
 10
185.7184324325
 20
50.453154233
 11
185.7184324325
 21
50.3579894255
  0
LINE
  5
403
100
AcDbEntity
  8
0
100
AcDbLine
 62
7
  6
CONTINUOUS
 10
185.7665827114
 20
51.0125532911
 11
185.7665827114
 21
50.5875532911
  0
LINE
  5
404
100
AcDbEntity
  8
0
100
AcDbLine
 62
7
  6
CONTINUOUS
 10
185.7730543595
 20
50.2626467709
 11
185.7730543595
 21
50.1895037578
  0
LINE
  5
405
100
AcDbEntity
  8
0
100
AcDbLine
 62
7
  6
CONTINUOUS
 10
186.0995607678
 20
51.0125532911
 11
186.0995607678
 21
50.5875532911
  0
LINE
  5
406
100
AcDbEntity
  8
0
100
AcDbLine
 62
7
  6
CONTINUOUS
 10
186.263426013
 20
50.4337255537
 11
186.263426013
 21
50.3266651196
  0
LINE
  5
407
100
AcDbEntity
  8
0
100
AcDbLine
 62
7
  6
CONTINUOUS
 10
186.2673487604
 20
51.0125532911
 11
186.2673487604
 21
50.5875532911
  0
LINE
  5
408
100
AcDbEntity
  8
0
100
AcDbLine
 62
7
  6
CONTINUOUS
 10
186.416857602
 20
65.0125532911
 11
186.416857602
 21
65.4375532911
  0
LINE
  5
409
100
AcDbEntity
  8
0
100
AcDbLine
 62
7
  6
CONTINUOUS
 10
186.5495784652
 20
50.4235243982
 11
186.5495784652
 21
50.2688815944
  0
LINE
  5
40A
100
AcDbEntity
  8
0
100
AcDbLine
 62
7
  6
CONTINUOUS
 10
180.3829367734
 20
50.2151195711
 11
180.4323614198
 21
50.1657752438
  0
LINE
  5
40B
100
AcDbEntity
  8
0
100
AcDbLine
 62
7
  6
CONTINUOUS
 10
186.5990028747
 20
50.421762449
 11
186.5990028747
 21
50.2195372074
  0
LINE
  5
40C
100
AcDbEntity
  8
0
100
AcDbLine
 62
7
  6
CONTINUOUS
 10
186.7263151072
 20
65.6810320813
 11
186.7263151072
 21
65.8459144772
  0
LINE
  5
40D
100
AcDbEntity
  8
0
100
AcDbLine
 62
7
  6
CONTINUOUS
 10
186.7680005399
 20
65.0125532911
 11
186.7680005399
 21
65.4375532911
  0
LINE
  5
40E
100
AcDbEntity
  8
RUNDUNGEN
100
AcDbLine
 62
7
  6
CONTINUOUS
 10
187.6124524815
 20
47.0856387548
 11
187.6124524815
 21
50.3286481663
  0
LINE
  5
40F
100
AcDbEntity
  8
RUNDUNGEN
100
AcDbLine
 62
7
  6
CONTINUOUS
 10
187.6124524815
 20
65.6964584159
 11
187.6124524815
 21
68.9394678273
  0
LINE
  5
410
100
AcDbEntity
  8
0
100
AcDbLine
 62
7
  6
CONTINUOUS
 10
187.794360902
 20
50.8771735799
 11
187.794360902
 21
50.4505223757
  0
LINE
  5
411
100
AcDbEntity
  8
0
100
AcDbLine
 62
7
  6
CONTINUOUS
 10
188.0640250154
 20
65.4375532911
 11
188.0640250154
 21
65.5024293563
  0
LINE
  5
412
100
AcDbEntity
  8
0
100
AcDbLine
 62
7
  6
CONTINUOUS
 10
193.9448844376
 20
70.5120179094
 11
189.4349813617
 21
65.4375532911
  0
LINE
  5
413
100
AcDbEntity
  8
0
100
AcDbLine
 62
7
  6
CONTINUOUS
 10
186.5990028747
 20
50.2195372074
 11
186.5495784652
 21
50.2688815944
  0
LINE
  5
414
100
AcDbEntity
  8
0
100
AcDbLine
 62
7
  6
CONTINUOUS
 10
190.6900886092
 20
65.0125532911
 11
190.6900886092
 21
65.4375532911
  0
LINE
  5
415
100
AcDbEntity
  8
0
100
AcDbLine
 62
7
  6
CONTINUOUS
 10
190.5889557803
 20
50.9582760883
 11
191.339735902
 21
50.113511334
  0
LINE
  5
416
100
AcDbEntity
  8
RUNDUNGEN
100
AcDbLine
 62
7
  6
CONTINUOUS
 10
194.3624524815
 20
72.5125532911
 11
194.3624524815
 21
75.2325412815
  0
LINE
  5
417
100
AcDbEntity
  8
BEZUGSACHSEN
100
AcDbLine
 62
7
  6
CONTINUOUS
 10
200.9342492512
 20
70.0125532911
 11
198.0474979053
 21
65.0125532911
  0
LINE
  5
418
100
AcDbEntity
  8
RUNDUNGEN
100
AcDbLine
 62
7
  6
CONTINUOUS
 10
186.7579372956
 20
50.1013989967
 11
186.804224759
 21
50.1521393006
  0
LINE
  5
419
100
AcDbEntity
  8
0
100
AcDbLine
 62
7
  6
CONTINUOUS
 10
181.2361962721
 20
50.1609102202
 11
181.1399459802
 21
50.2000282941
  0
LINE
  5
41A
100
AcDbEntity
  8
0
100
AcDbLine
 62
7
  6
CONTINUOUS
 10
185.7457432206
 20
50.2737465639
 11
185.8419935954
 21
50.234628487
  0
LINE
  5
41B
100
AcDbEntity
  8
RUNDUNGEN
100
AcDbLine
 62
7
  6
CONTINUOUS
 10
197.9324524815
 20
39.7852210031
 11
197.9324524815
 21
43.0078266787
  0
LINE
  5
41C
100
AcDbEntity
  8
0
100
AcDbLine
 62
7
  6
CONTINUOUS
 10
181.1399459802
 20
50.2000282941
 11
181.208885484
 21
50.2451530819
  0
LINE
  5
41D
100
AcDbEntity
  8
0
100
AcDbLine
 62
7
  6
CONTINUOUS
 10
209.5245140628
 20
66.6936408609
 11
209.7448966178
 21
66.7720731376
  0
LINE
  5
41E
100
AcDbEntity
  8
0
100
AcDbLine
 62
7
  6
CONTINUOUS
 10
180.4323614198
 20
50.1657752438
 11
180.7185135627
 21
50.1079916615
  0
LINE
  5
41F
100
AcDbEntity
  8
BEZUGSACHSEN
100
AcDbLine
 62
7
  6
CONTINUOUS
 10
198.0474979053
 20
51.0125532911
 11
200.9342492512
 21
46.0125532911
  0
LINE
  5
420
100
AcDbEntity
  8
0
100
AcDbLine
 62
7
  6
CONTINUOUS
 10
209.7448966178
 20
66.7720731376
 11
209.9274496219
 21
66.962750365
  0
LINE
  5
421
100
AcDbEntity
  8
0
100
AcDbLine
 62
7
  6
CONTINUOUS
 10
191.5891683816
 20
50.3351931056
 11
191.339735902
 21
50.113511334
  0
LINE
  5
422
100
AcDbEntity
  8
0
100
AcDbLine
 62
7
  6
CONTINUOUS
 10
209.624501397
 20
67.0560667994
 11
209.5074036253
 21
66.9641094609
  0
LINE
  5
423
100
AcDbEntity
  8
0
100
AcDbLine
 62
7
  6
CONTINUOUS
 10
185.8419935954
 20
50.234628487
 11
185.7730543595
 21
50.1895037578
  0
LINE
  5
424
100
AcDbEntity
  8
0
100
AcDbLine
 62
7
  6
CONTINUOUS
 10
211.8796932974
 20
65.2277845079
 11
211.7176198865
 21
65.1275503421
  0
LINE
  5
425
100
AcDbEntity
  8
0
100
AcDbLine
 62
7
  6
CONTINUOUS
 10
180.4987021907
 20
50.697121875
 11
180.3829367734
 21
50.6417707753
  0
LINE
  5
426
100
AcDbEntity
  8
0
100
AcDbLine
 62
7
  6
CONTINUOUS
 10
180.4987021907
 20
50.2704706709
 11
180.3829367734
 21
50.2151195711
  0
LINE
  5
427
100
AcDbEntity
  8
0
100
AcDbLine
 62
7
  6
CONTINUOUS
 10
233.8710629884
 20
49.9135476296
 11
234.2040413127
 21
49.9611048413
  0
LINE
  5
428
100
AcDbEntity
  8
0
100
AcDbLine
 62
7
  6
CONTINUOUS
 10
230.7155421043
 20
50.1817145873
 11
230.3825640065
 21
50.1341573156
  0
LINE
  5
429
100
AcDbEntity
  8
0
100
AcDbLine
 62
7
  6
CONTINUOUS
 10
230.5698208188
 20
50.5875532911
 11
230.3825640065
 21
50.5608085197
  0
LINE
  5
42A
100
AcDbEntity
  8
0
100
AcDbLine
 62
7
  6
CONTINUOUS
 10
233.5901083113
 20
49.9749053262
 11
233.3286682237
 21
49.9417939661
  0
LINE
  5
42B
100
AcDbEntity
  8
0
100
AcDbLine
 62
7
  6
CONTINUOUS
 10
233.0568332239
 20
49.6703999811
 11
232.6770294805
 21
49.6330689629
  0
LINE
  5
42C
100
AcDbEntity
  8
0
100
AcDbLine
 62
7
  6
CONTINUOUS
 10
230.9964970494
 20
50.1203568322
 11
231.3763011021
 21
50.1576877933
  0
LINE
  5
42D
100
AcDbEntity
  8
0
100
AcDbLine
 62
7
  6
CONTINUOUS
 10
231.0953461571
 20
50.2190455484
 11
230.7155421043
 21
50.1817145873
  0
LINE
  5
42E
100
AcDbEntity
  8
0
100
AcDbLine
 62
7
  6
CONTINUOUS
 10
233.3728952385
 20
49.8719970088
 11
233.8710629884
 21
49.9135476296
  0
LINE
  5
42F
100
AcDbEntity
  8
0
100
AcDbLine
 62
7
  6
CONTINUOUS
 10
233.2194242867
 20
49.6048226278
 11
233.5276903707
 21
49.6277076788
  0
LINE
  5
430
100
AcDbEntity
  8
0
100
AcDbLine
 62
7
  6
CONTINUOUS
 10
233.3286682237
 20
49.9417939661
 11
233.0204023247
 21
49.9189088537
  0
LINE
  5
431
100
AcDbEntity
  8
0
100
AcDbLine
 62
7
  6
CONTINUOUS
 10
236.173324661
 20
49.5911711951
 11
236.6467801899
 21
49.6080495878
  0
LINE
  5
432
100
AcDbEntity
  8
0
100
AcDbLine
 62
7
  6
CONTINUOUS
 10
233.5276903707
 20
49.6277076788
 11
235.6582404164
 21
49.7036604518
  0
LINE
  5
433
100
AcDbEntity
  8
0
100
AcDbLine
 62
7
  6
CONTINUOUS
 10
236.1316959453
 20
49.7205388445
 11
237.0786073346
 21
49.7542956417
  0
LINE
  5
434
100
AcDbEntity
  8
0
100
AcDbLine
 62
7
  6
CONTINUOUS
 10
236.8444780351
 20
49.8054271433
 11
235.8975666458
 21
49.7716703461
  0
LINE
  5
435
100
AcDbEntity
  8
0
100
AcDbLine
 62
7
  6
CONTINUOUS
 10
235.4241111169
 20
49.7547919534
 11
233.0568332239
 21
49.6703999811
  0
LINE
  5
436
100
AcDbEntity
  8
0
100
AcDbLine
 62
7
  6
CONTINUOUS
 10
235.5229604096
 20
49.8534806082
 11
235.0495048807
 21
49.8366022155
  0
LINE
  5
437
100
AcDbEntity
  8
0
100
AcDbLine
 62
7
  6
CONTINUOUS
 10
232.8994397096
 20
49.8551186161
 11
233.3728952385
 21
49.8719970088
  0
LINE
  5
438
100
AcDbEntity
  8
BEZUGSACHSEN
100
AcDbLine
 62
7
  6
CONTINUOUS
 10
200.9342492512
 20
46.0125532911
 11
214.7906557118
 21
46.0125532911
  0
LINE
  5
439
100
AcDbEntity
  8
0
100
AcDbLine
 62
7
  6
CONTINUOUS
 10
181.0983175325
 20
50.0706607033
 11
181.6433113617
 21
50.0393363886
  0
LINE
  5
43A
100
AcDbEntity
  8
0
100
AcDbLine
 62
7
  6
CONTINUOUS
 10
181.9242663067
 20
50.1006941437
 11
181.4976366913
 21
50.1277988484
  0
LINE
  5
43B
100
AcDbEntity
  8
0
100
AcDbLine
 62
7
  6
CONTINUOUS
 10
181.6862142773
 20
49.5976695896
 11
178.9118213442
 21
49.8036353832
  0
LINE
  5
43C
100
AcDbEntity
  8
0
100
AcDbLine
 62
7
  6
CONTINUOUS
 10
182.8942697871
 20
49.5125532911
 11
182.1128439597
 21
49.5705648995
  0
LINE
  5
43D
100
AcDbEntity
  8
0
100
AcDbLine
 62
7
  6
CONTINUOUS
 10
185.4374774874
 20
50.2966316704
 11
185.7457432206
 21
50.2737465639
  0
LINE
  5
43E
100
AcDbEntity
  8
0
100
AcDbLine
 62
7
  6
CONTINUOUS
 10
178.2510625633
 20
49.7796086156
 11
181.8029453615
 21
49.5125532911
  0
LINE
  5
43F
100
AcDbEntity
  8
0
100
AcDbLine
 62
7
  6
CONTINUOUS
 10
180.7185135627
 20
50.1079916615
 11
181.0983175325
 21
50.0706607033
  0
LINE
  5
440
100
AcDbEntity
  8
0
100
AcDbLine
 62
7
  6
CONTINUOUS
 10
181.4976366913
 20
50.1277988484
 11
181.2361962721
 21
50.1609102202
  0
LINE
  5
441
100
AcDbEntity
  8
0
100
AcDbLine
 62
7
  6
CONTINUOUS
 10
186.5495784652
 20
50.2688815944
 11
186.263426013
 21
50.3266651196
  0
LWPOLYLINE
  5
442
100
AcDbEntity
  8
RUNDUNGEN
100
AcDbPolyline
 62
7
  6
CONTINUOUS
 90
10
 70
0
 10
186.7534394207
 20
65.9282106077
 10
186.6250234104
 20
66.0456674319
 10
186.4868828795
 20
66.1515158184
 10
186.3400638307
 20
66.2449543695
 10
186.1856779765
 20
66.3252756552
 10
186.0248942859
 20
66.3918715846
 10
185.8589301441
 20
66.4442379917
 10
185.689042236
 20
66.4819784278
 10
185.5165169447
 20
66.5048072068
 10
185.3426605495
 20
66.5125515669
  0
LINE
  5
443
100
AcDbEntity
  8
RUNDUNGEN
100
AcDbLine
 62
7
  6
CONTINUOUS
 10
186.8041636246
 20
65.8729806327
 11
186.7534394207
 21
65.9282106077
  0
LINE
  5
444
100
AcDbEntity
  8
0
100
AcDbLine
 62
7
  6
CONTINUOUS
 10
209.6968630497
 20
67.2075278982
 11
209.624501397
 21
67.0560667994
  0
LINE
  5
445
100
AcDbEntity
  8
0
100
AcDbLine
 62
7
  6
CONTINUOUS
 10
209.9274496219
 20
66.962750365
 11
209.9998112746
 21
67.1142114638
  0
LINE
  5
446
100
AcDbEntity
  8
0
100
AcDbLine
 62
7
  6
CONTINUOUS
 10
212.0172021021
 20
65.3982936116
 11
211.8796932974
 21
65.2277845079
  0
LINE
  5
447
100
AcDbEntity
  8
0
100
AcDbLine
 62
7
  6
CONTINUOUS
 10
214.01586876
 20
66.0890957036
 11
213.0052209064
 21
65.0125532911
  0
LINE
  5
448
100
AcDbEntity
  8
0
100
AcDbLine
 62
7
  6
CONTINUOUS
 10
213.4338505946
 20
65.0125532911
 11
214.0252635446
 21
65.6425265519
  0
LINE
  5
449
100
AcDbEntity
  8
0
100
AcDbLine
 62
7
  6
CONTINUOUS
 10
212.0972608028
 20
65.0125532911
 11
212.1400259431
 21
65.0469185424
  0
LINE
  5
44A
100
AcDbEntity
  8
0
100
AcDbLine
 62
7
  6
CONTINUOUS
 10
186.4832377357
 20
50.1641861658
 11
186.5990028747
 21
50.2195372074
  0
LINE
  5
44B
100
AcDbEntity
  8
RUNDUNGEN
100
AcDbLine
 62
7
  6
CONTINUOUS
 10
229.5830048402
 20
66.0450956562
 11
229.5805894218
 21
66.0442714774
  0
LWPOLYLINE
  5
44C
100
AcDbEntity
  8
RUNDUNGEN
100
AcDbPolyline
 62
7
  6
CONTINUOUS
 90
3
 70
0
 10
229.5805915719
 20
66.0442722121
 10
229.548180347
 20
66.0334592815
 10
229.4719320457
 20
66.0096894093
  0
LINE
  5
44D
100
AcDbEntity
  8
RUNDUNGEN
100
AcDbLine
 62
7
  6
CONTINUOUS
 10
229.4719320457
 20
66.0096894093
 11
229.3746886664
 21
65.9818542473
  0
LINE
  5
44E
100
AcDbEntity
  8
0
100
AcDbLine
 62
7
  6
CONTINUOUS
 10
185.2852812124
 20
49.9927716966
 11
185.7093121261
 21
50.0252376302
  0
LINE
  5
44F
100
AcDbEntity
  8
0
100
AcDbLine
 62
7
  6
CONTINUOUS
 10
185.0459546737
 20
50.0607815338
 11
184.6687493538
 21
50.0385418555
  0
LINE
  5
450
100
AcDbEntity
  8
0
100
AcDbLine
 62
7
  6
CONTINUOUS
 10
184.937031059
 20
50.4810107019
 11
184.6687493538
 21
50.4651930597
  0
LINE
  5
451
100
AcDbEntity
  8
0
100
AcDbLine
 62
7
  6
CONTINUOUS
 10
181.9359849019
 20
50.3738752474
 11
182.3131901389
 21
50.3961149286
  0
LWPOLYLINE
  5
452
100
AcDbEntity
  8
RUNDUNGEN
100
AcDbPolyline
 62
7
  6
CONTINUOUS
 90
10
 70
0
 10
185.3426177795
 20
49.5125549852
 10
185.517183786
 20
49.5203583586
 10
185.6904026131
 20
49.5433692878
 10
185.8609519855
 20
49.5814121844
 10
186.0275299456
 20
49.634196696
 10
186.188864844
 20
49.7013199213
 10
186.3437251169
 20
49.7822695219
 10
186.490928605
 20
49.8764276126
 10
186.6293515687
 20
49.983075463
 10
186.7579372956
 20
50.1013989967
  0
LINE
  5
453
100
AcDbEntity
  8
0
100
AcDbLine
 62
7
  6
CONTINUOUS
 10
184.6245222561
 20
49.9687449012
 11
185.2852812124
 21
49.9927716966
  0
LINE
  5
454
100
AcDbEntity
  8
0
100
AcDbLine
 62
7
  6
CONTINUOUS
 10
182.3574173195
 20
50.46591188
 11
181.6966586726
 21
50.4418851416
  0
LINE
  5
455
100
AcDbEntity
  8
0
100
AcDbLine
 62
7
  6
CONTINUOUS
 10
181.9503025616
 20
50.8777594341
 11
181.6966586726
 21
50.8685363458
  0
LINE
  5
456
100
AcDbEntity
  8
0
100
AcDbLine
 62
7
  6
CONTINUOUS
 10
236.2383409644
 20
49.9979396048
 11
236.8301603754
 21
50.0190375957
  0
LINE
  5
457
100
AcDbEntity
  8
0
100
AcDbLine
 62
7
  6
CONTINUOUS
 10
233.0204023247
 20
49.9189088537
 11
232.7836745603
 21
49.9104696573
  0
LINE
  5
458
100
AcDbEntity
  8
0
100
AcDbLine
 62
7
  6
CONTINUOUS
 10
236.8444780351
 20
50.2320783474
 11
236.8301603754
 21
50.2315679318
  0
LINE
  5
459
100
AcDbEntity
  8
0
100
AcDbLine
 62
7
  6
CONTINUOUS
 10
235.0495048807
 20
50.1680886801
 11
234.3250036598
 21
50.142260666
  0
LINE
  5
45A
100
AcDbEntity
  8
0
100
AcDbLine
 62
7
  6
CONTINUOUS
 10
232.9865697055
 20
50.2269884857
 11
234.8803921525
 21
50.2945020682
  0
LINE
  5
45B
100
AcDbEntity
  8
0
100
AcDbLine
 62
7
  6
CONTINUOUS
 10
235.2380825321
 20
50.3667315022
 11
232.1606212628
 21
50.2570219379
  0
LINE
  5
45C
100
AcDbEntity
  8
0
100
AcDbLine
 62
7
  6
CONTINUOUS
 10
228.4106821519
 20
50.4445202623
 11
229.0025016459
 21
50.4656182561
  0
LINE
  5
45D
100
AcDbEntity
  8
0
100
AcDbLine
 62
7
  6
CONTINUOUS
 10
235.2380825321
 20
50.7933827063
 11
233.4339889795
 21
50.7290679026
  0
LWPOLYLINE
  5
45E
100
AcDbEntity
  8
RUNDUNGEN
100
AcDbPolyline
 62
7
  6
CONTINUOUS
 90
6
 70
0
 10
185.4747616821
 20
49.8693875734
 10
185.5496474441
 20
49.8707522902
 10
185.7416357865
 20
49.8867154219
 10
185.9314468892
 20
49.9205137646
 10
186.1173264622
 20
49.9718133367
 10
186.1419229356
 20
49.9800199964
  0
LINE
  5
45F
100
AcDbEntity
  8
0
100
AcDbLine
 62
7
  6
CONTINUOUS
 10
184.6687493538
 20
50.0385418555
 11
184.2200061481
 21
50.0307480845
  0
LINE
  5
460
100
AcDbEntity
  8
0
100
AcDbLine
 62
7
  6
CONTINUOUS
 10
184.6687493538
 20
50.4651930597
 11
184.2200061481
 21
50.4573992887
  0
LINE
  5
461
100
AcDbEntity
  8
0
100
AcDbLine
 62
7
  6
CONTINUOUS
 10
184.0574150853
 20
49.9651707313
 11
184.6245222561
 21
49.9687449012
  0
LINE
  5
462
100
AcDbEntity
  8
0
100
AcDbLine
 62
7
  6
CONTINUOUS
 10
232.7836745603
 20
49.9104696573
 11
232.3817570001
 21
49.9080371748
  0
LINE
  5
463
100
AcDbEntity
  8
0
100
AcDbLine
 62
7
  6
CONTINUOUS
 10
232.2139683887
 20
49.8544732463
 11
232.8994397096
 21
49.8551186161
  0
LINE
  5
464
100
AcDbEntity
  8
0
100
AcDbLine
 62
7
  6
CONTINUOUS
 10
183.1551318883
 20
49.0125532911
 11
180.4052191141
 21
49.0125532911
  0
LINE
  5
465
100
AcDbEntity
  8
0
100
AcDbLine
 62
7
  6
CONTINUOUS
 10
178.9051318883
 20
49.0125532911
 11
176.1552191141
 21
49.0125532911
  0
LINE
  5
466
100
AcDbEntity
  8
RUNDUNGEN
100
AcDbLine
 62
7
  6
CONTINUOUS
 10
232.718181649
 20
49.5125532911
 11
230.3842326413
 21
49.5125532911
  0
LINE
  5
467
100
AcDbEntity
  8
RUNDUNGEN
100
AcDbLine
 62
7
  6
CONTINUOUS
 10
171.5212629222
 20
49.5125532911
 11
181.8029453615
 21
49.5125532911
  0
LINE
  5
468
100
AcDbEntity
  8
0
100
AcDbLine
 62
7
  6
CONTINUOUS
 10
181.8029453615
 20
49.5125532911
 11
183.3459074266
 21
49.5125532911
  0
LINE
  5
469
100
AcDbEntity
  8
RUNDUNGEN
100
AcDbLine
 62
7
  6
CONTINUOUS
 10
183.2852259077
 20
49.5125532911
 11
185.3406722858
 21
49.5125532911
  0
LINE
  5
46A
100
AcDbEntity
  8
0
100
AcDbLine
 62
7
  6
CONTINUOUS
 10
232.718181649
 20
49.5125532911
 11
233.2389393707
 21
49.5125532911
  0
LINE
  5
46B
100
AcDbEntity
  8
RUNDUNGEN
100
AcDbLine
 62
7
  6
CONTINUOUS
 10
233.2389393707
 20
49.5125532911
 11
244.2036420406
 21
49.5125532911
  0
LINE
  5
46C
100
AcDbEntity
  8
RUNDUNGEN
100
AcDbLine
 62
7
  6
CONTINUOUS
 10
184.9379854039
 20
49.8693796538
 11
185.4747616908
 21
49.8693796538
  0
LINE
  5
46D
100
AcDbEntity
  8
0
100
AcDbLine
 62
7
  6
CONTINUOUS
 10
233.4339889795
 20
50.5875532911
 11
226.7249524815
 21
50.5875532911
  0
LINE
  5
46E
100
AcDbEntity
  8
0
100
AcDbLine
 62
7
  6
CONTINUOUS
 10
186.2673487604
 20
50.5875532911
 11
181.9503025616
 21
50.5875532911
  0
LINE
  5
46F
100
AcDbEntity
  8
RUNDUNGEN
100
AcDbLine
 62
7
  6
CONTINUOUS
 10
173.9703572373
 20
51.0125532911
 11
241.7536822017
 21
51.0125532911
  0
LINE
  5
470
100
AcDbEntity
  8
RUNDUNGEN
100
AcDbLine
 62
7
  6
CONTINUOUS
 10
230.2501431974
 20
49.8693796538
 11
230.9911380727
 21
49.8691832496
  0
LINE
  5
471
100
AcDbEntity
  8
0
100
AcDbLine
 62
7
  6
CONTINUOUS
 10
184.9379854039
 20
49.8267184836
 11
178.6256691343
 21
49.8614189508
  0
LINE
  5
472
100
AcDbEntity
  8
0
100
AcDbLine
 62
7
  6
CONTINUOUS
 10
180.3832846871
 20
50.2784080788
 11
178.6256691343
 21
50.288070155
  0
LINE
  5
473
100
AcDbEntity
  8
0
100
AcDbLine
 62
7
  6
CONTINUOUS
 10
183.0493604544
 20
49.7750907522
 11
184.6570304589
 21
49.7653607285
  0
LINE
  5
474
100
AcDbEntity
  8
0
100
AcDbLine
 62
7
  6
CONTINUOUS
 10
178.9118213442
 20
49.8036353832
 11
182.529079146
 21
49.7817428621
  0
LINE
  5
475
100
AcDbEntity
  8
0
100
AcDbLine
 62
7
  6
CONTINUOUS
 10
182.3131901389
 20
50.3961149286
 11
182.7151080306
 21
50.3936824342
  0
LINE
  5
476
100
AcDbEntity
  8
RUNDUNGEN
100
AcDbLine
 62
7
  6
CONTINUOUS
 10
230.9911380727
 20
49.8691832496
 11
231.1002035654
 21
49.8685082675
  0
LINE
  5
477
100
AcDbEntity
  8
0
100
AcDbLine
 62
7
  6
CONTINUOUS
 10
228.3092345793
 20
50.2862608482
 11
229.8921923945
 21
50.2713186789
  0
LINE
  5
478
100
AcDbEntity
  8
0
100
AcDbLine
 62
7
  6
CONTINUOUS
 10
229.658063095
 20
50.3224501805
 11
228.0751054137
 21
50.3373923205
  0
LINE
  5
479
100
AcDbEntity
  8
0
100
AcDbLine
 62
7
  6
CONTINUOUS
 10
184.2200061481
 20
50.0307480845
 11
183.6997247058
 21
50.0374001652
  0
LINE
  5
47A
100
AcDbEntity
  8
0
100
AcDbLine
 62
7
  6
CONTINUOUS
 10
184.2200061481
 20
50.4573992887
 11
183.6997247058
 21
50.4640513694
  0
LWPOLYLINE
  5
47B
100
AcDbEntity
  8
RUNDUNGEN
100
AcDbPolyline
 62
7
  6
CONTINUOUS
 90
4
 70
0
 10
231.1002035654
 20
49.8685082675
 10
231.3132563005
 20
49.8657849178
 10
231.4166075212
 20
49.863797471
 10
231.5174196868
 20
49.861410786
  0
LINE
  5
47C
100
AcDbEntity
  8
0
100
AcDbLine
 62
7
  6
CONTINUOUS
 10
183.4187697607
 20
49.9760424101
 11
184.0574150853
 21
49.9651707313
  0
LINE
  5
47D
100
AcDbEntity
  8
0
100
AcDbLine
 62
7
  6
CONTINUOUS
 10
182.9960629757
 20
50.4550401893
 11
182.3574173195
 21
50.46591188
  0
LINE
  5
47E
100
AcDbEntity
  8
0
100
AcDbLine
 62
7
  6
CONTINUOUS
 10
232.3817570001
 20
49.9080371748
 11
231.9330137116
 21
49.9158309429
  0
LINE
  5
47F
100
AcDbEntity
  8
0
100
AcDbLine
 62
7
  6
CONTINUOUS
 10
232.1606212628
 20
50.3385290618
 11
231.9330137116
 21
50.342482147
  0
LINE
  5
480
100
AcDbEntity
  8
0
100
AcDbLine
 62
7
  6
CONTINUOUS
 10
231.6000356138
 20
49.8682736712
 11
232.2139683887
 21
49.8544732463
  0
LWPOLYLINE
  5
481
100
AcDbEntity
  8
RUNDUNGEN
100
AcDbPolyline
 62
7
  6
CONTINUOUS
 90
3
 70
0
 10
231.5174196868
 20
49.861410786
 10
231.6154309501
 20
49.8586332617
 10
231.7103988627
 20
49.8555009204
  0
LINE
  5
482
100
AcDbEntity
  8
0
100
AcDbLine
 62
7
  6
CONTINUOUS
 10
181.6433113617
 20
50.0393363886
 11
183.4187697607
 21
49.9760424101
  0
LINE
  5
483
100
AcDbEntity
  8
0
100
AcDbLine
 62
7
  6
CONTINUOUS
 10
183.6997247058
 20
50.0374001652
 11
181.9242663067
 21
50.1006941437
  0
LINE
  5
484
100
AcDbEntity
  8
0
100
AcDbLine
 62
7
  6
CONTINUOUS
 10
183.6997247058
 20
50.4640513694
 11
182.9972769439
 21
50.4890931915
  0
LINE
  5
485
100
AcDbEntity
  8
0
100
AcDbLine
 62
7
  6
CONTINUOUS
 10
181.9503025616
 20
50.5874856998
 11
187.513405689
 21
50.3891645621
  0
LINE
  5
486
100
AcDbEntity
  8
0
100
AcDbLine
 62
7
  6
CONTINUOUS
 10
187.794360902
 20
50.4505223757
 11
185.3087190438
 21
50.5391339491
  0
LINE
  5
487
100
AcDbEntity
  8
0
100
AcDbLine
 62
7
  6
CONTINUOUS
 10
184.5985357505
 20
50.5644515381
 11
183.9689870727
 21
50.5868945537
  0
LINE
  5
488
100
AcDbEntity
  8
0
100
AcDbLine
 62
7
  6
CONTINUOUS
 10
187.794360902
 20
50.8771735799
 11
186.2644660695
 21
50.9317599045
  0
LWPOLYLINE
  5
489
100
AcDbEntity
  8
RUNDUNGEN
100
AcDbPolyline
 62
7
  6
CONTINUOUS
 90
6
 70
0
 10
231.7103988627
 20
49.8555009204
 10
231.8020145784
 20
49.8520486329
 10
231.8899791486
 20
49.8483014596
 10
231.9741383282
 20
49.8442742462
 10
232.0543443493
 20
49.8400020019
 10
232.130344869
 20
49.8355290319
  0
LINE
  5
48A
100
AcDbEntity
  8
0
100
AcDbLine
 62
7
  6
CONTINUOUS
 10
232.4884021214
 20
50.1854378708
 11
233.0307968861
 21
50.1571915342
  0
LINE
  5
48B
100
AcDbEntity
  8
0
100
AcDbLine
 62
7
  6
CONTINUOUS
 10
186.263426013
 20
50.3266651196
 11
185.7184324325
 21
50.3579894255
  0
LINE
  5
48C
100
AcDbEntity
  8
0
100
AcDbLine
 62
7
  6
CONTINUOUS
 10
231.9330137116
 20
49.9158309429
 11
231.5558084746
 21
49.9380706241
  0
LINE
  5
48D
100
AcDbEntity
  8
0
100
AcDbLine
 62
7
  6
CONTINUOUS
 10
231.9330137116
 20
50.342482147
 11
231.5558084746
 21
50.3647218282
  0
LWPOLYLINE
  5
48E
100
AcDbEntity
  8
RUNDUNGEN
100
AcDbPolyline
 62
7
  6
CONTINUOUS
 90
4
 70
0
 10
232.130344869
 20
49.8355290319
 10
232.2019270126
 20
49.8308919639
 10
232.2689567578
 20
49.8261176284
 10
232.3313123613
 20
49.8212427718
  0
LINE
  5
48F
100
AcDbEntity
  8
0
100
AcDbLine
 62
7
  6
CONTINUOUS
 10
231.0108146365
 20
49.9067463772
 11
231.6000356138
 21
49.8682736712
  0
LINE
  5
490
100
AcDbEntity
  8
0
100
AcDbLine
 62
7
  6
CONTINUOUS
 10
233.5757906516
 20
50.1885157786
 11
232.9865697055
 21
50.2269884857
  0
LWPOLYLINE
  5
491
100
AcDbEntity
  8
RUNDUNGEN
100
AcDbPolyline
 62
7
  6
CONTINUOUS
 90
7
 70
0
 10
232.3313123613
 20
49.8212427718
 10
232.3888295895
 20
49.8163220027
 10
232.4413818752
 20
49.8114092372
 10
232.4888941898
 20
49.8065549909
 10
232.5312754268
 20
49.8018149526
 10
232.5684418234
 20
49.7972574932
 10
232.5807791679
 20
49.7955958312
  0
LINE
  5
492
100
AcDbEntity
  8
0
100
AcDbLine
 62
7
  6
CONTINUOUS
 10
208.1926373366
 20
68.1555436383
 11
207.8680355405
 21
65.6767064767
  0
LINE
  5
493
100
AcDbEntity
  8
0
100
AcDbLine
 62
7
  6
CONTINUOUS
 10
208.1778901857
 20
65.6361312522
 11
208.3229250329
 21
66.7436968082
  0
LINE
  5
494
100
AcDbEntity
  8
0
100
AcDbLine
 62
7
  6
CONTINUOUS
 10
208.3643635551
 20
67.0601440677
 11
208.46795988
 21
67.8512623642
  0
LINE
  5
495
100
AcDbEntity
  8
0
100
AcDbLine
 62
7
  6
CONTINUOUS
 10
209.7175823302
 20
67.3657516757
 11
209.6968630497
 21
67.2075278982
  0
LINE
  5
496
100
AcDbEntity
  8
0
100
AcDbLine
 62
7
  6
CONTINUOUS
 10
210.6025948105
 20
66.0618393343
 11
210.5368045438
 21
65.7989369353
  0
LINE
  5
497
100
AcDbEntity
  8
0
100
AcDbLine
 62
7
  6
CONTINUOUS
 10
211.3028472625
 20
67.5547013795
 11
210.6025948105
 21
66.0618393343
  0
LINE
  5
498
100
AcDbEntity
  8
0
100
AcDbLine
 62
7
  6
CONTINUOUS
 10
210.8855163767
 20
65.9291301392
 11
211.5857688288
 21
67.4219921843
  0
LINE
  5
499
100
AcDbEntity
  8
0
100
AcDbLine
 62
7
  6
CONTINUOUS
 10
212.7174545542
 20
66.8911556568
 11
212.0172021021
 21
65.3982936116
  0
LINE
  5
49A
100
AcDbEntity
  8
0
100
AcDbLine
 62
7
  6
CONTINUOUS
 10
212.3001235335
 20
65.2655844798
 11
213.0003759855
 21
66.7584465249
  0
LINE
  5
49B
100
AcDbEntity
  8
0
100
AcDbLine
 62
7
  6
CONTINUOUS
 10
212.1400259431
 20
65.0469185424
 11
212.3001235335
 21
65.2655844798
  0
LINE
  5
49C
100
AcDbEntity
  8
RUNDUNGEN
100
AcDbLine
 62
7
  6
CONTINUOUS
 10
186.1419637071
 20
49.9800325797
 11
186.1443092937
 21
49.9808329705
  0
LWPOLYLINE
  5
49D
100
AcDbEntity
  8
RUNDUNGEN
100
AcDbPolyline
 62
7
  6
CONTINUOUS
 90
3
 70
0
 10
186.1443071772
 20
49.9808322472
 10
186.1780935198
 20
49.9920933056
 10
186.2546736678
 20
50.0159253828
  0
LINE
  5
49E
100
AcDbEntity
  8
RUNDUNGEN
100
AcDbLine
 62
7
  6
CONTINUOUS
 10
186.2546736678
 20
50.0159253828
 11
186.3522372065
 21
50.0438071356
  0
LINE
  5
49F
100
AcDbEntity
  8
RUNDUNGEN
100
AcDbLine
 62
7
  6
CONTINUOUS
 10
190.0798372618
 20
50.8675003691
 11
186.7454978551
 21
50.1393139311
  0
LINE
  5
4A0
100
AcDbEntity
  8
0
100
AcDbLine
 62
7
  6
CONTINUOUS
 10
184.6570304589
 20
49.7653607285
 11
184.9379854039
 21
49.8267184836
  0
LINE
  5
4A1
100
AcDbEntity
  8
0
100
AcDbLine
 62
7
  6
CONTINUOUS
 10
186.0618053181
 20
50.0721495332
 11
186.4832377357
 21
50.1641861658
  0
LINE
  5
4A2
100
AcDbEntity
  8
0
100
AcDbLine
 62
7
  6
CONTINUOUS
 10
187.513405689
 20
50.3891645621
 11
187.794360902
 21
50.4505223757
  0
LINE
  5
4A3
100
AcDbEntity
  8
0
100
AcDbLine
 62
7
  6
CONTINUOUS
 10
185.7730543595
 20
50.1895037578
 11
185.3516219419
 21
50.0974671252
  0
LWPOLYLINE
  5
4A4
100
AcDbEntity
  8
RUNDUNGEN
100
AcDbPolyline
 62
7
  6
CONTINUOUS
 90
4
 70
0
 10
190.0799592079
 20
50.8675270176
 10
190.1310342768
 20
50.8783814735
 10
190.2255886579
 20
50.8971378333
 10
190.3372475317
 20
50.9175275688
  0
LINE
  5
4A5
100
AcDbEntity
  8
RUNDUNGEN
100
AcDbLine
 62
7
  6
CONTINUOUS
 10
190.3372475317
 20
50.9175275688
 11
190.4664931482
 21
50.9392744595
  0
LWPOLYLINE
  5
4A6
100
AcDbEntity
  8
RUNDUNGEN
100
AcDbPolyline
 62
7
  6
CONTINUOUS
 90
3
 70
0
 10
190.4664931482
 20
50.9392744595
 10
190.6137946156
 20
50.9621301483
 10
190.7233122083
 20
50.9780208507
  0
LINE
  5
4A7
100
AcDbEntity
  8
0
100
AcDbLine
 62
7
  6
CONTINUOUS
 10
185.7093121261
 20
50.0252376302
 11
186.0618053181
 21
50.0721495332
  0
LINE
  5
4A8
100
AcDbEntity
  8
0
100
AcDbLine
 62
7
  6
CONTINUOUS
 10
181.2726275221
 20
50.4094191484
 11
180.9201346083
 21
50.3625073035
  0
LINE
  5
4A9
100
AcDbEntity
  8
0
100
AcDbLine
 62
7
  6
CONTINUOUS
 10
181.2726275221
 20
50.8360703525
 11
180.9201346083
 21
50.7891585077
  0
LWPOLYLINE
  5
4AA
100
AcDbEntity
  8
RUNDUNGEN
100
AcDbPolyline
 62
7
  6
CONTINUOUS
 90
7
 70
0
 10
190.7233082945
 20
50.9780202525
 10
190.7661519735
 20
50.9836694673
 10
190.8584220484
 20
50.9934863541
 10
190.9693107629
 20
51.0019439541
 10
191.0994000714
 20
51.0082997302
 10
191.2491547641
 20
51.0119174396
 10
191.3497705182
 20
51.0125532899
  0
LINE
  5
4AB
100
AcDbEntity
  8
0
100
AcDbLine
 62
7
  6
CONTINUOUS
 10
185.3516219419
 20
50.0974671252
 11
185.0459546737
 21
50.0607815338
  0
LINE
  5
4AC
100
AcDbEntity
  8
0
100
AcDbLine
 62
7
  6
CONTINUOUS
 10
181.6303179016
 20
50.3371897145
 11
181.9359849019
 21
50.3738752474
  0
LINE
  5
4AD
100
AcDbEntity
  8
0
100
AcDbLine
 62
7
  6
CONTINUOUS
 10
181.6966586726
 20
50.4418851416
 11
181.2726275221
 21
50.4094191484
  0
LINE
  5
4AE
100
AcDbEntity
  8
0
100
AcDbLine
 62
7
  6
CONTINUOUS
 10
181.6966586726
 20
50.8685363458
 11
181.2726275221
 21
50.8360703525
  0
LINE
  5
4AF
100
AcDbEntity
  8
RUNDUNGEN
100
AcDbLine
 62
7
  6
CONTINUOUS
 10
245.362373243
 20
52.2875532911
 11
170.3625317006
 21
52.2875532911
  0
LINE
  5
4B0
100
AcDbEntity
  8
0
100
AcDbLine
 62
7
  6
CONTINUOUS
 10
231.5558084746
 20
49.9380706241
 11
231.2501412064
 21
49.9747562155
  0
LINE
  5
4B1
100
AcDbEntity
  8
0
100
AcDbLine
 62
7
  6
CONTINUOUS
 10
233.0307968861
 20
50.1571915342
 11
233.3364641543
 21
50.1205059429
  0
LINE
  5
4B2
100
AcDbEntity
  8
0
100
AcDbLine
 62
7
  6
CONTINUOUS
 10
231.5558084746
 20
50.3647218282
 11
231.3763011021
 21
50.3862659542
  0
LINE
  5
4B3
100
AcDbEntity
  8
0
100
AcDbLine
 62
7
  6
CONTINUOUS
 10
230.6583217124
 20
49.9536582217
 11
231.0108146365
 21
49.9067463772
  0
LINE
  5
4B4
100
AcDbEntity
  8
0
100
AcDbLine
 62
7
  6
CONTINUOUS
 10
233.9282835654
 20
50.1416039337
 11
233.5757906516
 21
50.1885157786
  0
LWPOLYLINE
  5
4B5
100
AcDbEntity
  8
RUNDUNGEN
100
AcDbPolyline
 62
7
  6
CONTINUOUS
 90
3
 70
0
 10
225.0015884521
 20
50.9780214612
 10
225.115577098
 20
50.9614633456
 10
225.2625383205
 20
50.9386065608
  0
LINE
  5
4B6
100
AcDbEntity
  8
RUNDUNGEN
100
AcDbLine
 62
7
  6
CONTINUOUS
 10
225.2625383205
 20
50.9386065608
 11
225.3913969445
 21
50.9168708731
  0
LWPOLYLINE
  5
4B7
100
AcDbEntity
  8
RUNDUNGEN
100
AcDbPolyline
 62
7
  6
CONTINUOUS
 90
4
 70
0
 10
225.3913969445
 20
50.9168708731
 10
225.5026303988
 20
50.8965058015
 10
225.5967272312
 20
50.8777892354
 10
225.6449388141
 20
50.8675285334
  0
LINE
  5
4B8
100
AcDbEntity
  8
RUNDUNGEN
100
AcDbLine
 62
7
  6
CONTINUOUS
 10
228.979480177
 20
50.1392979752
 11
228.3091120268
 21
50.2856996849
  0
LINE
  5
4B9
100
AcDbEntity
  8
RUNDUNGEN
100
AcDbLine
 62
7
  6
CONTINUOUS
 10
228.0749828613
 20
50.3368311572
 11
226.9269352633
 21
50.5875532911
  0
LINE
  5
4BA
100
AcDbEntity
  8
RUNDUNGEN
100
AcDbLine
 62
7
  6
CONTINUOUS
 10
226.7249524815
 20
50.6316643141
 11
225.6450677012
 21
50.8675003691
  0
LINE
  5
4BB
100
AcDbEntity
  8
0
100
AcDbLine
 62
7
  6
CONTINUOUS
 10
228.0751054137
 20
50.3373923205
 11
228.3092345793
 21
50.2862608482
  0
LINE
  5
4BC
100
AcDbEntity
  8
0
100
AcDbLine
 62
7
  6
CONTINUOUS
 10
228.4106821519
 20
50.4445202623
 11
227.7557390777
 21
50.5875532911
  0
LINE
  5
4BD
100
AcDbEntity
  8
0
100
AcDbLine
 62
7
  6
CONTINUOUS
 10
230.3773667673
 20
50.0150159768
 11
230.6583217124
 21
49.9536582217
  0
LINE
  5
4BE
100
AcDbEntity
  8
0
100
AcDbLine
 62
7
  6
CONTINUOUS
 10
231.2501412064
 20
49.9747562155
 11
230.9691862613
 21
50.0361139706
  0
LINE
  5
4BF
100
AcDbEntity
  8
0
100
AcDbLine
 62
7
  6
CONTINUOUS
 10
229.8921923945
 20
50.2713186789
 11
229.658063095
 21
50.3224501805
  0
LINE
  5
4C0
100
AcDbEntity
  8
0
100
AcDbLine
 62
7
  6
CONTINUOUS
 10
229.0025016459
 20
50.4656182561
 11
228.4441655236
 21
50.5875532911
  0
LWPOLYLINE
  5
4C1
100
AcDbEntity
  8
RUNDUNGEN
100
AcDbPolyline
 62
7
  6
CONTINUOUS
 90
4
 70
0
 10
228.9794801762
 20
50.1392979713
 10
229.1136259787
 20
50.109044812
 10
229.2555529582
 20
50.0746174305
 10
229.3746888336
 20
50.0432522895
  0
LINE
  5
4C2
100
AcDbEntity
  8
0
100
AcDbLine
 62
7
  6
CONTINUOUS
 10
210.5368045438
 20
65.7989369353
 11
210.5407565738
 21
65.5620731687
  0
LINE
  5
4C3
100
AcDbEntity
  8
0
100
AcDbLine
 62
7
  6
CONTINUOUS
 10
209.9998112746
 20
67.1142114638
 11
210.0274369754
 21
67.3251764512
  0
LINE
  5
4C4
100
AcDbEntity
  8
0
100
AcDbLine
 62
7
  6
CONTINUOUS
 10
210.8423146259
 20
65.7143847004
 11
210.8855163767
 21
65.9291301392
  0
LINE
  5
4C5
100
AcDbEntity
  8
RUNDUNGEN
100
AcDbLine
 62
7
  6
CONTINUOUS
 10
186.3522372065
 20
50.0438071356
 11
186.4716853093
 21
50.0752070098
  0
LWPOLYLINE
  5
4C6
100
AcDbEntity
  8
RUNDUNGEN
100
AcDbPolyline
 62
7
  6
CONTINUOUS
 90
3
 70
0
 10
186.4716853093
 20
50.0752070098
 10
186.61391829
 20
50.1096597461
 10
186.745419376
 20
50.1392967932
  0
LINE
  5
4C7
100
AcDbEntity
  8
0
100
AcDbLine
 62
7
  6
CONTINUOUS
 10
185.7184324325
 20
50.3579894255
 11
185.4374774874
 21
50.2966316704
  0
LINE
  5
4C8
100
AcDbEntity
  8
0
100
AcDbLine
 62
7
  6
CONTINUOUS
 10
182.1128439597
 20
49.5705648995
 11
183.0493604544
 21
49.7750907522
  0
LINE
  5
4C9
100
AcDbEntity
  8
0
100
AcDbLine
 62
7
  6
CONTINUOUS
 10
182.529079146
 20
49.7817428621
 11
181.6862142773
 21
49.5976695896
  0
LINE
  5
4CA
100
AcDbEntity
  8
0
100
AcDbLine
 62
7
  6
CONTINUOUS
 10
185.3087190438
 20
50.5391339491
 11
185.5112543626
 21
50.5833656407
  0
LINE
  5
4CB
100
AcDbEntity
  8
0
100
AcDbLine
 62
7
  6
CONTINUOUS
 10
184.5985357505
 20
50.5644515381
 11
184.7043178431
 21
50.5875532911
  0
LINE
  5
4CC
100
AcDbEntity
  8
0
100
AcDbLine
 62
7
  6
CONTINUOUS
 10
182.7151080306
 20
50.3936824342
 11
182.9960629757
 21
50.4550401893
  0
LINE
  5
4CD
100
AcDbEntity
  8
0
100
AcDbLine
 62
7
  6
CONTINUOUS
 10
181.208885484
 20
50.2451530819
 11
181.6303179016
 21
50.3371897145
  0
LINE
  5
4CE
100
AcDbEntity
  8
0
100
AcDbLine
 62
7
  6
CONTINUOUS
 10
180.9201346083
 20
50.3625073035
 11
180.4987021907
 21
50.2704706709
  0
LINE
  5
4CF
100
AcDbEntity
  8
0
100
AcDbLine
 62
7
  6
CONTINUOUS
 10
178.6256691343
 20
49.8614189508
 11
178.2510625633
 21
49.7796086156
  0
LINE
  5
4D0
100
AcDbEntity
  8
0
100
AcDbLine
 62
7
  6
CONTINUOUS
 10
180.9201346083
 20
50.7891585077
 11
180.4987021907
 21
50.697121875
  0
LINE
  5
4D1
100
AcDbEntity
  8
0
100
AcDbLine
 62
7
  6
CONTINUOUS
 10
178.6256691343
 20
50.288070155
 11
178.2510625633
 21
50.2062598198
  0
LINE
  5
4D2
100
AcDbEntity
  8
0
100
AcDbLine
 62
7
  6
CONTINUOUS
 10
231.3763011021
 20
50.1576877933
 11
231.0953461571
 21
50.2190455484
  0
LINE
  5
4D3
100
AcDbEntity
  8
0
100
AcDbLine
 62
7
  6
CONTINUOUS
 10
232.1606212628
 20
50.2570219379
 11
232.4884021214
 21
50.1854378708
  0
LINE
  5
4D4
100
AcDbEntity
  8
0
100
AcDbLine
 62
7
  6
CONTINUOUS
 10
233.3364641543
 20
50.1205059429
 11
233.6174190994
 21
50.0591481878
  0
LINE
  5
4D5
100
AcDbEntity
  8
0
100
AcDbLine
 62
7
  6
CONTINUOUS
 10
235.0495048807
 20
49.8366022155
 11
235.4241111169
 21
49.7547919534
  0
LINE
  5
4D6
100
AcDbEntity
  8
0
100
AcDbLine
 62
7
  6
CONTINUOUS
 10
235.6582404164
 20
49.7036604518
 11
236.173324661
 21
49.5911711951
  0
LINE
  5
4D7
100
AcDbEntity
  8
0
100
AcDbLine
 62
7
  6
CONTINUOUS
 10
234.2092385105
 20
50.0802461786
 11
233.9282835654
 21
50.1416039337
  0
LINE
  5
4D8
100
AcDbEntity
  8
0
100
AcDbLine
 62
7
  6
CONTINUOUS
 10
236.6467801899
 20
49.6080495878
 11
236.1316959453
 21
49.7205388445
  0
LINE
  5
4D9
100
AcDbEntity
  8
0
100
AcDbLine
 62
7
  6
CONTINUOUS
 10
235.8975666458
 20
49.7716703461
 11
235.5229604096
 21
49.8534806082
  0
LINE
  5
4DA
100
AcDbEntity
  8
0
100
AcDbLine
 62
7
  6
CONTINUOUS
 10
237.0786073346
 20
49.7542956417
 11
236.8444780351
 21
49.8054271433
  0
LINE
  5
4DB
100
AcDbEntity
  8
0
100
AcDbLine
 62
7
  6
CONTINUOUS
 10
234.8803921525
 20
50.2945020682
 11
236.2383409644
 21
49.9979396048
  0
LINE
  5
4DC
100
AcDbEntity
  8
0
100
AcDbLine
 62
7
  6
CONTINUOUS
 10
236.8301603754
 20
50.0190375957
 11
235.2380825321
 21
50.3667315022
  0
LINE
  5
4DD
100
AcDbEntity
  8
0
100
AcDbLine
 62
7
  6
CONTINUOUS
 10
237.0786073346
 20
50.1809468458
 11
236.8444780351
 21
50.2320783474
  0
LINE
  5
4DE
100
AcDbEntity
  8
0
100
AcDbLine
 62
7
  6
CONTINUOUS
 10
236.8301603754
 20
50.4456887998
 11
235.2380825321
 21
50.7933827063
  0
LWPOLYLINE
  5
4DF
100
AcDbEntity
  8
RUNDUNGEN
100
AcDbPolyline
 62
7
  6
CONTINUOUS
 90
5
 70
0
 10
229.5829811407
 20
49.9800202975
 10
229.7835927751
 20
49.9227739558
 10
229.9733436563
 20
49.8880333452
 10
230.1653775479
 20
49.8711352853
 10
230.2501431977
 20
49.8693875737
  0
LINE
  5
4E0
100
AcDbEntity
  8
RUNDUNGEN
100
AcDbLine
 62
7
  6
CONTINUOUS
 10
229.3746888336
 20
50.0432522895
 11
229.4719321487
 21
50.015417143
  0
LWPOLYLINE
  5
4E1
100
AcDbEntity
  8
RUNDUNGEN
100
AcDbPolyline
 62
7
  6
CONTINUOUS
 90
3
 70
0
 10
229.4719321487
 20
50.015417143
 10
229.5481803666
 20
49.9916472931
 10
229.5805915233
 20
49.9808343883
  0
LINE
  5
4E2
100
AcDbEntity
  8
RUNDUNGEN
100
AcDbLine
 62
7
  6
CONTINUOUS
 10
229.5805894074
 20
49.9808351114
 11
229.5829403846
 21
49.9800328762
  0
LWPOLYLINE
  5
4E3
100
AcDbEntity
  8
RUNDUNGEN
100
AcDbPolyline
 62
7
  6
CONTINUOUS
 90
4
 70
0
 10
229.3746886664
 20
65.9818542473
 10
229.2555527613
 20
65.9504891018
 10
229.1136261783
 20
65.9160618148
 10
228.979480178
 20
65.8858086131
  0
LWPOLYLINE
  5
4E4
100
AcDbEntity
  8
RUNDUNGEN
100
AcDbPolyline
 62
7
  6
CONTINUOUS
 90
24
 70
0
 10
232.6613103676
 20
66.2416055515
 10
232.6669569398
 20
66.2430640019
 10
232.6681034964
 20
66.2433463764
 10
232.6615289213
 20
66.2420126222
 10
232.6478425682
 20
66.2395183623
 10
232.6275147523
 20
66.2361792404
 10
232.601275631
 20
66.2322771336
 10
232.5693667112
 20
66.2279681302
 10
232.5323714047
 20
66.2234201896
 10
232.4902251877
 20
66.2186941087
 10
232.4430039558
 20
66.2138561584
 10
232.3907899721
 20
66.2089602556
 10
232.333634927
 20
66.2040541968
 10
232.2716693489
 20
66.1991919197
 10
232.2050523751
 20
66.1944274273
 10
232.1339028341
 20
66.1897978735
 10
232.0583490483
 20
66.1853295823
 10
231.9786040225
 20
66.1810587686
 10
231.8949189629
 20
66.1770291219
 10
231.8074384271
 20
66.1732763157
 10
231.7163137891
 20
66.1698155028
 10
231.6218409836
 20
66.1666709486
 10
231.5243255335
 20
66.1638765367
 10
231.4240064858
 20
66.1614687902
  0
LINE
  5
4E5
100
AcDbEntity
  8
RUNDUNGEN
100
AcDbLine
 62
7
  6
CONTINUOUS
 10
228.9794071079
 20
65.8857926511
 11
225.6450677012
 21
65.1576062131
  0
LWPOLYLINE
  5
4E6
100
AcDbEntity
  8
RUNDUNGEN
100
AcDbPolyline
 62
7
  6
CONTINUOUS
 90
4
 70
0
 10
225.6449388782
 20
65.1575780637
 10
225.5967264653
 20
65.1473171875
 10
225.5026289248
 20
65.1286004992
 10
225.3913951372
 20
65.1082353917
  0
LINE
  5
4E7
100
AcDbEntity
  8
RUNDUNGEN
100
AcDbLine
 62
7
  6
CONTINUOUS
 10
188.7979696997
 20
65.4375532911
 11
186.7454978551
 21
65.8857926511
  0
LINE
  5
4E8
100
AcDbEntity
  8
RUNDUNGEN
100
AcDbLine
 62
7
  6
CONTINUOUS
 10
186.7454194116
 20
65.8858097819
 11
186.6139182571
 21
65.9154468429
  0
LINE
  5
4E9
100
AcDbEntity
  8
0
100
AcDbLine
 62
7
  6
CONTINUOUS
 10
180.6369491234
 20
65.4612521314
 11
181.5782025429
 21
65.2448948676
  0
LINE
  5
4EA
100
AcDbEntity
  8
0
100
AcDbLine
 62
7
  6
CONTINUOUS
 10
181.9802913823
 20
65.1524704054
 11
182.3823802217
 21
65.0600459431
  0
LINE
  5
4EB
100
AcDbEntity
  8
0
100
AcDbLine
 62
7
  6
CONTINUOUS
 10
180.6369491234
 20
65.8879033356
 11
181.5782025429
 21
65.6715460717
  0
LINE
  5
4EC
100
AcDbEntity
  8
0
100
AcDbLine
 62
7
  6
CONTINUOUS
 10
181.9802913823
 20
65.5791216095
 11
182.3823802217
 21
65.4866971473
  0
LINE
  5
4ED
100
AcDbEntity
  8
0
100
AcDbLine
 62
7
  6
CONTINUOUS
 10
182.4530841001
 20
65.7011786216
 11
181.6466218256
 21
65.886552685
  0
LINE
  5
4EE
100
AcDbEntity
  8
0
100
AcDbLine
 62
7
  6
CONTINUOUS
 10
182.4021381986
 20
65.8054964201
 11
182.804227038
 21
65.7130719579
  0
LINE
  5
4EF
100
AcDbEntity
  8
0
100
AcDbLine
 62
7
  6
CONTINUOUS
 10
185.0449712756
 20
66.0016559908
 11
185.4493447107
 21
65.9087063896
  0
LINE
  5
4F0
100
AcDbEntity
  8
0
100
AcDbLine
 62
7
  6
CONTINUOUS
 10
186.7263151072
 20
65.8459144772
 11
185.7850616878
 21
66.062271741
  0
LWPOLYLINE
  5
4F1
100
AcDbEntity
  8
RUNDUNGEN
100
AcDbPolyline
 62
7
  6
CONTINUOUS
 90
3
 70
0
 10
186.6139182571
 20
65.9154468429
 10
186.4716852672
 20
65.9498995822
 10
186.3522372287
 20
65.9812994411
  0
LINE
  5
4F2
100
AcDbEntity
  8
RUNDUNGEN
100
AcDbLine
 62
7
  6
CONTINUOUS
 10
186.1418588846
 20
66.0451080311
 11
185.9413601473
 21
66.1023214408
  0
LINE
  5
4F3
100
AcDbEntity
  8
RUNDUNGEN
100
AcDbLine
 62
7
  6
CONTINUOUS
 10
186.3522372287
 20
65.9812994411
 11
186.2546737304
 21
66.0091811823
  0
LWPOLYLINE
  5
4F4
100
AcDbEntity
  8
RUNDUNGEN
100
AcDbPolyline
 62
7
  6
CONTINUOUS
 90
3
 70
0
 10
186.2546737304
 20
66.0091811823
 10
186.1780935018
 20
66.0330132805
 10
186.1443071056
 20
66.0442743617
  0
LINE
  5
4F5
100
AcDbEntity
  8
RUNDUNGEN
100
AcDbLine
 62
7
  6
CONTINUOUS
 10
186.144309256
 20
66.0442736269
 11
186.1419009151
 21
66.0450953868
  0
LINE
  5
4F6
100
AcDbEntity
  8
0
100
AcDbLine
 62
7
  6
CONTINUOUS
 10
232.6028927479
 20
49.5590524122
 11
232.718181649
 21
49.5125532911
  0
LINE
  5
4F7
100
AcDbEntity
  8
0
100
AcDbLine
 62
7
  6
CONTINUOUS
 10
230.2616016283
 20
50.0703670184
 11
230.3773667673
 21
50.0150159768
  0
LINE
  5
4F8
100
AcDbEntity
  8
0
100
AcDbLine
 62
7
  6
CONTINUOUS
 10
233.2343384665
 20
49.5125532911
 11
233.1231739948
 21
49.565704554
  0
LINE
  5
4F9
100
AcDbEntity
  8
0
100
AcDbLine
 62
7
  6
CONTINUOUS
 10
210.5407565738
 20
65.5620731687
 11
210.6390155308
 21
65.280973147
  0
LINE
  5
4FA
100
AcDbEntity
  8
0
100
AcDbLine
 62
7
  6
CONTINUOUS
 10
209.8304483428
 20
65.4197300483
 11
209.5245140628
 21
66.6936408609
  0
LINE
  5
4FB
100
AcDbEntity
  8
0
100
AcDbLine
 62
7
  6
CONTINUOUS
 10
209.200846503
 20
66.6287336753
 11
209.4689511582
 21
65.4670678231
  0
LINE
  5
4FC
100
AcDbEntity
  8
0
100
AcDbLine
 62
7
  6
CONTINUOUS
 10
209.6866591997
 20
67.5307378364
 11
209.7175823302
 21
67.3657516757
  0
LINE
  5
4FD
100
AcDbEntity
  8
0
100
AcDbLine
 62
7
  6
CONTINUOUS
 10
210.0274369754
 20
67.3251764512
 11
209.9965138449
 21
67.4901626119
  0
LINE
  5
4FE
100
AcDbEntity
  8
0
100
AcDbLine
 62
7
  6
CONTINUOUS
 10
210.8688555924
 20
65.5256777378
 11
210.8423146259
 21
65.7143847004
  0
LINE
  5
4FF
100
AcDbEntity
  8
RUNDUNGEN
100
AcDbLine
 62
7
  6
CONTINUOUS
 10
228.9720708668
 20
65.9288155621
 11
228.9207575365
 21
65.8729841702
  0
LINE
  5
500
100
AcDbEntity
  8
RUNDUNGEN
100
AcDbLine
 62
7
  6
CONTINUOUS
 10
225.3913951372
 20
65.1082353917
 11
225.262536587
 21
65.0864997405
  0
LINE
  5
501
100
AcDbEntity
  8
0
100
AcDbLine
 62
7
  6
CONTINUOUS
 10
211.7176198865
 20
65.1275503421
 11
211.5309815835
 21
65.0975912071
  0
LWPOLYLINE
  5
502
100
AcDbEntity
  8
RUNDUNGEN
100
AcDbPolyline
 62
7
  6
CONTINUOUS
 90
3
 70
0
 10
225.262536587
 20
65.0864997405
 10
225.1155758756
 20
65.0636430535
 10
225.0015884111
 20
65.0470851163
  0
LINE
  5
503
100
AcDbEntity
  8
RUNDUNGEN
100
AcDbLine
 62
7
  6
CONTINUOUS
 10
170.3625317005
 20
63.7375532911
 11
245.362373243
 21
63.7375532911
  0
LWPOLYLINE
  5
504
100
AcDbEntity
  8
RUNDUNGEN
100
AcDbPolyline
 62
7
  6
CONTINUOUS
 90
3
 70
0
 10
185.751583436
 20
66.1370706226
 10
185.5595342299
 20
66.1539710315
 10
185.4747617755
 20
66.1557183731
  0
LINE
  5
505
100
AcDbEntity
  8
RUNDUNGEN
100
AcDbLine
 62
7
  6
CONTINUOUS
 10
190.7233121712
 20
65.0470857355
 11
190.6956809027
 21
65.0510949591
  0
LINE
  5
506
100
AcDbEntity
  8
RUNDUNGEN
100
AcDbLine
 62
7
  6
CONTINUOUS
 10
185.9413601473
 20
66.1023214408
 11
185.751583436
 21
66.1370706226
  0
LINE
  5
507
100
AcDbEntity
  8
0
100
AcDbLine
 62
7
  6
CONTINUOUS
 10
234.3250036598
 20
50.0248951374
 11
234.2092385105
 21
50.0802461786
  0
LINE
  5
508
100
AcDbEntity
  8
0
100
AcDbLine
 62
7
  6
CONTINUOUS
 10
230.9691862613
 20
50.0361139706
 11
230.9002467575
 21
50.0812387583
  0
LINE
  5
509
100
AcDbEntity
  8
0
100
AcDbLine
 62
7
  6
CONTINUOUS
 10
224.1357365814
 20
50.3351931056
 11
224.385169061
 21
50.113511334
  0
LINE
  5
50A
100
AcDbEntity
  8
0
100
AcDbLine
 62
7
  6
CONTINUOUS
 10
210.6390155308
 20
65.280973147
 11
210.7824523309
 21
65.0961866703
  0
LINE
  5
50B
100
AcDbEntity
  8
0
100
AcDbLine
 62
7
  6
CONTINUOUS
 10
209.5971871095
 20
67.6497453375
 11
209.6866591997
 21
67.5307378364
  0
LINE
  5
50C
100
AcDbEntity
  8
0
100
AcDbLine
 62
7
  6
CONTINUOUS
 10
210.9651387209
 20
65.3630094708
 11
210.8688555924
 21
65.5256777378
  0
LINE
  5
50D
100
AcDbEntity
  8
0
100
AcDbLine
 62
7
  6
CONTINUOUS
 10
209.9965138449
 20
67.4901626119
 11
209.8692122038
 21
67.7214150638
  0
LINE
  5
50E
100
AcDbEntity
  8
RUNDUNGEN
100
AcDbLine
 62
7
  6
CONTINUOUS
 10
218.4324524815
 20
43.452315829
 11
218.4324524815
 21
39.9393866683
  0
LINE
  5
50F
100
AcDbEntity
  8
BEZUGSACHSEN
100
AcDbLine
 62
7
  6
CONTINUOUS
 10
214.7906557118
 20
46.0125532911
 11
217.6774070577
 21
51.0125532911
  0
LINE
  5
510
100
AcDbEntity
  8
0
100
AcDbLine
 62
7
  6
CONTINUOUS
 10
209.5074036253
 20
66.9641094609
 11
209.3455698823
 21
66.9316558632
  0
LWPOLYLINE
  5
511
100
AcDbEntity
  8
RUNDUNGEN
100
AcDbPolyline
 62
7
  6
CONTINUOUS
 90
10
 70
0
 10
230.3842326264
 20
66.512553208
 10
230.2114745527
 20
66.5050779014
 10
230.038640966
 20
66.4824685388
 10
229.8684310581
 20
66.4448960203
 10
229.7021379728
 20
66.3926454611
 10
229.5410251476
 20
66.3261135559
 10
229.3863163611
 20
66.2458053828
 10
229.2391868548
 20
66.152330673
 10
229.1007544385
 20
66.0463992458
 10
228.9720708668
 20
65.9288155621
  0
LINE
  5
512
100
AcDbEntity
  8
0
100
AcDbLine
 62
7
  6
CONTINUOUS
 10
182.3823802217
 20
65.0600459431
 11
183.1543639431
 21
65.0861933066
  0
LINE
  5
513
100
AcDbEntity
  8
0
100
AcDbLine
 62
7
  6
CONTINUOUS
 10
181.5782025429
 20
65.2448948676
 11
181.9802913823
 21
65.2585137597
  0
LINE
  5
514
100
AcDbEntity
  8
0
100
AcDbLine
 62
7
  6
CONTINUOUS
 10
182.3823802217
 20
65.4866971473
 11
185.4742235479
 21
65.5914189815
  0
LINE
  5
515
100
AcDbEntity
  8
0
100
AcDbLine
 62
7
  6
CONTINUOUS
 10
185.0721347085
 20
65.6838434438
 11
181.9802913823
 21
65.5791216095
  0
LINE
  5
516
100
AcDbEntity
  8
0
100
AcDbLine
 62
7
  6
CONTINUOUS
 10
181.5782025429
 20
65.6715460717
 11
182.4530841001
 21
65.7011786216
  0
LINE
  5
517
100
AcDbEntity
  8
0
100
AcDbLine
 62
7
  6
CONTINUOUS
 10
182.804227038
 20
65.7130719579
 11
186.7263151072
 21
65.8459144772
  0
LINE
  5
518
100
AcDbEntity
  8
0
100
AcDbLine
 62
7
  6
CONTINUOUS
 10
185.4493447107
 20
65.9087063896
 11
182.4021381986
 21
65.8054964201
  0
LINE
  5
519
100
AcDbEntity
  8
0
100
AcDbLine
 62
7
  6
CONTINUOUS
 10
182.2920102247
 20
66.0144555742
 11
183.5954051977
 21
66.058602026
  0
LWPOLYLINE
  5
51A
100
AcDbEntity
  8
RUNDUNGEN
100
AcDbPolyline
 62
7
  6
CONTINUOUS
 90
6
 70
0
 10
230.250143276
 20
66.1557183725
 10
230.1751850839
 20
66.1543515808
 10
229.9831337854
 20
66.1383739741
 10
229.7932705304
 20
66.1045502412
 10
229.6073474089
 20
66.0532174202
 10
229.5830468854
 20
66.0451083047
  0
LWPOLYLINE
  5
51B
100
AcDbEntity
  8
RUNDUNGEN
100
AcDbPolyline
 62
7
  6
CONTINUOUS
 90
4
 70
0
 10
231.4240064858
 20
66.1614687902
 10
231.2160441436
 20
66.1578517902
 10
231.1090342578
 20
66.1566745492
 10
231.0004166013
 20
66.1559617721
  0
LINE
  5
51C
100
AcDbEntity
  8
RUNDUNGEN
100
AcDbLine
 62
7
  6
CONTINUOUS
 10
173.9703572378
 20
65.0125532911
 11
241.7536822017
 21
65.0125532911
  0
LINE
  5
51D
100
AcDbEntity
  8
0
100
AcDbLine
 62
7
  6
CONTINUOUS
 10
183.1568581566
 20
65.4375532911
 11
190.6900886092
 21
65.4375532911
  0
LINE
  5
51E
100
AcDbEntity
  8
RUNDUNGEN
100
AcDbLine
 62
7
  6
CONTINUOUS
 10
231.0004166013
 20
66.1559617721
 11
230.2501432669
 21
66.1557269284
  0
LINE
  5
51F
100
AcDbEntity
  8
RUNDUNGEN
100
AcDbLine
 62
7
  6
CONTINUOUS
 10
171.5212629218
 20
66.5125532911
 11
182.6202810958
 21
66.5125532911
  0
LINE
  5
520
100
AcDbEntity
  8
RUNDUNGEN
100
AcDbLine
 62
7
  6
CONTINUOUS
 10
182.6282286608
 20
66.512521865
 11
185.3406723005
 21
66.5125532911
  0
LINE
  5
521
100
AcDbEntity
  8
RUNDUNGEN
100
AcDbLine
 62
7
  6
CONTINUOUS
 10
230.3842337535
 20
66.5125532911
 11
233.0966886844
 21
66.5125532911
  0
LINE
  5
522
100
AcDbEntity
  8
RUNDUNGEN
100
AcDbLine
 62
7
  6
CONTINUOUS
 10
233.1046238672
 20
66.5125532911
 11
244.203642041
 21
66.5125532911
  0
LWPOLYLINE
  5
523
100
AcDbEntity
  8
RUNDUNGEN
100
AcDbPolyline
 62
7
  6
CONTINUOUS
 90
3
 70
0
 10
185.4747617759
 20
66.1557269284
 10
184.7337668903
 20
66.1559233326
 10
184.6247013976
 20
66.1565983147
  0
LINE
  5
524
100
AcDbEntity
  8
RUNDUNGEN
100
AcDbLine
 62
7
  6
CONTINUOUS
 10
233.0966897012
 20
66.5125219939
 11
233.0953109676
 21
66.5125349586
  0
LWPOLYLINE
  5
525
100
AcDbEntity
  8
RUNDUNGEN
100
AcDbPolyline
 62
7
  6
CONTINUOUS
 90
24
 70
0
 10
184.6247013976
 20
66.1565983147
 10
184.4116486625
 20
66.1593216644
 10
184.3082974418
 20
66.1613091112
 10
184.2074852762
 20
66.1636957962
 10
184.1094740129
 20
66.1664733204
 10
184.0145061003
 20
66.1696056618
 10
183.9228903846
 20
66.1730579493
 10
183.8349258144
 20
66.1768051226
 10
183.7507666348
 20
66.180832336
 10
183.6705606137
 20
66.1851045802
 10
183.594560094
 20
66.1895775503
 10
183.5229779504
 20
66.1942146183
 10
183.4559482052
 20
66.1989889537
 10
183.3935926017
 20
66.2038638104
 10
183.3360753735
 20
66.2087845795
 10
183.2835230878
 20
66.2136973449
 10
183.2360107732
 20
66.2185515913
 10
183.1936295362
 20
66.2232916296
 10
183.1564631396
 20
66.227849089
 10
183.1244668567
 20
66.2321585257
 10
183.0981440258
 20
66.2360614649
 10
183.0776901123
 20
66.2394097073
 10
183.0638056934
 20
66.2419297204
 10
183.0578528117
 20
66.2431216558
  0
LINE
  5
526
100
AcDbEntity
  8
0
100
AcDbLine
 62
7
  6
CONTINUOUS
 10
207.8680355405
 20
65.6767064767
 11
208.1778901857
 21
65.6361312522
  0
LINE
  5
527
100
AcDbEntity
  8
0
100
AcDbLine
 62
7
  6
CONTINUOUS
 10
209.4689511582
 20
65.4670678231
 11
209.8304483428
 21
65.4197300483
  0
LINE
  5
528
100
AcDbEntity
  8
0
100
AcDbLine
 62
7
  6
CONTINUOUS
 10
208.3229250329
 20
66.7436968082
 11
209.200846503
 21
66.6287336753
  0
LINE
  5
529
100
AcDbEntity
  8
0
100
AcDbLine
 62
7
  6
CONTINUOUS
 10
209.3455698823
 20
66.9316558632
 11
208.3643635551
 21
67.0601440677
  0
LINE
  5
52A
100
AcDbEntity
  8
0
100
AcDbLine
 62
7
  6
CONTINUOUS
 10
211.5309815835
 20
65.0975912071
 11
211.3197784203
 21
65.1379071702
  0
LINE
  5
52B
100
AcDbEntity
  8
0
100
AcDbLine
 62
7
  6
CONTINUOUS
 10
211.3197784203
 20
65.1379071702
 11
211.1311640428
 21
65.226379967
  0
LINE
  5
52C
100
AcDbEntity
  8
0
100
AcDbLine
 62
7
  6
CONTINUOUS
 10
209.4491662072
 20
67.7227741597
 11
209.5971871095
 21
67.6497453375
  0
LINE
  5
52D
100
AcDbEntity
  8
0
100
AcDbLine
 62
7
  6
CONTINUOUS
 10
233.6174190994
 20
50.0591481878
 11
233.6863586032
 21
50.0140234
  0
LINE
  5
52E
100
AcDbEntity
  8
0
100
AcDbLine
 62
7
  6
CONTINUOUS
 10
210.7824523309
 20
65.0961866703
 11
210.8947618275
 21
65.0125532911
  0
LINE
  5
52F
100
AcDbEntity
  8
0
100
AcDbLine
 62
7
  6
CONTINUOUS
 10
211.1311640428
 20
65.226379967
 11
210.9651387209
 21
65.3630094708
  0
LINE
  5
530
100
AcDbEntity
  8
0
100
AcDbLine
 62
7
  6
CONTINUOUS
 10
214.0252635446
 20
65.6425265519
 11
214.6963112607
 21
65.0125532911
  0
LINE
  5
531
100
AcDbEntity
  8
0
100
AcDbLine
 62
7
  6
CONTINUOUS
 10
214.9272032073
 20
65.233543528
 11
214.01586876
 21
66.0890957036
  0
LINE
  5
532
100
AcDbEntity
  8
0
100
AcDbLine
 62
7
  6
CONTINUOUS
 10
209.8692122038
 20
67.7214150638
 11
209.6833617507
 21
67.9066888368
  0
LINE
  5
533
100
AcDbEntity
  8
0
100
AcDbLine
 62
7
  6
CONTINUOUS
 10
215.0806582242
 20
65.0165231708
 11
214.9272032073
 21
65.233543528
  0
LINE
  5
534
100
AcDbEntity
  8
RUNDUNGEN
100
AcDbLine
 62
7
  6
CONTINUOUS
 10
221.3624524815
 20
75.2325412815
 11
221.3624524815
 21
72.5125532911
  0
LINE
  5
535
100
AcDbEntity
  8
0
100
AcDbLine
 62
7
  6
CONTINUOUS
 10
224.385169061
 20
50.113511334
 11
225.1359638621
 21
50.9582926052
  0
LINE
  5
536
100
AcDbEntity
  8
0
100
AcDbLine
 62
7
  6
CONTINUOUS
 10
230.3825640065
 20
50.5608085197
 11
230.2616016283
 21
50.4970182225
  0
LINE
  5
537
100
AcDbEntity
  8
0
100
AcDbLine
 62
7
  6
CONTINUOUS
 10
230.3825640065
 20
50.1341573156
 11
230.2616016283
 21
50.0703670184
  0
LINE
  5
538
100
AcDbEntity
  8
0
100
AcDbLine
 62
7
  6
CONTINUOUS
 10
230.9002467575
 20
50.0812387583
 11
230.9964970494
 21
50.1203568322
  0
LINE
  5
539
100
AcDbEntity
  8
0
100
AcDbLine
 62
7
  6
CONTINUOUS
 10
232.6770294805
 20
49.6330689629
 11
232.5807791679
 21
49.5939508883
  0
LINE
  5
53A
100
AcDbEntity
  8
0
100
AcDbLine
 62
7
  6
CONTINUOUS
 10
233.6863586032
 20
50.0140234
 11
233.5901083113
 21
49.9749053262
  0
LINE
  5
53B
100
AcDbEntity
  8
0
100
AcDbLine
 62
7
  6
CONTINUOUS
 10
233.1231739948
 20
49.565704554
 11
233.2194242867
 21
49.6048226278
  0
LINE
  5
53C
100
AcDbEntity
  8
BEZUGSACHSEN
100
AcDbLine
 62
7
  6
CONTINUOUS
 10
214.7906557118
 20
70.0125532911
 11
200.9342492512
 21
70.0125532911
  0
LINE
  5
53D
100
AcDbEntity
  8
0
100
AcDbLine
 62
7
  6
CONTINUOUS
 10
208.46795988
 20
67.8512623642
 11
209.4491662072
 21
67.7227741597
  0
LINE
  5
53E
100
AcDbEntity
  8
0
100
AcDbLine
 62
7
  6
CONTINUOUS
 10
209.4320559175
 20
67.9932427403
 11
208.1926373366
 21
68.1555436383
  0
LINE
  5
53F
100
AcDbEntity
  8
0
100
AcDbLine
 62
7
  6
CONTINUOUS
 10
209.6833617507
 20
67.9066888368
 11
209.4320559175
 21
67.9932427403
  0
LINE
  5
540
100
AcDbEntity
  8
0
100
AcDbLine
 62
7
  6
CONTINUOUS
 10
213.0003759855
 20
66.7584465249
 11
212.7174545542
 21
66.8911556568
  0
LINE
  5
541
100
AcDbEntity
  8
0
100
AcDbLine
 62
7
  6
CONTINUOUS
 10
211.5857688288
 20
67.4219921843
 11
211.3028472625
 21
67.5547013795
  0
LINE
  5
542
100
AcDbEntity
  8
BEZUGSACHSEN
100
AcDbLine
 62
7
  6
CONTINUOUS
 10
217.6774070577
 20
65.0125532911
 11
214.7906557118
 21
70.0125532911
  0
LINE
  5
543
100
AcDbEntity
  8
0
100
AcDbLine
 62
7
  6
CONTINUOUS
 10
226.7249524815
 20
51.0125532911
 11
226.7249524815
 21
50.5875532911
  0
LINE
  5
544
100
AcDbEntity
  8
0
100
AcDbLine
 62
7
  6
CONTINUOUS
 10
234.2040413127
 20
49.9611048413
 11
234.3250036598
 21
50.0248951374
  0
LINE
  5
545
100
AcDbEntity
  8
0
100
AcDbLine
 62
7
  6
CONTINUOUS
 10
193.8624524815
 20
72.5125532911
 11
197.2057192605
 21
72.5125532911
  0
LINE
  5
546
100
AcDbEntity
  8
0
100
AcDbLine
 62
7
  6
CONTINUOUS
 10
218.5191857025
 20
72.5125532911
 11
221.8624524815
 21
72.5125532911
  0
LINE
  5
547
100
AcDbEntity
  8
0
100
AcDbLine
 62
7
  6
CONTINUOUS
 10
232.5807791679
 20
49.5939508883
 11
232.6028927479
 21
49.5590524122
  0
LINE
  5
548
100
AcDbEntity
  8
0
100
AcDbLine
 62
7
  6
CONTINUOUS
 10
227.3167719755
 20
51.0125532911
 11
227.3167719755
 21
50.5875532911
  0
LINE
  5
549
100
AcDbEntity
  8
0
100
AcDbLine
 62
7
  6
CONTINUOUS
 10
228.0751054137
 20
50.5178068717
 11
228.0751054137
 21
50.3373923205
  0
LINE
  5
54A
100
AcDbEntity
  8
RUNDUNGEN
100
AcDbLine
 62
7
  6
CONTINUOUS
 10
228.1124524815
 20
68.9394678273
 11
228.1124524815
 21
65.6964584159
  0
LINE
  5
54B
100
AcDbEntity
  8
RUNDUNGEN
100
AcDbLine
 62
7
  6
CONTINUOUS
 10
228.1124524815
 20
50.3286481663
 11
228.1124524815
 21
47.0856387548
  0
LINE
  5
54C
100
AcDbEntity
  8
0
100
AcDbLine
 62
7
  6
CONTINUOUS
 10
229.0025016459
 20
50.5875532911
 11
229.0025016459
 21
50.4656182561
  0
LINE
  5
54D
100
AcDbEntity
  8
0
100
AcDbLine
 62
7
  6
CONTINUOUS
 10
229.658063095
 20
50.5875532911
 11
229.658063095
 21
50.3224501805
  0
LINE
  5
54E
100
AcDbEntity
  8
0
100
AcDbLine
 62
7
  6
CONTINUOUS
 10
229.8921923945
 20
50.5875532911
 11
229.8921923945
 21
50.2713186789
  0
LINE
  5
54F
100
AcDbEntity
  8
0
100
AcDbLine
 62
7
  6
CONTINUOUS
 10
226.3934661878
 20
65.3210489709
 11
221.7800205254
 21
70.5120179094
  0
LINE
  5
550
100
AcDbEntity
  8
0
100
AcDbLine
 62
7
  6
CONTINUOUS
 10
230.2616016283
 20
50.4970182225
 11
230.2616016283
 21
50.0703670184
  0
LINE
  5
551
100
AcDbEntity
  8
0
100
AcDbLine
 62
7
  6
CONTINUOUS
 10
230.3825640065
 20
50.5608085197
 11
230.3825640065
 21
50.1341573156
  0
LINE
  5
552
100
AcDbEntity
  8
0
100
AcDbLine
 62
7
  6
CONTINUOUS
 10
230.7155421043
 20
50.5875532911
 11
230.7155421043
 21
50.1817145873
  0
LINE
  5
553
100
AcDbEntity
  8
0
100
AcDbLine
 62
7
  6
CONTINUOUS
 10
230.9691862613
 20
50.1092571731
 11
230.9691862613
 21
50.0361139706
  0
LINE
  5
554
100
AcDbEntity
  8
0
100
AcDbLine
 62
7
  6
CONTINUOUS
 10
231.0328787301
 20
51.0125532911
 11
231.0328787301
 21
50.5875532911
  0
LINE
  5
555
100
AcDbEntity
  8
0
100
AcDbLine
 62
7
  6
CONTINUOUS
 10
231.0953461571
 20
50.5875532911
 11
231.0953461571
 21
50.2190455484
  0
LINE
  5
556
100
AcDbEntity
  8
0
100
AcDbLine
 62
7
  6
CONTINUOUS
 10
231.2501412064
 20
50.1452875303
 11
231.2501412064
 21
49.9747562155
  0
LINE
  5
557
100
AcDbEntity
  8
0
100
AcDbLine
 62
7
  6
CONTINUOUS
 10
231.3763011021
 20
50.5843389975
 11
231.3763011021
 21
50.1576877933
  0
LINE
  5
558
100
AcDbEntity
  8
0
100
AcDbLine
 62
7
  6
CONTINUOUS
 10
231.5531600845
 20
51.0125532911
 11
231.5531600845
 21
50.5875532911
  0
LINE
  5
559
100
AcDbEntity
  8
0
100
AcDbLine
 62
7
  6
CONTINUOUS
 10
231.5558084746
 20
50.3647218282
 11
231.5558084746
 21
49.9380706241
  0
LINE
  5
55A
100
AcDbEntity
  8
0
100
AcDbLine
 62
7
  6
CONTINUOUS
 10
231.9330137116
 20
50.342482147
 11
231.9330137116
 21
49.9158309429
  0
LINE
  5
55B
100
AcDbEntity
  8
0
100
AcDbLine
 62
7
  6
CONTINUOUS
 10
232.1606212628
 20
50.584477818
 11
232.1606212628
 21
50.2570219379
  0
LINE
  5
55C
100
AcDbEntity
  8
0
100
AcDbLine
 62
7
  6
CONTINUOUS
 10
232.2139189073
 20
51.0125532911
 11
232.2139189073
 21
50.5875532911
  0
LINE
  5
55D
100
AcDbEntity
  8
0
100
AcDbLine
 62
7
  6
CONTINUOUS
 10
232.3817570001
 20
50.2087281006
 11
232.3817570001
 21
49.9080371748
  0
LINE
  5
55E
100
AcDbEntity
  8
0
100
AcDbLine
 62
7
  6
CONTINUOUS
 10
232.5807791679
 20
49.8548185979
 11
232.5807791679
 21
49.5939508883
  0
LINE
  5
55F
100
AcDbEntity
  8
0
100
AcDbLine
 62
7
  6
CONTINUOUS
 10
232.6379499573
 20
51.0125532911
 11
232.6379499573
 21
50.5875532911
  0
LINE
  5
560
100
AcDbEntity
  8
0
100
AcDbLine
 62
7
  6
CONTINUOUS
 10
232.6770294805
 20
49.8549092174
 11
232.6770294805
 21
49.6330689629
  0
LINE
  5
561
100
AcDbEntity
  8
0
100
AcDbLine
 62
7
  6
CONTINUOUS
 10
232.7836745603
 20
50.1700609438
 11
232.7836745603
 21
49.9104696573
  0
LINE
  5
562
100
AcDbEntity
  8
0
100
AcDbLine
 62
7
  6
CONTINUOUS
 10
233.0204023247
 20
50.1571915342
 11
233.0204023247
 21
49.9189088537
  0
LINE
  5
563
100
AcDbEntity
  8
0
100
AcDbLine
 62
7
  6
CONTINUOUS
 10
233.0568332239
 20
49.8607295962
 11
233.0568332239
 21
49.6703999811
  0
LINE
  5
564
100
AcDbEntity
  8
0
100
AcDbLine
 62
7
  6
CONTINUOUS
 10
233.0840945976
 20
51.0125532911
 11
233.0840945976
 21
50.5875532911
  0
LINE
  5
565
100
AcDbEntity
  8
RUNDUNGEN
100
AcDbLine
 62
7
  6
CONTINUOUS
 10
224.3294854485
 20
74.7637265868
 11
222.2168828612
 21
75.633390732
  0
LINE
  5
566
100
AcDbEntity
  8
0
100
AcDbLine
 62
7
  6
CONTINUOUS
 10
233.2389393707
 20
49.6048226278
 11
233.2389393707
 21
49.5125532911
  0
LINE
  5
567
100
AcDbEntity
  8
0
100
AcDbLine
 62
7
  6
CONTINUOUS
 10
233.2713979166
 20
51.0125532911
 11
233.2713979166
 21
50.5875532911
  0
LINE
  5
568
100
AcDbEntity
  8
0
100
AcDbLine
 62
7
  6
CONTINUOUS
 10
233.3286682237
 20
50.1205059429
 11
233.3286682237
 21
49.9417939661
  0
LINE
  5
569
100
AcDbEntity
  8
0
100
AcDbLine
 62
7
  6
CONTINUOUS
 10
233.4339889795
 20
51.0125532911
 11
233.4339889795
 21
50.5875532911
  0
LINE
  5
56A
100
AcDbEntity
  8
0
100
AcDbLine
 62
7
  6
CONTINUOUS
 10
233.5757906516
 20
50.2479938429
 11
233.5757906516
 21
50.1885157786
  0
LINE
  5
56B
100
AcDbEntity
  8
0
100
AcDbLine
 62
7
  6
CONTINUOUS
 10
233.5901083113
 20
50.0591481878
 11
233.5901083113
 21
49.9749053262
  0
LINE
  5
56C
100
AcDbEntity
  8
0
100
AcDbLine
 62
7
  6
CONTINUOUS
 10
233.9282835654
 20
50.2605599942
 11
233.9282835654
 21
50.1416039337
  0
LINE
  5
56D
100
AcDbEntity
  8
0
100
AcDbLine
 62
7
  6
CONTINUOUS
 10
234.2092385105
 20
50.2705758618
 11
234.2092385105
 21
50.0802461786
  0
LINE
  5
56E
100
AcDbEntity
  8
0
100
AcDbLine
 62
7
  6
CONTINUOUS
 10
234.3250036598
 20
50.2747028168
 11
234.3250036598
 21
50.0248951374
  0
LINE
  5
56F
100
AcDbEntity
  8
0
100
AcDbLine
 62
7
  6
CONTINUOUS
 10
235.0495048807
 20
50.2632534196
 11
235.0495048807
 21
49.8366022155
  0
LINE
  5
570
100
AcDbEntity
  8
0
100
AcDbLine
 62
7
  6
CONTINUOUS
 10
235.2380825321
 20
50.7933827063
 11
235.2380825321
 21
50.3667315022
  0
LINE
  5
571
100
AcDbEntity
  8
0
100
AcDbLine
 62
7
  6
CONTINUOUS
 10
235.5229604096
 20
50.154171576
 11
235.5229604096
 21
49.8534806082
  0
LINE
  5
572
100
AcDbEntity
  8
0
100
AcDbLine
 62
7
  6
CONTINUOUS
 10
235.8975666458
 20
50.0723613139
 11
235.8975666458
 21
49.7716703461
  0
LINE
  5
573
100
AcDbEntity
  8
0
100
AcDbLine
 62
7
  6
CONTINUOUS
 10
236.6467801899
 20
49.7389012748
 11
236.6467801899
 21
49.6080495878
  0
LINE
  5
574
100
AcDbEntity
  8
0
100
AcDbLine
 62
7
  6
CONTINUOUS
 10
236.8301603754
 20
50.4456887998
 11
236.8301603754
 21
50.0190375957
  0
LINE
  5
575
100
AcDbEntity
  8
0
100
AcDbLine
 62
7
  6
CONTINUOUS
 10
236.8444780351
 20
50.2320783474
 11
236.8444780351
 21
49.8054271433
  0
LINE
  5
576
100
AcDbEntity
  8
0
100
AcDbLine
 62
7
  6
CONTINUOUS
 10
237.0786073346
 20
50.1809468458
 11
237.0786073346
 21
49.7542956417
  0
LINE
  5
577
100
AcDbEntity
  8
RUNDUNGEN
100
AcDbLine
 62
7
  6
CONTINUOUS
 10
242.2545769927
 20
64.5125532911
 11
242.2545769927
 21
64.2375532911
  0
LINE
  5
578
100
AcDbEntity
  8
RUNDUNGEN
100
AcDbLine
 62
7
  6
CONTINUOUS
 10
242.2545769927
 20
51.7875532911
 11
242.2545769927
 21
51.5125532911
  0
LINE
  5
579
100
AcDbEntity
  8
RUNDUNGEN
100
AcDbLine
 62
7
  6
CONTINUOUS
 10
246.2036445926
 20
51.5125532911
 11
246.2036445926
 21
52.5461610111
  0
LINE
  5
57A
100
AcDbEntity
  8
RUNDUNGEN
100
AcDbLine
 62
7
  6
CONTINUOUS
 10
246.2036445926
 20
63.478945571
 11
246.2036445926
 21
64.5125532911
  0
LINE
  5
57B
100
AcDbEntity
  8
0
100
AcDbLine
 62
7
  6
CONTINUOUS
 10
246.8624524815
 20
62.2375532911
 11
246.8624524815
 21
53.7875532911
  0
ARC
  5
57C
100
AcDbEntity
  8
RUNDUNGEN
100
AcDbCircle
 62
7
  6
CONTINUOUS
 10
177.5212603704
 20
295.9568867874
 40
8.0
100
AcDbArc
 50
158.0
 51
203.0
  0
ARC
  5
57D
100
AcDbEntity
  8
0
100
AcDbCircle
 62
7
  6
CONTINUOUS
 10
178.6551318883
 20
288.6998538127
 40
2.5
100
AcDbArc
 50
84.2608295227
 51
275.7391704773
  0
ARC
  5
57E
100
AcDbEntity
  8
RUNDUNGEN
100
AcDbCircle
 62
7
  6
CONTINUOUS
 10
179.1862236039
 20
276.6786512233
 40
2.0
100
AcDbArc
 50
203.0
 51
270.0
  0
ARC
  5
57F
100
AcDbEntity
  8
0
100
AcDbCircle
 62
7
  6
CONTINUOUS
 10
178.6551318883
 20
288.6998538127
 40
1.75
100
AcDbArc
 50
81.7867892983
 51
278.2132107017
  0
ARC
  5
580
100
AcDbEntity
  8
RUNDUNGEN
100
AcDbCircle
 62
7
  6
CONTINUOUS
 10
153.5992454919
 20
322.170771456
 40
24.0
100
AcDbArc
 50
338.0
 51
30.5347988457
  0
ARC
  5
581
100
AcDbEntity
  8
RUNDUNGEN
100
AcDbCircle
 62
7
  6
CONTINUOUS
 10
174.6542728265
 20
327.2344340702
 40
6.375
100
AcDbArc
 50
338.0
 51
15.0
  0
ARC
  5
582
100
AcDbEntity
  8
RUNDUNGEN
100
AcDbCircle
 62
7
  6
CONTINUOUS
 10
204.8624524815
 20
299.6798056588
 40
18.0
100
AcDbArc
 50
178.1783923741
 51
180.0002573983
  0
ARC
  5
583
100
AcDbEntity
  8
RUNDUNGEN
100
AcDbCircle
 62
7
  6
CONTINUOUS
 10
204.8624524815
 20
299.6798056588
 40
18.0
100
AcDbArc
 50
157.9999920835
 51
164.7460853894
  0
ARC
  5
584
100
AcDbEntity
  8
RUNDUNGEN
100
AcDbCircle
 62
7
  6
CONTINUOUS
 10
204.8624524815
 20
299.6798056588
 40
18.0
100
AcDbArc
 50
170.046000558
 51
172.4282917916
  0
ARC
  5
585
100
AcDbEntity
  8
0
100
AcDbCircle
 62
7
  6
CONTINUOUS
 10
182.9051318883
 20
288.6998538127
 40
2.5
100
AcDbArc
 50
84.2608295227
 51
275.7391704773
  0
ARC
  5
586
100
AcDbEntity
  8
RUNDUNGEN
100
AcDbCircle
 62
7
  6
CONTINUOUS
 10
184.8624524815
 20
276.6786512233
 40
2.0
100
AcDbArc
 50
270.0
 51
360.0
  0
ARC
  5
587
100
AcDbEntity
  8
0
100
AcDbCircle
 62
7
  6
CONTINUOUS
 10
182.9051318883
 20
288.6998538127
 40
1.75
100
AcDbArc
 50
192.5412744583
 51
278.2132107017
  0
ARC
  5
588
100
AcDbEntity
  8
0
100
AcDbCircle
 62
7
  6
CONTINUOUS
 10
182.9051318883
 20
288.6998538127
 40
1.75
100
AcDbArc
 50
81.7867892983
 51
167.6123707416
  0
ARC
  5
589
100
AcDbEntity
  8
RUNDUNGEN
100
AcDbCircle
 62
7
  6
CONTINUOUS
 10
187.8598524255
 20
276.5536512174
 40
1.0000000007
100
AcDbArc
 50
104.3265316069
 51
177.6119879872
  0
ARC
  5
58A
100
AcDbEntity
  8
RUNDUNGEN
100
AcDbCircle
 62
7
  6
CONTINUOUS
 10
188.6124524815
 20
299.2536512233
 40
1.0
100
AcDbArc
 50
90.0
 51
180.0
  0
ARC
  5
58B
100
AcDbEntity
  8
RUNDUNGEN
100
AcDbCircle
 62
7
  6
CONTINUOUS
 10
187.8624524815
 20
292.8036512233
 40
1.0
100
AcDbArc
 50
180.0
 51
255.503527079
  0
ARC
  5
58C
100
AcDbEntity
  8
RUNDUNGEN
100
AcDbCircle
 62
7
  6
CONTINUOUS
 10
197.4324524815
 20
300.7536512233
 40
0.5
100
AcDbArc
 50
270.0056898136
 51
0.0011586872
  0
ARC
  5
58D
100
AcDbEntity
  8
RUNDUNGEN
100
AcDbCircle
 62
7
  6
CONTINUOUS
 10
193.8624524815
 20
300.7536512233
 40
0.5
100
AcDbArc
 50
270.0
 51
360.0
  0
ARC
  5
58E
100
AcDbEntity
  8
RUNDUNGEN
100
AcDbCircle
 62
7
  6
CONTINUOUS
 10
198.4324524815
 20
301.5036512233
 40
0.5
100
AcDbArc
 50
89.9999999997
 51
180.0
  0
ARC
  5
58F
100
AcDbEntity
  8
RUNDUNGEN
100
AcDbCircle
 62
7
  6
CONTINUOUS
 10
194.8624524815
 20
301.5036512233
 40
0.5
100
AcDbArc
 50
90.0
 51
180.0
  0
ARC
  5
590
100
AcDbEntity
  8
RUNDUNGEN
100
AcDbCircle
 62
7
  6
CONTINUOUS
 10
198.9249533425
 20
311.6786512233
 40
8.0
100
AcDbArc
 50
90.0
 51
158.000025631
  0
ARC
  5
591
100
AcDbEntity
  8
RUNDUNGEN
100
AcDbCircle
 62
7
  6
CONTINUOUS
 10
186.5318348426
 20
304.6786512233
 40
1.0
100
AcDbArc
 50
314.8476528192
 51
344.746085145
  0
ARC
  5
592
100
AcDbEntity
  8
RUNDUNGEN
100
AcDbCircle
 62
7
  6
CONTINUOUS
 10
189.0120726156
 20
375.1141190116
 40
6.375
100
AcDbArc
 50
111.0
 51
153.0
  0
ARC
  5
593
100
AcDbEntity
  8
RUNDUNGEN
100
AcDbCircle
 62
7
  6
CONTINUOUS
 10
179.8453279703
 20
357.1233696694
 40
6.375
100
AcDbArc
 50
153.0
 51
195.0
  0
ARC
  5
594
100
AcDbEntity
  8
RUNDUNGEN
100
AcDbCircle
 62
7
  6
CONTINUOUS
 10
210.8624524815
 20
299.6798056588
 40
18.0
100
AcDbArc
 50
359.9997462976
 51
1.821607541
  0
ARC
  5
595
100
AcDbEntity
  8
RUNDUNGEN
100
AcDbCircle
 62
7
  6
CONTINUOUS
 10
210.8624524815
 20
299.6798056588
 40
18.0
100
AcDbArc
 50
7.5717082066
 51
22.0000169016
  0
ARC
  5
596
100
AcDbEntity
  8
RUNDUNGEN
100
AcDbCircle
 62
7
  6
CONTINUOUS
 10
230.8624524815
 20
276.6786512233
 40
2.0
100
AcDbArc
 50
180.0
 51
270.0
  0
ARC
  5
597
100
AcDbEntity
  8
RUNDUNGEN
100
AcDbCircle
 62
7
  6
CONTINUOUS
 10
227.8650525374
 20
276.5536512175
 40
1.0000000007
100
AcDbArc
 50
2.3880120115
 51
75.673468388
  0
ARC
  5
598
100
AcDbEntity
  8
RUNDUNGEN
100
AcDbCircle
 62
7
  6
CONTINUOUS
 10
227.1124524815
 20
299.2536512233
 40
1.0
100
AcDbArc
 50
0.0
 51
90.0
  0
ARC
  5
599
100
AcDbEntity
  8
RUNDUNGEN
100
AcDbCircle
 62
7
  6
CONTINUOUS
 10
227.8624524815
 20
292.8036512233
 40
1.0
100
AcDbArc
 50
284.496472921
 51
360.0
  0
ARC
  5
59A
100
AcDbEntity
  8
RUNDUNGEN
100
AcDbCircle
 62
7
  6
CONTINUOUS
 10
218.9324524815
 20
300.7536512233
 40
0.5
100
AcDbArc
 50
180.0092872728
 51
269.9973277371
  0
ARC
  5
59B
100
AcDbEntity
  8
RUNDUNGEN
100
AcDbCircle
 62
7
  6
CONTINUOUS
 10
221.8624524815
 20
300.7536512233
 40
0.5
100
AcDbArc
 50
180.0
 51
270.0
  0
ARC
  5
59C
100
AcDbEntity
  8
RUNDUNGEN
100
AcDbCircle
 62
7
  6
CONTINUOUS
 10
217.9324524815
 20
301.5036512233
 40
0.5
100
AcDbArc
 50
0.0
 51
89.9999999961
  0
ARC
  5
59D
100
AcDbEntity
  8
RUNDUNGEN
100
AcDbCircle
 62
7
  6
CONTINUOUS
 10
220.8624524815
 20
301.5036512233
 40
0.5
100
AcDbArc
 50
0.0
 51
90.0
  0
ARC
  5
59E
100
AcDbEntity
  8
RUNDUNGEN
100
AcDbCircle
 62
7
  6
CONTINUOUS
 10
216.7999516205
 20
311.6786512233
 40
8.0
100
AcDbArc
 50
21.9999763288
 51
90.0
  0
ARC
  5
59F
100
AcDbEntity
  8
RUNDUNGEN
100
AcDbCircle
 62
7
  6
CONTINUOUS
 10
229.1930701204
 20
304.6786512233
 40
1.0
100
AcDbArc
 50
195.253914855
 51
270.0
  0
ARC
  5
5A0
100
AcDbEntity
  8
RUNDUNGEN
100
AcDbCircle
 62
7
  6
CONTINUOUS
 10
238.2036445926
 20
295.9568867874
 40
8.0
100
AcDbArc
 50
337.0
 51
22.0
  0
ARC
  5
5A1
100
AcDbEntity
  8
RUNDUNGEN
100
AcDbCircle
 62
7
  6
CONTINUOUS
 10
236.5386813591
 20
276.6786512233
 40
2.0
100
AcDbArc
 50
270.0
 51
337.0
  0
ARC
  5
5A2
100
AcDbEntity
  8
RUNDUNGEN
100
AcDbCircle
 62
7
  6
CONTINUOUS
 10
262.1256594711
 20
322.170771456
 40
24.0
100
AcDbArc
 50
149.4652011543
 51
202.0000129763
  0
ARC
  5
5A3
100
AcDbEntity
  8
RUNDUNGEN
100
AcDbCircle
 62
7
  6
CONTINUOUS
 10
241.0706321365
 20
327.2344340702
 40
6.375
100
AcDbArc
 50
165.0
 51
202.0
  0
ARC
  5
5A4
100
AcDbEntity
  8
RUNDUNGEN
100
AcDbCircle
 62
7
  6
CONTINUOUS
 10
207.8624524815
 20
354.1786512233
 40
39.0
100
AcDbArc
 50
329.4652011543
 51
210.5347988457
  0
CIRCLE
  5
5A5
100
AcDbEntity
  8
RUNDUNGEN
100
AcDbCircle
 62
7
  6
CONTINUOUS
 10
207.8624524815
 20
354.1786512233
 40
25.0
  0
ARC
  5
5A6
100
AcDbEntity
  8
RUNDUNGEN
100
AcDbCircle
 62
7
  6
CONTINUOUS
 10
235.8795769927
 20
357.1233696694
 40
6.375
100
AcDbArc
 50
345.0
 51
27.0
  0
ARC
  5
5A7
100
AcDbEntity
  8
RUNDUNGEN
100
AcDbCircle
 62
7
  6
CONTINUOUS
 10
226.7128323474
 20
375.1141190116
 40
6.375
100
AcDbArc
 50
27.0
 51
69.0
  0
ARC
  5
5A8
100
AcDbEntity
  8
RUNDUNGEN
100
AcDbCircle
 62
7
  6
CONTINUOUS
 10
207.8624524815
 20
382.3501018889
 40
6.375
100
AcDbArc
 50
69.0
 51
111.0
  0
ARC
  5
5A9
100
AcDbEntity
  8
KONSTRUKTIONSELEMENTE
100
AcDbCircle
 62
7
  6
CONTINUOUS
 10
326.5599377073
 20
146.4377806562
 40
16.0658798744
100
AcDbArc
 50
90.06165959
 51
97.242997169
  0
ARC
  5
5AA
100
AcDbEntity
  8
KONSTRUKTIONSELEMENTE
100
AcDbCircle
 62
7
  6
CONTINUOUS
 10
338.525359615
 20
146.4377938399
 40
16.0658666905
100
AcDbArc
 50
82.7570076769
 51
89.9383436697
  0
ARC
  5
5AB
100
AcDbEntity
  8
RUNDUNGEN
100
AcDbCircle
 62
7
  6
CONTINUOUS
 10
351.542648328
 20
318.2070365503
 40
12.0
100
AcDbArc
 50
179.9999999643
 51
185.0424518052
  0
ARC
  5
5AC
100
AcDbEntity
  8
RUNDUNGEN
100
AcDbCircle
 62
7
  6
CONTINUOUS
 10
329.042648328
 20
300.1502658963
 40
12.0
100
AcDbArc
 50
0.0
 51
5.0424510692
  0
ARC
  5
5AD
100
AcDbEntity
  8
RUNDUNGEN
100
AcDbCircle
 62
7
  6
CONTINUOUS
 10
313.542648328
 20
318.2070365503
 40
12.0
100
AcDbArc
 50
354.9575481965
 51
0.0000001035
  0
ARC
  5
5AE
100
AcDbEntity
  8
RUNDUNGEN
100
AcDbCircle
 62
7
  6
CONTINUOUS
 10
336.042648328
 20
300.1502658963
 40
12.0
100
AcDbArc
 50
174.9576060518
 51
180.0
  0
ARC
  5
5AF
100
AcDbEntity
  8
RUNDUNGEN
100
AcDbCircle
 62
7
  6
CONTINUOUS
 10
326.042648328
 20
276.6786512233
 40
2.0
100
AcDbArc
 50
180.0
 51
270.0
  0
ARC
  5
5B0
100
AcDbEntity
  8
RUNDUNGEN
100
AcDbCircle
 62
7
  6
CONTINUOUS
 10
339.042648328
 20
276.6786512233
 40
2.0
100
AcDbArc
 50
270.0
 51
360.0
  0
ARC
  5
5B1
100
AcDbEntity
  8
RUNDUNGEN
100
AcDbCircle
 62
7
  6
CONTINUOUS
 10
336.767648328
 20
391.6786512233
 40
1.5
100
AcDbArc
 50
0.0
 51
90.0
  0
ARC
  5
5B2
100
AcDbEntity
  8
RUNDUNGEN
100
AcDbCircle
 62
7
  6
CONTINUOUS
 10
328.317648328
 20
391.6786512233
 40
1.5
100
AcDbArc
 50
90.0
 51
180.0
  0
ARC
  5
5B3
100
AcDbEntity
  8
RUNDUNGEN
100
AcDbCircle
 62
7
  6
CONTINUOUS
 10
313.292648328
 20
301.0036512233
 40
1.0
100
AcDbArc
 50
90.0
 51
180.0
  0
ARC
  5
5B4
100
AcDbEntity
  8
RUNDUNGEN
100
AcDbCircle
 62
7
  6
CONTINUOUS
 10
351.792648328
 20
301.0036512233
 40
1.0
100
AcDbArc
 50
0.0
 51
90.0
  0
ARC
  5
5B5
100
AcDbEntity
  8
RUNDUNGEN
100
AcDbCircle
 62
7
  6
CONTINUOUS
 10
325.3994746907
 20
304.6786512233
 40
1.0
100
AcDbArc
 50
174.9575498083
 51
181.7463065923
  0
ARC
  5
5B6
100
AcDbEntity
  8
RUNDUNGEN
100
AcDbCircle
 62
7
  6
CONTINUOUS
 10
326.042648328
 20
388.2251018889
 40
0.5
100
AcDbArc
 50
90.0
 51
180.0
  0
ARC
  5
5B7
100
AcDbEntity
  8
RUNDUNGEN
100
AcDbCircle
 62
7
  6
CONTINUOUS
 10
339.042648328
 20
388.2251018889
 40
0.5
100
AcDbArc
 50
0.0
 51
90.0
  0
ARC
  5
5B8
100
AcDbEntity
  8
RUNDUNGEN
100
AcDbCircle
 62
7
  6
CONTINUOUS
 10
326.317648328
 20
389.2251018889
 40
0.5
100
AcDbArc
 50
270.0
 51
360.0
  0
ARC
  5
5B9
100
AcDbEntity
  8
RUNDUNGEN
100
AcDbCircle
 62
7
  6
CONTINUOUS
 10
338.767648328
 20
389.2251018889
 40
0.5
100
AcDbArc
 50
180.0
 51
270.0
  0
ARC
  5
5BA
100
AcDbEntity
  8
RUNDUNGEN
100
AcDbCircle
 62
7
  6
CONTINUOUS
 10
193.9874524815
 20
47.0856387548
 40
6.375
100
AcDbArc
 50
180.0
 51
246.0089831978
  0
ARC
  5
5BB
100
AcDbEntity
  8
RUNDUNGEN
100
AcDbCircle
 62
7
  6
CONTINUOUS
 10
171.5212603704
 20
51.5125532911
 40
2.0
100
AcDbArc
 50
180.0
 51
270.0
  0
ARC
  5
5BC
100
AcDbEntity
  8
RUNDUNGEN
100
AcDbCircle
 62
7
  6
CONTINUOUS
 10
184.8624524815
 20
51.5125532911
 40
2.0
100
AcDbArc
 50
270.0
 51
310.0462121546
  0
ARC
  5
5BD
100
AcDbEntity
  8
RUNDUNGEN
100
AcDbCircle
 62
7
  6
CONTINUOUS
 10
170.3624524815
 20
53.7875532911
 40
1.5
100
AcDbArc
 50
180.0
 51
270.0
  0
ARC
  5
5BE
100
AcDbEntity
  8
RUNDUNGEN
100
AcDbCircle
 62
7
  6
CONTINUOUS
 10
198.9324524815
 20
39.7852210031
 40
1.0
100
AcDbArc
 50
180.0
 51
256.9338440851
  0
ARC
  5
5BF
100
AcDbEntity
  8
RUNDUNGEN
100
AcDbCircle
 62
7
  6
CONTINUOUS
 10
173.9703279703
 20
51.5125532911
 40
0.5
100
AcDbArc
 50
180.0
 51
270.0
  0
ARC
  5
5C0
100
AcDbEntity
  8
RUNDUNGEN
100
AcDbCircle
 62
7
  6
CONTINUOUS
 10
172.9703279703
 20
51.7875532911
 40
0.5
100
AcDbArc
 50
0.0
 51
90.0
  0
ARC
  5
5C1
100
AcDbEntity
  8
RUNDUNGEN
100
AcDbCircle
 62
7
  6
CONTINUOUS
 10
193.9874524815
 20
68.9394678273
 40
6.375
100
AcDbArc
 50
113.9910168022
 51
180.0
  0
ARC
  5
5C2
100
AcDbEntity
  8
0
100
AcDbCircle
 62
7
  6
CONTINUOUS
 10
197.6074524815
 20
67.2569303033
 40
4.9
100
AcDbArc
 50
101.6438424963
 51
138.3710788868
  0
ARC
  5
5C3
100
AcDbEntity
  8
RUNDUNGEN
100
AcDbCircle
 62
7
  6
CONTINUOUS
 10
171.5212603704
 20
64.5125532911
 40
2.0
100
AcDbArc
 50
90.0
 51
180.0
  0
ARC
  5
5C4
100
AcDbEntity
  8
RUNDUNGEN
100
AcDbCircle
 62
7
  6
CONTINUOUS
 10
184.8624524815
 20
64.5125532911
 40
2.0
100
AcDbArc
 50
49.9537879932
 51
90.0
  0
ARC
  5
5C5
100
AcDbEntity
  8
RUNDUNGEN
100
AcDbCircle
 62
7
  6
CONTINUOUS
 10
170.3624524815
 20
62.2375532911
 40
1.5
100
AcDbArc
 50
90.0
 51
180.0
  0
ARC
  5
5C6
100
AcDbEntity
  8
RUNDUNGEN
100
AcDbCircle
 62
7
  6
CONTINUOUS
 10
195.3624524815
 20
75.2325412815
 40
1.0
100
AcDbArc
 50
108.4487152303
 51
180.0
  0
ARC
  5
5C7
100
AcDbEntity
  8
RUNDUNGEN
100
AcDbCircle
 62
7
  6
CONTINUOUS
 10
182.6202810958
 20
65.5125532911
 40
1.0
100
AcDbArc
 50
44.188532976
 51
90.0
  0
ARC
  5
5C8
100
AcDbEntity
  8
RUNDUNGEN
100
AcDbCircle
 62
7
  6
CONTINUOUS
 10
173.9703279703
 20
64.5125532911
 40
0.5
100
AcDbArc
 50
90.0
 51
180.0
  0
ARC
  5
5C9
100
AcDbEntity
  8
RUNDUNGEN
100
AcDbCircle
 62
7
  6
CONTINUOUS
 10
172.9703279703
 20
64.2375532911
 40
0.5
100
AcDbArc
 50
270.0
 51
360.0
  0
ARC
  5
5CA
100
AcDbEntity
  8
RUNDUNGEN
100
AcDbCircle
 62
7
  6
CONTINUOUS
 10
207.8624524815
 20
37.7625532911
 40
40.5
100
AcDbArc
 50
66.0089831978
 51
113.9910168022
  0
ARC
  5
5CB
100
AcDbEntity
  8
RUNDUNGEN
100
AcDbCircle
 62
7
  6
CONTINUOUS
 10
217.4324524815
 20
39.9393866683
 40
1.0
100
AcDbArc
 50
284.0210572666
 51
360.0
  0
ARC
  5
5CC
100
AcDbEntity
  8
RUNDUNGEN
100
AcDbCircle
 62
7
  6
CONTINUOUS
 10
221.7374524815
 20
47.0856387548
 40
6.375
100
AcDbArc
 50
293.9910168022
 51
360.0
  0
ARC
  5
5CD
100
AcDbEntity
  8
RUNDUNGEN
100
AcDbCircle
 62
7
  6
CONTINUOUS
 10
230.3842326091
 20
51.5125532911
 40
2.0000000007
100
AcDbArc
 50
222.9087202402
 51
269.9999999384
  0
ARC
  5
5CE
100
AcDbEntity
  8
RUNDUNGEN
100
AcDbCircle
 62
7
  6
CONTINUOUS
 10
244.2036445926
 20
51.5125532911
 40
2.0
100
AcDbArc
 50
270.0
 51
360.0
  0
ARC
  5
5CF
100
AcDbEntity
  8
RUNDUNGEN
100
AcDbCircle
 62
7
  6
CONTINUOUS
 10
230.8624524815
 20
51.5125532911
 40
2.0
100
AcDbArc
 50
229.9536932806
 51
270.0
  0
ARC
  5
5D0
100
AcDbEntity
  8
RUNDUNGEN
100
AcDbCircle
 62
7
  6
CONTINUOUS
 10
245.3624524815
 20
53.7875532911
 40
1.5
100
AcDbArc
 50
270.0
 51
360.0
  0
ARC
  5
5D1
100
AcDbEntity
  8
RUNDUNGEN
100
AcDbCircle
 62
7
  6
CONTINUOUS
 10
233.1046238672
 20
50.5125532911
 40
1.0
100
AcDbArc
 50
224.188532976
 51
238.4437710325
  0
ARC
  5
5D2
100
AcDbEntity
  8
RUNDUNGEN
100
AcDbCircle
 62
7
  6
CONTINUOUS
 10
241.7545769927
 20
51.5125532911
 40
0.5
100
AcDbArc
 50
270.0
 51
360.0
  0
ARC
  5
5D3
100
AcDbEntity
  8
RUNDUNGEN
100
AcDbCircle
 62
7
  6
CONTINUOUS
 10
242.7545769927
 20
51.7875532911
 40
0.5
100
AcDbArc
 50
90.0
 51
180.0
  0
ARC
  5
5D4
100
AcDbEntity
  8
0
100
AcDbCircle
 62
7
  6
CONTINUOUS
 10
207.8624524815
 20
58.0125532911
 40
18.0
100
AcDbArc
 50
22.9028055288
 51
157.0971944712
  0
ARC
  5
5D5
100
AcDbEntity
  8
0
100
AcDbCircle
 62
7
  6
CONTINUOUS
 10
207.8624524815
 20
58.0125532911
 40
18.0
100
AcDbArc
 50
202.9028055288
 51
337.0971944712
  0
ARC
  5
5D6
100
AcDbEntity
  8
BEZUGSACHSEN
100
AcDbCircle
 62
7
  6
CONTINUOUS
 10
207.8624524815
 20
58.0125532911
 40
12.0
100
AcDbArc
 50
35.7006840832
 51
144.299315944
  0
ARC
  5
5D7
100
AcDbEntity
  8
BEZUGSACHSEN
100
AcDbCircle
 62
7
  6
CONTINUOUS
 10
207.8624524815
 20
58.0125532911
 40
12.0
100
AcDbArc
 50
215.7006840832
 51
324.2993159168
  0
ARC
  5
5D8
100
AcDbEntity
  8
0
100
AcDbCircle
 62
7
  6
CONTINUOUS
 10
218.1174524815
 20
67.2569303033
 40
4.9
100
AcDbArc
 50
41.6289211132
 51
78.3561575037
  0
ARC
  5
5D9
100
AcDbEntity
  8
RUNDUNGEN
100
AcDbCircle
 62
7
  6
CONTINUOUS
 10
207.8624524815
 20
78.2625532911
 40
40.5
100
AcDbArc
 50
246.0089831978
 51
293.9910168022
  0
ARC
  5
5DA
100
AcDbEntity
  8
RUNDUNGEN
100
AcDbCircle
 62
7
  6
CONTINUOUS
 10
221.7374524815
 20
68.9394678273
 40
6.375
100
AcDbArc
 50
0.0
 51
66.0089831978
  0
ARC
  5
5DB
100
AcDbEntity
  8
RUNDUNGEN
100
AcDbCircle
 62
7
  6
CONTINUOUS
 10
220.3624721085
 20
75.2325353589
 40
0.9999869154
100
AcDbArc
 50
0.0003393467
 51
71.552458904
  0
ARC
  5
5DC
100
AcDbEntity
  8
RUNDUNGEN
100
AcDbCircle
 62
7
  6
CONTINUOUS
 10
244.2036445926
 20
64.5125532911
 40
2.0
100
AcDbArc
 50
0.0
 51
90.0
  0
ARC
  5
5DD
100
AcDbEntity
  8
RUNDUNGEN
100
AcDbCircle
 62
7
  6
CONTINUOUS
 10
230.8624524815
 20
64.5125532911
 40
2.0
100
AcDbArc
 50
90.0
 51
130.0463066135
  0
ARC
  5
5DE
100
AcDbEntity
  8
RUNDUNGEN
100
AcDbCircle
 62
7
  6
CONTINUOUS
 10
245.3624524815
 20
62.2375532911
 40
1.5
100
AcDbArc
 50
0.0
 51
90.0
  0
ARC
  5
5DF
100
AcDbEntity
  8
RUNDUNGEN
100
AcDbCircle
 62
7
  6
CONTINUOUS
 10
233.1046238244
 20
65.5125532087
 40
1.0
100
AcDbArc
 50
89.9999975519
 51
135.8107890162
  0
ARC
  5
5E0
100
AcDbEntity
  8
RUNDUNGEN
100
AcDbCircle
 62
7
  6
CONTINUOUS
 10
241.7545769927
 20
64.5125532911
 40
0.5
100
AcDbArc
 50
0.0
 51
90.0
  0
ARC
  5
5E1
100
AcDbEntity
  8
RUNDUNGEN
100
AcDbCircle
 62
7
  6
CONTINUOUS
 10
242.7545769927
 20
64.2375532911
 40
0.5
100
AcDbArc
 50
180.0
 51
270.0
  0
SPLINE
  5
5E2
100
AcDbEntity
  8
KONSTRUKTIONSELEMENTE
100
AcDbSpline
 62
7
  6
CONTINUOUS
 70
0
 71
3
 72
11
 73
7
 74
0
 42
0.0000001
 43
0.0000001
 44
0.0000000001
 40
0.0
 40
0.0
 40
0.0
 40
0.0
 40
0.2404100529
 40
0.4855109824
 40
0.7383644672
 40
1.0
 40
1.0
 40
1.0
 40
1.0
 10
197.4701475574
 20
162.5036512282
 30
0.0
 10
197.1763418473
 20
162.5036512195
 30
0.0
 10
196.5818964013
 20
162.4524350576
 30
0.0
 10
195.7038459143
 20
162.2311650955
 30
0.0
 10
194.8400415562
 20
161.8853327832
 30
0.0
 10
194.2829536793
 20
161.5917271624
 30
0.0
 10
194.0060460223
 20
161.4318544521
 30
0.0
  0
SPLINE
  5
5E3
100
AcDbEntity
  8
KONSTRUKTIONSELEMENTE
100
AcDbSpline
 62
7
  6
CONTINUOUS
 70
0
 71
3
 72
11
 73
7
 74
0
 42
0.0000001
 43
0.0000001
 44
0.0000000001
 40
0.0
 40
0.0
 40
0.0
 40
0.0
 40
0.261635542
 40
0.5144890696
 40
0.7595899798
 40
1.0
 40
1.0
 40
1.0
 40
1.0
 10
221.7188589407
 20
161.4318544521
 30
0.0
 10
221.4419512626
 20
161.5917271746
 30
0.0
 10
220.8848633099
 20
161.8853328436
 30
0.0
 10
220.0210588668
 20
162.2311651591
 30
0.0
 10
219.1430083465
 20
162.4524350894
 30
0.0
 10
218.5485629381
 20
162.5036512341
 30
0.0
 10
218.2547572559
 20
162.5036512274
 30
0.0
  0
SPLINE
  5
5E4
100
AcDbEntity
  8
KONSTRUKTIONSELEMENTE
100
AcDbSpline
 62
7
  6
CONTINUOUS
 70
0
 71
3
 72
11
 73
7
 74
0
 42
0.0000001
 43
0.0000001
 44
0.0000000001
 40
0.0
 40
0.0
 40
0.0
 40
0.0
 40
0.2404100529
 40
0.4855109824
 40
0.7383644672
 40
1.0
 40
1.0
 40
1.0
 40
1.0
 10
218.2547572559
 20
162.5036512274
 30
0.0
 10
217.9609515451
 20
162.5036512187
 30
0.0
 10
217.3665060973
 20
162.4524350597
 30
0.0
 10
216.4884556078
 20
162.2311650969
 30
0.0
 10
215.6246512472
 20
161.8853327845
 30
0.0
 10
215.0675633688
 20
161.5917271628
 30
0.0
 10
214.7906557111
 20
161.4318544521
 30
0.0
  0
SPLINE
  5
5E5
100
AcDbEntity
  8
KONSTRUKTIONSELEMENTE
100
AcDbSpline
 62
7
  6
CONTINUOUS
 70
0
 71
3
 72
10
 73
6
 74
0
 42
0.0000001
 43
0.0000001
 44
0.0000000001
 40
0.0
 40
0.0
 40
0.0
 40
0.0
 40
0.4998915772
 40
0.7499458268
 40
1.0
 40
1.0
 40
1.0
 40
1.0
 10
214.7906557111
 20
161.4318544521
 30
0.0
 10
213.6649982727
 20
161.7568037646
 30
0.0
 10
211.948885095
 20
162.16304774
 30
0.0
 10
209.6212680623
 20
162.4536429719
 30
0.0
 10
208.4485170669
 20
162.5036512196
 30
0.0
 10
207.8624523364
 20
162.5036512276
 30
0.0
  0
SPLINE
  5
5E6
100
AcDbEntity
  8
BEZUGSACHSEN
100
AcDbSpline
 62
7
  6
CONTINUOUS
 70
0
 71
3
 72
17
 73
13
 74
0
 42
0.0000001
 43
0.0000001
 44
0.0000000001
 40
0.0
 40
0.0
 40
0.0
 40
0.0
 40
0.1379493374
 40
0.2669046225
 40
0.3865345207
 40
0.4437238645
 40
0.5000000688
 40
0.5562762816
 40
0.6134655876
 40
0.7330954213
 40
0.8620506152
 40
1.0
 40
1.0
 40
1.0
 40
1.0
 10
221.7188589407
 20
151.3600576834
 30
0.0
 10
221.4568889774
 20
151.0980877201
 30
0.0
 10
220.9282942115
 20
150.6117180806
 30
0.0
 10
220.0788119789
 20
150.0087459079
 30
0.0
 10
219.323442525
 20
149.66618668
 30
0.0
 10
218.7110611359
 20
149.526843408
 30
0.0
 10
218.254756705
 20
149.4923903562
 30
0.0
 10
217.7984524736
 20
149.5268439001
 30
0.0
 10
217.18607111
 20
149.6661861956
 30
0.0
 10
216.4307025861
 20
150.0087464492
 30
0.0
 10
215.581220362
 20
150.6117179099
 30
0.0
 10
215.0526257643
 20
151.0980876302
 30
0.0
 10
214.7906557111
 20
151.3600576834
 30
0.0
  0
SPLINE
  5
5E7
100
AcDbEntity
  8
BEZUGSACHSEN
100
AcDbSpline
 62
7
  6
CONTINUOUS
 70
0
 71
3
 72
15
 73
11
 74
0
 42
0.0000001
 43
0.0000001
 44
0.0000000001
 40
0.0
 40
0.0
 40
0.0
 40
0.0
 40
0.1250035726
 40
0.2500177617
 40
0.3750129322
 40
0.5000000785
 40
0.6249871996
 40
0.7499822809
 40
0.8749963857
 40
1.0
 40
1.0
 40
1.0
 40
1.0
 10
214.7906557111
 20
151.3600576834
 30
0.0
 10
214.251391241
 20
151.0904254483
 30
0.0
 10
213.1534130733
 20
150.5883107409
 30
0.0
 10
211.4432988806
 20
149.9893699745
 30
0.0
 10
209.6725581815
 20
149.5960335799
 30
0.0
 10
207.8624514535
 20
149.4577042782
 30
0.0
 10
206.0523450678
 20
149.5960332581
 30
0.0
 10
204.2816055371
 20
149.9893704447
 30
0.0
 10
202.5714918397
 20
150.5883106039
 30
0.0
 10
201.4735139021
 20
151.0904253583
 30
0.0
 10
200.9342492519
 20
151.3600576834
 30
0.0
  0
SPLINE
  5
5E8
100
AcDbEntity
  8
KONSTRUKTIONSELEMENTE
100
AcDbSpline
 62
7
  6
CONTINUOUS
 70
0
 71
3
 72
10
 73
6
 74
0
 42
0.0000001
 43
0.0000001
 44
0.0000000001
 40
0.0
 40
0.0
 40
0.0
 40
0.0
 40
0.2500541975
 40
0.5001084613
 40
1.0
 40
1.0
 40
1.0
 40
1.0
 10
207.8624523364
 20
162.5036512276
 30
0.0
 10
207.276387573
 20
162.5036512276
 30
0.0
 10
206.1036365365
 20
162.453642932
 30
0.0
 10
203.7760196051
 20
162.1630476835
 30
0.0
 10
202.0599065572
 20
161.7568037262
 30
0.0
 10
200.9342492519
 20
161.4318544521
 30
0.0
  0
SPLINE
  5
5E9
100
AcDbEntity
  8
KONSTRUKTIONSELEMENTE
100
AcDbSpline
 62
7
  6
CONTINUOUS
 70
0
 71
3
 72
11
 73
7
 74
0
 42
0.0000001
 43
0.0000001
 44
0.0000000001
 40
0.0
 40
0.0
 40
0.0
 40
0.0
 40
0.261635542
 40
0.5144890696
 40
0.7595899797
 40
1.0
 40
1.0
 40
1.0
 40
1.0
 10
200.9342492519
 20
161.4318544521
 30
0.0
 10
200.6573415731
 20
161.591727175
 30
0.0
 10
200.1002536189
 20
161.8853328452
 30
0.0
 10
199.2364491732
 20
162.2311651597
 30
0.0
 10
198.3583986505
 20
162.4524350942
 30
0.0
 10
197.7639532404
 20
162.5036512282
 30
0.0
 10
197.4701475574
 20
162.5036512282
 30
0.0
  0
SPLINE
  5
5EA
100
AcDbEntity
  8
BEZUGSACHSEN
100
AcDbSpline
 62
7
  6
CONTINUOUS
 70
0
 71
3
 72
17
 73
13
 74
0
 42
0.0000001
 43
0.0000001
 44
0.0000000001
 40
0.0
 40
0.0
 40
0.0
 40
0.0
 40
0.1379493374
 40
0.2669046225
 40
0.3865345207
 40
0.4437238645
 40
0.5000000688
 40
0.5562762816
 40
0.6134655876
 40
0.7330954213
 40
0.8620506152
 40
1.0
 40
1.0
 40
1.0
 40
1.0
 10
200.9342492519
 20
151.3600576834
 30
0.0
 10
200.6722792887
 20
151.0980877201
 30
0.0
 10
200.1436845227
 20
150.6117180806
 30
0.0
 10
199.2942022902
 20
150.0087459079
 30
0.0
 10
198.5388328362
 20
149.66618668
 30
0.0
 10
197.9264514472
 20
149.526843408
 30
0.0
 10
197.4701470163
 20
149.4923903562
 30
0.0
 10
197.0138427849
 20
149.5268439001
 30
0.0
 10
196.4014614212
 20
149.6661861956
 30
0.0
 10
195.6460928974
 20
150.0087464492
 30
0.0
 10
194.7966106732
 20
150.6117179099
 30
0.0
 10
194.2680160755
 20
151.0980876302
 30
0.0
 10
194.0060460223
 20
151.3600576834
 30
0.0
  0
SPLINE
  5
5EB
100
AcDbEntity
  8
0
100
AcDbSpline
 62
7
  6
CONTINUOUS
 70
0
 71
3
 72
11
 73
7
 74
0
 42
0.0000001
 43
0.0000001
 44
0.0000000001
 40
0.0
 40
0.0
 40
0.0
 40
0.0
 40
0.5166038445
 40
0.7749249823
 40
0.9179388349
 40
1.0
 40
1.0
 40
1.0
 40
1.0
 10
219.8487684465
 20
300.7536512233
 30
0.0
 10
219.8487684465
 20
300.6558609195
 30
0.0
 10
219.8684822054
 20
300.5074411332
 30
0.0
 10
219.9391401151
 20
300.3466384902
 30
0.0
 10
219.996468538
 20
300.2743926025
 30
0.0
 10
220.0373409458
 20
300.2536512233
 30
0.0
 10
220.0528746789
 20
300.2536512233
 30
0.0
  0
SPLINE
  5
5EC
100
AcDbEntity
  8
0
100
AcDbSpline
 62
7
  6
CONTINUOUS
 70
0
 71
3
 72
11
 73
7
 74
0
 42
0.0000001
 43
0.0000001
 44
0.0000000001
 40
0.0
 40
0.0
 40
0.0
 40
0.0
 40
0.2635036984
 40
0.3819735254
 40
0.536850607
 40
1.0
 40
1.0
 40
1.0
 40
1.0
 10
195.800191172
 20
300.2536512233
 30
0.0
 10
195.8511771285
 20
300.2536512233
 30
0.0
 10
195.9137550224
 20
300.3196812463
 30
0.0
 10
195.9617905928
 20
300.4086964919
 30
0.0
 10
196.0125540906
 20
300.5434448611
 30
0.0
 10
196.0276726849
 20
300.6640353471
 30
0.0
 10
196.0276726849
 20
300.7536512233
 30
0.0
  0
SPLINE
  5
5ED
100
AcDbEntity
  8
0
100
AcDbSpline
 62
7
  6
CONTINUOUS
 70
0
 71
3
 72
11
 73
7
 74
0
 42
0.0000001
 43
0.0000001
 44
0.0000000001
 40
0.0
 40
0.0
 40
0.0
 40
0.0
 40
0.1473695779
 40
0.3283413617
 40
0.584686101
 40
1.0
 40
1.0
 40
1.0
 40
1.0
 10
219.6126284269
 20
302.0004197375
 30
0.0
 10
219.6408466735
 20
301.9947825011
 30
0.0
 10
219.7006539668
 20
301.9648291173
 30
0.0
 10
219.7735709436
 20
301.8739804931
 30
0.0
 10
219.8342463181
 20
301.7169607658
 30
0.0
 10
219.8487684465
 20
301.5847466475
 30
0.0
 10
219.8487684465
 20
301.5036512233
 30
0.0
  0
SPLINE
  5
5EE
100
AcDbEntity
  8
0
100
AcDbSpline
 62
7
  6
CONTINUOUS
 70
0
 71
3
 72
9
 73
5
 74
0
 42
0.0000001
 43
0.0000001
 44
0.0000000001
 40
0.0
 40
0.0
 40
0.0
 40
0.0
 40
0.595062651
 40
1.0
 40
1.0
 40
1.0
 40
1.0
 10
196.0276726849
 20
301.5036512233
 30
0.0
 10
196.0276726849
 20
301.5795842479
 30
0.0
 10
196.0415570554
 20
301.7078319122
 30
0.0
 10
196.0862667683
 20
301.8292358088
 30
0.0
 10
196.1122851836
 20
301.8738793376
 30
0.0
  0
SPLINE
  5
5EF
100
AcDbEntity
  8
BEZUGSACHSEN
100
AcDbSpline
 62
7
  6
CONTINUOUS
 70
0
 71
3
 72
11
 73
7
 74
0
 42
0.0000001
 43
0.0000001
 44
0.0000000001
 40
0.0
 40
0.0
 40
0.0
 40
0.0
 40
0.261635636
 40
0.5144889974
 40
0.7595899979
 40
1.0
 40
1.0
 40
1.0
 40
1.0
 10
194.006046021
 20
316.4318544536
 30
0.0
 10
194.2829537935
 20
316.5917272306
 30
0.0
 10
194.8400416488
 20
316.8853328727
 30
0.0
 10
195.7038461006
 20
317.2311651767
 30
0.0
 10
196.5818964981
 20
317.4524350614
 30
0.0
 10
197.1763419808
 20
317.5036512232
 30
0.0
 10
197.4701476354
 20
317.5036512233
 30
0.0
  0
SPLINE
  5
5F0
100
AcDbEntity
  8
BEZUGSACHSEN
100
AcDbSpline
 62
7
  6
CONTINUOUS
 70
0
 71
3
 72
11
 73
7
 74
0
 42
0.0000001
 43
0.0000001
 44
0.0000000001
 40
0.0
 40
0.0
 40
0.0
 40
0.0
 40
0.2404100398
 40
0.4855110518
 40
0.7383643655
 40
1.0
 40
1.0
 40
1.0
 40
1.0
 10
197.4701476354
 20
317.5036512233
 30
0.0
 10
197.7639533361
 20
317.5036512233
 30
0.0
 10
198.3583988797
 20
317.4524350492
 30
0.0
 10
199.2364492727
 20
317.2311651376
 30
0.0
 10
200.1002536765
 20
316.885332841
 30
0.0
 10
200.6573414803
 20
316.5917272297
 30
0.0
 10
200.9342492512
 20
316.4318544536
 30
0.0
  0
SPLINE
  5
5F1
100
AcDbEntity
  8
BEZUGSACHSEN
100
AcDbSpline
 62
7
  6
CONTINUOUS
 70
0
 71
3
 72
10
 73
6
 74
0
 42
0.0000001
 43
0.0000001
 44
0.0000000001
 40
0.0
 40
0.0
 40
0.0
 40
0.0
 40
0.4998915143
 40
0.7499457876
 40
1.0
 40
1.0
 40
1.0
 40
1.0
 10
200.9342492512
 20
316.4318544536
 30
0.0
 10
202.0599065247
 20
316.7568037185
 30
0.0
 10
203.776019574
 20
317.1630476713
 30
0.0
 10
206.1036365522
 20
317.453642942
 30
0.0
 10
207.2763876712
 20
317.5036512234
 30
0.0
 10
207.8624524815
 20
317.5036512234
 30
0.0
  0
SPLINE
  5
5F2
100
AcDbEntity
  8
BEZUGSACHSEN
100
AcDbSpline
 62
7
  6
CONTINUOUS
 70
0
 71
3
 72
10
 73
6
 74
0
 42
0.0000001
 43
0.0000001
 44
0.0000000001
 40
0.0
 40
0.0
 40
0.0
 40
0.0
 40
0.2500542352
 40
0.5001085202
 40
1.0
 40
1.0
 40
1.0
 40
1.0
 10
207.8624524815
 20
317.5036512234
 30
0.0
 10
208.4485173454
 20
317.5036512234
 30
0.0
 10
209.6212685453
 20
317.4536429315
 30
0.0
 10
211.9488855208
 20
317.1630476391
 30
0.0
 10
213.664998516
 20
316.7568036961
 30
0.0
 10
214.7906557118
 20
316.4318544536
 30
0.0
  0
SPLINE
  5
5F3
100
AcDbEntity
  8
BEZUGSACHSEN
100
AcDbSpline
 62
7
  6
CONTINUOUS
 70
0
 71
3
 72
11
 73
7
 74
0
 42
0.0000001
 43
0.0000001
 44
0.0000000001
 40
0.0
 40
0.0
 40
0.0
 40
0.0
 40
0.261635636
 40
0.5144889974
 40
0.7595899979
 40
1.0
 40
1.0
 40
1.0
 40
1.0
 10
214.7906557118
 20
316.4318544536
 30
0.0
 10
215.0675634843
 20
316.5917272306
 30
0.0
 10
215.6246513396
 20
316.8853328727
 30
0.0
 10
216.4884557914
 20
317.2311651767
 30
0.0
 10
217.3665061889
 20
317.4524350614
 30
0.0
 10
217.9609516716
 20
317.5036512232
 30
0.0
 10
218.2547573262
 20
317.5036512233
 30
0.0
  0
SPLINE
  5
5F4
100
AcDbEntity
  8
BEZUGSACHSEN
100
AcDbSpline
 62
7
  6
CONTINUOUS
 70
0
 71
3
 72
9
 73
5
 74
0
 42
0.0000001
 43
0.0000001
 44
0.0000000001
 40
0.0
 40
0.0
 40
0.0
 40
0.0
 40
0.4961584454
 40
1.0
 40
1.0
 40
1.0
 40
1.0
 10
218.2547573262
 20
317.5036512233
 30
0.0
 10
218.513527836
 20
317.5036512233
 30
0.0
 10
219.0357792151
 20
317.4641711541
 30
0.0
 10
219.546551417
 20
317.3504977634
 30
0.0
 10
219.7990818676
 20
317.277831061
 30
0.0
  0
SPLINE
  5
5F5
100
AcDbEntity
  8
BEZUGSACHSEN
100
AcDbSpline
 62
7
  6
CONTINUOUS
 70
0
 71
3
 72
9
 73
5
 74
0
 42
0.0000001
 43
0.0000001
 44
0.0000000001
 40
0.0
 40
0.0
 40
0.0
 40
0.0
 40
0.2431746274
 40
1.0
 40
1.0
 40
1.0
 40
1.0
 10
219.7990818676
 20
317.277831061
 30
0.0
 10
219.9627498161
 20
317.2307349185
 30
0.0
 10
220.6281332909
 20
317.0102208402
 30
0.0
 10
221.2598233954
 20
316.69687875
 30
0.0
 10
221.7188589421
 20
316.4318544536
 30
0.0
  0
SPLINE
  5
5F6
100
AcDbEntity
  8
KONSTRUKTIONSELEMENTE
100
AcDbSpline
 62
7
  6
CONTINUOUS
 70
0
 71
3
 72
9
 73
5
 74
0
 42
0.0000001
 43
0.0000001
 44
0.0000000001
 40
0.0
 40
0.0
 40
0.0
 40
0.0
 40
0.2491345028
 40
1.0
 40
1.0
 40
1.0
 40
1.0
 10
324.5343881562
 20
162.3754606992
 30
0.0
 10
324.1961217659
 20
162.3326620529
 30
0.0
 10
322.8434984213
 20
162.1197386457
 30
0.0
 10
321.5175413929
 20
161.7568188066
 30
0.0
 10
320.5426483292
 20
161.4318544521
 30
0.0
  0
SPLINE
  5
5F7
100
AcDbEntity
  8
KONSTRUKTIONSELEMENTE
100
AcDbSpline
 62
7
  6
CONTINUOUS
 70
0
 71
3
 72
10
 73
6
 74
0
 42
0.0000001
 43
0.0000001
 44
0.0000000001
 40
0.0
 40
0.0
 40
0.0
 40
0.0
 40
0.5015950116
 40
0.7510711018
 40
1.0
 40
1.0
 40
1.0
 40
1.0
 10
332.542648328
 20
161.4318544521
 30
0.0
 10
331.5721346506
 20
161.7553590112
 30
0.0
 10
330.0883848457
 20
162.1618717596
 30
0.0
 10
328.0675589454
 20
162.4535086338
 30
0.0
 10
327.0503427719
 20
162.5036512341
 30
0.0
 10
326.5426482074
 20
162.5036512274
 30
0.0
  0
SPLINE
  5
5F8
100
AcDbEntity
  8
KONSTRUKTIONSELEMENTE
100
AcDbSpline
 62
7
  6
CONTINUOUS
 70
0
 71
3
 72
9
 73
5
 74
0
 42
0.0000001
 43
0.0000001
 44
0.0000000001
 40
0.0
 40
0.0
 40
0.0
 40
0.0
 40
0.2512164057
 40
1.0
 40
1.0
 40
1.0
 40
1.0
 10
344.5426483268
 20
161.4318544521
 30
0.0
 10
344.2165282179
 20
161.5405611551
 30
0.0
 10
342.9109426814
 20
161.9495377735
 30
0.0
 10
341.5674264482
 20
162.246847482
 30
0.0
 10
340.550906156
 20
162.3754609756
 30
0.0
  0
SPLINE
  5
5F9
100
AcDbEntity
  8
BEZUGSACHSEN
100
AcDbSpline
 62
7
  6
CONTINUOUS
 70
0
 71
3
 72
15
 73
11
 74
0
 42
0.0000001
 43
0.0000001
 44
0.0000000001
 40
0.0
 40
0.0
 40
0.0
 40
0.0
 40
0.12678678
 40
0.2523062995
 40
0.3765643151
 40
0.5000000768
 40
0.6234358136
 40
0.7476937433
 40
0.8732131774
 40
1.0
 40
1.0
 40
1.0
 40
1.0
 10
332.542648328
 20
151.3600576834
 30
0.0
 10
332.0778171907
 20
151.0916873011
 30
0.0
 10
331.1321552473
 20
150.5918159195
 30
0.0
 10
329.6514171307
 20
149.991906256
 30
0.0
 10
328.1155601352
 20
149.5968081192
 30
0.0
 10
326.5426474427
 20
149.4574698819
 30
0.0
 10
324.9697350152
 20
149.5968078034
 30
0.0
 10
323.4338790882
 20
149.9919067179
 30
0.0
 10
321.9531413572
 20
150.5918157837
 30
0.0
 10
321.0074796225
 20
151.091687211
 30
0.0
 10
320.5426483292
 20
151.3600576834
 30
0.0
  0
SPLINE
  5
5FA
100
AcDbEntity
  8
BEZUGSACHSEN
100
AcDbSpline
 62
7
  6
CONTINUOUS
 70
0
 71
3
 72
15
 73
11
 74
0
 42
0.0000001
 43
0.0000001
 44
0.0000000001
 40
0.0
 40
0.0
 40
0.0
 40
0.0
 40
0.12678678
 40
0.2523062995
 40
0.3765643151
 40
0.5000000768
 40
0.6234358136
 40
0.7476937433
 40
0.8732131774
 40
1.0
 40
1.0
 40
1.0
 40
1.0
 10
344.5426483268
 20
151.3600576834
 30
0.0
 10
344.0778171895
 20
151.0916873011
 30
0.0
 10
343.1321552461
 20
150.5918159195
 30
0.0
 10
341.6514171295
 20
149.991906256
 30
0.0
 10
340.115560134
 20
149.5968081192
 30
0.0
 10
338.5426474415
 20
149.4574698819
 30
0.0
 10
336.969735014
 20
149.5968078034
 30
0.0
 10
335.433879087
 20
149.9919067179
 30
0.0
 10
333.953141356
 20
150.5918157837
 30
0.0
 10
333.0074796213
 20
151.091687211
 30
0.0
 10
332.542648328
 20
151.3600576834
 30
0.0
  0
SPLINE
  5
5FB
100
AcDbEntity
  8
KONSTRUKTIONSELEMENTE
100
AcDbSpline
 62
7
  6
CONTINUOUS
 70
0
 71
3
 72
10
 73
6
 74
0
 42
0.0000001
 43
0.0000001
 44
0.0000000001
 40
0.0
 40
0.0
 40
0.0
 40
0.0
 40
0.2489289318
 40
0.4984050404
 40
1.0
 40
1.0
 40
1.0
 40
1.0
 10
338.5426481867
 20
162.5036512283
 30
0.0
 10
338.0349535754
 20
162.5036512215
 30
0.0
 10
337.0177373401
 20
162.4535086019
 30
0.0
 10
334.9969115333
 20
162.1618716862
 30
0.0
 10
333.5131618636
 20
161.7553589639
 30
0.0
 10
332.542648328
 20
161.4318544521
 30
0.0
  0
SPLINE
  5
5FC
100
AcDbEntity
  8
RUNDUNGEN
100
AcDbSpline
 62
7
  6
CONTINUOUS
 70
0
 71
3
 72
14
 73
10
 74
0
 42
0.0000001
 43
0.0000001
 44
0.0000000001
 40
0.0
 40
0.0
 40
0.0
 40
0.0
 40
0.0626746962
 40
0.1410551577
 40
0.2408246667
 40
0.3624170445
 40
0.5035060667
 40
0.6601851808
 40
1.0
 40
1.0
 40
1.0
 40
1.0
 10
341.042648328
 20
276.6786512233
 30
0.0
 10
341.042648328
 20
276.6313423415
 30
0.0
 10
341.0079801889
 20
276.5248692062
 30
0.0
 10
340.8833018912
 20
276.3888188251
 30
0.0
 10
340.6945802929
 20
276.2617250434
 30
0.0
 10
340.4452479555
 20
276.1470418969
 30
0.0
 10
340.1437673064
 20
276.0487398377
 30
0.0
 10
339.6738488318
 20
275.9427087596
 30
0.0
 10
339.2990287475
 20
275.9051239319
 30
0.0
 10
339.042648328
 20
275.8971889663
 30
0.0
  0
SPLINE
  5
5FD
100
AcDbEntity
  8
RUNDUNGEN
100
AcDbSpline
 62
7
  6
CONTINUOUS
 70
0
 71
3
 72
14
 73
10
 74
0
 42
0.0000001
 43
0.0000001
 44
0.0000000001
 40
0.0
 40
0.0
 40
0.0
 40
0.0
 40
0.3400127395
 40
0.4967988902
 40
0.637980243
 40
0.7596266143
 40
0.8593786633
 40
0.9376238138
 40
1.0
 40
1.0
 40
1.0
 40
1.0
 10
326.042648328
 20
275.8971889663
 30
0.0
 10
325.7862470648
 20
275.905507465
 30
0.0
 10
325.411427991
 20
275.9436011184
 30
0.0
 10
324.9415362819
 20
276.0501038291
 30
0.0
 10
324.6400712239
 20
276.1485899103
 30
0.0
 10
324.3907675945
 20
276.263250936
 30
0.0
 10
324.202102131
 20
276.3900873237
 30
0.0
 10
324.0774518889
 20
276.5255366518
 30
0.0
 10
324.042648328
 20
276.6315890227
 30
0.0
 10
324.042648328
 20
276.6786512233
 30
0.0
  0
SPLINE
  5
5FE
100
AcDbEntity
  8
RUNDUNGEN
100
AcDbSpline
 62
7
  6
CONTINUOUS
 70
0
 71
3
 72
15
 73
11
 74
0
 42
0.0000001
 43
0.0000001
 44
0.0000000001
 40
0.0
 40
0.0
 40
0.0
 40
0.0
 40
0.1858036549
 40
0.362640939
 40
0.5252032284
 40
0.6686848797
 40
0.7890850696
 40
0.8836947692
 40
0.9524804367
 40
1.0
 40
1.0
 40
1.0
 40
1.0
 10
338.7212666665
 20
313.7737728779
 30
0.0
 10
338.7995499548
 20
313.7768020733
 30
0.0
 10
338.9525944581
 20
313.7703183652
 30
0.0
 10
339.1735197729
 20
313.7554472743
 30
0.0
 10
339.3755445351
 20
313.7288404612
 30
0.0
 10
339.5521061229
 20
313.6940559738
 30
0.0
 10
339.6976918732
 20
313.6526848564
 30
0.0
 10
339.8084800794
 20
313.6060217401
 30
0.0
 10
339.8828661408
 20
313.5563128792
 30
0.0
 10
339.9103905728
 20
313.5110723333
 30
0.0
 10
339.9121467724
 20
313.4911133971
 30
0.0
  0
SPLINE
  5
5FF
100
AcDbEntity
  8
BEZUGSACHSEN
100
AcDbSpline
 62
7
  6
CONTINUOUS
 70
0
 71
3
 72
9
 73
5
 74
0
 42
0.0000001
 43
0.0000001
 44
0.0000000001
 40
0.0
 40
0.0
 40
0.0
 40
0.0
 40
0.5015742323
 40
1.0
 40
1.0
 40
1.0
 40
1.0
 10
320.542648328
 20
316.4318544536
 30
0.0
 10
321.2832524986
 20
316.6787225104
 30
0.0
 10
322.7813372934
 20
317.1102888587
 30
0.0
 10
324.3220715715
 20
317.3656659334
 30
0.0
 10
325.0945761099
 20
317.4367154606
 30
0.0
  0
SPLINE
  5
600
100
AcDbEntity
  8
BEZUGSACHSEN
100
AcDbSpline
 62
7
  6
CONTINUOUS
 70
0
 71
3
 72
9
 73
5
 74
0
 42
0.0000001
 43
0.0000001
 44
0.0000000001
 40
0.0
 40
0.0
 40
0.0
 40
0.0
 40
0.4983242395
 40
1.0
 40
1.0
 40
1.0
 40
1.0
 10
339.5657962949
 20
317.4701273725
 30
0.0
 10
340.4102525398
 20
317.415017667
 30
0.0
 10
342.0975449252
 20
317.166324914
 30
0.0
 10
343.7344231687
 20
316.70126284
 30
0.0
 10
344.542648328
 20
316.4318544536
 30
0.0
  0
SPLINE
  5
601
100
AcDbEntity
  8
RUNDUNGEN
100
AcDbSpline
 62
7
  6
CONTINUOUS
 70
0
 71
3
 72
9
 73
5
 74
0
 42
0.0000001
 43
0.0000001
 44
0.0000000001
 40
0.0
 40
0.0
 40
0.0
 40
0.0
 40
0.5018107267
 40
1.0
 40
1.0
 40
1.0
 40
1.0
 10
239.2437776347
 20
65.0132473043
 30
0.0
 10
239.1298007799
 20
65.1258566166
 30
0.0
 10
238.8583727914
 20
65.3097003551
 30
0.0
 10
238.5374802812
 20
65.3789738456
 30
0.0
 10
238.3784428253
 20
65.3820517355
 30
0.0
  0
ELLIPSE
  5
602
100
AcDbEntity
  8
0
100
AcDbEllipse
 62
7
  6
CONTINUOUS
 10
182.156532785
 20
39.0125532911
 30
0.0
 11
0.0
 21
12.0
 31
0.0
 40
0.4040262258
 41
0.0
 42
0.0425493139
  0
ELLIPSE
  5
603
100
AcDbEntity
  8
0
100
AcDbEllipse
 62
7
  6
CONTINUOUS
 10
185.8614625154
 20
65.5024079228
 30
0.0
 11
2.2025625
 21
0.0
 31
0.0
 40
0.0882352941
 41
5.9429478779
 42
8.2205007769
  0
ELLIPSE
  5
604
100
AcDbEntity
  8
0
100
AcDbEllipse
 62
7
  6
CONTINUOUS
 10
183.2110054056
 20
65.9750875383
 30
0.0
 11
2.660244206
 21
0.0455672782
 31
0.0
 40
0.0644118454
 41
6.5373292009
 42
9.6789218545
  0
ELLIPSE
  5
605
100
AcDbEntity
  8
0
100
AcDbEllipse
 62
7
  6
CONTINUOUS
 10
182.6940990641
 20
65.922031112
 30
0.0
 11
1.122
 21
-0.0
 31
0.0
 40
0.0882352941
 41
1.9373154697
 42
3.5081117965
  0
ELLIPSE
  5
606
100
AcDbEntity
  8
0
100
AcDbEllipse
 62
7
  6
CONTINUOUS
 10
183.9974940371
 20
65.9661775638
 30
0.0
 11
1.122
 21
0.0
 31
0.0
 40
0.0882352941
 41
0.3665191429
 42
1.9373154697
  0
ELLIPSE
  5
607
100
AcDbEntity
  8
0
100
AcDbEllipse
 62
7
  6
CONTINUOUS
 10
183.2110054056
 20
65.5484363341
 30
0.0
 11
2.660244206
 21
0.0455672782
 31
0.0
 40
0.0644118454
 41
3.1404894162
 42
3.3957365473
  0
ELLIPSE
  5
608
100
AcDbEntity
  8
0
100
AcDbEllipse
 62
7
  6
CONTINUOUS
 10
185.8614625154
 20
65.5024079228
 30
0.0
 11
1.0805625
 21
0.0
 31
0.0
 40
0.0882352941
 41
5.6477483499
 42
8.2205007769
  0
ENDSEC
  0
SECTION
  2
OBJECTS
  0
DICTIONARY
  5
C
100
AcDbDictionary
280
0
281
1
  3
ACAD_GROUP
350
D
  3
ACAD_MLINESTYLE
350
17
  3
ACAD_LAYOUT
350
1A
  3
ACAD_PLOTSETTINGS
350
19
  3
ACAD_PLOTSTYLENAME
350
E
  0
DICTIONARY
  5
D
102
{ACAD_REACTORS
330
C
102
}
100
AcDbDictionary
280
0
281
1
  0
ACDBDICTIONARYWDFLT
  5
E
102
{ACAD_REACTORS
330
C
102
}
100
AcDbDictionary
281
1
  3
Normal
350
F
100
AcDbDictionaryWithDefault
340
F
  0
DICTIONARY
  5
17
102
{ACAD_REACTORS
330
C
102
}
100
AcDbDictionary
280
0
281
1
  3
Standard
350
18
  0
DICTIONARY
  5
19
102
{ACAD_REACTORS
330
C
102
}
100
AcDbDictionary
281
1
  0
DICTIONARY
  5
1A
102
{ACAD_REACTORS
330
C
102
}
100
AcDbDictionary
281
1
  3
Model
350
609
  3
Layout1
350
60A
  0
ACDBPLACEHOLDER
  5
F
102
{ACAD_REACTORS
330
E
102
}
  0
MLINESTYLE
  5
18
102
{ACAD_REACTORS
330
17
102
}
100
AcDbMlineStyle
  2
STANDARD
 70
0
  3

 62
256
 51
90.0
 52
90.0
 71
2
 49
0.5
 62
256
  6
BYLAYER
 49
-0.5
 62
256
  6
BYLAYER
  0
LAYOUT
  5
609
102
{ACAD_REACTORS
330
1A
102
}
100
AcDbPlotSettings
  1

  2
none_device
  4
ISO_A2_(594.00_x_420.00_MM)
  6

 40
0.0
 41
0.0
 42
0.0
 43
0.0
 44
594.0
 45
420.0
 46
0.0
 47
0.0
 48
0.0
 49
0.0
140
0.0
141
0.0
142
1.0
143
1.0
 70
1024
 72
1
 73
0
 74
0
  7

 75
0
147
1.0
148
0.0
149
0.0
100
AcDbLayout
  1
Model
 70
0
 71
0
 10
0.0
 20
0.0
 11
594.0
 21
420.0
 12
0.0
 22
0.0
 32
0.0
 14
0.0
 24
0.0
 34
0.0
 15
0.0
 25
0.0
 35
0.0
146
0.0
 13
0.0
 23
0.0
 33
0.0
 16
1.0
 26
0.0
 36
0.0
 17
0.0
 27
1.0
 37
0.0
 76
0
330
20F
345
0
346
0
  0
LAYOUT
  5
60A
102
{ACAD_REACTORS
330
1A
102
}
100
AcDbPlotSettings
  1

  2
none_device
  4
ISO_A2_(594.00_x_420.00_MM)
  6

 40
0.0
 41
0.0
 42
0.0
 43
0.0
 44
594.0
 45
420.0
 46
0.0
 47
0.0
 48
0.0
 49
0.0
140
0.0
141
0.0
142
1.0
143
1.0
 70
0
 72
1
 73
0
 74
0
  7

 75
0
147
1.0
148
0.0
149
0.0
100
AcDbLayout
  1
Layout1
 70
0
 71
1
 10
0.0
 20
0.0
 11
594.0
 21
420.0
 12
0.0
 22
0.0
 32
0.0
 14
0.0
 24
0.0
 34
0.0
 15
0.0
 25
0.0
 35
0.0
146
0.0
 13
0.0
 23
0.0
 33
0.0
 16
1.0
 26
0.0
 36
0.0
 17
0.0
 27
1.0
 37
0.0
 76
0
330
210
345
0
346
0
  0
ENDSEC
  0
EOF
