999
DXF file: 001-m35810-p-2.dxf
999
Pro/ENGINEER 2011490 by Parametric Technology Corporation
  0
SECTION
  2
HEADER
  9
$ACADVER
  1
AC1015
  9
$DWGCODEPAGE
  3
ANSI_1252
  9
$EXTMAX
 10
420.0
 20
297.0
 30
0.0
  9
$EXTMIN
 10
0.0
 20
0.0
 30
0.0
  9
$LIMMIN
 10
0.0
 20
0.0
  9
$LIMMAX
 10
420.0
 20
297.0
  9
$VIEWCTR
 10
210.0
 20
148.5
  9
$VIEWSIZE
 40
297.0
  9
$CLAYER
  8
0
  9
$LTSCALE
 40
23.1
  9
$CELTYPE
  6
BYLAYER
  9
$DIMSCALE
 40
1.0
  9
$DIMASZ
 40
3.5
  9
$DIMEXO
 40
2.625
  9
$DIMDLI
 40
15.96
  9
$DIMEXE
 40
7.56
  9
$DIMCEN
 40
3.78
  9
$DIMLFAC
 40
1.0
  9
$DIMBLK
  1
_FILLED
  9
$DIMTXT
 40
3.5
  9
$DIMTOL
 70
1
  9
$DIMLIM
 70
0
  9
$DIMTFAC
 40
1.0
  9
$DIMTP
 40
0.005
  9
$DIMTM
 40
0.005
  9
$PDMODE
 70
3
  9
$PDSIZE
 40
0.3125
  9
$HANDSEED
  5
63B
  9
$TILEMODE
 70
1
  9
$MEASUREMENT
 70
1
  9
$INSUNITS
 70
4
  0
ENDSEC
  0
SECTION
  2
CLASSES
  0
CLASS
  1
ACDBDICTIONARYWDFLT
  2
AcDbDictionaryWithDefault
  3
AutoCAD 2000
 90
0
280
0
281
0
  0
CLASS
  1
ACDBPLACEHOLDER
  2
AcDbPlaceHolder
  3
AutoCAD 2000
 90
0
280
0
281
0
  0
CLASS
  1
LAYOUT
  2
AcDbLayout
  3
AutoCAD 2000
 90
0
280
0
281
0
  0
ENDSEC
  0
SECTION
  2
TABLES
  0
TABLE
  2
VPORT
  5
8
100
AcDbSymbolTable
 70
2
  0
VPORT
  5
1F4
100
AcDbSymbolTableRecord
100
AcDbViewportTableRecord
  2
*ACTIVE
 70
0
 10
0.0
 20
0.0
 11
1.0
 21
1.0
 12
210.0
 22
148.5
 13
0.0
 23
0.0
 14
1.0
 24
1.0
 15
0.0
 25
0.0
 16
0.0
 26
0.0
 36
1.0
 17
0.0
 27
0.0
 37
0.0
 40
297.0
 41
1.4141414141
 42
50.0
 43
0.0
 44
0.0
 50
0.0
 51
0.0
 71
0
 72
100
 73
1
 74
1
 75
0
 76
0
 77
0
 78
0
  0
ENDTAB
  0
TABLE
  2
LTYPE
  5
5
100
AcDbSymbolTable
 70
6
  0
LTYPE
  5
14
100
AcDbSymbolTableRecord
100
AcDbLinetypeTableRecord
  2
BYBLOCK
 70
0
  3

 72
65
 73
0
 40
0.0
  0
LTYPE
  5
15
100
AcDbSymbolTableRecord
100
AcDbLinetypeTableRecord
  2
BYLAYER
 70
0
  3

 72
65
 73
0
 40
0.0
  0
LTYPE
  5
16
100
AcDbSymbolTableRecord
100
AcDbLinetypeTableRecord
  2
CONTINUOUS
 70
64
  3
Solid line
 72
65
 73
0
 40
0.0
  0
LTYPE
  5
1F5
100
AcDbSymbolTableRecord
100
AcDbLinetypeTableRecord
  2
CENTER
 70
64
  3
____ _ ____ _ ____ _ ____ _ ____ _ ____ _ ____
 72
65
 73
4
 40
0.6
 49
0.375
 74
0
 49
-0.075
 74
0
 49
0.075
 74
0
 49
-0.075
 74
0
  0
LTYPE
  5
1F6
100
AcDbSymbolTableRecord
100
AcDbLinetypeTableRecord
  2
HIDDEN
 70
64
  3
- - - - - - - - - - - - - - - - - - - -
 72
65
 73
2
 40
0.2
 49
0.1
 74
0
 49
-0.1
 74
0
  0
LTYPE
  5
1F7
100
AcDbSymbolTableRecord
100
AcDbLinetypeTableRecord
  2
PHANTOM
 70
64
  3
_____ _ _ _____ _ _ _____ _ _ _____
 72
65
 73
6
 40
0.8
 49
0.45
 74
0
 49
-0.05
 74
0
 49
0.1
 74
0
 49
-0.05
 74
0
 49
0.1
 74
0
 49
-0.05
 74
0
  0
LTYPE
  5
1F8
100
AcDbSymbolTableRecord
100
AcDbLinetypeTableRecord
  2
DOT
 70
64
  3
. . . . . . . . . . . . . . . . . . . .
 72
65
 73
2
 40
0.2
 49
0.1
 74
0
 49
-0.1
 74
0
  0
LTYPE
  5
1F9
100
AcDbSymbolTableRecord
100
AcDbLinetypeTableRecord
  2
DASHED
 70
64
  3
- - - - - - - - - - - - - - - - - - - -
 72
65
 73
2
 40
0.2
 49
0.1
 74
0
 49
-0.1
 74
0
  0
ENDTAB
  0
TABLE
  2
LAYER
  5
2
100
AcDbSymbolTable
 70
36
  0
LAYER
  5
10
100
AcDbSymbolTableRecord
100
AcDbLayerTableRecord
  2
0
 70
0
 62
7
  6
CONTINUOUS
370
-3
390
F
  0
LAYER
  5
1FA
100
AcDbSymbolTableRecord
100
AcDbLayerTableRecord
  2
DEFAULT_1
 70
0
 62
7
  6
CENTER
370
-3
390
F
  0
LAYER
  5
1FB
100
AcDbSymbolTableRecord
100
AcDbLayerTableRecord
  2
DEFAULT_2
 70
0
 62
8
  6
HIDDEN
370
-3
390
F
  0
LAYER
  5
1FC
100
AcDbSymbolTableRecord
100
AcDbLayerTableRecord
  2
DEFAULT_3
 70
0
 62
7
  6
PHANTOM
370
-3
390
F
  0
LAYER
  5
1FD
100
AcDbSymbolTableRecord
100
AcDbLayerTableRecord
  2
AUSFORMSCHRAEGEN
 70
0
 62
7
  6
CONTINUOUS
370
-3
390
F
  0
LAYER
  5
1FE
100
AcDbSymbolTableRecord
100
AcDbLayerTableRecord
  2
BEZUGSACHSEN
 70
0
 62
7
  6
CONTINUOUS
370
-3
390
F
  0
LAYER
  5
1FF
100
AcDbSymbolTableRecord
100
AcDbLayerTableRecord
  2
BEZUGSEBENEN
 70
0
 62
7
  6
CONTINUOUS
370
-3
390
F
  0
LAYER
  5
200
100
AcDbSymbolTableRecord
100
AcDbLayerTableRecord
  2
BG_STARTBEZUEGE
 70
0
 62
7
  6
CONTINUOUS
370
-3
390
F
  0
LAYER
  5
201
100
AcDbSymbolTableRecord
100
AcDbLayerTableRecord
  2
FASEN
 70
0
 62
7
  6
CONTINUOUS
370
-3
390
F
  0
LAYER
  5
202
100
AcDbSymbolTableRecord
100
AcDbLayerTableRecord
  2
GEWINDE
 70
0
 62
7
  6
CONTINUOUS
370
-3
390
F
  0
LAYER
  5
203
100
AcDbSymbolTableRecord
100
AcDbLayerTableRecord
  2
HILFEN
 70
0
 62
7
  6
CONTINUOUS
370
-3
390
F
  0
LAYER
  5
204
100
AcDbSymbolTableRecord
100
AcDbLayerTableRecord
  2
KONSTRUKTIONSELEMENTE
 70
0
 62
7
  6
CONTINUOUS
370
-3
390
F
  0
LAYER
  5
205
100
AcDbSymbolTableRecord
100
AcDbLayerTableRecord
  2
KURVEN
 70
0
 62
7
  6
CONTINUOUS
370
-3
390
F
  0
LAYER
  5
206
100
AcDbSymbolTableRecord
100
AcDbLayerTableRecord
  2
NORM
 70
0
 62
7
  6
CONTINUOUS
370
-3
390
F
  0
LAYER
  5
207
100
AcDbSymbolTableRecord
100
AcDbLayerTableRecord
  2
PLATZIERUNG
 70
0
 62
7
  6
CONTINUOUS
370
-3
390
F
  0
LAYER
  5
208
100
AcDbSymbolTableRecord
100
AcDbLayerTableRecord
  2
PLAZIERUNG
 70
0
 62
7
  6
CONTINUOUS
370
-3
390
F
  0
LAYER
  5
209
100
AcDbSymbolTableRecord
100
AcDbLayerTableRecord
  2
RUNDUNGEN
 70
0
 62
7
  6
CONTINUOUS
370
-3
390
F
  0
LAYER
  5
20A
100
AcDbSymbolTableRecord
100
AcDbLayerTableRecord
  2
TEIL_STARTBEZUEGE
 70
0
 62
7
  6
CONTINUOUS
370
-3
390
F
  0
LAYER
  5
20B
100
AcDbSymbolTableRecord
100
AcDbLayerTableRecord
  2
T_STARTBEZUEGE
 70
0
 62
7
  6
CONTINUOUS
370
-3
390
F
  0
LAYER
  5
20C
100
AcDbSymbolTableRecord
100
AcDbLayerTableRecord
  2
ZEICHNUNGSBEMASSUNGEN
 70
0
 62
7
  6
CONTINUOUS
370
-3
390
F
  0
ENDTAB
  0
TABLE
  2
STYLE
  5
3
100
AcDbSymbolTable
 70
1
  0
STYLE
  5
11
100
AcDbSymbolTableRecord
100
AcDbTextStyleTableRecord
  2
STANDARD
 70
0
 40
0.0
 41
0.7
 50
0.0
 71
0
 42
0.2
  3
txt
  4

  0
STYLE
  5
20D
100
AcDbSymbolTableRecord
100
AcDbTextStyleTableRecord
  2
TEXTSTYLE_1
 70
0
 40
0.0
 41
0.8
 50
0.0
 71
0
 42
0.2
  3
gdt
  4

  0
ENDTAB
  0
TABLE
  2
VIEW
  5
6
100
AcDbSymbolTable
 70
0
  0
ENDTAB
  0
TABLE
  2
UCS
  5
7
100
AcDbSymbolTable
 70
0
  0
ENDTAB
  0
TABLE
  2
APPID
  5
9
100
AcDbSymbolTable
 70
1
  0
APPID
  5
20E
100
AcDbSymbolTableRecord
100
AcDbRegAppTableRecord
  2
ACAD
 70
0
  0
ENDTAB
  0
TABLE
  2
BLOCK_RECORD
  5
1
100
AcDbSymbolTable
 70
0
  0
BLOCK_RECORD
  5
20F
100
AcDbSymbolTableRecord
100
AcDbBlockTableRecord
  2
*Model_Space
  0
BLOCK_RECORD
  5
210
100
AcDbSymbolTableRecord
100
AcDbBlockTableRecord
  2
*Paper_Space
  0
ENDTAB
  0
TABLE
  2
DIMSTYLE
  5
A
100
AcDbSymbolTable
 70
1
100
AcDbDimStyleTable
 71
0
  0
DIMSTYLE
105
211
100
AcDbSymbolTableRecord
100
AcDbDimStyleTableRecord
  2
STANDARD
 70
0
  3

  4

 40
1.0
 41
3.5
 42
0.0625
 43
0.38
 44
0.18
 45
0.0
 46
0.0
 47
0.005
 48
0.005
140
3.5
141
0.09
142
0.0
143
25.4
144
1.0
145
0.0
146
1.0
147
0.09
 71
1.0
 72
0.0
 73
0
 74
0
 75
0
 76
0
 77
1
 78
8
170
0
171
2
172
0
173
0
174
0
175
0
176
0
177
0
178
5
270
2
271
3
272
3
273
2
274
2
275
0
280
0
281
0
282
0
283
1
284
8
285
0
286
0
287
3
288
0
340
11
  0
ENDTAB
  0
ENDSEC
  0
SECTION
  2
BLOCKS
  0
BLOCK
  5
20
100
AcDbEntity
  8
0
100
AcDbBlockBegin
  2
*Model_Space
 70
0
 10
0.0
 20
0.0
 30
0.0
  3
*Model_Space
  1

  0
ENDBLK
  5
21
100
AcDbEntity
  8
0
100
AcDbBlockEnd
  0
BLOCK
  5
1C
100
AcDbEntity
  8
0
100
AcDbBlockBegin
  2
*Paper_Space
 70
0
 10
0.0
 20
0.0
 30
0.0
  3
*Paper_Space
  1

  0
ENDBLK
  5
1D
100
AcDbEntity
  8
0
100
AcDbBlockEnd
  0
ENDSEC
  0
SECTION
  2
ENTITIES
  0
MTEXT
  5
212
100
AcDbEntity
  8
0
100
AcDbMText
 62
5
  6
CONTINUOUS
  7
STANDARD
 71
1
 72
1
 10
136.1372756072
 20
211.2633474129
 30
0.0
 11
1.0
 21
0.0
 31
0.0
 44
0.9
  1
RUD
 40
3.5
 41
9.3333333333
  0
MTEXT
  5
213
100
AcDbEntity
  8
0
100
AcDbMText
 62
5
  6
CONTINUOUS
  7
STANDARD
 71
1
 72
1
 10
223.9449841605
 20
206.512407603
 30
0.0
 11
0.0
 21
1.0
 31
0.0
 44
0.9
  1
RUD ACP 1,35t M12
 40
3.5
 41
45.0
  0
MTEXT
  5
214
100
AcDbEntity
  8
0
100
AcDbMText
 62
5
  6
CONTINUOUS
  7
STANDARD
 71
1
 72
1
 10
118.5925454566
 20
38.7293890068
 30
0.0
 11
1.0
 21
0.0
 31
0.0
 44
0.9
  1
RUD ACP 1,35t M12
 40
3.5
 41
45.0
  0
LINE
  5
215
100
AcDbEntity
  8
0
100
AcDbLine
 62
7
  6
CONTINUOUS
 10
0.0
 20
0.0
 11
0.0
 21
297.0
  0
LINE
  5
216
100
AcDbEntity
  8
0
100
AcDbLine
 62
7
  6
CONTINUOUS
 10
0.0
 20
0.0
 11
420.0
 21
0.0
  0
LINE
  5
217
100
AcDbEntity
  8
0
100
AcDbLine
 62
7
  6
CONTINUOUS
 10
0.0
 20
297.0
 11
420.0
 21
297.0
  0
LINE
  5
218
100
AcDbEntity
  8
0
100
AcDbLine
 62
7
  6
CONTINUOUS
 10
420.0
 20
0.0
 11
420.0
 21
297.0
  0
LINE
  5
219
100
AcDbEntity
  8
BEZUGSACHSEN
100
AcDbLine
 62
7
  6
CONTINUOUS
 10
135.8547768123
 20
73.75251115
 11
145.4547768123
 21
73.75251115
  0
LINE
  5
21A
100
AcDbEntity
  8
BEZUGSACHSEN
100
AcDbLine
 62
7
  6
CONTINUOUS
 10
134.6547768123
 20
74.95251115
 11
146.6547768123
 21
74.95251115
  0
LINE
  5
21B
100
AcDbEntity
  8
RUNDUNGEN
100
AcDbLine
 62
7
  6
CONTINUOUS
 10
139.2955948661
 20
280.3557700838
 11
124.2150846293
 21
274.5669045739
  0
LINE
  5
21C
100
AcDbEntity
  8
BEZUGSACHSEN
100
AcDbLine
 62
7
  6
CONTINUOUS
 10
147.6547768122
 20
91.75251115
 11
133.6547768124
 21
91.75251115
  0
LINE
  5
21D
100
AcDbEntity
  8
BEZUGSACHSEN
100
AcDbLine
 62
7
  6
CONTINUOUS
 10
152.6547768123
 20
103.75251115
 11
128.6547768123
 21
103.75251115
  0
LINE
  5
21E
100
AcDbEntity
  8
BEZUGSACHSEN
100
AcDbLine
 62
7
  6
CONTINUOUS
 10
152.6547768123
 20
106.45251115
 11
128.6547768123
 21
106.45251115
  0
LINE
  5
21F
100
AcDbEntity
  8
BEZUGSACHSEN
100
AcDbLine
 62
7
  6
CONTINUOUS
 10
135.8547768123
 20
73.75251115
 11
134.6547768123
 21
74.95251115
  0
LINE
  5
220
100
AcDbEntity
  8
BEZUGSACHSEN
100
AcDbLine
 62
7
  6
CONTINUOUS
 10
133.6547768124
 20
91.75251115
 11
129.6851216977
 21
95.7221662647
  0
LINE
  5
221
100
AcDbEntity
  8
RUNDUNGEN
100
AcDbLine
 62
7
  6
CONTINUOUS
 10
122.1500775989
 20
272.7718213489
 11
115.1647156664
 21
260.1698948347
  0
LINE
  5
222
100
AcDbEntity
  8
KONSTRUKTIONSELEMENTE
100
AcDbLine
 62
7
  6
CONTINUOUS
 10
150.1547768123
 20
103.75251115
 11
151.6244319269
 21
102.904005374
  0
LINE
  5
223
100
AcDbEntity
  8
0
100
AcDbLine
 62
7
  6
CONTINUOUS
 10
122.4108911441
 20
229.6865354728
 11
122.0486626467
 21
229.474191641
  0
LINE
  5
224
100
AcDbEntity
  8
0
100
AcDbLine
 62
7
  6
CONTINUOUS
 10
122.4112880053
 20
229.2364425965
 11
122.6318094108
 21
229.3265568142
  0
LINE
  5
225
100
AcDbEntity
  8
0
100
AcDbLine
 62
7
  6
CONTINUOUS
 10
121.3265880786
 20
226.3489498106
 11
120.8855456275
 21
226.1687222581
  0
LINE
  5
226
100
AcDbEntity
  8
0
100
AcDbLine
 62
7
  6
CONTINUOUS
 10
122.0486626467
 20
229.474191641
 11
121.812616927
 21
229.1204458364
  0
LINE
  5
227
100
AcDbEntity
  8
0
100
AcDbLine
 62
7
  6
CONTINUOUS
 10
120.8389716055
 20
225.3778248484
 11
121.0435711159
 21
225.6543985894
  0
LINE
  5
228
100
AcDbEntity
  8
0
100
AcDbLine
 62
7
  6
CONTINUOUS
 10
122.2381347041
 20
229.0370409189
 11
122.4112880053
 21
229.2364425965
  0
LINE
  5
229
100
AcDbEntity
  8
0
100
AcDbLine
 62
7
  6
CONTINUOUS
 10
120.8855456275
 20
226.1687222581
 11
120.6021316236
 21
225.9242634717
  0
LINE
  5
22A
100
AcDbEntity
  8
0
100
AcDbLine
 62
7
  6
CONTINUOUS
 10
123.2678820097
 20
222.7683371818
 11
123.5512958543
 21
223.0127955182
  0
LINE
  5
22B
100
AcDbEntity
  8
0
100
AcDbLine
 62
7
  6
CONTINUOUS
 10
121.0435711159
 20
225.6543985894
 11
121.2955387306
 21
225.8216848707
  0
LINE
  5
22C
100
AcDbEntity
  8
0
100
AcDbLine
 62
7
  6
CONTINUOUS
 10
123.1098563138
 20
223.2826604202
 11
122.8578886439
 21
223.1153741614
  0
LINE
  5
22D
100
AcDbEntity
  8
BEZUGSACHSEN
100
AcDbLine
 62
7
  6
CONTINUOUS
 10
129.6851216977
 20
225.404005374
 11
131.1547768123
 21
226.25251115
  0
LINE
  5
22E
100
AcDbEntity
  8
0
100
AcDbLine
 62
7
  6
CONTINUOUS
 10
122.826839351
 20
222.588109199
 11
123.2678820097
 21
222.7683371818
  0
LINE
  5
22F
100
AcDbEntity
  8
RUNDUNGEN
100
AcDbLine
 62
7
  6
CONTINUOUS
 10
112.0857796016
 20
212.3660347653
 11
116.2637968527
 21
222.706990337
  0
LINE
  5
230
100
AcDbEntity
  8
0
100
AcDbLine
 62
7
  6
CONTINUOUS
 10
121.812616927
 20
229.1204458364
 11
121.0579048464
 21
227.2683088051
  0
LINE
  5
231
100
AcDbEntity
  8
0
100
AcDbLine
 62
7
  6
CONTINUOUS
 10
118.8252155335
 20
221.7890715411
 11
118.573644915
 21
221.1716927146
  0
LINE
  5
232
100
AcDbEntity
  8
0
100
AcDbLine
 62
7
  6
CONTINUOUS
 10
120.0830687613
 20
224.8759660045
 11
120.3660857241
 21
225.5705172256
  0
LINE
  5
233
100
AcDbEntity
  8
0
100
AcDbLine
 62
7
  6
CONTINUOUS
 10
121.6406545694
 20
227.5707664131
 11
122.2381347041
 21
229.0370409189
  0
LINE
  5
234
100
AcDbEntity
  8
0
100
AcDbLine
 62
7
  6
CONTINUOUS
 10
120.5559546427
 20
224.6832736273
 11
120.8389716055
 21
225.3778248484
  0
LINE
  5
235
100
AcDbEntity
  8
RUNDUNGEN
100
AcDbLine
 62
7
  6
CONTINUOUS
 10
119.299673665
 20
230.421199932
 11
117.964641933
 21
227.266882386
  0
LINE
  5
236
100
AcDbEntity
  8
0
100
AcDbLine
 62
7
  6
CONTINUOUS
 10
120.6021316236
 20
225.9242634717
 11
120.3660857241
 21
225.5705172256
  0
LINE
  5
237
100
AcDbEntity
  8
0
100
AcDbLine
 62
7
  6
CONTINUOUS
 10
123.5512958543
 20
223.0127955182
 11
123.7873419407
 21
223.3665422031
  0
LINE
  5
238
100
AcDbEntity
  8
0
100
AcDbLine
 62
7
  6
CONTINUOUS
 10
123.3144560041
 20
223.5592346028
 11
123.1098563138
 21
223.2826604202
  0
LINE
  5
239
100
AcDbEntity
  8
0
100
AcDbLine
 62
7
  6
CONTINUOUS
 10
157.6260027102
 20
231.4067561814
 11
157.0137574019
 21
231.1089071125
  0
LINE
  5
23A
100
AcDbEntity
  8
0
100
AcDbLine
 62
7
  6
CONTINUOUS
 10
157.7682049329
 20
230.9199075165
 11
154.7835096717
 21
229.4678936056
  0
LINE
  5
23B
100
AcDbEntity
  8
0
100
AcDbLine
 62
7
  6
CONTINUOUS
 10
155.0022425311
 20
229.0182760612
 11
158.5991828861
 21
230.7681389366
  0
LINE
  5
23C
100
AcDbEntity
  8
0
100
AcDbLine
 62
7
  6
CONTINUOUS
 10
120.0046513089
 20
224.4579885244
 11
120.0830687613
 21
224.8759660045
  0
LINE
  5
23D
100
AcDbEntity
  8
RUNDUNGEN
100
AcDbLine
 62
7
  6
CONTINUOUS
 10
128.1890519147
 20
224.5251489924
 11
124.8732252486
 21
216.3181900028
  0
LINE
  5
23E
100
AcDbEntity
  8
0
100
AcDbLine
 62
7
  6
CONTINUOUS
 10
121.5634282813
 20
225.8025110973
 11
121.7521062565
 21
226.2655452447
  0
LINE
  5
23F
100
AcDbEntity
  8
0
100
AcDbLine
 62
7
  6
CONTINUOUS
 10
123.4203496285
 20
228.555309886
 11
122.8228694937
 21
227.0890353802
  0
LINE
  5
240
100
AcDbEntity
  8
0
100
AcDbLine
 62
7
  6
CONTINUOUS
 10
123.2957553752
 20
226.896343003
 11
123.8617893007
 21
228.2854454452
  0
LINE
  5
241
100
AcDbEntity
  8
0
100
AcDbLine
 62
7
  6
CONTINUOUS
 10
121.4256912614
 20
221.179355987
 11
120.8596573134
 21
219.7902534895
  0
LINE
  5
242
100
AcDbEntity
  8
0
100
AcDbLine
 62
7
  6
CONTINUOUS
 10
123.564835579
 20
225.5268910871
 11
123.3761576038
 21
225.0638569397
  0
LINE
  5
243
100
AcDbEntity
  8
0
100
AcDbLine
 62
7
  6
CONTINUOUS
 10
121.1434682235
 20
219.58461951
 11
121.7723948149
 21
221.1280666865
  0
LINE
  5
244
100
AcDbEntity
  8
0
100
AcDbLine
 62
7
  6
CONTINUOUS
 10
123.5974729669
 20
224.2537858239
 11
123.3144560041
 21
223.5592346028
  0
LINE
  5
245
100
AcDbEntity
  8
0
100
AcDbLine
 62
7
  6
CONTINUOUS
 10
121.7747768123
 20
218.42751115
 11
121.9634547874
 21
218.8905452974
  0
LINE
  5
246
100
AcDbEntity
  8
0
100
AcDbLine
 62
7
  6
CONTINUOUS
 10
122.8439519749
 20
221.0513712452
 11
123.0326299501
 21
221.5144053926
  0
LINE
  5
247
100
AcDbEntity
  8
0
100
AcDbLine
 62
7
  6
CONTINUOUS
 10
123.7873419407
 20
223.3665422031
 11
124.0703589035
 21
224.0610934242
  0
LINE
  5
248
100
AcDbEntity
  8
0
100
AcDbLine
 62
7
  6
CONTINUOUS
 10
124.7621780258
 20
225.7588850038
 11
124.9508561809
 21
226.2219195928
  0
LINE
  5
249
100
AcDbEntity
  8
0
100
AcDbLine
 62
7
  6
CONTINUOUS
 10
158.5596248625
 20
226.7640260894
 11
158.2535023156
 21
226.6151016072
  0
LINE
  5
24A
100
AcDbEntity
  8
0
100
AcDbLine
 62
7
  6
CONTINUOUS
 10
159.8353080466
 20
226.0872299388
 11
159.6822465588
 21
226.0127675934
  0
LINE
  5
24B
100
AcDbEntity
  8
0
100
AcDbLine
 62
7
  6
CONTINUOUS
 10
158.2646198999
 20
225.2304398501
 11
157.958497353
 21
225.0815153678
  0
LINE
  5
24C
100
AcDbEntity
  8
0
100
AcDbLine
 62
7
  6
CONTINUOUS
 10
159.8645238721
 20
225.6380864493
 11
160.01758536
 21
225.7125487948
  0
LINE
  5
24D
100
AcDbEntity
  8
0
100
AcDbLine
 62
7
  6
CONTINUOUS
 10
158.1407746663
 20
224.7068342238
 11
158.4468972132
 21
224.855758706
  0
LINE
  5
24E
100
AcDbEntity
  8
0
100
AcDbLine
 62
7
  6
CONTINUOUS
 10
159.1977248838
 20
224.4796555654
 11
161.1875216531
 21
225.4476648045
  0
LINE
  5
24F
100
AcDbEntity
  8
0
100
AcDbLine
 62
7
  6
CONTINUOUS
 10
159.7626555893
 20
224.2911295954
 11
160.9871459914
 21
224.8868276288
  0
LINE
  5
250
100
AcDbEntity
  8
0
100
AcDbLine
 62
7
  6
CONTINUOUS
 10
159.9451914362
 20
221.9704757882
 11
159.7921301627
 21
221.896013547
  0
LINE
  5
251
100
AcDbEntity
  8
0
100
AcDbLine
 62
7
  6
CONTINUOUS
 10
162.0443547424
 20
222.7136763073
 11
162.427007926
 21
222.8998319101
  0
LINE
  5
252
100
AcDbEntity
  8
0
100
AcDbLine
 62
7
  6
CONTINUOUS
 10
159.8978770479
 20
221.4841008536
 11
160.2039995948
 21
221.6330253359
  0
LINE
  5
253
100
AcDbEntity
  8
0
100
AcDbLine
 62
7
  6
CONTINUOUS
 10
161.6436027874
 20
221.5920027092
 11
161.3374802405
 21
221.4430782269
  0
LINE
  5
254
100
AcDbEntity
  8
0
100
AcDbLine
 62
7
  6
CONTINUOUS
 10
162.5474920472
 20
221.290361433
 11
161.935246739
 21
220.9925123641
  0
LINE
  5
255
100
AcDbEntity
  8
0
100
AcDbLine
 62
7
  6
CONTINUOUS
 10
161.6291241921
 20
220.8435878819
 11
160.0985112967
 21
220.0989653922
  0
LINE
  5
256
100
AcDbEntity
  8
0
100
AcDbLine
 62
7
  6
CONTINUOUS
 10
118.3334936967
 20
203.4201587134
 11
118.3334936967
 21
204.0244929416
  0
LINE
  5
257
100
AcDbEntity
  8
0
100
AcDbLine
 62
7
  6
CONTINUOUS
 10
118.3334936967
 20
206.7957742337
 11
118.3334936967
 21
207.4001084619
  0
LINE
  5
258
100
AcDbEntity
  8
0
100
AcDbLine
 62
7
  6
CONTINUOUS
 10
120.5089835796
 20
224.3424686522
 11
120.5559546427
 21
224.6832736273
  0
LINE
  5
259
100
AcDbEntity
  8
0
100
AcDbLine
 62
7
  6
CONTINUOUS
 10
123.6444438501
 20
224.5945903574
 11
123.5974729669
 21
224.2537858239
  0
LINE
  5
25A
100
AcDbEntity
  8
0
100
AcDbLine
 62
7
  6
CONTINUOUS
 10
123.8617893007
 20
228.2854454452
 11
123.9402063932
 21
228.7034220422
  0
LINE
  5
25B
100
AcDbEntity
  8
0
100
AcDbLine
 62
7
  6
CONTINUOUS
 10
124.0703589035
 20
224.0610934242
 11
124.148776169
 21
224.4790704656
  0
LINE
  5
25C
100
AcDbEntity
  8
0
100
AcDbLine
 62
7
  6
CONTINUOUS
 10
156.8283775097
 20
227.40453949
 11
156.6352409878
 21
227.2179099163
  0
LINE
  5
25D
100
AcDbEntity
  8
0
100
AcDbLine
 62
7
  6
CONTINUOUS
 10
158.4468972132
 20
224.855758706
 11
158.7165643212
 21
225.0796196408
  0
LINE
  5
25E
100
AcDbEntity
  8
0
100
AcDbLine
 62
7
  6
CONTINUOUS
 10
160.01758536
 20
225.7125487948
 11
160.2872525694
 21
225.9364092486
  0
LINE
  5
25F
100
AcDbEntity
  8
0
100
AcDbLine
 62
7
  6
CONTINUOUS
 10
160.4338501457
 20
219.7987460866
 11
161.811401714
 21
220.468906309
  0
LINE
  5
260
100
AcDbEntity
  8
0
100
AcDbLine
 62
7
  6
CONTINUOUS
 10
162.1175242609
 20
220.6178307913
 11
162.7297695691
 21
220.9156798602
  0
LINE
  5
261
100
AcDbEntity
  8
0
100
AcDbLine
 62
7
  6
CONTINUOUS
 10
159.9966429604
 20
218.7520085122
 11
160.3027655341
 21
218.9009330075
  0
LINE
  5
262
100
AcDbEntity
  8
0
100
AcDbLine
 62
7
  6
CONTINUOUS
 10
162.2124116782
 20
219.6446080494
 11
162.5185342251
 21
219.7935325317
  0
LINE
  5
263
100
AcDbEntity
  8
0
100
AcDbLine
 62
7
  6
CONTINUOUS
 10
120.0046513089
 20
224.4579885244
 11
120.0364947393
 21
224.0850685947
  0
LINE
  5
264
100
AcDbEntity
  8
0
100
AcDbLine
 62
7
  6
CONTINUOUS
 10
121.3334936967
 20
205.1101335876
 11
121.3334936967
 21
205.7144678158
  0
LINE
  5
265
100
AcDbEntity
  8
0
100
AcDbLine
 62
7
  6
CONTINUOUS
 10
121.7334936967
 20
203.4201587134
 11
121.7334936967
 21
204.0244929416
  0
LINE
  5
266
100
AcDbEntity
  8
0
100
AcDbLine
 62
7
  6
CONTINUOUS
 10
121.7334936967
 20
206.7957742337
 11
121.7334936967
 21
207.4001084619
  0
LINE
  5
267
100
AcDbEntity
  8
RUNDUNGEN
100
AcDbLine
 62
7
  6
CONTINUOUS
 10
124.6547768123
 20
215.1943254371
 11
124.6547768123
 21
215.05251115
  0
LINE
  5
268
100
AcDbEntity
  8
RUNDUNGEN
100
AcDbLine
 62
7
  6
CONTINUOUS
 10
124.6547768123
 20
213.75251115
 11
124.6547768123
 21
205.9308230814
  0
LINE
  5
269
100
AcDbEntity
  8
RUNDUNGEN
100
AcDbLine
 62
7
  6
CONTINUOUS
 10
124.6547768123
 20
197.6241961371
 11
124.6547768123
 21
195.77751115
  0
LINE
  5
26A
100
AcDbEntity
  8
RUNDUNGEN
100
AcDbLine
 62
7
  6
CONTINUOUS
 10
125.4047768123
 20
212.75251115
 11
125.4047768123
 21
195.90251115
  0
LINE
  5
26B
100
AcDbEntity
  8
0
100
AcDbLine
 62
7
  6
CONTINUOUS
 10
125.6547768123
 20
195.75251115
 11
125.6547768123
 21
190.65251115
  0
LINE
  5
26C
100
AcDbEntity
  8
0
100
AcDbLine
 62
7
  6
CONTINUOUS
 10
126.6547768123
 20
218.75251115
 11
126.6547768123
 21
215.25251115
  0
LINE
  5
26D
100
AcDbEntity
  8
0
100
AcDbLine
 62
7
  6
CONTINUOUS
 10
123.4358743025
 20
228.8189423559
 11
123.4203496285
 21
228.555309886
  0
LINE
  5
26E
100
AcDbEntity
  8
0
100
AcDbLine
 62
7
  6
CONTINUOUS
 10
156.8940490957
 20
226.8804597045
 11
157.0106549274
 21
227.0298581315
  0
LINE
  5
26F
100
AcDbEntity
  8
0
100
AcDbLine
 62
7
  6
CONTINUOUS
 10
158.4978314618
 20
225.5292371852
 11
158.2646198999
 21
225.2304398501
  0
LINE
  5
270
100
AcDbEntity
  8
0
100
AcDbLine
 62
7
  6
CONTINUOUS
 10
158.508949046
 20
224.1445754281
 11
158.2757375377
 21
223.8457781191
  0
LINE
  5
271
100
AcDbEntity
  8
0
100
AcDbLine
 62
7
  6
CONTINUOUS
 10
160.2039995948
 20
221.6330253359
 11
160.5137417935
 21
221.9690537916
  0
LINE
  5
272
100
AcDbEntity
  8
0
100
AcDbLine
 62
7
  6
CONTINUOUS
 10
160.1383281161
 20
222.1571051736
 11
159.9451914362
 21
221.9704757882
  0
LINE
  5
273
100
AcDbEntity
  8
0
100
AcDbLine
 62
7
  6
CONTINUOUS
 10
160.2407135194
 20
219.6121167273
 11
160.4338501457
 21
219.7987460866
  0
LINE
  5
274
100
AcDbEntity
  8
RUNDUNGEN
100
AcDbLine
 62
7
  6
CONTINUOUS
 10
117.59615752
 20
194.8867800215
 11
112.1258536082
 21
207.7740084338
  0
LINE
  5
275
100
AcDbEntity
  8
0
100
AcDbLine
 62
7
  6
CONTINUOUS
 10
124.148776169
 20
224.4790704656
 11
124.1169328979
 21
224.8519908452
  0
LINE
  5
276
100
AcDbEntity
  8
0
100
AcDbLine
 62
7
  6
CONTINUOUS
 10
128.2356946243
 20
215.05251115
 11
128.2356946243
 21
213.75251115
  0
LINE
  5
277
100
AcDbEntity
  8
BEZUGSACHSEN
100
AcDbLine
 62
7
  6
CONTINUOUS
 10
128.6547768123
 20
106.45251115
 11
128.6547768123
 21
103.75251115
  0
LINE
  5
278
100
AcDbEntity
  8
0
100
AcDbLine
 62
7
  6
CONTINUOUS
 10
129.1144056304
 20
213.75251115
 11
129.1144056304
 21
215.05251115
  0
LINE
  5
279
100
AcDbEntity
  8
KONSTRUKTIONSELEMENTE
100
AcDbLine
 62
7
  6
CONTINUOUS
 10
129.6851216977
 20
102.904005374
 11
129.6851216977
 21
95.7221662647
  0
LINE
  5
27A
100
AcDbEntity
  8
BEZUGSACHSEN
100
AcDbLine
 62
7
  6
CONTINUOUS
 10
129.6851216977
 20
219.25251115
 11
129.6851216977
 21
225.404005374
  0
LINE
  5
27B
100
AcDbEntity
  8
0
100
AcDbLine
 62
7
  6
CONTINUOUS
 10
131.6547768123
 20
215.25251115
 11
131.6547768123
 21
213.9117692541
  0
LINE
  5
27C
100
AcDbEntity
  8
0
100
AcDbLine
 62
7
  6
CONTINUOUS
 10
131.6547768123
 20
195.90251115
 11
131.6547768123
 21
195.75251115
  0
LINE
  5
27D
100
AcDbEntity
  8
KONSTRUKTIONSELEMENTE
100
AcDbLine
 62
7
  6
CONTINUOUS
 10
132.0547768123
 20
218.75251115
 11
132.0547768123
 21
219.25251115
  0
LINE
  5
27E
100
AcDbEntity
  8
BEZUGSACHSEN
100
AcDbLine
 62
7
  6
CONTINUOUS
 10
132.0547768123
 20
218.75251115
 11
132.0547768123
 21
219.25251115
  0
LINE
  5
27F
100
AcDbEntity
  8
KONSTRUKTIONSELEMENTE
100
AcDbLine
 62
7
  6
CONTINUOUS
 10
132.6276555364
 20
226.25251115
 11
132.6276555364
 21
226.45251115
  0
LINE
  5
280
100
AcDbEntity
  8
0
100
AcDbLine
 62
7
  6
CONTINUOUS
 10
156.6352409878
 20
227.2179099163
 11
156.4785600655
 21
226.9563439683
  0
LINE
  5
281
100
AcDbEntity
  8
0
100
AcDbLine
 62
7
  6
CONTINUOUS
 10
158.7165643212
 20
225.0796196408
 11
158.8732453478
 21
225.3411853744
  0
LINE
  5
282
100
AcDbEntity
  8
0
100
AcDbLine
 62
7
  6
CONTINUOUS
 10
159.9919890732
 20
226.3487956724
 11
159.8353080466
 21
226.0872299388
  0
LINE
  5
283
100
AcDbEntity
  8
0
100
AcDbLine
 62
7
  6
CONTINUOUS
 10
158.4944703972
 20
223.3961605747
 11
158.7276819055
 21
223.6949578837
  0
LINE
  5
284
100
AcDbEntity
  8
0
100
AcDbLine
 62
7
  6
CONTINUOUS
 10
160.0985112967
 20
220.0989653922
 11
159.8652998152
 21
219.8001680963
  0
LINE
  5
285
100
AcDbEntity
  8
0
100
AcDbLine
 62
7
  6
CONTINUOUS
 10
120.5722732191
 20
224.0467207861
 11
120.5089835796
 21
224.3424686522
  0
LINE
  5
286
100
AcDbEntity
  8
0
100
AcDbLine
 62
7
  6
CONTINUOUS
 10
123.6444438501
 20
224.5945903574
 11
123.5811541554
 21
224.890338246
  0
LINE
  5
287
100
AcDbEntity
  8
RUNDUNGEN
100
AcDbLine
 62
7
  6
CONTINUOUS
 10
114.7366857611
 20
257.4674203722
 11
119.5425283135
 21
232.7435037695
  0
LINE
  5
288
100
AcDbEntity
  8
BEZUGSACHSEN
100
AcDbLine
 62
7
  6
CONTINUOUS
 10
134.6547768123
 20
190.65251115
 11
134.6547768123
 21
106.45251115
  0
LINE
  5
289
100
AcDbEntity
  8
BEZUGSACHSEN
100
AcDbLine
 62
7
  6
CONTINUOUS
 10
134.6547768123
 20
91.75251115
 11
134.6547768123
 21
74.95251115
  0
LINE
  5
28A
100
AcDbEntity
  8
KONSTRUKTIONSELEMENTE
100
AcDbLine
 62
7
  6
CONTINUOUS
 10
135.1049279772
 20
226.25251115
 11
135.1049279772
 21
226.45251115
  0
LINE
  5
28B
100
AcDbEntity
  8
KONSTRUKTIONSELEMENTE
100
AcDbLine
 62
7
  6
CONTINUOUS
 10
135.1364593865
 20
226.25251115
 11
135.1364593865
 21
226.45251115
  0
LINE
  5
28C
100
AcDbEntity
  8
KONSTRUKTIONSELEMENTE
100
AcDbLine
 62
7
  6
CONTINUOUS
 10
135.169949255
 20
102.904005374
 11
135.169949255
 21
95.7221662647
  0
LINE
  5
28D
100
AcDbEntity
  8
BEZUGSACHSEN
100
AcDbLine
 62
7
  6
CONTINUOUS
 10
135.169949255
 20
219.25251115
 11
135.169949255
 21
225.404005374
  0
LINE
  5
28E
100
AcDbEntity
  8
KONSTRUKTIONSELEMENTE
100
AcDbLine
 62
7
  6
CONTINUOUS
 10
135.2678402535
 20
226.25251115
 11
135.2678402535
 21
226.45251115
  0
LINE
  5
28F
100
AcDbEntity
  8
KONSTRUKTIONSELEMENTE
100
AcDbLine
 62
7
  6
CONTINUOUS
 10
135.3046269077
 20
226.25251115
 11
135.3046269077
 21
226.45251115
  0
LINE
  5
290
100
AcDbEntity
  8
KONSTRUKTIONSELEMENTE
100
AcDbLine
 62
7
  6
CONTINUOUS
 10
135.3812155898
 20
226.25251115
 11
135.3812155898
 21
226.45251115
  0
LINE
  5
291
100
AcDbEntity
  8
KONSTRUKTIONSELEMENTE
100
AcDbLine
 62
7
  6
CONTINUOUS
 10
135.545398731
 20
226.25251115
 11
135.545398731
 21
226.45251115
  0
LINE
  5
292
100
AcDbEntity
  8
KONSTRUKTIONSELEMENTE
100
AcDbLine
 62
7
  6
CONTINUOUS
 10
135.6789418877
 20
226.25251115
 11
135.6789418877
 21
226.45251115
  0
LINE
  5
293
100
AcDbEntity
  8
KONSTRUKTIONSELEMENTE
100
AcDbLine
 62
7
  6
CONTINUOUS
 10
135.7475441034
 20
226.25251115
 11
135.7475441034
 21
226.45251115
  0
LINE
  5
294
100
AcDbEntity
  8
KONSTRUKTIONSELEMENTE
100
AcDbLine
 62
7
  6
CONTINUOUS
 10
135.7855063387
 20
226.25251115
 11
135.7855063387
 21
226.45251115
  0
LINE
  5
295
100
AcDbEntity
  8
KONSTRUKTIONSELEMENTE
100
AcDbLine
 62
7
  6
CONTINUOUS
 10
136.1994595918
 20
226.25251115
 11
136.1994595918
 21
226.45251115
  0
LINE
  5
296
100
AcDbEntity
  8
KONSTRUKTIONSELEMENTE
100
AcDbLine
 62
7
  6
CONTINUOUS
 10
136.8596166248
 20
226.25251115
 11
136.8596166248
 21
226.45251115
  0
LINE
  5
297
100
AcDbEntity
  8
KONSTRUKTIONSELEMENTE
100
AcDbLine
 62
7
  6
CONTINUOUS
 10
136.9593816859
 20
226.25251115
 11
136.9593816859
 21
226.45251115
  0
LINE
  5
298
100
AcDbEntity
  8
KONSTRUKTIONSELEMENTE
100
AcDbLine
 62
7
  6
CONTINUOUS
 10
136.9938722317
 20
226.25251115
 11
136.9938722317
 21
226.45251115
  0
LINE
  5
299
100
AcDbEntity
  8
KONSTRUKTIONSELEMENTE
100
AcDbLine
 62
7
  6
CONTINUOUS
 10
139.0863371534
 20
226.25251115
 11
139.0863371534
 21
226.45251115
  0
LINE
  5
29A
100
AcDbEntity
  8
KONSTRUKTIONSELEMENTE
100
AcDbLine
 62
7
  6
CONTINUOUS
 10
139.2844269219
 20
226.25251115
 11
139.2844269219
 21
226.45251115
  0
LINE
  5
29B
100
AcDbEntity
  8
KONSTRUKTIONSELEMENTE
100
AcDbLine
 62
7
  6
CONTINUOUS
 10
139.5180650218
 20
226.25251115
 11
139.5180650218
 21
226.45251115
  0
LINE
  5
29C
100
AcDbEntity
  8
KONSTRUKTIONSELEMENTE
100
AcDbLine
 62
7
  6
CONTINUOUS
 10
140.0632202911
 20
226.25251115
 11
140.0632202911
 21
226.45251115
  0
LINE
  5
29D
100
AcDbEntity
  8
KONSTRUKTIONSELEMENTE
100
AcDbLine
 62
7
  6
CONTINUOUS
 10
140.3747383518
 20
226.25251115
 11
140.3747383518
 21
226.45251115
  0
LINE
  5
29E
100
AcDbEntity
  8
KONSTRUKTIONSELEMENTE
100
AcDbLine
 62
7
  6
CONTINUOUS
 10
140.7639506067
 20
226.25251115
 11
140.7639506067
 21
226.45251115
  0
LINE
  5
29F
100
AcDbEntity
  8
KONSTRUKTIONSELEMENTE
100
AcDbLine
 62
7
  6
CONTINUOUS
 10
140.919893621
 20
226.25251115
 11
140.919893621
 21
226.45251115
  0
LINE
  5
2A0
100
AcDbEntity
  8
KONSTRUKTIONSELEMENTE
100
AcDbLine
 62
7
  6
CONTINUOUS
 10
141.1535317209
 20
226.25251115
 11
141.1535317209
 21
226.45251115
  0
LINE
  5
2A1
100
AcDbEntity
  8
0
100
AcDbLine
 62
7
  6
CONTINUOUS
 10
156.8138987566
 20
226.656124851
 11
156.8940490957
 21
226.8804597045
  0
LINE
  5
2A2
100
AcDbEntity
  8
0
100
AcDbLine
 62
7
  6
CONTINUOUS
 10
158.2757375377
 20
223.8457781191
 11
158.0789813937
 21
223.4720448516
  0
LINE
  5
2A3
100
AcDbEntity
  8
0
100
AcDbLine
 62
7
  6
CONTINUOUS
 10
160.5137417935
 20
221.9690537916
 11
160.7104979107
 21
222.342787046
  0
LINE
  5
2A4
100
AcDbEntity
  8
0
100
AcDbLine
 62
7
  6
CONTINUOUS
 10
160.295008934
 20
222.4186713359
 11
160.1383281161
 21
222.1571051736
  0
LINE
  5
2A5
100
AcDbEntity
  8
0
100
AcDbLine
 62
7
  6
CONTINUOUS
 10
120.0364947393
 20
224.0850685947
 11
120.2259666168
 21
223.6479174311
  0
LINE
  5
2A6
100
AcDbEntity
  8
0
100
AcDbLine
 62
7
  6
CONTINUOUS
 10
123.9402063932
 20
228.7034220422
 11
123.8295490091
 21
229.1084582512
  0
LINE
  5
2A7
100
AcDbEntity
  8
KONSTRUKTIONSELEMENTE
100
AcDbLine
 62
7
  6
CONTINUOUS
 10
141.6965643269
 20
226.25251115
 11
141.6965643269
 21
226.45251115
  0
LINE
  5
2A8
100
AcDbEntity
  8
KONSTRUKTIONSELEMENTE
100
AcDbLine
 62
7
  6
CONTINUOUS
 10
141.9266964236
 20
226.25251115
 11
141.9266964236
 21
226.45251115
  0
LINE
  5
2A9
100
AcDbEntity
  8
KONSTRUKTIONSELEMENTE
100
AcDbLine
 62
7
  6
CONTINUOUS
 10
142.2439736186
 20
226.25251115
 11
142.2439736186
 21
226.45251115
  0
LINE
  5
2AA
100
AcDbEntity
  8
KONSTRUKTIONSELEMENTE
100
AcDbLine
 62
7
  6
CONTINUOUS
 10
143.529240465
 20
226.25251115
 11
143.529240465
 21
226.45251115
  0
LINE
  5
2AB
100
AcDbEntity
  8
KONSTRUKTIONSELEMENTE
100
AcDbLine
 62
7
  6
CONTINUOUS
 10
143.6371626253
 20
226.25251115
 11
143.6371626253
 21
226.45251115
  0
LINE
  5
2AC
100
AcDbEntity
  8
KONSTRUKTIONSELEMENTE
100
AcDbLine
 62
7
  6
CONTINUOUS
 10
144.0049145392
 20
226.25251115
 11
144.0049145392
 21
226.45251115
  0
LINE
  5
2AD
100
AcDbEntity
  8
KONSTRUKTIONSELEMENTE
100
AcDbLine
 62
7
  6
CONTINUOUS
 10
144.1410712676
 20
226.25251115
 11
144.1410712676
 21
226.45251115
  0
LINE
  5
2AE
100
AcDbEntity
  8
KONSTRUKTIONSELEMENTE
100
AcDbLine
 62
7
  6
CONTINUOUS
 10
144.263111113
 20
226.25251115
 11
144.263111113
 21
226.45251115
  0
LINE
  5
2AF
100
AcDbEntity
  8
KONSTRUKTIONSELEMENTE
100
AcDbLine
 62
7
  6
CONTINUOUS
 10
144.3062800316
 20
226.25251115
 11
144.3062800316
 21
226.45251115
  0
LINE
  5
2B0
100
AcDbEntity
  8
KONSTRUKTIONSELEMENTE
100
AcDbLine
 62
7
  6
CONTINUOUS
 10
144.3569156186
 20
226.25251115
 11
144.3569156186
 21
226.45251115
  0
LINE
  5
2B1
100
AcDbEntity
  8
KONSTRUKTIONSELEMENTE
100
AcDbLine
 62
7
  6
CONTINUOUS
 10
146.1396043696
 20
102.904005374
 11
146.1396043696
 21
95.7221662647
  0
LINE
  5
2B2
100
AcDbEntity
  8
BEZUGSACHSEN
100
AcDbLine
 62
7
  6
CONTINUOUS
 10
146.1396043696
 20
219.25251115
 11
146.1396043696
 21
225.404005374
  0
LINE
  5
2B3
100
AcDbEntity
  8
BEZUGSACHSEN
100
AcDbLine
 62
7
  6
CONTINUOUS
 10
146.6547768123
 20
74.95251115
 11
146.6547768123
 21
91.75251115
  0
LINE
  5
2B4
100
AcDbEntity
  8
BEZUGSACHSEN
100
AcDbLine
 62
7
  6
CONTINUOUS
 10
146.6547768123
 20
106.45251115
 11
146.6547768123
 21
190.65251115
  0
LINE
  5
2B5
100
AcDbEntity
  8
0
100
AcDbLine
 62
7
  6
CONTINUOUS
 10
160.2872525694
 20
225.9364092486
 11
160.4475531405
 21
226.3850789034
  0
LINE
  5
2B6
100
AcDbEntity
  8
0
100
AcDbLine
 62
7
  6
CONTINUOUS
 10
124.1169328979
 20
224.8519908452
 11
123.9274608129
 21
225.2891415785
  0
LINE
  5
2B7
100
AcDbEntity
  8
0
100
AcDbLine
 62
7
  6
CONTINUOUS
 10
123.3411384537
 20
229.0375181585
 11
123.4358743025
 21
228.8189423559
  0
LINE
  5
2B8
100
AcDbEntity
  8
KONSTRUKTIONSELEMENTE
100
AcDbLine
 62
7
  6
CONTINUOUS
 10
149.2547768123
 20
218.75251115
 11
149.2547768123
 21
219.25251115
  0
LINE
  5
2B9
100
AcDbEntity
  8
BEZUGSACHSEN
100
AcDbLine
 62
7
  6
CONTINUOUS
 10
149.2547768123
 20
218.75251115
 11
149.2547768123
 21
219.25251115
  0
LINE
  5
2BA
100
AcDbEntity
  8
0
100
AcDbLine
 62
7
  6
CONTINUOUS
 10
149.6547768123
 20
215.25251115
 11
149.6547768123
 21
213.91150343
  0
LINE
  5
2BB
100
AcDbEntity
  8
0
100
AcDbLine
 62
7
  6
CONTINUOUS
 10
149.6547768123
 20
195.90251115
 11
149.6547768123
 21
195.75251115
  0
LINE
  5
2BC
100
AcDbEntity
  8
KONSTRUKTIONSELEMENTE
100
AcDbLine
 62
7
  6
CONTINUOUS
 10
151.6244319269
 20
102.904005374
 11
151.6244319269
 21
95.7221662647
  0
LINE
  5
2BD
100
AcDbEntity
  8
BEZUGSACHSEN
100
AcDbLine
 62
7
  6
CONTINUOUS
 10
151.6244319269
 20
219.25251115
 11
151.6244319269
 21
225.404005374
  0
LINE
  5
2BE
100
AcDbEntity
  8
0
100
AcDbLine
 62
7
  6
CONTINUOUS
 10
152.1951479941
 20
213.75251115
 11
152.1951479941
 21
215.05251115
  0
LINE
  5
2BF
100
AcDbEntity
  8
BEZUGSACHSEN
100
AcDbLine
 62
7
  6
CONTINUOUS
 10
152.6547768123
 20
106.45251115
 11
152.6547768123
 21
103.75251115
  0
LINE
  5
2C0
100
AcDbEntity
  8
0
100
AcDbLine
 62
7
  6
CONTINUOUS
 10
153.0738590003
 20
215.05251115
 11
153.0738590003
 21
213.75251115
  0
LINE
  5
2C1
100
AcDbEntity
  8
0
100
AcDbLine
 62
7
  6
CONTINUOUS
 10
154.6547768123
 20
218.75251115
 11
154.6547768123
 21
215.25251115
  0
LINE
  5
2C2
100
AcDbEntity
  8
0
100
AcDbLine
 62
7
  6
CONTINUOUS
 10
155.6547768123
 20
195.75251115
 11
155.6547768123
 21
190.65251115
  0
LINE
  5
2C3
100
AcDbEntity
  8
RUNDUNGEN
100
AcDbLine
 62
7
  6
CONTINUOUS
 10
155.9047768123
 20
212.75251115
 11
155.9047768123
 21
195.90251115
  0
LINE
  5
2C4
100
AcDbEntity
  8
0
100
AcDbLine
 62
7
  6
CONTINUOUS
 10
156.4348651949
 20
226.6570729419
 11
156.4276258772
 21
226.2828655185
  0
LINE
  5
2C5
100
AcDbEntity
  8
0
100
AcDbLine
 62
7
  6
CONTINUOUS
 10
156.8102791077
 20
226.4690211442
 11
156.8138987566
 21
226.656124851
  0
LINE
  5
2C6
100
AcDbEntity
  8
0
100
AcDbLine
 62
7
  6
CONTINUOUS
 10
158.0789813937
 20
223.4720448516
 11
158.0316667768
 21
222.985670336
  0
LINE
  5
2C7
100
AcDbEntity
  8
0
100
AcDbLine
 62
7
  6
CONTINUOUS
 10
156.4785600655
 20
226.9563439683
 11
156.4348651949
 21
226.6570729419
  0
LINE
  5
2C8
100
AcDbEntity
  8
0
100
AcDbLine
 62
7
  6
CONTINUOUS
 10
158.5415263055
 20
225.8285081985
 11
158.4978314618
 21
225.5292371852
  0
LINE
  5
2C9
100
AcDbEntity
  8
0
100
AcDbLine
 62
7
  6
CONTINUOUS
 10
158.4507755534
 20
223.0968895614
 11
158.4944703972
 21
223.3961605747
  0
LINE
  5
2CA
100
AcDbEntity
  8
0
100
AcDbLine
 62
7
  6
CONTINUOUS
 10
160.035683917
 20
226.6480666857
 11
159.9919890732
 21
226.3487956724
  0
LINE
  5
2CB
100
AcDbEntity
  8
0
100
AcDbLine
 62
7
  6
CONTINUOUS
 10
159.8652998152
 20
219.8001680963
 11
159.8216049581
 21
219.5008970764
  0
LINE
  5
2CC
100
AcDbEntity
  8
0
100
AcDbLine
 62
7
  6
CONTINUOUS
 10
160.3387037778
 20
222.7179423493
 11
160.295008934
 21
222.4186713359
  0
LINE
  5
2CD
100
AcDbEntity
  8
0
100
AcDbLine
 62
7
  6
CONTINUOUS
 10
160.1970186757
 20
219.312845714
 11
160.2407135194
 21
219.6121167273
  0
LINE
  5
2CE
100
AcDbEntity
  8
RUNDUNGEN
100
AcDbLine
 62
7
  6
CONTINUOUS
 10
161.6342957815
 20
233.0495371081
 11
166.543653236
 21
257.3753240416
  0
LINE
  5
2CF
100
AcDbEntity
  8
RUNDUNGEN
100
AcDbLine
 62
7
  6
CONTINUOUS
 10
169.1837000163
 20
207.7740084338
 11
163.7133961045
 21
194.8867800215
  0
LINE
  5
2D0
100
AcDbEntity
  8
0
100
AcDbLine
 62
7
  6
CONTINUOUS
 10
155.6547768123
 20
190.65251115
 11
125.6547768123
 21
190.65251115
  0
LINE
  5
2D1
100
AcDbEntity
  8
RUNDUNGEN
100
AcDbLine
 62
7
  6
CONTINUOUS
 10
118.5166623735
 20
194.27751115
 11
123.2109951574
 21
194.2775219756
  0
LINE
  5
2D2
100
AcDbEntity
  8
RUNDUNGEN
100
AcDbLine
 62
7
  6
CONTINUOUS
 10
158.1042704566
 20
194.27751115
 11
162.7928912511
 21
194.27751115
  0
LINE
  5
2D3
100
AcDbEntity
  8
0
100
AcDbLine
 62
7
  6
CONTINUOUS
 10
120.2259666168
 20
223.6479174311
 11
120.4783312727
 21
223.3651112777
  0
LINE
  5
2D4
100
AcDbEntity
  8
0
100
AcDbLine
 62
7
  6
CONTINUOUS
 10
120.7458237822
 20
223.7960299389
 11
120.5722732191
 21
224.0467207861
  0
LINE
  5
2D5
100
AcDbEntity
  8
0
100
AcDbLine
 62
7
  6
CONTINUOUS
 10
123.8295490091
 20
229.1084582512
 11
123.6086307424
 21
229.4684369097
  0
LINE
  5
2D6
100
AcDbEntity
  8
0
100
AcDbLine
 62
7
  6
CONTINUOUS
 10
158.8732453478
 20
225.3411853744
 11
158.8440293079
 21
225.7903287595
  0
LINE
  5
2D7
100
AcDbEntity
  8
RUNDUNGEN
100
AcDbLine
 62
7
  6
CONTINUOUS
 10
156.6547768123
 20
195.77751115
 11
156.6547768123
 21
197.6241959085
  0
LINE
  5
2D8
100
AcDbEntity
  8
RUNDUNGEN
100
AcDbLine
 62
7
  6
CONTINUOUS
 10
156.6547768123
 20
205.9308267444
 11
156.6547768123
 21
213.75251115
  0
LINE
  5
2D9
100
AcDbEntity
  8
RUNDUNGEN
100
AcDbLine
 62
7
  6
CONTINUOUS
 10
156.6547768123
 20
215.05251115
 11
156.6547768123
 21
215.1943702226
  0
LINE
  5
2DA
100
AcDbEntity
  8
0
100
AcDbLine
 62
7
  6
CONTINUOUS
 10
160.4475531405
 20
226.3850789034
 11
160.4547924381
 21
226.759286317
  0
LINE
  5
2DB
100
AcDbEntity
  8
0
100
AcDbLine
 62
7
  6
CONTINUOUS
 10
160.7104979107
 20
222.342787046
 11
160.7578122989
 21
222.8291619806
  0
LWPOLYLINE
  5
2DC
100
AcDbEntity
  8
RUNDUNGEN
100
AcDbPolyline
 62
7
  6
CONTINUOUS
 90
15
 70
0
 10
123.2109951574
 20
194.2775219756
 10
123.362561911
 20
194.2857790386
 10
123.5125293803
 20
194.3093142313
 10
123.6593618804
 20
194.3478902006
 10
123.8015520538
 20
194.4011143949
 10
123.9376407229
 20
194.4684435221
 10
124.0662309001
 20
194.5491888713
 10
124.186002551
 20
194.6425234768
 10
124.2957262927
 20
194.7474906884
 10
124.3942760554
 20
194.8630140087
 10
124.4806407692
 20
194.9879082421
 10
124.5539348265
 20
195.1208917603
 10
124.6134072399
 20
195.2605997771
 10
124.6584491744
 20
195.4055976293
 10
124.6749808364
 20
195.4775111556
  0
LINE
  5
2DD
100
AcDbEntity
  8
0
100
AcDbLine
 62
7
  6
CONTINUOUS
 10
155.6547768123
 20
195.75251115
 11
125.6547768123
 21
195.75251115
  0
LINE
  5
2DE
100
AcDbEntity
  8
RUNDUNGEN
100
AcDbLine
 62
7
  6
CONTINUOUS
 10
125.4047768123
 20
195.90251115
 11
155.9047768123
 21
195.90251115
  0
LINE
  5
2DF
100
AcDbEntity
  8
0
100
AcDbLine
 62
7
  6
CONTINUOUS
 10
120.8596573134
 20
219.7902534895
 11
119.014687456
 21
221.3519204879
  0
LINE
  5
2E0
100
AcDbEntity
  8
0
100
AcDbLine
 62
7
  6
CONTINUOUS
 10
121.9634547874
 20
218.8905452974
 11
121.1434682235
 21
219.58461951
  0
LINE
  5
2E1
100
AcDbEntity
  8
0
100
AcDbLine
 62
7
  6
CONTINUOUS
 10
118.573644915
 20
221.1716927146
 11
121.7747768123
 21
218.42751115
  0
LWPOLYLINE
  5
2E2
100
AcDbEntity
  8
RUNDUNGEN
100
AcDbPolyline
 62
7
  6
CONTINUOUS
 90
15
 70
0
 10
156.6345744963
 20
195.4775112319
 10
156.6512628461
 20
195.4049859434
 10
156.6965827882
 20
195.2594170628
 10
156.7564459778
 20
195.1191988566
 10
156.8302341138
 20
194.9857807119
 10
156.9171849014
 20
194.8605415155
 10
157.0163998865
 20
194.7447755873
 10
157.1268537583
 20
194.6396792737
 10
157.2474049704
 20
194.5463385551
 10
157.3768075707
 20
194.4657177979
 10
157.5137240892
 20
194.3986497836
 10
157.656739399
 20
194.34582708
 10
157.8043754607
 20
194.3077948564
 10
157.9551063441
 20
194.2849453183
 10
158.1042696875
 20
194.2775103359
  0
LINE
  5
2E3
100
AcDbEntity
  8
0
100
AcDbLine
 62
7
  6
CONTINUOUS
 10
120.1660142636
 20
205.1101335876
 11
121.3334936967
 21
205.1101335876
  0
LINE
  5
2E4
100
AcDbEntity
  8
0
100
AcDbLine
 62
7
  6
CONTINUOUS
 10
121.3334936967
 20
205.7144678158
 11
120.1669723183
 21
205.7144678158
  0
LINE
  5
2E5
100
AcDbEntity
  8
0
100
AcDbLine
 62
7
  6
CONTINUOUS
 10
120.4783312727
 20
223.3651112777
 11
120.8409566721
 21
223.1273617016
  0
LINE
  5
2E6
100
AcDbEntity
  8
0
100
AcDbLine
 62
7
  6
CONTINUOUS
 10
123.9274608129
 20
225.2891415785
 11
123.564835579
 21
225.5268910871
  0
LINE
  5
2E7
100
AcDbEntity
  8
0
100
AcDbLine
 62
7
  6
CONTINUOUS
 10
121.0296346473
 20
223.590395849
 11
120.7458237822
 21
223.7960299389
  0
LINE
  5
2E8
100
AcDbEntity
  8
0
100
AcDbLine
 62
7
  6
CONTINUOUS
 10
123.5811541554
 20
224.890338246
 11
123.3761576038
 21
225.0638569397
  0
LINE
  5
2E9
100
AcDbEntity
  8
0
100
AcDbLine
 62
7
  6
CONTINUOUS
 10
123.1361417222
 20
229.2110364106
 11
123.3411384537
 21
229.0375181585
  0
LINE
  5
2EA
100
AcDbEntity
  8
0
100
AcDbLine
 62
7
  6
CONTINUOUS
 10
123.6086307424
 20
229.4684369097
 11
123.403634011
 21
229.6419551618
  0
LINE
  5
2EB
100
AcDbEntity
  8
RUNDUNGEN
100
AcDbLine
 62
7
  6
CONTINUOUS
 10
156.436328376
 20
216.3181900028
 11
153.1205017102
 21
224.5251489914
  0
LINE
  5
2EC
100
AcDbEntity
  8
0
100
AcDbLine
 62
7
  6
CONTINUOUS
 10
159.8544407444
 20
219.2388571804
 11
159.9966429604
 21
218.7520085122
  0
LINE
  5
2ED
100
AcDbEntity
  8
0
100
AcDbLine
 62
7
  6
CONTINUOUS
 10
156.9160257843
 20
226.0571088796
 11
156.8102791077
 21
226.4690211442
  0
LINE
  5
2EE
100
AcDbEntity
  8
0
100
AcDbLine
 62
7
  6
CONTINUOUS
 10
158.0316667768
 20
222.985670336
 11
158.1374136553
 21
222.5737576394
  0
LINE
  5
2EF
100
AcDbEntity
  8
0
100
AcDbLine
 62
7
  6
CONTINUOUS
 10
160.3027655341
 20
218.9009330075
 11
160.1970186757
 21
219.312845714
  0
LINE
  5
2F0
100
AcDbEntity
  8
0
100
AcDbLine
 62
7
  6
CONTINUOUS
 10
156.4276258772
 20
226.2828655185
 11
156.496917001
 21
225.945889651
  0
LINE
  5
2F1
100
AcDbEntity
  8
0
100
AcDbLine
 62
7
  6
CONTINUOUS
 10
158.5200668925
 20
222.7599132683
 11
158.4507755534
 21
223.0968895614
  0
LINE
  5
2F2
100
AcDbEntity
  8
0
100
AcDbLine
 62
7
  6
CONTINUOUS
 10
160.2694126473
 20
223.0549182136
 11
160.3387037778
 21
222.7179423493
  0
LINE
  5
2F3
100
AcDbEntity
  8
0
100
AcDbLine
 62
7
  6
CONTINUOUS
 10
159.8216049581
 20
219.5008970764
 11
159.8544407444
 21
219.2388571804
  0
LINE
  5
2F4
100
AcDbEntity
  8
RUNDUNGEN
100
AcDbLine
 62
7
  6
CONTINUOUS
 10
158.6865504651
 20
210.14251115
 11
157.1547768123
 21
210.14251115
  0
LINE
  5
2F5
100
AcDbEntity
  8
RUNDUNGEN
100
AcDbLine
 62
7
  6
CONTINUOUS
 10
124.1547768123
 20
210.14251115
 11
122.6230032041
 21
210.14251115
  0
LINE
  5
2F6
100
AcDbEntity
  8
RUNDUNGEN
100
AcDbLine
 62
7
  6
CONTINUOUS
 10
154.9047768123
 20
213.75251115
 11
149.1104255779
 21
213.75251115
  0
LINE
  5
2F7
100
AcDbEntity
  8
RUNDUNGEN
100
AcDbLine
 62
7
  6
CONTINUOUS
 10
132.1990846259
 20
213.75251115
 11
126.4047768123
 21
213.75251115
  0
LINE
  5
2F8
100
AcDbEntity
  8
0
100
AcDbLine
 62
7
  6
CONTINUOUS
 10
123.2484097826
 20
213.75251115
 11
126.4047768123
 21
213.75251115
  0
LINE
  5
2F9
100
AcDbEntity
  8
0
100
AcDbLine
 62
7
  6
CONTINUOUS
 10
154.9047768123
 20
213.75251115
 11
158.061143842
 21
213.75251115
  0
LINE
  5
2FA
100
AcDbEntity
  8
0
100
AcDbLine
 62
7
  6
CONTINUOUS
 10
123.2484097826
 20
215.05251115
 11
131.0498891114
 21
215.05251115
  0
LINE
  5
2FB
100
AcDbEntity
  8
0
100
AcDbLine
 62
7
  6
CONTINUOUS
 10
150.2596645131
 20
215.05251115
 11
158.061143842
 21
215.05251115
  0
LINE
  5
2FC
100
AcDbEntity
  8
RUNDUNGEN
100
AcDbLine
 62
7
  6
CONTINUOUS
 10
147.4067768123
 20
215.10251115
 11
133.9027768123
 21
215.10251115
  0
LINE
  5
2FD
100
AcDbEntity
  8
RUNDUNGEN
100
AcDbLine
 62
7
  6
CONTINUOUS
 10
131.3591518123
 20
215.10251115
 11
131.6547768123
 21
215.10251115
  0
LINE
  5
2FE
100
AcDbEntity
  8
RUNDUNGEN
100
AcDbLine
 62
7
  6
CONTINUOUS
 10
149.6547768123
 20
215.10251115
 11
149.9504018123
 21
215.10251115
  0
LINE
  5
2FF
100
AcDbEntity
  8
0
100
AcDbLine
 62
7
  6
CONTINUOUS
 10
154.6547768123
 20
215.25251115
 11
126.6547768123
 21
215.25251115
  0
LINE
  5
300
100
AcDbEntity
  8
RUNDUNGEN
100
AcDbLine
 62
7
  6
CONTINUOUS
 10
122.8053586445
 20
216.21251115
 11
124.4932739621
 21
216.21251115
  0
LINE
  5
301
100
AcDbEntity
  8
RUNDUNGEN
100
AcDbLine
 62
7
  6
CONTINUOUS
 10
156.8162796625
 20
216.21251115
 11
158.5041857848
 21
216.21251115
  0
LINE
  5
302
100
AcDbEntity
  8
0
100
AcDbLine
 62
7
  6
CONTINUOUS
 10
120.8409566721
 20
223.1273617016
 11
122.0231714861
 21
222.6456307136
  0
LINE
  5
303
100
AcDbEntity
  8
0
100
AcDbLine
 62
7
  6
CONTINUOUS
 10
122.2118494613
 20
223.108664861
 11
121.0296346473
 21
223.590395849
  0
LINE
  5
304
100
AcDbEntity
  8
0
100
AcDbLine
 62
7
  6
CONTINUOUS
 10
121.0579048464
 20
227.2683088051
 11
124.7621780258
 21
225.7588850038
  0
LINE
  5
305
100
AcDbEntity
  8
0
100
AcDbLine
 62
7
  6
CONTINUOUS
 10
154.8347024523
 20
228.1953992883
 11
155.0169798178
 21
227.8207180371
  0
LINE
  5
306
100
AcDbEntity
  8
0
100
AcDbLine
 62
7
  6
CONTINUOUS
 10
154.7835096717
 20
229.4678936056
 11
155.0022425311
 21
229.0182760612
  0
LINE
  5
307
100
AcDbEntity
  8
0
100
AcDbLine
 62
7
  6
CONTINUOUS
 10
156.496917001
 20
225.945889651
 11
156.7885609526
 21
225.3463993059
  0
LINE
  5
308
100
AcDbEntity
  8
0
100
AcDbLine
 62
7
  6
CONTINUOUS
 10
158.1374136553
 20
222.5737576394
 11
158.3561465147
 21
222.124140095
  0
LINE
  5
309
100
AcDbEntity
  8
0
100
AcDbLine
 62
7
  6
CONTINUOUS
 10
158.7387997519
 20
222.3102957239
 11
158.5200668925
 21
222.7599132683
  0
LINE
  5
30A
100
AcDbEntity
  8
0
100
AcDbLine
 62
7
  6
CONTINUOUS
 10
157.1347586438
 20
225.6074913352
 11
156.9160257843
 21
226.0571088796
  0
LINE
  5
30B
100
AcDbEntity
  8
0
100
AcDbLine
 62
7
  6
CONTINUOUS
 10
156.0775497884
 20
227.7806428711
 11
155.8952724751
 21
228.1553240152
  0
LINE
  5
30C
100
AcDbEntity
  8
0
100
AcDbLine
 62
7
  6
CONTINUOUS
 10
157.0106549274
 20
227.0298581315
 11
156.8283775097
 21
227.40453949
  0
LINE
  5
30D
100
AcDbEntity
  8
0
100
AcDbLine
 62
7
  6
CONTINUOUS
 10
158.7276819055
 20
223.6949578837
 11
158.508949046
 21
224.1445754281
  0
LINE
  5
30E
100
AcDbEntity
  8
0
100
AcDbLine
 62
7
  6
CONTINUOUS
 10
159.1977248838
 20
224.4796555654
 11
159.4529132893
 21
223.9551016207
  0
LINE
  5
30F
100
AcDbEntity
  8
0
100
AcDbLine
 62
7
  6
CONTINUOUS
 10
158.2535023156
 20
226.6151016072
 11
158.3993240828
 21
226.3153568634
  0
LINE
  5
310
100
AcDbEntity
  8
0
100
AcDbLine
 62
7
  6
CONTINUOUS
 10
160.0506797879
 20
223.5045357579
 11
160.2694126473
 21
223.0549182136
  0
LINE
  5
311
100
AcDbEntity
  8
0
100
AcDbLine
 62
7
  6
CONTINUOUS
 10
158.7054466297
 20
226.4642813457
 11
158.5596248625
 21
226.7640260894
  0
LINE
  5
312
100
AcDbEntity
  8
0
100
AcDbLine
 62
7
  6
CONTINUOUS
 10
161.3374802405
 20
221.4430782269
 11
161.6291241921
 21
220.8435878819
  0
LINE
  5
313
100
AcDbEntity
  8
0
100
AcDbLine
 62
7
  6
CONTINUOUS
 10
161.811401714
 20
220.468906309
 11
162.2124116782
 21
219.6446080494
  0
LINE
  5
314
100
AcDbEntity
  8
0
100
AcDbLine
 62
7
  6
CONTINUOUS
 10
160.6520658309
 20
223.2410738164
 11
160.4333329715
 21
223.6906913608
  0
LINE
  5
315
100
AcDbEntity
  8
0
100
AcDbLine
 62
7
  6
CONTINUOUS
 10
160.4547924381
 20
226.759286317
 11
160.2761348779
 21
227.3210709535
  0
LINE
  5
316
100
AcDbEntity
  8
0
100
AcDbLine
 62
7
  6
CONTINUOUS
 10
158.3993240828
 20
226.3153568634
 11
158.5415263055
 21
225.8285081985
  0
LINE
  5
317
100
AcDbEntity
  8
0
100
AcDbLine
 62
7
  6
CONTINUOUS
 10
160.7578122989
 20
222.8291619806
 11
160.6520658309
 21
223.2410738164
  0
LINE
  5
318
100
AcDbEntity
  8
0
100
AcDbLine
 62
7
  6
CONTINUOUS
 10
159.9299370318
 20
227.0599793791
 11
160.035683917
 21
226.6480666857
  0
LINE
  5
319
100
AcDbEntity
  8
0
100
AcDbLine
 62
7
  6
CONTINUOUS
 10
159.5219459877
 20
225.5640979386
 11
159.8645238721
 21
225.6380864493
  0
LINE
  5
31A
100
AcDbEntity
  8
0
100
AcDbLine
 62
7
  6
CONTINUOUS
 10
159.1206772843
 20
228.3343695567
 11
158.7780991913
 21
228.2603814748
  0
LINE
  5
31B
100
AcDbEntity
  8
0
100
AcDbLine
 62
7
  6
CONTINUOUS
 10
159.7921301627
 20
221.896013547
 11
159.526082915
 21
221.8592561569
  0
LINE
  5
31C
100
AcDbEntity
  8
0
100
AcDbLine
 62
7
  6
CONTINUOUS
 10
157.8747271564
 20
224.6700772363
 11
158.1407746663
 21
224.7068342238
  0
LINE
  5
31D
100
AcDbEntity
  8
0
100
AcDbLine
 62
7
  6
CONTINUOUS
 10
159.4423127185
 20
221.4478180254
 11
159.8978770479
 21
221.4841008536
  0
LINE
  5
31E
100
AcDbEntity
  8
0
100
AcDbLine
 62
7
  6
CONTINUOUS
 10
122.4486894431
 20
222.5622262377
 11
122.826839351
 21
222.588109199
  0
LINE
  5
31F
100
AcDbEntity
  8
0
100
AcDbLine
 62
7
  6
CONTINUOUS
 10
154.6547768123
 20
218.75251115
 11
126.6547768123
 21
218.75251115
  0
LINE
  5
320
100
AcDbEntity
  8
KONSTRUKTIONSELEMENTE
100
AcDbLine
 62
7
  6
CONTINUOUS
 10
129.6851216977
 20
219.25251115
 11
151.6244319269
 21
219.25251115
  0
LINE
  5
321
100
AcDbEntity
  8
0
100
AcDbLine
 62
7
  6
CONTINUOUS
 10
123.0326299501
 20
221.5144053926
 11
118.8252155335
 21
221.7890715411
  0
LINE
  5
322
100
AcDbEntity
  8
0
100
AcDbLine
 62
7
  6
CONTINUOUS
 10
121.7723948149
 20
221.1280666865
 11
122.8439519749
 21
221.0513712452
  0
LINE
  5
323
100
AcDbEntity
  8
0
100
AcDbLine
 62
7
  6
CONTINUOUS
 10
119.014687456
 20
221.3519204879
 11
121.4256912614
 21
221.179355987
  0
LINE
  5
324
100
AcDbEntity
  8
0
100
AcDbLine
 62
7
  6
CONTINUOUS
 10
122.5585531047
 20
223.0573757813
 11
122.2118494613
 21
223.108664861
  0
LINE
  5
325
100
AcDbEntity
  8
0
100
AcDbLine
 62
7
  6
CONTINUOUS
 10
122.0231714861
 20
222.6456307136
 11
122.4486894431
 21
222.5622262377
  0
LINE
  5
326
100
AcDbEntity
  8
0
100
AcDbLine
 62
7
  6
CONTINUOUS
 10
121.7521062565
 20
226.2655452447
 11
121.3265880786
 21
226.3489498106
  0
LINE
  5
327
100
AcDbEntity
  8
0
100
AcDbLine
 62
7
  6
CONTINUOUS
 10
124.9508561809
 20
226.2219195928
 11
123.2957553752
 21
226.896343003
  0
LINE
  5
328
100
AcDbEntity
  8
0
100
AcDbLine
 62
7
  6
CONTINUOUS
 10
122.8228694937
 20
227.0890353802
 11
121.6406545694
 21
227.5707664131
  0
LINE
  5
329
100
AcDbEntity
  8
0
100
AcDbLine
 62
7
  6
CONTINUOUS
 10
122.8996985607
 20
229.3073826892
 11
123.1361417222
 21
229.2110364106
  0
LINE
  5
32A
100
AcDbEntity
  8
0
100
AcDbLine
 62
7
  6
CONTINUOUS
 10
123.403634011
 20
229.6419551618
 11
123.0883765359
 21
229.7704168366
  0
LINE
  5
32B
100
AcDbEntity
  8
0
100
AcDbLine
 62
7
  6
CONTINUOUS
 10
158.9611521559
 20
222.0477821008
 11
158.7387997519
 21
222.3102957239
  0
LINE
  5
32C
100
AcDbEntity
  8
0
100
AcDbLine
 62
7
  6
CONTINUOUS
 10
156.7885609526
 20
225.3463993059
 11
157.0109133633
 21
225.083885686
  0
LINE
  5
32D
100
AcDbEntity
  8
0
100
AcDbLine
 62
7
  6
CONTINUOUS
 10
159.8283271753
 20
223.7670498099
 11
160.0506797879
 21
223.5045357579
  0
LINE
  5
32E
100
AcDbEntity
  8
0
100
AcDbLine
 62
7
  6
CONTINUOUS
 10
158.3561465147
 20
222.124140095
 11
158.6149542628
 21
221.7866905036
  0
LINE
  5
32F
100
AcDbEntity
  8
0
100
AcDbLine
 62
7
  6
CONTINUOUS
 10
157.3935665938
 20
225.2700413117
 11
157.1347586438
 21
225.6074913352
  0
LINE
  5
330
100
AcDbEntity
  8
0
100
AcDbLine
 62
7
  6
CONTINUOUS
 10
160.4333329715
 20
223.6906913608
 11
160.1745248128
 21
224.028141813
  0
LINE
  5
331
100
AcDbEntity
  8
0
100
AcDbLine
 62
7
  6
CONTINUOUS
 10
159.5253071059
 20
227.6971745751
 11
159.7841152645
 21
227.3597241229
  0
LINE
  5
332
100
AcDbEntity
  8
0
100
AcDbLine
 62
7
  6
CONTINUOUS
 10
160.2032237857
 20
227.4709437542
 11
159.871504952
 21
227.9582661495
  0
LINE
  5
333
100
AcDbEntity
  8
0
100
AcDbLine
 62
7
  6
CONTINUOUS
 10
162.5185342251
 20
219.7935325317
 11
162.1175242609
 21
220.6178307913
  0
LINE
  5
334
100
AcDbEntity
  8
0
100
AcDbLine
 62
7
  6
CONTINUOUS
 10
161.935246739
 20
220.9925123641
 11
161.6436027874
 21
221.5920027092
  0
LINE
  5
335
100
AcDbEntity
  8
0
100
AcDbLine
 62
7
  6
CONTINUOUS
 10
158.7780991913
 20
228.2603814748
 11
158.9603766089
 21
227.8857001163
  0
LINE
  5
336
100
AcDbEntity
  8
0
100
AcDbLine
 62
7
  6
CONTINUOUS
 10
162.7297695691
 20
220.9156798602
 11
162.5474920472
 21
221.290361433
  0
LINE
  5
337
100
AcDbEntity
  8
0
100
AcDbLine
 62
7
  6
CONTINUOUS
 10
159.7841152645
 20
227.3597241229
 11
159.9299370318
 21
227.0599793791
  0
LINE
  5
338
100
AcDbEntity
  8
0
100
AcDbLine
 62
7
  6
CONTINUOUS
 10
162.0443547424
 20
222.7136763073
 11
160.9871459914
 21
224.8868276288
  0
LINE
  5
339
100
AcDbEntity
  8
0
100
AcDbLine
 62
7
  6
CONTINUOUS
 10
162.427007926
 20
222.8998319101
 11
161.1875216531
 21
225.4476648045
  0
LINE
  5
33A
100
AcDbEntity
  8
0
100
AcDbLine
 62
7
  6
CONTINUOUS
 10
160.2761348779
 20
227.3210709535
 11
160.2032237857
 21
227.4709437542
  0
LINE
  5
33B
100
AcDbEntity
  8
0
100
AcDbLine
 62
7
  6
CONTINUOUS
 10
158.5991828861
 20
230.7681389366
 11
158.3804500267
 21
231.217756481
  0
LINE
  5
33C
100
AcDbEntity
  8
RUNDUNGEN
100
AcDbLine
 62
7
  6
CONTINUOUS
 10
163.354575776
 20
227.1918479164
 11
161.8710443511
 21
230.700441477
  0
LINE
  5
33D
100
AcDbEntity
  8
RUNDUNGEN
100
AcDbLine
 62
7
  6
CONTINUOUS
 10
165.0457567718
 20
222.706990337
 11
169.223774023
 21
212.3660347653
  0
LINE
  5
33E
100
AcDbEntity
  8
0
100
AcDbLine
 62
7
  6
CONTINUOUS
 10
122.8578886439
 20
223.1153741614
 11
122.5585531047
 21
223.0573757813
  0
LINE
  5
33F
100
AcDbEntity
  8
BEZUGSACHSEN
100
AcDbLine
 62
7
  6
CONTINUOUS
 10
131.1552618718
 20
226.25251115
 11
150.1542917527
 21
226.25251115
  0
LINE
  5
340
100
AcDbEntity
  8
KONSTRUKTIONSELEMENTE
100
AcDbLine
 62
7
  6
CONTINUOUS
 10
132.6276555364
 20
226.45251115
 11
136.9938722317
 21
226.45251115
  0
LINE
  5
341
100
AcDbEntity
  8
KONSTRUKTIONSELEMENTE
100
AcDbLine
 62
7
  6
CONTINUOUS
 10
139.0863371534
 20
226.45251115
 11
141.1535317209
 21
226.45251115
  0
LINE
  5
342
100
AcDbEntity
  8
KONSTRUKTIONSELEMENTE
100
AcDbLine
 62
7
  6
CONTINUOUS
 10
141.6965643269
 20
226.45251115
 11
144.3569156186
 21
226.45251115
  0
LINE
  5
343
100
AcDbEntity
  8
RUNDUNGEN
100
AcDbLine
 62
7
  6
CONTINUOUS
 10
147.5573978883
 20
228.27751115
 11
133.7521557363
 21
228.27751115
  0
LINE
  5
344
100
AcDbEntity
  8
0
100
AcDbLine
 62
7
  6
CONTINUOUS
 10
157.958497353
 20
225.0815153678
 11
157.7689805334
 21
225.081989527
  0
LINE
  5
345
100
AcDbEntity
  8
0
100
AcDbLine
 62
7
  6
CONTINUOUS
 10
159.6822465588
 20
226.0127675934
 11
159.3032131283
 21
226.013715483
  0
LINE
  5
346
100
AcDbEntity
  8
0
100
AcDbLine
 62
7
  6
CONTINUOUS
 10
155.0169798178
 20
227.8207180371
 11
156.0775497884
 21
227.7806428711
  0
LINE
  5
347
100
AcDbEntity
  8
0
100
AcDbLine
 62
7
  6
CONTINUOUS
 10
155.8952724751
 20
228.1553240152
 11
154.8347024523
 21
228.1953992883
  0
LINE
  5
348
100
AcDbEntity
  8
0
100
AcDbLine
 62
7
  6
CONTINUOUS
 10
121.2955387306
 20
225.8216848707
 11
121.5634282813
 21
225.8025110973
  0
LINE
  5
349
100
AcDbEntity
  8
0
100
AcDbLine
 62
7
  6
CONTINUOUS
 10
122.6318094108
 20
229.3265568142
 11
122.8996985607
 21
229.3073826892
  0
LINE
  5
34A
100
AcDbEntity
  8
0
100
AcDbLine
 62
7
  6
CONTINUOUS
 10
123.0883765359
 20
229.7704168366
 11
122.8204873859
 21
229.7895909617
  0
LINE
  5
34B
100
AcDbEntity
  8
0
100
AcDbLine
 62
7
  6
CONTINUOUS
 10
159.526082915
 20
221.8592561569
 11
159.223579859
 21
221.8974355697
  0
LINE
  5
34C
100
AcDbEntity
  8
0
100
AcDbLine
 62
7
  6
CONTINUOUS
 10
157.8747271564
 20
224.6700772363
 11
157.5722243626
 21
224.7082562464
  0
LINE
  5
34D
100
AcDbEntity
  8
0
100
AcDbLine
 62
7
  6
CONTINUOUS
 10
159.2194429853
 20
225.6022773775
 11
159.5219459877
 21
225.5640979386
  0
LINE
  5
34E
100
AcDbEntity
  8
0
100
AcDbLine
 62
7
  6
CONTINUOUS
 10
158.9603766089
 20
227.8857001163
 11
159.262879507
 21
227.8475208918
  0
LINE
  5
34F
100
AcDbEntity
  8
0
100
AcDbLine
 62
7
  6
CONTINUOUS
 10
159.026823715
 20
221.5237023022
 11
159.4423127185
 21
221.4478180254
  0
LINE
  5
350
100
AcDbEntity
  8
0
100
AcDbLine
 62
7
  6
CONTINUOUS
 10
157.7689805334
 20
225.081989527
 11
157.5430083227
 21
225.1573996316
  0
LINE
  5
351
100
AcDbEntity
  8
0
100
AcDbLine
 62
7
  6
CONTINUOUS
 10
159.3032131283
 20
226.013715483
 11
159.0772407626
 21
226.0891260425
  0
LINE
  5
352
100
AcDbEntity
  8
0
100
AcDbLine
 62
7
  6
CONTINUOUS
 10
159.4529132893
 20
223.9551016207
 11
159.8283271753
 21
223.7670498099
  0
LINE
  5
353
100
AcDbEntity
  8
0
100
AcDbLine
 62
7
  6
CONTINUOUS
 10
158.8440293079
 20
225.7903287595
 11
159.2194429853
 21
225.6022773775
  0
LINE
  5
354
100
AcDbEntity
  8
0
100
AcDbLine
 62
7
  6
CONTINUOUS
 10
159.223579859
 20
221.8974355697
 11
158.9611521559
 21
222.0477821008
  0
LINE
  5
355
100
AcDbEntity
  8
0
100
AcDbLine
 62
7
  6
CONTINUOUS
 10
157.5722243626
 20
224.7082562464
 11
157.3097966326
 21
224.8586027645
  0
LINE
  5
356
100
AcDbEntity
  8
0
100
AcDbLine
 62
7
  6
CONTINUOUS
 10
159.262879507
 20
227.8475208918
 11
159.5253071059
 21
227.6971745751
  0
LINE
  5
357
100
AcDbEntity
  8
BEZUGSACHSEN
100
AcDbLine
 62
7
  6
CONTINUOUS
 10
151.6244319269
 20
225.404005374
 11
150.1547768123
 21
226.25251115
  0
LINE
  5
358
100
AcDbEntity
  8
0
100
AcDbLine
 62
7
  6
CONTINUOUS
 10
158.6149542628
 20
221.7866905036
 11
159.026823715
 21
221.5237023022
  0
LINE
  5
359
100
AcDbEntity
  8
0
100
AcDbLine
 62
7
  6
CONTINUOUS
 10
160.1745248128
 20
224.028141813
 11
159.7626555893
 21
224.2911295954
  0
LINE
  5
35A
100
AcDbEntity
  8
0
100
AcDbLine
 62
7
  6
CONTINUOUS
 10
157.3097966326
 20
224.8586027645
 11
157.0109133633
 21
225.083885686
  0
LINE
  5
35B
100
AcDbEntity
  8
0
100
AcDbLine
 62
7
  6
CONTINUOUS
 10
157.5430083227
 20
225.1573996316
 11
157.3935665938
 21
225.2700413117
  0
LINE
  5
35C
100
AcDbEntity
  8
0
100
AcDbLine
 62
7
  6
CONTINUOUS
 10
159.871504952
 20
227.9582661495
 11
159.5726217028
 21
228.1835490809
  0
LINE
  5
35D
100
AcDbEntity
  8
0
100
AcDbLine
 62
7
  6
CONTINUOUS
 10
159.0772407626
 20
226.0891260425
 11
158.7054466297
 21
226.4642813457
  0
LINE
  5
35E
100
AcDbEntity
  8
0
100
AcDbLine
 62
7
  6
CONTINUOUS
 10
122.8204873859
 20
229.7895909617
 11
122.4108911441
 21
229.6865354728
  0
LINE
  5
35F
100
AcDbEntity
  8
0
100
AcDbLine
 62
7
  6
CONTINUOUS
 10
157.0137574019
 20
231.1089071125
 11
157.7682049329
 21
230.9199075165
  0
LINE
  5
360
100
AcDbEntity
  8
0
100
AcDbLine
 62
7
  6
CONTINUOUS
 10
158.3804500267
 20
231.217756481
 11
157.6260027102
 21
231.4067561814
  0
LINE
  5
361
100
AcDbEntity
  8
0
100
AcDbLine
 62
7
  6
CONTINUOUS
 10
159.5726217028
 20
228.1835490809
 11
159.1206772843
 21
228.3343695567
  0
LINE
  5
362
100
AcDbEntity
  8
KONSTRUKTIONSELEMENTE
100
AcDbLine
 62
7
  6
CONTINUOUS
 10
131.1547768123
 20
103.75251115
 11
129.6851216977
 21
102.904005374
  0
LINE
  5
363
100
AcDbEntity
  8
RUNDUNGEN
100
AcDbLine
 62
7
  6
CONTINUOUS
 10
166.0513757909
 20
260.2267900491
 11
157.7812061711
 21
273.990663663
  0
LINE
  5
364
100
AcDbEntity
  8
BEZUGSACHSEN
100
AcDbLine
 62
7
  6
CONTINUOUS
 10
151.6244319269
 20
95.7221662647
 11
147.6547768122
 21
91.75251115
  0
LINE
  5
365
100
AcDbEntity
  8
BEZUGSACHSEN
100
AcDbLine
 62
7
  6
CONTINUOUS
 10
146.6547768123
 20
74.95251115
 11
145.4547768123
 21
73.75251115
  0
LINE
  5
366
100
AcDbEntity
  8
RUNDUNGEN
100
AcDbLine
 62
7
  6
CONTINUOUS
 10
155.6548095861
 20
275.7125856657
 11
142.0313392821
 21
280.4035226802
  0
LINE
  5
367
100
AcDbEntity
  8
BEZUGSACHSEN
100
AcDbLine
 62
7
  6
CONTINUOUS
 10
220.8293372163
 20
73.75251115
 11
230.4293372163
 21
73.75251115
  0
LINE
  5
368
100
AcDbEntity
  8
BEZUGSACHSEN
100
AcDbLine
 62
7
  6
CONTINUOUS
 10
219.6293372163
 20
74.95251115
 11
231.6293372163
 21
74.95251115
  0
LINE
  5
369
100
AcDbEntity
  8
BEZUGSACHSEN
100
AcDbLine
 62
7
  6
CONTINUOUS
 10
232.6287803874
 20
91.75251115
 11
218.6298940452
 21
91.75251115
  0
LINE
  5
36A
100
AcDbEntity
  8
BEZUGSACHSEN
100
AcDbLine
 62
7
  6
CONTINUOUS
 10
220.8293372163
 20
73.75251115
 11
219.6293372163
 21
74.95251115
  0
LINE
  5
36B
100
AcDbEntity
  8
BEZUGSACHSEN
100
AcDbLine
 62
7
  6
CONTINUOUS
 10
237.6283826526
 20
103.75251115
 11
213.63029178
 21
103.75251115
  0
LINE
  5
36C
100
AcDbEntity
  8
BEZUGSACHSEN
100
AcDbLine
 62
7
  6
CONTINUOUS
 10
237.6283826526
 20
106.45251115
 11
213.63029178
 21
106.45251115
  0
LINE
  5
36D
100
AcDbEntity
  8
BEZUGSACHSEN
100
AcDbLine
 62
7
  6
CONTINUOUS
 10
216.1001294294
 20
94.2817189369
 11
218.6293372163
 21
91.75251115
  0
LINE
  5
36E
100
AcDbEntity
  8
0
100
AcDbLine
 62
7
  6
CONTINUOUS
 10
210.3793372163
 20
195.90251115
 11
210.3793372163
 21
214.10251115
  0
LINE
  5
36F
100
AcDbEntity
  8
0
100
AcDbLine
 62
7
  6
CONTINUOUS
 10
210.6293372163
 20
195.75251115
 11
210.6293372163
 21
190.65251115
  0
LINE
  5
370
100
AcDbEntity
  8
0
100
AcDbLine
 62
7
  6
CONTINUOUS
 10
211.6293372163
 20
218.75251115
 11
211.6293372163
 21
215.25251115
  0
LINE
  5
371
100
AcDbEntity
  8
0
100
AcDbLine
 62
7
  6
CONTINUOUS
 10
213.4293372163
 20
215.10251115
 11
213.4293372163
 21
214.3310825786
  0
LINE
  5
372
100
AcDbEntity
  8
RUNDUNGEN
100
AcDbLine
 62
7
  6
CONTINUOUS
 10
213.4293372163
 20
213.7501396905
 11
213.4293372163
 21
214.3310825786
  0
LINE
  5
373
100
AcDbEntity
  8
0
100
AcDbLine
 62
7
  6
CONTINUOUS
 10
213.5547245818
 20
215.05251115
 11
213.5547245818
 21
213.75251115
  0
LINE
  5
374
100
AcDbEntity
  8
BEZUGSACHSEN
100
AcDbLine
 62
7
  6
CONTINUOUS
 10
213.6293372163
 20
106.45251115
 11
213.6293372163
 21
103.75251115
  0
LINE
  5
375
100
AcDbEntity
  8
0
100
AcDbLine
 62
7
  6
CONTINUOUS
 10
219.1988737861
 20
218.8046615262
 11
219.8600527833
 21
224.6077551077
  0
LINE
  5
376
100
AcDbEntity
  8
0
100
AcDbLine
 62
7
  6
CONTINUOUS
 10
215.4293372163
 20
215.10251115
 11
215.4293372163
 21
215.05251115
  0
LINE
  5
377
100
AcDbEntity
  8
BEZUGSACHSEN
100
AcDbLine
 62
7
  6
CONTINUOUS
 10
216.1293372163
 20
95.7221662647
 11
216.1293372163
 21
94.2524717068
  0
LINE
  5
378
100
AcDbEntity
  8
KONSTRUKTIONSELEMENTE
100
AcDbLine
 62
7
  6
CONTINUOUS
 10
216.1293372163
 20
95.7221662647
 11
216.1293372163
 21
103.752511154
  0
LINE
  5
379
100
AcDbEntity
  8
BEZUGSACHSEN
100
AcDbLine
 62
7
  6
CONTINUOUS
 10
216.1293372163
 20
219.25251115
 11
216.1293372163
 21
226.2525111536
  0
LINE
  5
37A
100
AcDbEntity
  8
0
100
AcDbLine
 62
7
  6
CONTINUOUS
 10
216.6293372163
 20
215.25251115
 11
216.6293372163
 21
215.10251115
  0
LINE
  5
37B
100
AcDbEntity
  8
0
100
AcDbLine
 62
7
  6
CONTINUOUS
 10
216.6293372163
 20
195.90251115
 11
216.6293372163
 21
195.75251115
  0
LINE
  5
37C
100
AcDbEntity
  8
BEZUGSACHSEN
100
AcDbLine
 62
7
  6
CONTINUOUS
 10
217.0293372163
 20
218.75251115
 11
217.0293372163
 21
219.25251115
  0
LINE
  5
37D
100
AcDbEntity
  8
KONSTRUKTIONSELEMENTE
100
AcDbLine
 62
7
  6
CONTINUOUS
 10
217.5802064108
 20
226.25251115
 11
217.5802064108
 21
226.45251115
  0
LINE
  5
37E
100
AcDbEntity
  8
KONSTRUKTIONSELEMENTE
100
AcDbLine
 62
7
  6
CONTINUOUS
 10
217.6080627845
 20
226.25251115
 11
217.6080627845
 21
226.45251115
  0
LINE
  5
37F
100
AcDbEntity
  8
KONSTRUKTIONSELEMENTE
100
AcDbLine
 62
7
  6
CONTINUOUS
 10
217.7009173635
 20
226.25251115
 11
217.7009173635
 21
226.45251115
  0
LINE
  5
380
100
AcDbEntity
  8
KONSTRUKTIONSELEMENTE
100
AcDbLine
 62
7
  6
CONTINUOUS
 10
217.7287737372
 20
226.25251115
 11
217.7287737372
 21
226.45251115
  0
LINE
  5
381
100
AcDbEntity
  8
RUNDUNGEN
100
AcDbLine
 62
7
  6
CONTINUOUS
 10
219.1293372163
 20
212.92574444
 11
219.1293372163
 21
196.2775541373
  0
LINE
  5
382
100
AcDbEntity
  8
BEZUGSACHSEN
100
AcDbLine
 62
7
  6
CONTINUOUS
 10
219.6293372163
 20
74.95251115
 11
219.6293372163
 21
91.75251115
  0
LINE
  5
383
100
AcDbEntity
  8
BEZUGSACHSEN
100
AcDbLine
 62
7
  6
CONTINUOUS
 10
219.6293372163
 20
106.45251115
 11
219.6293372163
 21
190.65251115
  0
LINE
  5
384
100
AcDbEntity
  8
KONSTRUKTIONSELEMENTE
100
AcDbLine
 62
7
  6
CONTINUOUS
 10
219.7478002035
 20
226.25251115
 11
219.7478002035
 21
226.45251115
  0
LINE
  5
385
100
AcDbEntity
  8
KONSTRUKTIONSELEMENTE
100
AcDbLine
 62
7
  6
CONTINUOUS
 10
219.783831466
 20
226.25251115
 11
219.783831466
 21
226.45251115
  0
LINE
  5
386
100
AcDbEntity
  8
0
100
AcDbLine
 62
7
  6
CONTINUOUS
 10
219.8793372163
 20
224.947364749
 11
219.8793372163
 21
229.9544834023
  0
LINE
  5
387
100
AcDbEntity
  8
RUNDUNGEN
100
AcDbLine
 62
7
  6
CONTINUOUS
 10
220.3793372163
 20
280.1214306553
 11
220.3793372163
 21
225.6004156016
  0
LINE
  5
388
100
AcDbEntity
  8
RUNDUNGEN
100
AcDbLine
 62
7
  6
CONTINUOUS
 10
221.3793372163
 20
282.7774487157
 11
221.3793372163
 21
231.4920497669
  0
LINE
  5
389
100
AcDbEntity
  8
RUNDUNGEN
100
AcDbLine
 62
7
  6
CONTINUOUS
 10
220.2829136531
 20
223.9023215936
 11
219.2257593811
 21
214.6237976296
  0
LINE
  5
38A
100
AcDbEntity
  8
KONSTRUKTIONSELEMENTE
100
AcDbLine
 62
7
  6
CONTINUOUS
 10
225.6293372163
 20
102.904005374
 11
225.6293372163
 21
95.7221662647
  0
LINE
  5
38B
100
AcDbEntity
  8
RUNDUNGEN
100
AcDbLine
 62
7
  6
CONTINUOUS
 10
229.8793372163
 20
231.1029940768
 11
229.8793372163
 21
282.77751115
  0
LINE
  5
38C
100
AcDbEntity
  8
RUNDUNGEN
100
AcDbLine
 62
7
  6
CONTINUOUS
 10
230.8793372163
 20
225.6004089443
 11
230.8793372163
 21
280.1214210428
  0
LINE
  5
38D
100
AcDbEntity
  8
0
100
AcDbLine
 62
7
  6
CONTINUOUS
 10
231.3793372163
 20
231.4067561814
 11
231.3793372163
 21
224.947364749
  0
LINE
  5
38E
100
AcDbEntity
  8
BEZUGSACHSEN
100
AcDbLine
 62
7
  6
CONTINUOUS
 10
231.6293372163
 20
74.95251115
 11
231.6293372163
 21
91.75251115
  0
LINE
  5
38F
100
AcDbEntity
  8
BEZUGSACHSEN
100
AcDbLine
 62
7
  6
CONTINUOUS
 10
231.6293372163
 20
106.45251115
 11
231.6293372163
 21
190.65251115
  0
LINE
  5
390
100
AcDbEntity
  8
RUNDUNGEN
100
AcDbLine
 62
7
  6
CONTINUOUS
 10
232.1293372163
 20
196.2775541705
 11
232.1293372163
 21
212.9257444387
  0
LINE
  5
391
100
AcDbEntity
  8
0
100
AcDbLine
 62
7
  6
CONTINUOUS
 10
232.6293372163
 20
207.4100655958
 11
232.6293372163
 21
203.4102015795
  0
LINE
  5
392
100
AcDbEntity
  8
BEZUGSACHSEN
100
AcDbLine
 62
7
  6
CONTINUOUS
 10
234.2293372163
 20
218.75251115
 11
234.2293372163
 21
219.25251115
  0
LINE
  5
393
100
AcDbEntity
  8
0
100
AcDbLine
 62
7
  6
CONTINUOUS
 10
234.6293372163
 20
215.25251115
 11
234.6293372163
 21
215.10251115
  0
LINE
  5
394
100
AcDbEntity
  8
0
100
AcDbLine
 62
7
  6
CONTINUOUS
 10
234.6293372163
 20
195.90251115
 11
234.6293372163
 21
195.75251115
  0
LINE
  5
395
100
AcDbEntity
  8
KONSTRUKTIONSELEMENTE
100
AcDbLine
 62
7
  6
CONTINUOUS
 10
235.1293372163
 20
103.752511154
 11
235.1293372163
 21
95.7221662647
  0
LINE
  5
396
100
AcDbEntity
  8
BEZUGSACHSEN
100
AcDbLine
 62
7
  6
CONTINUOUS
 10
235.1293372163
 20
94.2524717068
 11
235.1293372163
 21
95.7221662647
  0
LINE
  5
397
100
AcDbEntity
  8
BEZUGSACHSEN
100
AcDbLine
 62
7
  6
CONTINUOUS
 10
235.1293372163
 20
219.25251115
 11
235.1293372163
 21
226.2525111536
  0
LINE
  5
398
100
AcDbEntity
  8
RUNDUNGEN
100
AcDbLine
 62
7
  6
CONTINUOUS
 10
232.0329143934
 20
214.6238034049
 11
230.9757620782
 21
223.9023101943
  0
LINE
  5
399
100
AcDbEntity
  8
BEZUGSACHSEN
100
AcDbLine
 62
7
  6
CONTINUOUS
 10
237.6293372163
 20
106.45251115
 11
237.6293372163
 21
103.75251115
  0
LINE
  5
39A
100
AcDbEntity
  8
0
100
AcDbLine
 62
7
  6
CONTINUOUS
 10
239.6293372163
 20
218.75251115
 11
239.6293372163
 21
215.25251115
  0
LINE
  5
39B
100
AcDbEntity
  8
0
100
AcDbLine
 62
7
  6
CONTINUOUS
 10
240.6293372163
 20
195.75251115
 11
240.6293372163
 21
190.65251115
  0
LINE
  5
39C
100
AcDbEntity
  8
0
100
AcDbLine
 62
7
  6
CONTINUOUS
 10
240.8793372163
 20
195.90251115
 11
240.8793372163
 21
214.10251115
  0
LINE
  5
39D
100
AcDbEntity
  8
0
100
AcDbLine
 62
7
  6
CONTINUOUS
 10
210.6293372163
 20
190.65251115
 11
240.6293372163
 21
190.65251115
  0
LINE
  5
39E
100
AcDbEntity
  8
0
100
AcDbLine
 62
7
  6
CONTINUOUS
 10
231.719770076
 20
221.7890715411
 11
232.102771504
 21
218.42751115
  0
LINE
  5
39F
100
AcDbEntity
  8
0
100
AcDbLine
 62
7
  6
CONTINUOUS
 10
231.6316802253
 20
222.5622262377
 11
231.3986216492
 21
224.6077551077
  0
LINE
  5
3A0
100
AcDbEntity
  8
RUNDUNGEN
100
AcDbLine
 62
7
  6
CONTINUOUS
 10
221.1293372163
 20
194.27751115
 11
230.1293372163
 21
194.27751115
  0
LINE
  5
3A1
100
AcDbEntity
  8
0
100
AcDbLine
 62
7
  6
CONTINUOUS
 10
240.6293372163
 20
195.75251115
 11
232.0588676676
 21
195.75251115
  0
LINE
  5
3A2
100
AcDbEntity
  8
0
100
AcDbLine
 62
7
  6
CONTINUOUS
 10
210.6293372163
 20
195.75251115
 11
219.1995304064
 21
195.75251115
  0
LINE
  5
3A3
100
AcDbEntity
  8
RUNDUNGEN
100
AcDbLine
 62
7
  6
CONTINUOUS
 10
210.3793372163
 20
195.90251115
 11
219.1657387505
 21
195.90251115
  0
LINE
  5
3A4
100
AcDbEntity
  8
RUNDUNGEN
100
AcDbLine
 62
7
  6
CONTINUOUS
 10
232.0928109721
 20
195.90251115
 11
240.8793372163
 21
195.90251115
  0
LINE
  5
3A5
100
AcDbEntity
  8
0
100
AcDbLine
 62
7
  6
CONTINUOUS
 10
232.1293372163
 20
203.4101335876
 11
232.6293372163
 21
203.4101335876
  0
LINE
  5
3A6
100
AcDbEntity
  8
0
100
AcDbLine
 62
7
  6
CONTINUOUS
 10
232.1293372163
 20
207.4101335876
 11
232.6293372163
 21
207.4101335876
  0
LINE
  5
3A7
100
AcDbEntity
  8
RUNDUNGEN
100
AcDbLine
 62
7
  6
CONTINUOUS
 10
238.6415247438
 20
213.75251115
 11
232.1063222492
 21
213.75251115
  0
LINE
  5
3A8
100
AcDbEntity
  8
RUNDUNGEN
100
AcDbLine
 62
7
  6
CONTINUOUS
 10
218.2814558446
 20
213.75251115
 11
213.4293372163
 21
213.75251115
  0
LINE
  5
3A9
100
AcDbEntity
  8
0
100
AcDbLine
 62
7
  6
CONTINUOUS
 10
218.2814558446
 20
213.75251115
 11
219.1523521769
 21
213.75251115
  0
LINE
  5
3AA
100
AcDbEntity
  8
0
100
AcDbLine
 62
7
  6
CONTINUOUS
 10
213.5547245818
 20
215.05251115
 11
219.2746051169
 21
215.05251115
  0
LINE
  5
3AB
100
AcDbEntity
  8
RUNDUNGEN
100
AcDbLine
 62
7
  6
CONTINUOUS
 10
211.3793372163
 20
215.10251115
 11
213.4293372163
 21
215.10251115
  0
LINE
  5
3AC
100
AcDbEntity
  8
0
100
AcDbLine
 62
7
  6
CONTINUOUS
 10
215.4293372163
 20
215.10251115
 11
217.5323329795
 21
215.10251115
  0
LINE
  5
3AD
100
AcDbEntity
  8
RUNDUNGEN
100
AcDbLine
 62
7
  6
CONTINUOUS
 10
215.4293372163
 20
215.10251115
 11
219.2803018973
 21
215.10251115
  0
LINE
  5
3AE
100
AcDbEntity
  8
RUNDUNGEN
100
AcDbLine
 62
7
  6
CONTINUOUS
 10
232.3121881049
 20
215.10251115
 11
239.8792974028
 21
215.10251115
  0
LINE
  5
3AF
100
AcDbEntity
  8
0
100
AcDbLine
 62
7
  6
CONTINUOUS
 10
239.6293372163
 20
215.25251115
 11
231.961282194
 21
215.25251115
  0
LINE
  5
3B0
100
AcDbEntity
  8
0
100
AcDbLine
 62
7
  6
CONTINUOUS
 10
211.6293372163
 20
215.25251115
 11
219.2973922385
 21
215.25251115
  0
LINE
  5
3B1
100
AcDbEntity
  8
0
100
AcDbLine
 62
7
  6
CONTINUOUS
 10
231.5995366377
 20
218.42751115
 11
232.102771504
 21
218.42751115
  0
LINE
  5
3B2
100
AcDbEntity
  8
0
100
AcDbLine
 62
7
  6
CONTINUOUS
 10
239.6293372163
 20
218.75251115
 11
232.0657424313
 21
218.75251115
  0
LINE
  5
3B3
100
AcDbEntity
  8
0
100
AcDbLine
 62
7
  6
CONTINUOUS
 10
211.6293372163
 20
218.75251115
 11
219.6961668676
 21
218.75251115
  0
LINE
  5
3B4
100
AcDbEntity
  8
0
100
AcDbLine
 62
7
  6
CONTINUOUS
 10
219.7021086524
 20
218.8046615262
 11
219.1988737861
 21
218.8046615262
  0
LINE
  5
3B5
100
AcDbEntity
  8
0
100
AcDbLine
 62
7
  6
CONTINUOUS
 10
219.7097545
 20
218.871768269
 11
219.2065196336
 21
218.871768269
  0
LINE
  5
3B6
100
AcDbEntity
  8
KONSTRUKTIONSELEMENTE
100
AcDbLine
 62
7
  6
CONTINUOUS
 10
216.1293372163
 20
219.25251115
 11
219.2562260627
 21
219.25251115
  0
LINE
  5
3B7
100
AcDbEntity
  8
KONSTRUKTIONSELEMENTE
100
AcDbLine
 62
7
  6
CONTINUOUS
 10
232.0087746272
 20
219.25251115
 11
235.1293372163
 21
219.25251115
  0
LINE
  5
3B8
100
AcDbEntity
  8
0
100
AcDbLine
 62
7
  6
CONTINUOUS
 10
219.759460929
 20
219.3080359978
 11
219.2562260627
 21
219.3080359978
  0
LINE
  5
3B9
100
AcDbEntity
  8
0
100
AcDbLine
 62
7
  6
CONTINUOUS
 10
219.784952707
 20
219.5317744619
 11
219.2817178407
 21
219.5317744619
  0
LINE
  5
3BA
100
AcDbEntity
  8
0
100
AcDbLine
 62
7
  6
CONTINUOUS
 10
219.8160537768
 20
219.8047450481
 11
219.3128189105
 21
219.8047450481
  0
LINE
  5
3BB
100
AcDbEntity
  8
0
100
AcDbLine
 62
7
  6
CONTINUOUS
 10
219.8650007678
 20
220.234347274
 11
219.3617659014
 21
220.234347274
  0
LINE
  5
3BC
100
AcDbEntity
  8
0
100
AcDbLine
 62
7
  6
CONTINUOUS
 10
219.9073202354
 20
220.6057804748
 11
219.4040853691
 21
220.6057804748
  0
LINE
  5
3BD
100
AcDbEntity
  8
0
100
AcDbLine
 62
7
  6
CONTINUOUS
 10
219.9552490042
 20
221.0264458792
 11
219.4520141378
 21
221.0264458792
  0
LINE
  5
3BE
100
AcDbEntity
  8
0
100
AcDbLine
 62
7
  6
CONTINUOUS
 10
231.2868766418
 20
221.1716927146
 11
231.7901115082
 21
221.1716927146
  0
LINE
  5
3BF
100
AcDbEntity
  8
0
100
AcDbLine
 62
7
  6
CONTINUOUS
 10
231.2165352097
 20
221.7890715411
 11
231.719770076
 21
221.7890715411
  0
LINE
  5
3C0
100
AcDbEntity
  8
0
100
AcDbLine
 62
7
  6
CONTINUOUS
 10
231.128445359
 20
222.5622262377
 11
231.6316802253
 21
222.5622262377
  0
LINE
  5
3C1
100
AcDbEntity
  8
0
100
AcDbLine
 62
7
  6
CONTINUOUS
 10
231.1189426193
 20
222.6456307136
 11
231.6221774856
 21
222.6456307136
  0
LINE
  5
3C2
100
AcDbEntity
  8
0
100
AcDbLine
 62
7
  6
CONTINUOUS
 10
220.1694008749
 20
222.9060327262
 11
219.6661660086
 21
222.9060327262
  0
LINE
  5
3C3
100
AcDbEntity
  8
0
100
AcDbLine
 62
7
  6
CONTINUOUS
 10
231.0640563061
 20
223.1273617016
 11
231.5672911725
 21
223.1273617016
  0
LINE
  5
3C4
100
AcDbEntity
  8
0
100
AcDbLine
 62
7
  6
CONTINUOUS
 10
231.0369681636
 20
223.3651112777
 11
231.5402030299
 21
223.3651112777
  0
LINE
  5
3C5
100
AcDbEntity
  8
0
100
AcDbLine
 62
7
  6
CONTINUOUS
 10
220.2407848148
 20
223.5325615258
 11
219.7375499485
 21
223.5325615258
  0
LINE
  5
3C6
100
AcDbEntity
  8
0
100
AcDbLine
 62
7
  6
CONTINUOUS
 10
231.0047464724
 20
223.6479174311
 11
231.5079813388
 21
223.6479174311
  0
LINE
  5
3C7
100
AcDbEntity
  8
0
100
AcDbLine
 62
7
  6
CONTINUOUS
 10
220.2939823484
 20
224.0024582375
 11
219.7910879162
 21
224.0024582375
  0
LINE
  5
3C8
100
AcDbEntity
  8
0
100
AcDbLine
 62
7
  6
CONTINUOUS
 10
230.9560726585
 20
224.0850685947
 11
231.458174255
 21
224.0850685947
  0
LINE
  5
3C9
100
AcDbEntity
  8
0
100
AcDbLine
 62
7
  6
CONTINUOUS
 10
220.3183177258
 20
224.2487677286
 11
219.8191513379
 21
224.2487677286
  0
LINE
  5
3CA
100
AcDbEntity
  8
0
100
AcDbLine
 62
7
  6
CONTINUOUS
 10
230.9229025816
 20
224.4579885244
 11
231.415685396
 21
224.4579885244
  0
LINE
  5
3CB
100
AcDbEntity
  8
0
100
AcDbLine
 62
7
  6
CONTINUOUS
 10
220.3419434138
 20
224.5418851299
 11
219.8525478473
 21
224.5418851299
  0
LINE
  5
3CC
100
AcDbEntity
  8
0
100
AcDbLine
 62
7
  6
CONTINUOUS
 10
220.3572011872
 20
224.7857712035
 11
219.8749819759
 21
224.7857712035
  0
LINE
  5
3CD
100
AcDbEntity
  8
0
100
AcDbLine
 62
7
  6
CONTINUOUS
 10
230.8968400493
 20
224.8759660045
 11
231.3801869667
 21
224.8759660045
  0
LINE
  5
3CE
100
AcDbEntity
  8
0
100
AcDbLine
 62
7
  6
CONTINUOUS
 10
220.3665201844
 20
224.9804250735
 11
219.8793372163
 21
224.9804250735
  0
LINE
  5
3CF
100
AcDbEntity
  8
0
100
AcDbLine
 62
7
  6
CONTINUOUS
 10
230.8793669466
 20
225.5705172256
 11
231.3793372163
 21
225.5705172256
  0
LINE
  5
3D0
100
AcDbEntity
  8
0
100
AcDbLine
 62
7
  6
CONTINUOUS
 10
220.3793372163
 20
225.8820450845
 11
219.8793372163
 21
225.8820450845
  0
LINE
  5
3D1
100
AcDbEntity
  8
0
100
AcDbLine
 62
7
  6
CONTINUOUS
 10
230.8793372163
 20
225.9242634717
 11
231.3793372163
 21
225.9242634717
  0
LINE
  5
3D2
100
AcDbEntity
  8
0
100
AcDbLine
 62
7
  6
CONTINUOUS
 10
230.8793372163
 20
226.1687222581
 11
231.3793372163
 21
226.1687222581
  0
LINE
  5
3D3
100
AcDbEntity
  8
BEZUGSACHSEN
100
AcDbLine
 62
7
  6
CONTINUOUS
 10
216.1293372163
 20
226.25251115
 11
219.8850543529
 21
226.25251115
  0
LINE
  5
3D4
100
AcDbEntity
  8
BEZUGSACHSEN
100
AcDbLine
 62
7
  6
CONTINUOUS
 10
231.3793372163
 20
226.25251115
 11
235.1293372163
 21
226.25251115
  0
LINE
  5
3D5
100
AcDbEntity
  8
0
100
AcDbLine
 62
7
  6
CONTINUOUS
 10
230.8793372163
 20
226.3489498106
 11
231.3793372163
 21
226.3489498106
  0
LINE
  5
3D6
100
AcDbEntity
  8
0
100
AcDbLine
 62
7
  6
CONTINUOUS
 10
220.3793372163
 20
226.3519420203
 11
219.8793372163
 21
226.3519420203
  0
LINE
  5
3D7
100
AcDbEntity
  8
KONSTRUKTIONSELEMENTE
100
AcDbLine
 62
7
  6
CONTINUOUS
 10
217.5802064108
 20
226.45251115
 11
219.8793372163
 21
226.45251115
  0
LINE
  5
3D8
100
AcDbEntity
  8
0
100
AcDbLine
 62
7
  6
CONTINUOUS
 10
220.3793372163
 20
226.6115818247
 11
219.8793372163
 21
226.6115818247
  0
LINE
  5
3D9
100
AcDbEntity
  8
0
100
AcDbLine
 62
7
  6
CONTINUOUS
 10
220.3793372163
 20
226.6205193184
 11
219.8793372163
 21
226.6205193184
  0
LINE
  5
3DA
100
AcDbEntity
  8
0
100
AcDbLine
 62
7
  6
CONTINUOUS
 10
220.3793372163
 20
226.73685745
 11
219.8793372163
 21
226.73685745
  0
LINE
  5
3DB
100
AcDbEntity
  8
0
100
AcDbLine
 62
7
  6
CONTINUOUS
 10
220.3793372163
 20
226.9024270316
 11
219.8793372163
 21
226.9024270316
  0
LINE
  5
3DC
100
AcDbEntity
  8
0
100
AcDbLine
 62
7
  6
CONTINUOUS
 10
220.3793372163
 20
227.2537134376
 11
219.8793372163
 21
227.2537134376
  0
LINE
  5
3DD
100
AcDbEntity
  8
0
100
AcDbLine
 62
7
  6
CONTINUOUS
 10
230.8793372163
 20
227.2683088051
 11
231.3793372163
 21
227.2683088051
  0
LINE
  5
3DE
100
AcDbEntity
  8
0
100
AcDbLine
 62
7
  6
CONTINUOUS
 10
220.3793372163
 20
227.654231375
 11
219.8793372163
 21
227.654231375
  0
LINE
  5
3DF
100
AcDbEntity
  8
0
100
AcDbLine
 62
7
  6
CONTINUOUS
 10
220.3793372163
 20
228.0748965554
 11
219.8793372163
 21
228.0748965554
  0
LINE
  5
3E0
100
AcDbEntity
  8
0
100
AcDbLine
 62
7
  6
CONTINUOUS
 10
230.8793372163
 20
229.1204458364
 11
231.3793372163
 21
229.1204458364
  0
LINE
  5
3E1
100
AcDbEntity
  8
0
100
AcDbLine
 62
7
  6
CONTINUOUS
 10
230.8793372163
 20
229.474191641
 11
231.3793372163
 21
229.474191641
  0
LINE
  5
3E2
100
AcDbEntity
  8
0
100
AcDbLine
 62
7
  6
CONTINUOUS
 10
230.8793372163
 20
229.6865354728
 11
231.3793372163
 21
229.6865354728
  0
LINE
  5
3E3
100
AcDbEntity
  8
0
100
AcDbLine
 62
7
  6
CONTINUOUS
 10
230.8793372163
 20
229.7895909617
 11
231.3793372163
 21
229.7895909617
  0
LINE
  5
3E4
100
AcDbEntity
  8
0
100
AcDbLine
 62
7
  6
CONTINUOUS
 10
220.3793372163
 20
229.9544834023
 11
219.8793372163
 21
229.9544834023
  0
LINE
  5
3E5
100
AcDbEntity
  8
0
100
AcDbLine
 62
7
  6
CONTINUOUS
 10
230.8793372163
 20
230.9199075165
 11
231.3793372163
 21
230.9199075165
  0
LINE
  5
3E6
100
AcDbEntity
  8
0
100
AcDbLine
 62
7
  6
CONTINUOUS
 10
230.8793372163
 20
231.1089071125
 11
231.3793372163
 21
231.1089071125
  0
LINE
  5
3E7
100
AcDbEntity
  8
0
100
AcDbLine
 62
7
  6
CONTINUOUS
 10
230.8793372163
 20
231.4067561814
 11
231.3793372163
 21
231.4067561814
  0
LINE
  5
3E8
100
AcDbEntity
  8
BEZUGSACHSEN
100
AcDbLine
 62
7
  6
CONTINUOUS
 10
235.1585450031
 20
94.2817189369
 11
232.6293372162
 21
91.75251115
  0
LINE
  5
3E9
100
AcDbEntity
  8
BEZUGSACHSEN
100
AcDbLine
 62
7
  6
CONTINUOUS
 10
230.4293372163
 20
73.75251115
 11
231.6293372163
 21
74.95251115
  0
LINE
  5
3EA
100
AcDbEntity
  8
0
100
AcDbLine
 62
7
  6
CONTINUOUS
 10
222.8793372163
 20
284.27751115
 11
228.3793372163
 21
284.27751115
  0
LINE
  5
3EB
100
AcDbEntity
  8
0
100
AcDbLine
 62
7
  6
CONTINUOUS
 10
110.6547768123
 20
39.9648836902
 11
110.6547768123
 21
34.4648836902
  0
LINE
  5
3EC
100
AcDbEntity
  8
RUNDUNGEN
100
AcDbLine
 62
7
  6
CONTINUOUS
 10
111.648882729
 20
42.7148836902
 11
111.648882729
 21
41.3750806739
  0
LINE
  5
3ED
100
AcDbEntity
  8
RUNDUNGEN
100
AcDbLine
 62
7
  6
CONTINUOUS
 10
111.648882729
 20
33.0546867065
 11
111.648882729
 21
31.7148836902
  0
LINE
  5
3EE
100
AcDbEntity
  8
0
100
AcDbLine
 62
7
  6
CONTINUOUS
 10
116.1334936967
 20
30.7148836902
 11
116.1334936967
 21
30.2148836902
  0
LINE
  5
3EF
100
AcDbEntity
  8
0
100
AcDbLine
 62
7
  6
CONTINUOUS
 10
118.2266333769
 20
42.9369006711
 11
118.2266333769
 21
43.4401355374
  0
LINE
  5
3F0
100
AcDbEntity
  8
0
100
AcDbLine
 62
7
  6
CONTINUOUS
 10
118.289044019
 20
42.8889719023
 11
118.289044019
 21
43.3922067687
  0
LINE
  5
3F1
100
AcDbEntity
  8
0
100
AcDbLine
 62
7
  6
CONTINUOUS
 10
118.3334936967
 20
30.7148836902
 11
118.3334936967
 21
30.2148836902
  0
LINE
  5
3F2
100
AcDbEntity
  8
0
100
AcDbLine
 62
7
  6
CONTINUOUS
 10
118.573644915
 20
31.5573442647
 11
118.573644915
 21
31.0541093984
  0
LINE
  5
3F3
100
AcDbEntity
  8
0
100
AcDbLine
 62
7
  6
CONTINUOUS
 10
118.8095356929
 20
43.3993692998
 11
118.8095356929
 21
43.4844915516
  0
LINE
  5
3F4
100
AcDbEntity
  8
0
100
AcDbLine
 62
7
  6
CONTINUOUS
 10
118.8252155335
 20
31.6276856968
 11
118.8252155335
 21
31.1244508305
  0
LINE
  5
3F5
100
AcDbEntity
  8
0
100
AcDbLine
 62
7
  6
CONTINUOUS
 10
118.9725301452
 20
42.6748200316
 11
118.9725301452
 21
43.1780548979
  0
LINE
  5
3F6
100
AcDbEntity
  8
0
100
AcDbLine
 62
7
  6
CONTINUOUS
 10
118.9925258596
 20
43.3420342859
 11
118.9925258596
 21
43.512278869
  0
LINE
  5
3F7
100
AcDbEntity
  8
0
100
AcDbLine
 62
7
  6
CONTINUOUS
 10
119.2003587996
 20
42.6034360917
 11
119.2003587996
 21
43.106670958
  0
LINE
  5
3F8
100
AcDbEntity
  8
0
100
AcDbLine
 62
7
  6
CONTINUOUS
 10
119.2839770176
 20
43.2514754354
 11
119.2839770176
 21
43.5344568761
  0
LINE
  5
3F9
100
AcDbEntity
  8
0
100
AcDbLine
 62
7
  6
CONTINUOUS
 10
119.3712303311
 20
42.5502385582
 11
119.3712303311
 21
43.0531329903
  0
LINE
  5
3FA
100
AcDbEntity
  8
0
100
AcDbLine
 62
7
  6
CONTINUOUS
 10
119.5334936967
 20
30.7148836902
 11
119.5334936967
 21
30.2148836902
  0
LINE
  5
3FB
100
AcDbEntity
  8
0
100
AcDbLine
 62
7
  6
CONTINUOUS
 10
118.2726839501
 20
43.4824550051
 11
118.2266333769
 21
43.4401355374
  0
LINE
  5
3FC
100
AcDbEntity
  8
0
100
AcDbLine
 62
7
  6
CONTINUOUS
 10
120.0046513089
 20
31.9213183249
 11
120.0046513089
 21
31.4285355105
  0
LINE
  5
3FD
100
AcDbEntity
  8
0
100
AcDbLine
 62
7
  6
CONTINUOUS
 10
120.0547164573
 20
42.4648836902
 11
120.0547164573
 21
42.9648836902
  0
LINE
  5
3FE
100
AcDbEntity
  8
0
100
AcDbLine
 62
7
  6
CONTINUOUS
 10
120.0830687613
 20
31.9473808573
 11
120.0830687613
 21
31.4640339398
  0
LINE
  5
3FF
100
AcDbEntity
  8
0
100
AcDbLine
 62
7
  6
CONTINUOUS
 10
120.2255880703
 20
42.4648836902
 11
120.2255880703
 21
42.9648836902
  0
LINE
  5
400
100
AcDbEntity
  8
0
100
AcDbLine
 62
7
  6
CONTINUOUS
 10
120.3660857241
 20
31.9648539599
 11
120.3660857241
 21
31.4648836902
  0
LINE
  5
401
100
AcDbEntity
  8
0
100
AcDbLine
 62
7
  6
CONTINUOUS
 10
120.4837132719
 20
43.3012822913
 11
120.4837132719
 21
43.5841633052
  0
LINE
  5
402
100
AcDbEntity
  8
0
100
AcDbLine
 62
7
  6
CONTINUOUS
 10
120.5722732191
 20
31.4532370628
 11
120.5722732191
 21
31.3816774706
  0
LINE
  5
403
100
AcDbEntity
  8
0
100
AcDbLine
 62
7
  6
CONTINUOUS
 10
120.6021316236
 20
31.9648836902
 11
120.6021316236
 21
31.4648836902
  0
LINE
  5
404
100
AcDbEntity
  8
0
100
AcDbLine
 62
7
  6
CONTINUOUS
 10
120.7458237822
 20
31.4648836902
 11
120.7458237822
 21
31.3531148564
  0
LINE
  5
405
100
AcDbEntity
  8
0
100
AcDbLine
 62
7
  6
CONTINUOUS
 10
120.7897064315
 20
42.4648836902
 11
120.7897064315
 21
42.9648836902
  0
LINE
  5
406
100
AcDbEntity
  8
0
100
AcDbLine
 62
7
  6
CONTINUOUS
 10
120.8321213898
 20
43.3157172334
 11
120.8321213898
 21
43.5884953911
  0
LINE
  5
407
100
AcDbEntity
  8
0
100
AcDbLine
 62
7
  6
CONTINUOUS
 10
120.8521169921
 20
42.4648836902
 11
120.8521169921
 21
42.9648836902
  0
LINE
  5
408
100
AcDbEntity
  8
0
100
AcDbLine
 62
7
  6
CONTINUOUS
 10
120.8596573134
 20
31.0595984087
 11
120.8596573134
 21
30.8967142799
  0
LINE
  5
409
100
AcDbEntity
  8
0
100
AcDbLine
 62
7
  6
CONTINUOUS
 10
120.8855456275
 20
31.9648836902
 11
120.8855456275
 21
31.4648836902
  0
LINE
  5
40A
100
AcDbEntity
  8
0
100
AcDbLine
 62
7
  6
CONTINUOUS
 10
121.0296346473
 20
31.4648836902
 11
121.0296346473
 21
31.3296858113
  0
LINE
  5
40B
100
AcDbEntity
  8
0
100
AcDbLine
 62
7
  6
CONTINUOUS
 10
121.0579048464
 20
31.9648836902
 11
121.0579048464
 21
31.4648836902
  0
LINE
  5
40C
100
AcDbEntity
  8
0
100
AcDbLine
 62
7
  6
CONTINUOUS
 10
121.129025904
 20
43.3280183231
 11
121.129025904
 21
43.5805906528
  0
LINE
  5
40D
100
AcDbEntity
  8
0
100
AcDbLine
 62
7
  6
CONTINUOUS
 10
121.3744265448
 20
43.338185549
 11
121.3744265448
 21
43.5604491945
  0
LINE
  5
40E
100
AcDbEntity
  8
0
100
AcDbLine
 62
7
  6
CONTINUOUS
 10
121.5356031183
 20
42.4648836902
 11
121.5356031183
 21
42.9648836902
  0
LINE
  5
40F
100
AcDbEntity
  8
0
100
AcDbLine
 62
7
  6
CONTINUOUS
 10
121.5683232
 20
43.3462189066
 11
121.5683232
 21
43.5280710117
  0
LINE
  5
410
100
AcDbEntity
  8
0
100
AcDbLine
 62
7
  6
CONTINUOUS
 10
121.7334936967
 20
30.7148836902
 11
121.7334936967
 21
30.2148836902
  0
LINE
  5
411
100
AcDbEntity
  8
0
100
AcDbLine
 62
7
  6
CONTINUOUS
 10
121.812616927
 20
31.9648836902
 11
121.812616927
 21
31.4648836902
  0
LINE
  5
412
100
AcDbEntity
  8
0
100
AcDbLine
 62
7
  6
CONTINUOUS
 10
121.8506853613
 20
42.9648836902
 11
121.8506853613
 21
43.1558596147
  0
LINE
  5
413
100
AcDbEntity
  8
RUNDUNGEN
100
AcDbLine
 62
7
  6
CONTINUOUS
 10
129.282621766
 20
50.2654859737
 11
128.3949728907
 21
49.8924186299
  0
LINE
  5
414
100
AcDbEntity
  8
0
100
AcDbLine
 62
7
  6
CONTINUOUS
 10
121.9634547874
 20
31.0475807831
 11
121.9634547874
 21
30.7942054797
  0
LINE
  5
415
100
AcDbEntity
  8
0
100
AcDbLine
 62
7
  6
CONTINUOUS
 10
122.0486626467
 20
31.9648836902
 11
122.0486626467
 21
31.4648836902
  0
LINE
  5
416
100
AcDbEntity
  8
0
100
AcDbLine
 62
7
  6
CONTINUOUS
 10
122.1990936421
 20
42.9648836902
 11
122.1990936421
 21
43.1601916496
  0
LINE
  5
417
100
AcDbEntity
  8
0
100
AcDbLine
 62
7
  6
CONTINUOUS
 10
122.2118494613
 20
31.4648836902
 11
122.2118494613
 21
31.2747994981
  0
LINE
  5
418
100
AcDbEntity
  8
0
100
AcDbLine
 62
7
  6
CONTINUOUS
 10
122.4108911441
 20
31.9648836902
 11
122.4108911441
 21
31.4648836902
  0
LINE
  5
419
100
AcDbEntity
  8
0
100
AcDbLine
 62
7
  6
CONTINUOUS
 10
122.4959979934
 20
42.9648836902
 11
122.4959979934
 21
43.1522869623
  0
LINE
  5
41A
100
AcDbEntity
  8
0
100
AcDbLine
 62
7
  6
CONTINUOUS
 10
122.5585531047
 20
31.4648836902
 11
122.5585531047
 21
31.2689558456
  0
LINE
  5
41B
100
AcDbEntity
  8
0
100
AcDbLine
 62
7
  6
CONTINUOUS
 10
122.7317038391
 20
43.1996984912
 11
122.7317038391
 21
43.333801713
  0
LINE
  5
41C
100
AcDbEntity
  8
0
100
AcDbLine
 62
7
  6
CONTINUOUS
 10
122.7413986342
 20
42.9648836902
 11
122.7413986342
 21
43.132145504
  0
LINE
  5
41D
100
AcDbEntity
  8
0
100
AcDbLine
 62
7
  6
CONTINUOUS
 10
122.8204873859
 20
31.9648836902
 11
122.8204873859
 21
31.4648836902
  0
LINE
  5
41E
100
AcDbEntity
  8
0
100
AcDbLine
 62
7
  6
CONTINUOUS
 10
122.8578886439
 20
31.4648836902
 11
122.8578886439
 21
31.2755639263
  0
LINE
  5
41F
100
AcDbEntity
  8
0
100
AcDbLine
 62
7
  6
CONTINUOUS
 10
122.9352954524
 20
42.9841681232
 11
122.9352954524
 21
43.0997672702
  0
LINE
  5
420
100
AcDbEntity
  8
0
100
AcDbLine
 62
7
  6
CONTINUOUS
 10
123.0326299501
 20
31.2250710205
 11
123.0326299501
 21
31.0931565758
  0
LINE
  5
421
100
AcDbEntity
  8
0
100
AcDbLine
 62
7
  6
CONTINUOUS
 10
123.049209861
 20
43.0098647057
 11
123.049209861
 21
43.0640752747
  0
LINE
  5
422
100
AcDbEntity
  8
0
100
AcDbLine
 62
7
  6
CONTINUOUS
 10
123.0883765359
 20
31.9648836902
 11
123.0883765359
 21
31.4648836902
  0
LINE
  5
423
100
AcDbEntity
  8
0
100
AcDbLine
 62
7
  6
CONTINUOUS
 10
123.1098563138
 20
31.4648836902
 11
123.1098563138
 21
31.294623788
  0
LINE
  5
424
100
AcDbEntity
  8
0
100
AcDbLine
 62
7
  6
CONTINUOUS
 10
123.3144560041
 20
31.4648836902
 11
123.3144560041
 21
31.3261354357
  0
LINE
  5
425
100
AcDbEntity
  8
0
100
AcDbLine
 62
7
  6
CONTINUOUS
 10
123.403634011
 20
31.9648836902
 11
123.403634011
 21
31.4648836902
  0
LINE
  5
426
100
AcDbEntity
  8
0
100
AcDbLine
 62
7
  6
CONTINUOUS
 10
123.5454644148
 20
42.9648836902
 11
123.5454644148
 21
42.9937096092
  0
LINE
  5
427
100
AcDbEntity
  8
0
100
AcDbLine
 62
7
  6
CONTINUOUS
 10
123.5915148461
 20
42.9648836902
 11
123.5915148461
 21
43.0360291288
  0
LINE
  5
428
100
AcDbEntity
  8
0
100
AcDbLine
 62
7
  6
CONTINUOUS
 10
123.5974729669
 20
31.4648836902
 11
123.5974729669
 21
31.4052695516
  0
LINE
  5
429
100
AcDbEntity
  8
0
100
AcDbLine
 62
7
  6
CONTINUOUS
 10
123.6086307424
 20
31.9648836902
 11
123.6086307424
 21
31.4648836902
  0
LINE
  5
42A
100
AcDbEntity
  8
0
100
AcDbLine
 62
7
  6
CONTINUOUS
 10
123.8295490091
 20
31.9648836902
 11
123.8295490091
 21
31.4648836902
  0
LINE
  5
42B
100
AcDbEntity
  8
0
100
AcDbLine
 62
7
  6
CONTINUOUS
 10
123.9402063932
 20
31.9648836902
 11
123.9402063932
 21
31.4648836902
  0
LINE
  5
42C
100
AcDbEntity
  8
0
100
AcDbLine
 62
7
  6
CONTINUOUS
 10
124.148776169
 20
31.4648836902
 11
124.148776169
 21
31.4309374943
  0
LINE
  5
42D
100
AcDbEntity
  8
0
100
AcDbLine
 62
7
  6
CONTINUOUS
 10
129.6850610453
 20
48.3551366929
 11
125.0302817321
 21
42.9736966219
  0
LINE
  5
42E
100
AcDbEntity
  8
0
100
AcDbLine
 62
7
  6
CONTINUOUS
 10
123.5454644148
 20
42.9937096092
 11
123.5915148461
 21
43.0360291288
  0
LINE
  5
42F
100
AcDbEntity
  8
0
100
AcDbLine
 62
7
  6
CONTINUOUS
 10
118.7350066397
 20
43.4510950445
 11
118.8095356929
 21
43.4844915516
  0
LINE
  5
430
100
AcDbEntity
  8
0
100
AcDbLine
 62
7
  6
CONTINUOUS
 10
120.0046513089
 20
31.4285355105
 11
120.0364947393
 21
31.3860466515
  0
LINE
  5
431
100
AcDbEntity
  8
0
100
AcDbLine
 62
7
  6
CONTINUOUS
 10
124.9508561809
 20
31.9648836902
 11
124.9508561809
 21
31.4648836902
  0
LINE
  5
432
100
AcDbEntity
  8
0
100
AcDbLine
 62
7
  6
CONTINUOUS
 10
125.2947768123
 20
42.4648836902
 11
125.2947768123
 21
42.9648836902
  0
LINE
  5
433
100
AcDbEntity
  8
RUNDUNGEN
100
AcDbLine
 62
7
  6
CONTINUOUS
 10
125.4047768123
 20
29.0146171672
 11
125.4047768123
 21
31.5616785683
  0
LINE
  5
434
100
AcDbEntity
  8
RUNDUNGEN
100
AcDbLine
 62
7
  6
CONTINUOUS
 10
125.4047768123
 20
43.4066543832
 11
125.4047768123
 21
45.3141342135
  0
LINE
  5
435
100
AcDbEntity
  8
0
100
AcDbLine
 62
7
  6
CONTINUOUS
 10
130.6682824656
 20
47.5046805572
 11
126.4120725925
 21
42.5840308721
  0
LINE
  5
436
100
AcDbEntity
  8
0
100
AcDbLine
 62
7
  6
CONTINUOUS
 10
123.0831416973
 20
43.0250695686
 11
123.0086125881
 21
42.9916730592
  0
LINE
  5
437
100
AcDbEntity
  8
0
100
AcDbLine
 62
7
  6
CONTINUOUS
 10
124.148776169
 20
31.4309374943
 11
124.1377879255
 21
31.4455992573
  0
LINE
  5
438
100
AcDbEntity
  8
0
100
AcDbLine
 62
7
  6
CONTINUOUS
 10
120.5722732191
 20
31.3816774706
 11
120.5089835796
 21
31.4153736836
  0
LINE
  5
439
100
AcDbEntity
  8
BEZUGSACHSEN
100
AcDbLine
 62
7
  6
CONTINUOUS
 10
135.169949255
 20
46.7148836902
 11
132.7162106109
 21
42.4648836902
  0
LINE
  5
43A
100
AcDbEntity
  8
KONSTRUKTIONSELEMENTE
100
AcDbLine
 62
7
  6
CONTINUOUS
 10
135.0845318921
 20
42.9591665536
 11
134.5943328572
 21
42.4648836902
  0
LINE
  5
43B
100
AcDbEntity
  8
KONSTRUKTIONSELEMENTE
100
AcDbLine
 62
7
  6
CONTINUOUS
 10
135.0438168906
 20
42.4648836902
 11
135.3111384267
 21
42.7344322713
  0
LINE
  5
43C
100
AcDbEntity
  8
0
100
AcDbLine
 62
7
  6
CONTINUOUS
 10
120.5089835796
 20
31.4153736836
 11
120.5455463875
 21
31.4455992573
  0
LINE
  5
43D
100
AcDbEntity
  8
KONSTRUKTIONSELEMENTE
100
AcDbLine
 62
7
  6
CONTINUOUS
 10
135.259832468
 20
43.0603894405
 11
135.0845318921
 21
42.9591665536
  0
LINE
  5
43E
100
AcDbEntity
  8
KONSTRUKTIONSELEMENTE
100
AcDbLine
 62
7
  6
CONTINUOUS
 10
135.3111384267
 20
42.7344322713
 11
135.4589322497
 21
42.8079192476
  0
LINE
  5
43F
100
AcDbEntity
  8
0
100
AcDbLine
 62
7
  6
CONTINUOUS
 10
123.6444438501
 20
31.4440993234
 11
123.6416266093
 21
31.4455992573
  0
LINE
  5
440
100
AcDbEntity
  8
0
100
AcDbLine
 62
7
  6
CONTINUOUS
 10
118.7689384759
 20
43.4120893385
 11
118.7350066397
 21
43.4510950445
  0
LINE
  5
441
100
AcDbEntity
  8
0
100
AcDbLine
 62
7
  6
CONTINUOUS
 10
123.6444438501
 20
31.4440993234
 11
123.5974729669
 21
31.4052695516
  0
LINE
  5
442
100
AcDbEntity
  8
0
100
AcDbLine
 62
7
  6
CONTINUOUS
 10
120.0046513089
 20
31.4285355105
 11
120.0327492675
 21
31.4455992573
  0
LINE
  5
443
100
AcDbEntity
  8
KONSTRUKTIONSELEMENTE
100
AcDbLine
 62
7
  6
CONTINUOUS
 10
143.4078997586
 20
44.5709909097
 11
143.1787543427
 21
44.439934144
  0
LINE
  5
444
100
AcDbEntity
  8
KONSTRUKTIONSELEMENTE
100
AcDbLine
 62
7
  6
CONTINUOUS
 10
143.3713810547
 20
44.2962124536
 11
143.5216554833
 21
44.3458898299
  0
LINE
  5
445
100
AcDbEntity
  8
0
100
AcDbLine
 62
7
  6
CONTINUOUS
 10
160.5137417935
 20
31.1449572177
 11
160.7104979107
 21
31.1875387434
  0
LINE
  5
446
100
AcDbEntity
  8
0
100
AcDbLine
 62
7
  6
CONTINUOUS
 10
158.2757375377
 20
31.3587829456
 11
158.0789813937
 21
31.3162014184
  0
LINE
  5
447
100
AcDbEntity
  8
0
100
AcDbLine
 62
7
  6
CONTINUOUS
 10
160.295008934
 20
31.1961846661
 11
160.1383281161
 21
31.1663829663
  0
LINE
  5
448
100
AcDbEntity
  8
BEZUGSACHSEN
100
AcDbLine
 62
7
  6
CONTINUOUS
 10
135.169949255
 20
27.7148836902
 11
146.1396043696
 21
27.7148836902
  0
LINE
  5
449
100
AcDbEntity
  8
0
100
AcDbLine
 62
7
  6
CONTINUOUS
 10
120.0364947393
 20
31.3860466515
 11
120.2259666168
 21
31.3362395677
  0
LINE
  5
44A
100
AcDbEntity
  8
0
100
AcDbLine
 62
7
  6
CONTINUOUS
 10
118.2266333769
 20
42.9369006711
 11
118.289044019
 21
42.8889719023
  0
LINE
  5
44B
100
AcDbEntity
  8
0
100
AcDbLine
 62
7
  6
CONTINUOUS
 10
123.049209861
 20
43.0640752747
 11
123.0831416973
 21
43.0250695686
  0
LINE
  5
44C
100
AcDbEntity
  8
BEZUGSACHSEN
100
AcDbLine
 62
7
  6
CONTINUOUS
 10
132.7162106109
 20
31.9648836902
 11
135.169949255
 21
27.7148836902
  0
LINE
  5
44D
100
AcDbEntity
  8
KONSTRUKTIONSELEMENTE
100
AcDbLine
 62
7
  6
CONTINUOUS
 10
142.1701041063
 20
45.0700592575
 11
141.8694448168
 21
44.7488537287
  0
LINE
  5
44E
100
AcDbEntity
  8
KONSTRUKTIONSELEMENTE
100
AcDbLine
 62
7
  6
CONTINUOUS
 10
141.7888422825
 20
44.3310251446
 11
142.0895016002
 21
44.6522308197
  0
LINE
  5
44F
100
AcDbEntity
  8
KONSTRUKTIONSELEMENTE
100
AcDbLine
 62
7
  6
CONTINUOUS
 10
143.2352243263
 20
44.1820686007
 11
143.3713810547
 21
44.2962124536
  0
LINE
  5
450
100
AcDbEntity
  8
0
100
AcDbLine
 62
7
  6
CONTINUOUS
 10
124.0703589035
 20
31.3833150258
 11
124.148776169
 21
31.4309374943
  0
LINE
  5
451
100
AcDbEntity
  8
KONSTRUKTIONSELEMENTE
100
AcDbLine
 62
7
  6
CONTINUOUS
 10
143.8911579973
 20
43.5416535012
 11
142.3518957789
 21
42.7701008166
  0
LINE
  5
452
100
AcDbEntity
  8
KONSTRUKTIONSELEMENTE
100
AcDbLine
 62
7
  6
CONTINUOUS
 10
142.6375103613
 20
42.6432924018
 11
144.0049145392
 21
43.3165520586
  0
LINE
  5
453
100
AcDbEntity
  8
0
100
AcDbLine
 62
7
  6
CONTINUOUS
 10
160.0985112967
 20
30.9318875583
 11
159.8652998152
 21
30.8978439067
  0
LINE
  5
454
100
AcDbEntity
  8
0
100
AcDbLine
 62
7
  6
CONTINUOUS
 10
158.4944703972
 20
31.3075554971
 11
158.7276819055
 21
31.3415991503
  0
LINE
  5
455
100
AcDbEntity
  8
0
100
AcDbLine
 62
7
  6
CONTINUOUS
 10
158.508949046
 20
31.3928265987
 11
158.2757375377
 21
31.3587829456
  0
LINE
  5
456
100
AcDbEntity
  8
0
100
AcDbLine
 62
7
  6
CONTINUOUS
 10
160.2039995948
 20
31.1066716112
 11
160.5137417935
 21
31.1449572177
  0
LINE
  5
457
100
AcDbEntity
  8
0
100
AcDbLine
 62
7
  6
CONTINUOUS
 10
160.2407135194
 20
30.8764181595
 11
160.4338501457
 21
30.8976818891
  0
LINE
  5
458
100
AcDbEntity
  8
0
100
AcDbLine
 62
7
  6
CONTINUOUS
 10
160.1383281161
 20
31.1663829663
 11
159.9451914362
 21
31.1451192337
  0
LINE
  5
459
100
AcDbEntity
  8
0
100
AcDbLine
 62
7
  6
CONTINUOUS
 10
162.2124116782
 20
30.8801200781
 11
162.5185342251
 21
30.8970878796
  0
LINE
  5
45A
100
AcDbEntity
  8
0
100
AcDbLine
 62
7
  6
CONTINUOUS
 10
159.9966429604
 20
30.7784212069
 11
160.3027655341
 21
30.7953890098
  0
LINE
  5
45B
100
AcDbEntity
  8
0
100
AcDbLine
 62
7
  6
CONTINUOUS
 10
160.4338501457
 20
30.8976818891
 11
161.811401714
 21
30.9740370017
  0
LINE
  5
45C
100
AcDbEntity
  8
0
100
AcDbLine
 62
7
  6
CONTINUOUS
 10
162.1175242609
 20
30.9910048032
 11
162.7297695691
 21
31.024940418
  0
LINE
  5
45D
100
AcDbEntity
  8
0
100
AcDbLine
 62
7
  6
CONTINUOUS
 10
162.5474920472
 20
31.067629991
 11
161.935246739
 21
31.0336943761
  0
LINE
  5
45E
100
AcDbEntity
  8
0
100
AcDbLine
 62
7
  6
CONTINUOUS
 10
161.6291241921
 20
31.0167265746
 11
160.0985112967
 21
30.9318875583
  0
LINE
  5
45F
100
AcDbEntity
  8
0
100
AcDbLine
 62
7
  6
CONTINUOUS
 10
161.6436027874
 20
31.1019976733
 11
161.3374802405
 21
31.0850298718
  0
LINE
  5
460
100
AcDbEntity
  8
0
100
AcDbLine
 62
7
  6
CONTINUOUS
 10
159.8978770479
 20
31.0897038097
 11
160.2039995948
 21
31.1066716112
  0
LINE
  5
461
100
AcDbEntity
  8
0
100
AcDbLine
 62
7
  6
CONTINUOUS
 10
162.0443547424
 20
31.229796237
 11
162.427007926
 21
31.2510059888
  0
LINE
  5
462
100
AcDbEntity
  8
0
100
AcDbLine
 62
7
  6
CONTINUOUS
 10
159.9451914362
 20
31.1451192337
 11
159.7921301627
 21
31.136635333
  0
LINE
  5
463
100
AcDbEntity
  8
0
100
AcDbLine
 62
7
  6
CONTINUOUS
 10
121.7334936967
 20
30.2148836902
 11
119.5335634774
 21
30.2148836902
  0
LINE
  5
464
100
AcDbEntity
  8
0
100
AcDbLine
 62
7
  6
CONTINUOUS
 10
118.3334936967
 20
30.2148836902
 11
116.1335634774
 21
30.2148836902
  0
LINE
  5
465
100
AcDbEntity
  8
0
100
AcDbLine
 62
7
  6
CONTINUOUS
 10
120.4783312727
 20
31.3040178766
 11
120.8409566721
 21
31.276929734
  0
LINE
  5
466
100
AcDbEntity
  8
0
100
AcDbLine
 62
7
  6
CONTINUOUS
 10
121.0296346473
 20
31.3296858113
 11
120.7458237822
 21
31.3531148564
  0
LINE
  5
467
100
AcDbEntity
  8
0
100
AcDbLine
 62
7
  6
CONTINUOUS
 10
120.8596573134
 20
30.8967142799
 11
119.014687456
 21
31.0746437593
  0
LINE
  5
468
100
AcDbEntity
  8
0
100
AcDbLine
 62
7
  6
CONTINUOUS
 10
121.9634547874
 20
30.7942054797
 11
121.1434682235
 21
30.8732852474
  0
LINE
  5
469
100
AcDbEntity
  8
0
100
AcDbLine
 62
7
  6
CONTINUOUS
 10
118.573644915
 20
31.0541093984
 11
121.7747768123
 21
30.7414494025
  0
LINE
  5
46A
100
AcDbEntity
  8
0
100
AcDbLine
 62
7
  6
CONTINUOUS
 10
120.2259666168
 20
31.3362395677
 11
120.4783312727
 21
31.3040178766
  0
LINE
  5
46B
100
AcDbEntity
  8
0
100
AcDbLine
 62
7
  6
CONTINUOUS
 10
120.7458237822
 20
31.3531148564
 11
120.5722732191
 21
31.3816774706
  0
LINE
  5
46C
100
AcDbEntity
  8
0
100
AcDbLine
 62
7
  6
CONTINUOUS
 10
118.2266333769
 20
43.4401355374
 11
118.289044019
 21
43.3922067687
  0
LINE
  5
46D
100
AcDbEntity
  8
KONSTRUKTIONSELEMENTE
100
AcDbLine
 62
7
  6
CONTINUOUS
 10
143.1787543427
 20
44.439934144
 11
143.0567144973
 21
44.2613241774
  0
LINE
  5
46E
100
AcDbEntity
  8
KONSTRUKTIONSELEMENTE
100
AcDbLine
 62
7
  6
CONTINUOUS
 10
144.048899972
 20
43.7044122799
 11
143.8911579973
 21
43.5416535012
  0
LINE
  5
46F
100
AcDbEntity
  8
KONSTRUKTIONSELEMENTE
100
AcDbLine
 62
7
  6
CONTINUOUS
 10
144.0049145392
 20
43.3165520586
 11
144.1410712676
 21
43.4306959115
  0
LINE
  5
470
100
AcDbEntity
  8
RUNDUNGEN
100
AcDbLine
 62
7
  6
CONTINUOUS
 10
157.4374129879
 20
43.3005665816
 11
157.4364843844
 21
43.300271666
  0
LWPOLYLINE
  5
471
100
AcDbEntity
  8
RUNDUNGEN
100
AcDbPolyline
 62
7
  6
CONTINUOUS
 90
4
 70
0
 10
157.4364829493
 20
43.3002712098
 10
157.4334569623
 20
43.2993266562
 10
157.427206194
 20
43.2974532189
 10
157.4199699607
 20
43.2953739817
  0
LINE
  5
472
100
AcDbEntity
  8
RUNDUNGEN
100
AcDbLine
 62
7
  6
CONTINUOUS
 10
159.498031685
 20
43.4387943923
 11
159.5000090049
 21
43.4394072665
  0
LINE
  5
473
100
AcDbEntity
  8
0
100
AcDbLine
 62
7
  6
CONTINUOUS
 10
123.1098563138
 20
31.294623788
 11
122.8578886439
 21
31.2755639263
  0
LINE
  5
474
100
AcDbEntity
  8
0
100
AcDbLine
 62
7
  6
CONTINUOUS
 10
159.7626555893
 20
31.4095243369
 11
160.4134969203
 21
31.4455992573
  0
LINE
  5
475
100
AcDbEntity
  8
0
100
AcDbLine
 62
7
  6
CONTINUOUS
 10
162.5474920472
 20
31.5708648573
 11
162.427007926
 21
31.5641866473
  0
LINE
  5
476
100
AcDbEntity
  8
0
100
AcDbLine
 62
7
  6
CONTINUOUS
 10
159.1977248838
 20
31.431004158
 11
159.4610406097
 21
31.4455992573
  0
LINE
  5
477
100
AcDbEntity
  8
0
100
AcDbLine
 62
7
  6
CONTINUOUS
 10
122.826839351
 20
31.2154896721
 11
123.2678820097
 21
31.236024057
  0
LINE
  5
478
100
AcDbEntity
  8
RUNDUNGEN
100
AcDbLine
 62
7
  6
CONTINUOUS
 10
123.3797152904
 20
31.0525245913
 11
123.4549908005
 21
31.0542956827
  0
LINE
  5
479
100
AcDbEntity
  8
0
100
AcDbLine
 62
7
  6
CONTINUOUS
 10
122.8578886439
 20
31.2755639263
 11
122.5585531047
 21
31.2689558456
  0
LINE
  5
47A
100
AcDbEntity
  8
0
100
AcDbLine
 62
7
  6
CONTINUOUS
 10
159.7921301627
 20
31.136635333
 11
159.526082915
 21
31.1324473574
  0
LINE
  5
47B
100
AcDbEntity
  8
0
100
AcDbLine
 62
7
  6
CONTINUOUS
 10
159.4423127185
 20
31.0855699036
 11
159.8978770479
 21
31.0897038097
  0
LINE
  5
47C
100
AcDbEntity
  8
0
100
AcDbLine
 62
7
  6
CONTINUOUS
 10
122.4486894431
 20
31.2125406812
 11
122.826839351
 21
31.2154896721
  0
LINE
  5
47D
100
AcDbEntity
  8
RUNDUNGEN
100
AcDbLine
 62
7
  6
CONTINUOUS
 10
112.648884733
 20
30.7148836902
 11
123.6547768123
 21
30.7148836902
  0
LINE
  5
47E
100
AcDbEntity
  8
RUNDUNGEN
100
AcDbLine
 62
7
  6
CONTINUOUS
 10
157.6547768123
 20
30.7148836902
 11
168.6606688915
 21
30.7148836902
  0
LINE
  5
47F
100
AcDbEntity
  8
RUNDUNGEN
100
AcDbLine
 62
7
  6
CONTINUOUS
 10
122.8872948732
 20
31.052519567
 11
123.3797153087
 21
31.052519567
  0
LINE
  5
480
100
AcDbEntity
  8
0
100
AcDbLine
 62
7
  6
CONTINUOUS
 10
124.9508561809
 20
31.4648836902
 11
120.1121624483
 21
31.4648836902
  0
LINE
  5
481
100
AcDbEntity
  8
0
100
AcDbLine
 62
7
  6
CONTINUOUS
 10
154.7835096717
 20
31.4648836902
 11
161.4309108693
 21
31.4648836902
  0
LINE
  5
482
100
AcDbEntity
  8
RUNDUNGEN
100
AcDbLine
 62
7
  6
CONTINUOUS
 10
166.1226735407
 20
31.9648836902
 11
115.1632227138
 21
31.9648836902
  0
LWPOLYLINE
  5
483
100
AcDbEntity
  8
RUNDUNGEN
100
AcDbPolyline
 62
7
  6
CONTINUOUS
 90
9
 70
0
 10
157.9298382288
 20
31.052519567
 10
158.5378599928
 20
31.0524675022
 10
158.5983794257
 20
31.0521107824
 10
158.6579353426
 20
31.0514243875
 10
158.7164066739
 20
31.0504332266
 10
158.7736654682
 20
31.0491555343
 10
158.8295919296
 20
31.0476006481
 10
158.8840869153
 20
31.0457735014
 10
158.9370652032
 20
31.0436928405
  0
LINE
  5
484
100
AcDbEntity
  8
0
100
AcDbLine
 62
7
  6
CONTINUOUS
 10
123.0326299501
 20
31.0931565758
 11
118.8252155335
 21
31.1244508305
  0
LINE
  5
485
100
AcDbEntity
  8
0
100
AcDbLine
 62
7
  6
CONTINUOUS
 10
120.0046513089
 20
31.618913192
 11
118.8252155335
 21
31.6276856968
  0
LINE
  5
486
100
AcDbEntity
  8
0
100
AcDbLine
 62
7
  6
CONTINUOUS
 10
121.7723948149
 20
31.0491388403
 11
122.8439519749
 21
31.0404004985
  0
LINE
  5
487
100
AcDbEntity
  8
0
100
AcDbLine
 62
7
  6
CONTINUOUS
 10
119.014687456
 20
31.0746437593
 11
121.4256912614
 21
31.054982518
  0
LINE
  5
488
100
AcDbEntity
  8
0
100
AcDbLine
 62
7
  6
CONTINUOUS
 10
159.526082915
 20
31.1324473574
 11
159.223579859
 21
31.136797352
  0
LINE
  5
489
100
AcDbEntity
  8
0
100
AcDbLine
 62
7
  6
CONTINUOUS
 10
122.5585531047
 20
31.2689558456
 11
122.2118494613
 21
31.2747994981
  0
LINE
  5
48A
100
AcDbEntity
  8
0
100
AcDbLine
 62
7
  6
CONTINUOUS
 10
159.026823715
 20
31.0942158248
 11
159.4423127185
 21
31.0855699036
  0
LINE
  5
48B
100
AcDbEntity
  8
0
100
AcDbLine
 62
7
  6
CONTINUOUS
 10
122.0231714861
 20
31.2220434209
 11
122.4486894431
 21
31.2125406812
  0
LINE
  5
48C
100
AcDbEntity
  8
RUNDUNGEN
100
AcDbLine
 62
7
  6
CONTINUOUS
 10
157.8474176459
 20
31.0546472518
 11
157.9298382289
 21
31.0525246562
  0
LWPOLYLINE
  5
48D
100
AcDbEntity
  8
RUNDUNGEN
100
AcDbPolyline
 62
7
  6
CONTINUOUS
 90
3
 70
0
 10
158.9370652032
 20
31.0436928405
 10
158.9883869755
 20
31.0413807714
 10
159.0379192852
 20
31.0388536687
  0
LINE
  5
48E
100
AcDbEntity
  8
0
100
AcDbLine
 62
7
  6
CONTINUOUS
 10
120.8409566721
 20
31.276929734
 11
122.0231714861
 21
31.2220434209
  0
LINE
  5
48F
100
AcDbEntity
  8
0
100
AcDbLine
 62
7
  6
CONTINUOUS
 10
122.2118494613
 20
31.2747994981
 11
121.0296346473
 21
31.3296858113
  0
LINE
  5
490
100
AcDbEntity
  8
0
100
AcDbLine
 62
7
  6
CONTINUOUS
 10
159.4529132893
 20
31.3712387852
 11
159.8283271753
 21
31.3498129878
  0
LWPOLYLINE
  5
491
100
AcDbEntity
  8
RUNDUNGEN
100
AcDbPolyline
 62
7
  6
CONTINUOUS
 90
17
 70
0
 10
159.0379192852
 20
31.0388536687
 10
159.0855945152
 20
31.0361195733
 10
159.1313290867
 20
31.0331929936
 10
159.175045597
 20
31.0300968581
 10
159.2166716016
 20
31.0268496837
 10
159.2561096829
 20
31.0234674536
 10
159.2932695551
 20
31.0199643331
 10
159.3280359374
 20
31.0163684544
 10
159.3603352332
 20
31.0127078428
 10
159.3899302144
 20
31.0090302174
 10
159.4166395846
 20
31.0053821379
 10
159.4402254661
 20
31.0018302562
 10
159.4605687612
 20
30.9984425146
 10
159.4771372725
 20
30.995380392
 10
159.4896565075
 20
30.9928012558
 10
159.4975446634
 20
30.9909811007
 10
159.4999998495
 20
30.9903543361
  0
LINE
  5
492
100
AcDbEntity
  8
0
100
AcDbLine
 62
7
  6
CONTINUOUS
 10
159.223579859
 20
31.136797352
 11
158.9611521559
 21
31.1539271755
  0
LINE
  5
493
100
AcDbEntity
  8
0
100
AcDbLine
 62
7
  6
CONTINUOUS
 10
158.6149542628
 20
31.1241795455
 11
159.026823715
 21
31.0942158248
  0
LINE
  5
494
100
AcDbEntity
  8
0
100
AcDbLine
 62
7
  6
CONTINUOUS
 10
123.5915148461
 20
43.0360291288
 11
123.529104374
 21
43.0839578468
  0
LINE
  5
495
100
AcDbEntity
  8
KONSTRUKTIONSELEMENTE
100
AcDbLine
 62
7
  6
CONTINUOUS
 10
139.0863371534
 20
45.1154471693
 11
139.2844269219
 21
42.6233074373
  0
LINE
  5
496
100
AcDbEntity
  8
KONSTRUKTIONSELEMENTE
100
AcDbLine
 62
7
  6
CONTINUOUS
 10
139.5180650218
 20
42.6418783531
 11
139.3621220075
 21
44.6037756521
  0
LINE
  5
497
100
AcDbEntity
  8
KONSTRUKTIONSELEMENTE
100
AcDbLine
 62
7
  6
CONTINUOUS
 10
140.6049848025
 20
45.236158122
 11
140.1979059414
 21
42.9627123542
  0
LINE
  5
498
100
AcDbEntity
  8
KONSTRUKTIONSELEMENTE
100
AcDbLine
 62
7
  6
CONTINUOUS
 10
141.8694448168
 20
44.7488537287
 11
141.7888422825
 21
44.3310251446
  0
LINE
  5
499
100
AcDbEntity
  8
KONSTRUKTIONSELEMENTE
100
AcDbLine
 62
7
  6
CONTINUOUS
 10
142.0895016002
 20
44.6522308197
 11
141.6965643269
 21
42.6153168927
  0
LINE
  5
49A
100
AcDbEntity
  8
KONSTRUKTIONSELEMENTE
100
AcDbLine
 62
7
  6
CONTINUOUS
 10
141.9266964236
 20
42.5709225384
 11
142.400236203
 21
45.0256649032
  0
LINE
  5
49B
100
AcDbEntity
  8
KONSTRUKTIONSELEMENTE
100
AcDbLine
 62
7
  6
CONTINUOUS
 10
140.3747383518
 20
42.7099717347
 11
140.7639506067
 21
44.715201147
  0
LINE
  5
49C
100
AcDbEntity
  8
KONSTRUKTIONSELEMENTE
100
AcDbLine
 62
7
  6
CONTINUOUS
 10
142.3518957789
 20
42.7701008166
 11
142.2439736186
 21
42.5270243394
  0
LINE
  5
49D
100
AcDbEntity
  8
KONSTRUKTIONSELEMENTE
100
AcDbLine
 62
7
  6
CONTINUOUS
 10
144.0920688905
 20
43.8016429934
 11
144.048899972
 21
43.7044122799
  0
LINE
  5
49E
100
AcDbEntity
  8
KONSTRUKTIONSELEMENTE
100
AcDbLine
 62
7
  6
CONTINUOUS
 10
144.263111113
 20
43.6093058781
 11
144.3062800316
 21
43.7065365915
  0
LINE
  5
49F
100
AcDbEntity
  8
KONSTRUKTIONSELEMENTE
100
AcDbLine
 62
7
  6
CONTINUOUS
 10
144.1410712676
 20
43.4306959115
 11
144.263111113
 21
43.6093058781
  0
LINE
  5
4A0
100
AcDbEntity
  8
RUNDUNGEN
100
AcDbLine
 62
7
  6
CONTINUOUS
 10
123.8721406367
 20
31.1292007988
 11
123.8730692401
 21
31.1294957145
  0
LWPOLYLINE
  5
4A1
100
AcDbEntity
  8
RUNDUNGEN
100
AcDbPolyline
 62
7
  6
CONTINUOUS
 90
4
 70
0
 10
123.8730706752
 20
31.1294961707
 10
123.8760966622
 20
31.1304407243
 10
123.8823474306
 20
31.1323141616
 10
123.8895836639
 20
31.1343933987
  0
LWPOLYLINE
  5
4A2
100
AcDbEntity
  8
RUNDUNGEN
100
AcDbPolyline
 62
7
  6
CONTINUOUS
 90
4
 70
0
 10
126.7330844495
 20
31.9340871049
 10
126.7795608954
 20
31.9436254375
 10
126.8273945125
 20
31.9516315389
 10
126.8766388738
 20
31.9579258071
  0
LINE
  5
4A3
100
AcDbEntity
  8
0
100
AcDbLine
 62
7
  6
CONTINUOUS
 10
123.5512958543
 20
31.2638765662
 11
123.7873419407
 21
31.30418091
  0
LINE
  5
4A4
100
AcDbEntity
  8
0
100
AcDbLine
 62
7
  6
CONTINUOUS
 10
123.3144560041
 20
31.3261354357
 11
123.1098563138
 21
31.294623788
  0
LWPOLYLINE
  5
4A5
100
AcDbEntity
  8
RUNDUNGEN
100
AcDbPolyline
 62
7
  6
CONTINUOUS
 90
12
 70
0
 10
121.9634547874
 20
31.0143472087
 10
121.9924103852
 20
31.01753092
 10
122.0270867982
 20
31.0210170019
 10
122.0639732535
 20
31.024402102
 10
122.1029882777
 20
31.0276667373
 10
122.1440392685
 20
31.0307981223
 10
122.1870304704
 20
31.033780593
 10
122.2319112277
 20
31.0365975532
 10
122.2786289828
 20
31.0392290775
 10
122.3270987733
 20
31.0416634302
 10
122.3772504539
 20
31.0438923399
 10
122.3839343373
 20
31.0441518536
  0
LINE
  5
4A6
100
AcDbEntity
  8
0
100
AcDbLine
 62
7
  6
CONTINUOUS
 10
123.2678820097
 20
31.236024057
 11
123.5512958543
 21
31.2638765662
  0
LWPOLYLINE
  5
4A7
100
AcDbEntity
  8
RUNDUNGEN
100
AcDbPolyline
 62
7
  6
CONTINUOUS
 90
4
 70
0
 10
123.4549908005
 20
31.0542956827
 10
123.6155463449
 20
31.0698911841
 10
123.7743202826
 20
31.1014482808
 10
123.8721278219
 20
31.1291975968
  0
LINE
  5
4A8
100
AcDbEntity
  8
RUNDUNGEN
100
AcDbLine
 62
7
  6
CONTINUOUS
 10
126.8766388738
 20
31.9579258071
 11
126.9135150509
 21
31.9613300949
  0
LINE
  5
4A9
100
AcDbEntity
  8
RUNDUNGEN
100
AcDbLine
 62
7
  6
CONTINUOUS
 10
112.154838862
 20
32.9648836902
 11
169.1547147625
 21
32.9648836902
  0
LINE
  5
4AA
100
AcDbEntity
  8
0
100
AcDbLine
 62
7
  6
CONTINUOUS
 10
160.1745248128
 20
31.379560664
 11
159.7626555893
 21
31.4095243369
  0
LINE
  5
4AB
100
AcDbEntity
  8
RUNDUNGEN
100
AcDbLine
 62
7
  6
CONTINUOUS
 10
154.3960400372
 20
31.9613299821
 11
154.4340693389
 21
31.9578010526
  0
LINE
  5
4AC
100
AcDbEntity
  8
RUNDUNGEN
100
AcDbLine
 62
7
  6
CONTINUOUS
 10
157.6868855572
 20
31.0709589911
 11
157.8474176459
 21
31.0546472518
  0
LWPOLYLINE
  5
4AD
100
AcDbEntity
  8
RUNDUNGEN
100
AcDbPolyline
 62
7
  6
CONTINUOUS
 90
4
 70
0
 10
154.4340693389
 20
31.9578010526
 10
154.4833303408
 20
31.9514576674
 10
154.5311845447
 20
31.9434023853
 10
154.577684344
 20
31.9338147118
  0
LINE
  5
4AE
100
AcDbEntity
  8
0
100
AcDbLine
 62
7
  6
CONTINUOUS
 10
158.9611521559
 20
31.1539271755
 11
158.7387997519
 21
31.1838368248
  0
LINE
  5
4AF
100
AcDbEntity
  8
0
100
AcDbLine
 62
7
  6
CONTINUOUS
 10
159.8283271753
 20
31.3498129878
 11
160.0506797879
 21
31.3199032896
  0
LINE
  5
4B0
100
AcDbEntity
  8
0
100
AcDbLine
 62
7
  6
CONTINUOUS
 10
158.3561465147
 20
31.16262707
 11
158.6149542628
 21
31.1241795455
  0
LINE
  5
4B1
100
AcDbEntity
  8
0
100
AcDbLine
 62
7
  6
CONTINUOUS
 10
160.4333329715
 20
31.3411130414
 11
160.1745248128
 21
31.379560664
  0
LINE
  5
4B2
100
AcDbEntity
  8
KONSTRUKTIONSELEMENTE
100
AcDbLine
 62
7
  6
CONTINUOUS
 10
140.7639506067
 20
44.715201147
 11
140.919893621
 21
42.753303848
  0
LINE
  5
4B3
100
AcDbEntity
  8
KONSTRUKTIONSELEMENTE
100
AcDbLine
 62
7
  6
CONTINUOUS
 10
141.1535317209
 20
42.7718747638
 11
140.9554419523
 21
45.2640144957
  0
LINE
  5
4B4
100
AcDbEntity
  8
KONSTRUKTIONSELEMENTE
100
AcDbLine
 62
7
  6
CONTINUOUS
 10
144.3062800316
 20
43.7065365915
 11
144.3569156186
 21
43.916848934
  0
LINE
  5
4B5
100
AcDbEntity
  8
RUNDUNGEN
100
AcDbLine
 62
7
  6
CONTINUOUS
 10
126.6581329261
 20
31.915125652
 11
123.8895718377
 21
31.1343899681
  0
LINE
  5
4B6
100
AcDbEntity
  8
0
100
AcDbLine
 62
7
  6
CONTINUOUS
 10
121.7747768123
 20
30.7414494025
 11
121.9634547874
 21
30.7942054797
  0
LINE
  5
4B7
100
AcDbEntity
  8
0
100
AcDbLine
 62
7
  6
CONTINUOUS
 10
122.8439519749
 20
31.0404004985
 11
123.0326299501
 21
31.0931565758
  0
LINE
  5
4B8
100
AcDbEntity
  8
0
100
AcDbLine
 62
7
  6
CONTINUOUS
 10
123.7873419407
 20
31.30418091
 11
124.0703589035
 21
31.3833150258
  0
LINE
  5
4B9
100
AcDbEntity
  8
0
100
AcDbLine
 62
7
  6
CONTINUOUS
 10
123.5974729669
 20
31.4052695516
 11
123.3144560041
 21
31.3261354357
  0
LINE
  5
4BA
100
AcDbEntity
  8
0
100
AcDbLine
 62
7
  6
CONTINUOUS
 10
121.1434682235
 20
30.8732852474
 11
121.7723948149
 21
31.0491388403
  0
LINE
  5
4BB
100
AcDbEntity
  8
0
100
AcDbLine
 62
7
  6
CONTINUOUS
 10
121.4256912614
 20
31.054982518
 11
120.8596573134
 21
30.8967142799
  0
LINE
  5
4BC
100
AcDbEntity
  8
0
100
AcDbLine
 62
7
  6
CONTINUOUS
 10
118.8252155335
 20
31.1244508305
 11
118.573644915
 21
31.0541093984
  0
LWPOLYLINE
  5
4BD
100
AcDbEntity
  8
RUNDUNGEN
100
AcDbPolyline
 62
7
  6
CONTINUOUS
 90
3
 70
0
 10
126.6581380088
 20
31.9151270582
 10
126.6879320757
 20
31.9231872372
 10
126.7330844495
 20
31.9340871049
  0
LINE
  5
4BE
100
AcDbEntity
  8
0
100
AcDbLine
 62
7
  6
CONTINUOUS
 10
158.1374136553
 20
31.2138545184
 11
158.3561465147
 21
31.16262707
  0
LINE
  5
4BF
100
AcDbEntity
  8
0
100
AcDbLine
 62
7
  6
CONTINUOUS
 10
158.7387997519
 20
31.1838368248
 11
158.5200668925
 21
31.2350642733
  0
LINE
  5
4C0
100
AcDbEntity
  8
0
100
AcDbLine
 62
7
  6
CONTINUOUS
 10
158.7276819055
 20
31.3415991503
 11
158.508949046
 21
31.3928265987
  0
LINE
  5
4C1
100
AcDbEntity
  8
0
100
AcDbLine
 62
7
  6
CONTINUOUS
 10
159.1977248838
 20
31.431004158
 11
159.4529132893
 21
31.3712387852
  0
LINE
  5
4C2
100
AcDbEntity
  8
0
100
AcDbLine
 62
7
  6
CONTINUOUS
 10
160.0506797879
 20
31.3199032896
 11
160.2694126473
 21
31.2686758411
  0
LINE
  5
4C3
100
AcDbEntity
  8
0
100
AcDbLine
 62
7
  6
CONTINUOUS
 10
161.3374802405
 20
31.0850298718
 11
161.6291241921
 21
31.0167265746
  0
LINE
  5
4C4
100
AcDbEntity
  8
0
100
AcDbLine
 62
7
  6
CONTINUOUS
 10
161.811401714
 20
30.9740370017
 11
162.2124116782
 21
30.8801200781
  0
LINE
  5
4C5
100
AcDbEntity
  8
0
100
AcDbLine
 62
7
  6
CONTINUOUS
 10
160.6520658309
 20
31.289885593
 11
160.4333329715
 21
31.3411130414
  0
LINE
  5
4C6
100
AcDbEntity
  8
0
100
AcDbLine
 62
7
  6
CONTINUOUS
 10
162.5185342251
 20
30.8970878796
 11
162.1175242609
 21
30.9910048032
  0
LINE
  5
4C7
100
AcDbEntity
  8
0
100
AcDbLine
 62
7
  6
CONTINUOUS
 10
161.935246739
 20
31.0336943761
 11
161.6436027874
 21
31.1019976733
  0
LINE
  5
4C8
100
AcDbEntity
  8
0
100
AcDbLine
 62
7
  6
CONTINUOUS
 10
162.7297695691
 20
31.024940418
 11
162.5474920472
 21
31.067629991
  0
LINE
  5
4C9
100
AcDbEntity
  8
0
100
AcDbLine
 62
7
  6
CONTINUOUS
 10
162.0443547424
 20
31.229796237
 11
161.1229110016
 21
31.4455992573
  0
LINE
  5
4CA
100
AcDbEntity
  8
0
100
AcDbLine
 62
7
  6
CONTINUOUS
 10
162.427007926
 20
31.2510059888
 11
161.5961263704
 21
31.4455992573
  0
LINE
  5
4CB
100
AcDbEntity
  8
0
100
AcDbLine
 62
7
  6
CONTINUOUS
 10
162.7297695691
 20
31.5281752844
 11
162.5474920472
 21
31.5708648573
  0
LINE
  5
4CC
100
AcDbEntity
  8
0
100
AcDbLine
 62
7
  6
CONTINUOUS
 10
161.9393042716
 20
31.8684615254
 11
162.427007926
 21
31.7542408552
  0
LWPOLYLINE
  5
4CD
100
AcDbEntity
  8
RUNDUNGEN
100
AcDbPolyline
 62
7
  6
CONTINUOUS
 90
3
 70
0
 10
154.577684344
 20
31.9338147118
 10
154.6228615896
 20
31.9228654468
 10
154.6514150961
 20
31.9151272047
  0
LINE
  5
4CE
100
AcDbEntity
  8
RUNDUNGEN
100
AcDbLine
 62
7
  6
CONTINUOUS
 10
157.4199817868
 20
31.1343899681
 11
156.2480204202
 21
31.4648836902
  0
LINE
  5
4CF
100
AcDbEntity
  8
RUNDUNGEN
100
AcDbLine
 62
7
  6
CONTINUOUS
 10
154.7835096717
 20
31.877876492
 11
154.6514206984
 21
31.915125652
  0
LWPOLYLINE
  5
4D0
100
AcDbEntity
  8
RUNDUNGEN
100
AcDbPolyline
 62
7
  6
CONTINUOUS
 90
3
 70
0
 10
157.4374262737
 20
31.1291973756
 10
157.5282243768
 20
31.1032214195
 10
157.6868855572
 20
31.0709589911
  0
LWPOLYLINE
  5
4D1
100
AcDbEntity
  8
RUNDUNGEN
100
AcDbPolyline
 62
7
  6
CONTINUOUS
 90
4
 70
0
 10
157.4199695338
 20
31.1343935193
 10
157.4277525782
 20
31.1321536626
 10
157.4337648243
 20
31.1303460065
 10
157.4364824158
 20
31.1294963403
  0
LINE
  5
4D2
100
AcDbEntity
  8
0
100
AcDbLine
 62
7
  6
CONTINUOUS
 10
119.3348214689
 20
42.5613058551
 11
119.2003587996
 21
42.6034360917
  0
LINE
  5
4D3
100
AcDbEntity
  8
0
100
AcDbLine
 62
7
  6
CONTINUOUS
 10
118.289044019
 20
42.8889719023
 11
118.9725301452
 21
42.6748200316
  0
LINE
  5
4D4
100
AcDbEntity
  8
0
100
AcDbLine
 62
7
  6
CONTINUOUS
 10
118.289044019
 20
43.3922067687
 11
118.9725301452
 21
43.1780548979
  0
LINE
  5
4D5
100
AcDbEntity
  8
0
100
AcDbLine
 62
7
  6
CONTINUOUS
 10
119.2003587996
 20
43.106670958
 11
119.3712303311
 21
43.0531329903
  0
LINE
  5
4D6
100
AcDbEntity
  8
0
100
AcDbLine
 62
7
  6
CONTINUOUS
 10
119.2815530705
 20
43.2514754354
 11
118.7689384759
 21
43.4120893385
  0
LINE
  5
4D7
100
AcDbEntity
  8
0
100
AcDbLine
 62
7
  6
CONTINUOUS
 10
121.5683232
 20
43.5280710117
 11
122.0809377946
 21
43.3674571086
  0
LINE
  5
4D8
100
AcDbEntity
  8
0
100
AcDbLine
 62
7
  6
CONTINUOUS
 10
122.9352954524
 20
43.0997672702
 11
123.049209861
 21
43.0640752747
  0
LINE
  5
4D9
100
AcDbEntity
  8
RUNDUNGEN
100
AcDbLine
 62
7
  6
CONTINUOUS
 10
157.4364838519
 20
31.1294958838
 11
157.4374134729
 21
31.129200645
  0
LINE
  5
4DA
100
AcDbEntity
  8
KONSTRUKTIONSELEMENTE
100
AcDbLine
 62
7
  6
CONTINUOUS
 10
135.9638814156
 20
42.6372319129
 11
136.1376654645
 21
42.4648836902
  0
LINE
  5
4DB
100
AcDbEntity
  8
KONSTRUKTIONSELEMENTE
100
AcDbLine
 62
7
  6
CONTINUOUS
 10
136.4705053064
 20
42.4648836902
 11
136.1289206739
 21
42.8036461066
  0
LINE
  5
4DC
100
AcDbEntity
  8
KONSTRUKTIONSELEMENTE
100
AcDbLine
 62
7
  6
CONTINUOUS
 10
139.3621220075
 20
44.6037756521
 11
140.0632202911
 21
42.6852104664
  0
LINE
  5
4DD
100
AcDbEntity
  8
KONSTRUKTIONSELEMENTE
100
AcDbLine
 62
7
  6
CONTINUOUS
 10
140.1979059414
 20
42.9627123542
 11
139.4367943032
 21
45.143303543
  0
LINE
  5
4DE
100
AcDbEntity
  8
KONSTRUKTIONSELEMENTE
100
AcDbLine
 62
7
  6
CONTINUOUS
 10
144.0854179192
 20
43.9791912351
 11
144.0920688905
 21
43.8016429934
  0
LINE
  5
4DF
100
AcDbEntity
  8
RUNDUNGEN
100
AcDbLine
 62
7
  6
CONTINUOUS
 10
154.6514206984
 20
42.5146417285
 11
157.4199817869
 21
43.2953774124
  0
LINE
  5
4E0
100
AcDbEntity
  8
0
100
AcDbLine
 62
7
  6
CONTINUOUS
 10
118.8252155335
 20
31.6276856968
 11
118.573644915
 21
31.5573442647
  0
LWPOLYLINE
  5
4E1
100
AcDbEntity
  8
RUNDUNGEN
100
AcDbPolyline
 62
7
  6
CONTINUOUS
 90
3
 70
0
 10
154.6514153393
 20
42.5146402327
 10
154.621621461
 20
42.5065801132
 10
154.5764691674
 20
42.4956802812
  0
LWPOLYLINE
  5
4E2
100
AcDbEntity
  8
RUNDUNGEN
100
AcDbPolyline
 62
7
  6
CONTINUOUS
 90
26
 70
0
 10
159.4996170055
 20
43.4393116639
 10
159.4944199253
 20
43.4380391959
 10
159.4845829981
 20
43.4358856323
 10
159.4704472688
 20
43.4331108742
 10
159.4525508591
 20
43.4299476245
 10
159.4311488702
 20
43.4265281781
 10
159.406753399
 20
43.422993553
 10
159.3794814312
 20
43.4193993397
 10
159.3495551698
 20
43.4158002008
 10
159.3171432394
 20
43.4122364605
 10
159.2824668263
 20
43.4087503785
 10
159.245580371
 20
43.4053652785
 10
159.2065653469
 20
43.4021006432
 10
159.1655143561
 20
43.3989692582
 10
159.1225231542
 20
43.3959867875
 10
159.0776423968
 20
43.3931698273
 10
159.0309246417
 20
43.390538303
 10
158.9824548512
 20
43.3881039503
 10
158.9323031706
 20
43.3858750405
 10
158.8805776337
 20
43.3838667049
 10
158.8273962976
 20
43.3820997227
 10
158.7728309526
 20
43.3805910317
 10
158.7169648426
 20
43.3793451423
 10
158.6599014649
 20
43.3783712124
 10
158.6017518227
 20
43.3776866203
 10
158.5426195345
 20
43.3773155349
  0
LWPOLYLINE
  5
4E3
100
AcDbEntity
  8
RUNDUNGEN
100
AcDbPolyline
 62
7
  6
CONTINUOUS
 90
4
 70
0
 10
154.5764691674
 20
42.4956802812
 10
154.5299925973
 20
42.4861419219
 10
154.4821589645
 20
42.4781358176
 10
154.4329147042
 20
42.4718415633
  0
LWPOLYLINE
  5
4E4
100
AcDbEntity
  8
RUNDUNGEN
100
AcDbPolyline
 62
7
  6
CONTINUOUS
 90
3
 70
0
 10
126.7318692706
 20
42.4959526782
 10
126.6866921258
 20
42.5069019022
 10
126.6581388121
 20
42.5146400841
  0
LINE
  5
4E5
100
AcDbEntity
  8
RUNDUNGEN
100
AcDbLine
 62
7
  6
CONTINUOUS
 10
123.8895718377
 20
43.2953774124
 11
125.0615332044
 21
42.9648836902
  0
LINE
  5
4E6
100
AcDbEntity
  8
RUNDUNGEN
100
AcDbLine
 62
7
  6
CONTINUOUS
 10
125.2947768123
 20
42.8991088701
 11
126.6581329261
 21
42.5146417285
  0
LWPOLYLINE
  5
4E7
100
AcDbEntity
  8
RUNDUNGEN
100
AcDbPolyline
 62
7
  6
CONTINUOUS
 90
3
 70
0
 10
123.8721273508
 20
43.3005700048
 10
123.7813292477
 20
43.326545961
 10
123.6226680673
 20
43.3588083893
  0
LWPOLYLINE
  5
4E8
100
AcDbEntity
  8
RUNDUNGEN
100
AcDbPolyline
 62
7
  6
CONTINUOUS
 90
4
 70
0
 10
123.8895840907
 20
43.2953738612
 10
123.8818010463
 20
43.2976137179
 10
123.8757888002
 20
43.299421374
 10
123.8730712087
 20
43.3002710402
  0
LINE
  5
4E9
100
AcDbEntity
  8
0
100
AcDbLine
 62
7
  6
CONTINUOUS
 10
123.529104374
 20
43.0839578468
 11
123.4151899653
 21
43.1196498423
  0
LINE
  5
4EA
100
AcDbEntity
  8
0
100
AcDbLine
 62
7
  6
CONTINUOUS
 10
122.7317038391
 20
43.333801713
 11
122.0482177129
 21
43.5479535838
  0
LINE
  5
4EB
100
AcDbEntity
  8
RUNDUNGEN
100
AcDbLine
 62
7
  6
CONTINUOUS
 10
123.8730697727
 20
43.3002714967
 11
123.8721401517
 21
43.3005667355
  0
LINE
  5
4EC
100
AcDbEntity
  8
0
100
AcDbLine
 62
7
  6
CONTINUOUS
 10
159.8544407444
 20
30.833890606
 11
159.9966429604
 21
30.7784212069
  0
LINE
  5
4ED
100
AcDbEntity
  8
0
100
AcDbLine
 62
7
  6
CONTINUOUS
 10
158.0316667768
 20
31.2607860421
 11
158.1374136553
 21
31.2138545184
  0
LINE
  5
4EE
100
AcDbEntity
  8
0
100
AcDbLine
 62
7
  6
CONTINUOUS
 10
160.3027655341
 20
30.7953890098
 11
160.1970186757
 21
30.8423205346
  0
LINE
  5
4EF
100
AcDbEntity
  8
0
100
AcDbLine
 62
7
  6
CONTINUOUS
 10
160.7578122989
 20
31.2429541674
 11
160.6520658309
 21
31.289885593
  0
LINE
  5
4F0
100
AcDbEntity
  8
KONSTRUKTIONSELEMENTE
100
AcDbLine
 62
7
  6
CONTINUOUS
 10
135.7853039545
 20
42.7593191746
 11
135.9638814156
 21
42.6372319129
  0
LINE
  5
4F1
100
AcDbEntity
  8
KONSTRUKTIONSELEMENTE
100
AcDbLine
 62
7
  6
CONTINUOUS
 10
136.1289206739
 20
42.8036461066
 11
135.9125753511
 21
42.963189187
  0
LWPOLYLINE
  5
4F2
100
AcDbEntity
  8
RUNDUNGEN
100
AcDbPolyline
 62
7
  6
CONTINUOUS
 90
4
 70
0
 10
157.854562824
 20
43.3754716978
 10
157.6940072797
 20
43.3598761963
 10
157.5352333419
 20
43.3283190997
 10
157.4374258027
 20
43.3005697837
  0
LINE
  5
4F3
100
AcDbEntity
  8
RUNDUNGEN
100
AcDbLine
 62
7
  6
CONTINUOUS
 10
154.4329147042
 20
42.4718415633
 11
154.3960385651
 21
42.4684372842
  0
LINE
  5
4F4
100
AcDbEntity
  8
RUNDUNGEN
100
AcDbLine
 62
7
  6
CONTINUOUS
 10
169.1547147624
 20
41.4648836902
 11
112.154838862
 21
41.4648836902
  0
LINE
  5
4F5
100
AcDbEntity
  8
0
100
AcDbLine
 62
7
  6
CONTINUOUS
 10
122.4959979934
 20
43.1522869623
 11
122.7413986342
 21
43.132145504
  0
LINE
  5
4F6
100
AcDbEntity
  8
0
100
AcDbLine
 62
7
  6
CONTINUOUS
 10
121.129025904
 20
43.5805906528
 11
121.3744265448
 21
43.5604491945
  0
LINE
  5
4F7
100
AcDbEntity
  8
RUNDUNGEN
100
AcDbLine
 62
7
  6
CONTINUOUS
 10
126.9135135907
 20
42.4684373974
 11
126.8754843301
 21
42.4719663179
  0
LINE
  5
4F8
100
AcDbEntity
  8
RUNDUNGEN
100
AcDbLine
 62
7
  6
CONTINUOUS
 10
123.6226680673
 20
43.3588083893
 11
123.4621359786
 21
43.3751201287
  0
LINE
  5
4F9
100
AcDbEntity
  8
0
100
AcDbLine
 62
7
  6
CONTINUOUS
 10
123.1928146602
 20
43.1609510364
 11
122.9189354115
 21
43.1900155077
  0
LINE
  5
4FA
100
AcDbEntity
  8
0
100
AcDbLine
 62
7
  6
CONTINUOUS
 10
121.8258422449
 20
43.589254829
 11
121.5519631592
 21
43.6183192493
  0
LWPOLYLINE
  5
4FB
100
AcDbEntity
  8
RUNDUNGEN
100
AcDbPolyline
 62
7
  6
CONTINUOUS
 90
4
 70
0
 10
126.8754843301
 20
42.4719663179
 10
126.8262234294
 20
42.4783096895
 10
126.7783691987
 20
42.4863649765
 10
126.7318692706
 20
42.4959526782
  0
LINE
  5
4FC
100
AcDbEntity
  8
0
100
AcDbLine
 62
7
  6
CONTINUOUS
 10
122.7413986342
 20
43.132145504
 11
122.9352954524
 21
43.0997672702
  0
LINE
  5
4FD
100
AcDbEntity
  8
0
100
AcDbLine
 62
7
  6
CONTINUOUS
 10
121.3744265448
 20
43.5604491945
 11
121.5683232
 21
43.5280710117
  0
LINE
  5
4FE
100
AcDbEntity
  8
0
100
AcDbLine
 62
7
  6
CONTINUOUS
 10
123.4151899653
 20
43.1196498423
 11
123.1928146602
 21
43.1609510364
  0
LINE
  5
4FF
100
AcDbEntity
  8
0
100
AcDbLine
 62
7
  6
CONTINUOUS
 10
122.0482177129
 20
43.5479535838
 11
121.8258422449
 21
43.589254829
  0
LINE
  5
500
100
AcDbEntity
  8
KONSTRUKTIONSELEMENTE
100
AcDbLine
 62
7
  6
CONTINUOUS
 10
135.6169873903
 20
42.816214917
 11
135.7853039545
 21
42.7593191746
  0
LINE
  5
501
100
AcDbEntity
  8
KONSTRUKTIONSELEMENTE
100
AcDbLine
 62
7
  6
CONTINUOUS
 10
135.9125753511
 20
42.963189187
 11
135.706491137
 21
43.0575405381
  0
LINE
  5
502
100
AcDbEntity
  8
0
100
AcDbLine
 62
7
  6
CONTINUOUS
 10
158.5200668925
 20
31.2350642733
 11
158.4507755534
 21
31.2734578722
  0
LINE
  5
503
100
AcDbEntity
  8
0
100
AcDbLine
 62
7
  6
CONTINUOUS
 10
160.2694126473
 20
31.2686758411
 11
160.3387037778
 21
31.2302822911
  0
LINE
  5
504
100
AcDbEntity
  8
KONSTRUKTIONSELEMENTE
100
AcDbLine
 62
7
  6
CONTINUOUS
 10
144.0214812068
 20
44.1239750132
 11
144.0854179192
 21
43.9791912351
  0
LINE
  5
505
100
AcDbEntity
  8
KONSTRUKTIONSELEMENTE
100
AcDbLine
 62
7
  6
CONTINUOUS
 10
144.3569156186
 20
43.916848934
 11
144.300445635
 21
44.1747144773
  0
LINE
  5
506
100
AcDbEntity
  8
BEZUGSACHSEN
100
AcDbLine
 62
7
  6
CONTINUOUS
 10
146.1396043696
 20
27.7148836902
 11
148.5933430136
 21
31.9648836902
  0
LINE
  5
507
100
AcDbEntity
  8
KONSTRUKTIONSELEMENTE
100
AcDbLine
 62
7
  6
CONTINUOUS
 10
135.4453940467
 20
43.096420703
 11
135.259832468
 21
43.0603894405
  0
LINE
  5
508
100
AcDbEntity
  8
KONSTRUKTIONSELEMENTE
100
AcDbLine
 62
7
  6
CONTINUOUS
 10
143.5938754993
 20
44.604817461
 11
143.4078997586
 21
44.5709909097
  0
LINE
  5
509
100
AcDbEntity
  8
KONSTRUKTIONSELEMENTE
100
AcDbLine
 62
7
  6
CONTINUOUS
 10
139.2844269219
 20
42.6233074373
 11
139.5180650218
 21
42.6418783531
  0
LINE
  5
50A
100
AcDbEntity
  8
KONSTRUKTIONSELEMENTE
100
AcDbLine
 62
7
  6
CONTINUOUS
 10
140.0632202911
 20
42.6852104664
 11
140.3747383518
 21
42.7099717347
  0
LINE
  5
50B
100
AcDbEntity
  8
KONSTRUKTIONSELEMENTE
100
AcDbLine
 62
7
  6
CONTINUOUS
 10
140.919893621
 20
42.753303848
 11
141.1535317209
 21
42.7718747638
  0
LINE
  5
50C
100
AcDbEntity
  8
KONSTRUKTIONSELEMENTE
100
AcDbLine
 62
7
  6
CONTINUOUS
 10
135.4589322497
 20
42.8079192476
 11
135.6169873903
 21
42.816214917
  0
LINE
  5
50D
100
AcDbEntity
  8
0
100
AcDbLine
 62
7
  6
CONTINUOUS
 10
119.6465723515
 20
42.5613058551
 11
120.0547164573
 21
42.5782157267
  0
LINE
  5
50E
100
AcDbEntity
  8
0
100
AcDbLine
 62
7
  6
CONTINUOUS
 10
118.9725301452
 20
42.6748200316
 11
119.2003587996
 21
42.6842592302
  0
LINE
  5
50F
100
AcDbEntity
  8
0
100
AcDbLine
 62
7
  6
CONTINUOUS
 10
119.3712303311
 20
43.0531329903
 11
121.8506853613
 21
43.1558596147
  0
LINE
  5
510
100
AcDbEntity
  8
0
100
AcDbLine
 62
7
  6
CONTINUOUS
 10
121.6798138297
 20
43.2093975824
 11
119.2003587996
 21
43.106670958
  0
LINE
  5
511
100
AcDbEntity
  8
0
100
AcDbLine
 62
7
  6
CONTINUOUS
 10
118.9725301452
 20
43.1780548979
 11
122.7317038391
 21
43.333801713
  0
LINE
  5
512
100
AcDbEntity
  8
0
100
AcDbLine
 62
7
  6
CONTINUOUS
 10
122.0809377946
 20
43.3674571086
 11
119.2815530705
 21
43.2514754354
  0
LINE
  5
513
100
AcDbEntity
  8
0
100
AcDbLine
 62
7
  6
CONTINUOUS
 10
119.2839770176
 20
43.5344568761
 11
120.4837132719
 21
43.5841633052
  0
LINE
  5
514
100
AcDbEntity
  8
0
100
AcDbLine
 62
7
  6
CONTINUOUS
 10
120.3128417403
 20
43.6377012729
 11
119.113105486
 21
43.5879948438
  0
LINE
  5
515
100
AcDbEntity
  8
RUNDUNGEN
100
AcDbLine
 62
7
  6
CONTINUOUS
 10
157.9298383342
 20
43.3772427891
 11
157.854562824
 21
43.3754716978
  0
LINE
  5
516
100
AcDbEntity
  8
0
100
AcDbLine
 62
7
  6
CONTINUOUS
 10
122.1082045201
 20
43.2170433789
 11
121.6798138297
 21
43.2093975824
  0
LINE
  5
517
100
AcDbEntity
  8
0
100
AcDbLine
 62
7
  6
CONTINUOUS
 10
120.7412322677
 20
43.6453471205
 11
120.3128417403
 21
43.6377012729
  0
LINE
  5
518
100
AcDbEntity
  8
0
100
AcDbLine
 62
7
  6
CONTINUOUS
 10
121.8506853613
 20
43.1558596147
 11
122.1990936421
 21
43.1601916496
  0
LINE
  5
519
100
AcDbEntity
  8
0
100
AcDbLine
 62
7
  6
CONTINUOUS
 10
120.4837132719
 20
43.5841633052
 11
120.8321213898
 21
43.5884953911
  0
LINE
  5
51A
100
AcDbEntity
  8
RUNDUNGEN
100
AcDbLine
 62
7
  6
CONTINUOUS
 10
166.1226326874
 20
42.4648836902
 11
115.163255819
 21
42.4648836902
  0
LINE
  5
51B
100
AcDbEntity
  8
0
100
AcDbLine
 62
7
  6
CONTINUOUS
 10
120.0547164573
 20
42.9648836902
 11
125.2947768123
 21
42.9648836902
  0
LINE
  5
51C
100
AcDbEntity
  8
RUNDUNGEN
100
AcDbLine
 62
7
  6
CONTINUOUS
 10
158.5426195345
 20
43.3773155349
 11
157.9298383159
 21
43.3772478135
  0
LINE
  5
51D
100
AcDbEntity
  8
RUNDUNGEN
100
AcDbLine
 62
7
  6
CONTINUOUS
 10
112.648884733
 20
43.7148836902
 11
123.6547768123
 21
43.7148836902
  0
LINE
  5
51E
100
AcDbEntity
  8
RUNDUNGEN
100
AcDbLine
 62
7
  6
CONTINUOUS
 10
157.6547768123
 20
43.7148836902
 11
168.6606688915
 21
43.7148836902
  0
LWPOLYLINE
  5
51F
100
AcDbEntity
  8
RUNDUNGEN
100
AcDbPolyline
 62
7
  6
CONTINUOUS
 90
3
 70
0
 10
123.3797153958
 20
43.3772478135
 10
122.7716936318
 20
43.3772998783
 10
122.7111741988
 20
43.3776565981
  0
LINE
  5
520
100
AcDbEntity
  8
RUNDUNGEN
100
AcDbLine
 62
7
  6
CONTINUOUS
 10
122.7111741988
 20
43.3776565981
 11
122.6516182819
 21
43.378342993
  0
LINE
  5
521
100
AcDbEntity
  8
0
100
AcDbLine
 62
7
  6
CONTINUOUS
 10
122.4850913369
 20
43.2124524555
 11
122.1082045201
 21
43.2170433789
  0
LINE
  5
522
100
AcDbEntity
  8
0
100
AcDbLine
 62
7
  6
CONTINUOUS
 10
121.1181192475
 20
43.640756146
 11
120.7412322677
 21
43.6453471205
  0
LINE
  5
523
100
AcDbEntity
  8
RUNDUNGEN
100
AcDbLine
 62
7
  6
CONTINUOUS
 10
122.6516182819
 20
43.378342993
 11
122.5858640328
 21
43.3794966674
  0
LINE
  5
524
100
AcDbEntity
  8
RUNDUNGEN
100
AcDbLine
 62
7
  6
CONTINUOUS
 10
123.4621359786
 20
43.3751201287
 11
123.3797153956
 21
43.3772427243
  0
LINE
  5
525
100
AcDbEntity
  8
0
100
AcDbLine
 62
7
  6
CONTINUOUS
 10
122.1990936421
 20
43.1601916496
 11
122.4959979934
 21
43.1522869623
  0
LINE
  5
526
100
AcDbEntity
  8
0
100
AcDbLine
 62
7
  6
CONTINUOUS
 10
120.8321213898
 20
43.5884953911
 11
121.129025904
 21
43.5805906528
  0
LINE
  5
527
100
AcDbEntity
  8
0
100
AcDbLine
 62
7
  6
CONTINUOUS
 10
122.9189354115
 20
43.1900155077
 11
122.4850913369
 21
43.2124524555
  0
LINE
  5
528
100
AcDbEntity
  8
0
100
AcDbLine
 62
7
  6
CONTINUOUS
 10
121.5519631592
 20
43.6183192493
 11
121.1181192475
 21
43.640756146
  0
LINE
  5
529
100
AcDbEntity
  8
KONSTRUKTIONSELEMENTE
100
AcDbLine
 62
7
  6
CONTINUOUS
 10
135.706491137
 20
43.0575405381
 11
135.4453940467
 21
43.096420703
  0
LINE
  5
52A
100
AcDbEntity
  8
KONSTRUKTIONSELEMENTE
100
AcDbLine
 62
7
  6
CONTINUOUS
 10
141.6965643269
 20
42.6153168927
 11
141.9266964236
 21
42.5709225384
  0
LINE
  5
52B
100
AcDbEntity
  8
KONSTRUKTIONSELEMENTE
100
AcDbLine
 62
7
  6
CONTINUOUS
 10
142.2439736186
 20
42.5270243394
 11
142.3839349577
 21
42.4648836902
  0
LINE
  5
52C
100
AcDbEntity
  8
KONSTRUKTIONSELEMENTE
100
AcDbLine
 62
7
  6
CONTINUOUS
 10
143.0393459154
 20
42.4648836902
 11
142.6375103613
 21
42.6432924018
  0
LINE
  5
52D
100
AcDbEntity
  8
KONSTRUKTIONSELEMENTE
100
AcDbLine
 62
7
  6
CONTINUOUS
 10
143.0567144973
 20
44.2613241774
 11
143.2352243263
 21
44.1820686007
  0
LINE
  5
52E
100
AcDbEntity
  8
KONSTRUKTIONSELEMENTE
100
AcDbLine
 62
7
  6
CONTINUOUS
 10
144.2008076105
 20
44.3353490806
 11
144.0081808984
 21
44.4790707711
  0
LINE
  5
52F
100
AcDbEntity
  8
KONSTRUKTIONSELEMENTE
100
AcDbLine
 62
7
  6
CONTINUOUS
 10
143.864556624
 20
44.2518455158
 11
144.0214812068
 21
44.1239750132
  0
LINE
  5
530
100
AcDbEntity
  8
KONSTRUKTIONSELEMENTE
100
AcDbLine
 62
7
  6
CONTINUOUS
 10
144.300445635
 20
44.1747144773
 11
144.2008076105
 21
44.3353490806
  0
LINE
  5
531
100
AcDbEntity
  8
0
100
AcDbLine
 62
7
  6
CONTINUOUS
 10
123.5454644148
 20
42.9937096092
 11
123.5053047817
 21
42.9841681232
  0
LINE
  5
532
100
AcDbEntity
  8
0
100
AcDbLine
 62
7
  6
CONTINUOUS
 10
123.0086125881
 20
42.9916730592
 11
122.9591897437
 21
42.9841681232
  0
LINE
  5
533
100
AcDbEntity
  8
0
100
AcDbLine
 62
7
  6
CONTINUOUS
 10
118.8095356929
 20
43.4844915516
 11
118.9925258596
 21
43.512278869
  0
LINE
  5
534
100
AcDbEntity
  8
0
100
AcDbLine
 62
7
  6
CONTINUOUS
 10
118.7416716945
 20
43.5625030658
 11
118.4786993424
 21
43.531401996
  0
LINE
  5
535
100
AcDbEntity
  8
KONSTRUKTIONSELEMENTE
100
AcDbLine
 62
7
  6
CONTINUOUS
 10
140.9554419523
 20
45.2640144957
 11
140.6049848025
 21
45.236158122
  0
LINE
  5
536
100
AcDbEntity
  8
KONSTRUKTIONSELEMENTE
100
AcDbLine
 62
7
  6
CONTINUOUS
 10
139.4367943032
 20
45.143303543
 11
139.0863371534
 21
45.1154471693
  0
LINE
  5
537
100
AcDbEntity
  8
0
100
AcDbLine
 62
7
  6
CONTINUOUS
 10
118.9925258596
 20
43.512278869
 11
119.2839770176
 21
43.5344568761
  0
LINE
  5
538
100
AcDbEntity
  8
0
100
AcDbLine
 62
7
  6
CONTINUOUS
 10
119.113105486
 20
43.5879948438
 11
118.7416716945
 21
43.5625030658
  0
LINE
  5
539
100
AcDbEntity
  8
BEZUGSACHSEN
100
AcDbLine
 62
7
  6
CONTINUOUS
 10
146.1396043696
 20
46.7148836902
 11
135.169949255
 21
46.7148836902
  0
LINE
  5
53A
100
AcDbEntity
  8
KONSTRUKTIONSELEMENTE
100
AcDbLine
 62
7
  6
CONTINUOUS
 10
143.5216554833
 20
44.3458898299
 11
143.7217489242
 21
44.3152499046
  0
LINE
  5
53B
100
AcDbEntity
  8
KONSTRUKTIONSELEMENTE
100
AcDbLine
 62
7
  6
CONTINUOUS
 10
142.400236203
 20
45.0256649032
 11
142.1701041063
 21
45.0700592575
  0
LINE
  5
53C
100
AcDbEntity
  8
KONSTRUKTIONSELEMENTE
100
AcDbLine
 62
7
  6
CONTINUOUS
 10
143.8653731987
 20
44.5424751599
 11
143.5938754993
 21
44.604817461
  0
LINE
  5
53D
100
AcDbEntity
  8
KONSTRUKTIONSELEMENTE
100
AcDbLine
 62
7
  6
CONTINUOUS
 10
143.7217489242
 20
44.3152499046
 11
143.864556624
 21
44.2518455158
  0
LINE
  5
53E
100
AcDbEntity
  8
KONSTRUKTIONSELEMENTE
100
AcDbLine
 62
7
  6
CONTINUOUS
 10
144.0081808984
 20
44.4790707711
 11
143.8653731987
 21
44.5424751599
  0
LINE
  5
53F
100
AcDbEntity
  8
0
100
AcDbLine
 62
7
  6
CONTINUOUS
 10
159.8216049581
 20
30.863746281
 11
159.8544407444
 21
30.833890606
  0
LINE
  5
540
100
AcDbEntity
  8
BEZUGSACHSEN
100
AcDbLine
 62
7
  6
CONTINUOUS
 10
148.5933430136
 20
42.4648836902
 11
146.1396043696
 21
46.7148836902
  0
LINE
  5
541
100
AcDbEntity
  8
0
100
AcDbLine
 62
7
  6
CONTINUOUS
 10
154.7835096717
 20
31.9648836902
 11
154.7835096717
 21
31.4648836902
  0
LINE
  5
542
100
AcDbEntity
  8
RUNDUNGEN
100
AcDbLine
 62
7
  6
CONTINUOUS
 10
159.3831372849
 20
43.4524906151
 11
159.3642772449
 21
43.4175707792
  0
LINE
  5
543
100
AcDbEntity
  8
0
100
AcDbLine
 62
7
  6
CONTINUOUS
 10
158.4507755534
 20
31.2734578722
 11
158.4944703972
 21
31.3075554971
  0
LINE
  5
544
100
AcDbEntity
  8
0
100
AcDbLine
 62
7
  6
CONTINUOUS
 10
118.4786993424
 20
43.531401996
 11
118.2726839501
 21
43.4824550051
  0
LINE
  5
545
100
AcDbEntity
  8
0
100
AcDbLine
 62
7
  6
CONTINUOUS
 10
131.0781586924
 20
47.4148836902
 11
130.5906109514
 21
47.4148836902
  0
LINE
  5
546
100
AcDbEntity
  8
0
100
AcDbLine
 62
7
  6
CONTINUOUS
 10
150.2313949321
 20
47.4148836902
 11
150.7189426731
 21
47.4148836902
  0
LINE
  5
547
100
AcDbEntity
  8
0
100
AcDbLine
 62
7
  6
CONTINUOUS
 10
149.5809046734
 20
49.2894963247
 11
147.7229195616
 21
49.2894963247
  0
LINE
  5
548
100
AcDbEntity
  8
0
100
AcDbLine
 62
7
  6
CONTINUOUS
 10
133.5866340629
 20
49.2894963247
 11
131.7286489511
 21
49.2894963247
  0
LINE
  5
549
100
AcDbEntity
  8
RUNDUNGEN
100
AcDbLine
 62
7
  6
CONTINUOUS
 10
155.9047768123
 20
45.3141342135
 11
155.9047768123
 21
43.4066543832
  0
LINE
  5
54A
100
AcDbEntity
  8
RUNDUNGEN
100
AcDbLine
 62
7
  6
CONTINUOUS
 10
155.9047768123
 20
31.4648836902
 11
155.9047768123
 21
29.0146171672
  0
LINE
  5
54B
100
AcDbEntity
  8
0
100
AcDbLine
 62
7
  6
CONTINUOUS
 10
157.0137574019
 20
31.9648836902
 11
157.0137574019
 21
31.4648836902
  0
LINE
  5
54C
100
AcDbEntity
  8
0
100
AcDbLine
 62
7
  6
CONTINUOUS
 10
158.0789813937
 20
31.3162014184
 11
158.0316667768
 21
31.2607860421
  0
LINE
  5
54D
100
AcDbEntity
  8
0
100
AcDbLine
 62
7
  6
CONTINUOUS
 10
159.8652998152
 20
30.8978439067
 11
159.8216049581
 21
30.863746281
  0
LINE
  5
54E
100
AcDbEntity
  8
0
100
AcDbLine
 62
7
  6
CONTINUOUS
 10
160.3387037778
 20
31.2302822911
 11
160.295008934
 21
31.1961846661
  0
LINE
  5
54F
100
AcDbEntity
  8
0
100
AcDbLine
 62
7
  6
CONTINUOUS
 10
160.1970186757
 20
30.8423205346
 11
160.2407135194
 21
30.8764181595
  0
LINE
  5
550
100
AcDbEntity
  8
RUNDUNGEN
100
AcDbLine
 62
7
  6
CONTINUOUS
 10
129.6555985614
 20
49.4148836902
 11
130.3856246673
 21
49.4148836902
  0
LINE
  5
551
100
AcDbEntity
  8
0
100
AcDbLine
 62
7
  6
CONTINUOUS
 10
130.3856246673
 20
49.4148836902
 11
133.7980287964
 21
49.4148836902
  0
LINE
  5
552
100
AcDbEntity
  8
0
100
AcDbLine
 62
7
  6
CONTINUOUS
 10
147.5115248282
 20
49.4148836902
 11
150.9239289573
 21
49.4148836902
  0
LINE
  5
553
100
AcDbEntity
  8
RUNDUNGEN
100
AcDbLine
 62
7
  6
CONTINUOUS
 10
150.9239289573
 20
49.4148836902
 11
151.6540159876
 21
49.4148836902
  0
LINE
  5
554
100
AcDbEntity
  8
0
100
AcDbLine
 62
7
  6
CONTINUOUS
 10
154.8974810321
 20
42.5840308721
 11
150.641271159
 21
47.5046805572
  0
LINE
  5
555
100
AcDbEntity
  8
RUNDUNGEN
100
AcDbLine
 62
7
  6
CONTINUOUS
 10
159.364264863
 20
31.0122195267
 11
159.3831372849
 21
30.9772767654
  0
LINE
  5
556
100
AcDbEntity
  8
0
100
AcDbLine
 62
7
  6
CONTINUOUS
 10
157.6260027102
 20
31.9648836902
 11
157.6260027102
 21
31.4648836902
  0
LINE
  5
557
100
AcDbEntity
  8
0
100
AcDbLine
 62
7
  6
CONTINUOUS
 10
158.0316667768
 20
31.4539716031
 11
158.0316667768
 21
31.2607860421
  0
LINE
  5
558
100
AcDbEntity
  8
0
100
AcDbLine
 62
7
  6
CONTINUOUS
 10
158.0789813937
 20
31.4545257281
 11
158.0789813937
 21
31.3162014184
  0
LINE
  5
559
100
AcDbEntity
  8
0
100
AcDbLine
 62
7
  6
CONTINUOUS
 10
158.2757375377
 20
31.4597411215
 11
158.2757375377
 21
31.3587829456
  0
LINE
  5
55A
100
AcDbEntity
  8
0
100
AcDbLine
 62
7
  6
CONTINUOUS
 10
158.3804500267
 20
31.9648836902
 11
158.3804500267
 21
31.4648836902
  0
LINE
  5
55B
100
AcDbEntity
  8
0
100
AcDbLine
 62
7
  6
CONTINUOUS
 10
158.508949046
 20
31.4648836902
 11
158.508949046
 21
31.3928265987
  0
LINE
  5
55C
100
AcDbEntity
  8
0
100
AcDbLine
 62
7
  6
CONTINUOUS
 10
158.5200668925
 20
31.3075554971
 11
158.5200668925
 21
31.2350642733
  0
LINE
  5
55D
100
AcDbEntity
  8
0
100
AcDbLine
 62
7
  6
CONTINUOUS
 10
158.5991828861
 20
31.9648836902
 11
158.5991828861
 21
31.4648836902
  0
LINE
  5
55E
100
AcDbEntity
  8
0
100
AcDbLine
 62
7
  6
CONTINUOUS
 10
158.7054466297
 20
31.9648836902
 11
158.7054466297
 21
31.4648836902
  0
LINE
  5
55F
100
AcDbEntity
  8
0
100
AcDbLine
 62
7
  6
CONTINUOUS
 10
158.7276819055
 20
31.4648836902
 11
158.7276819055
 21
31.3415991503
  0
LINE
  5
560
100
AcDbEntity
  8
0
100
AcDbLine
 62
7
  6
CONTINUOUS
 10
158.7387997519
 20
31.4648836902
 11
158.7387997519
 21
31.1838368248
  0
LINE
  5
561
100
AcDbEntity
  8
0
100
AcDbLine
 62
7
  6
CONTINUOUS
 10
158.7780991913
 20
31.9648836902
 11
158.7780991913
 21
31.4648836902
  0
LINE
  5
562
100
AcDbEntity
  8
0
100
AcDbLine
 62
7
  6
CONTINUOUS
 10
158.9611521559
 20
31.4648836902
 11
158.9611521559
 21
31.1539271755
  0
LINE
  5
563
100
AcDbEntity
  8
0
100
AcDbLine
 62
7
  6
CONTINUOUS
 10
159.1206772843
 20
31.9648836902
 11
159.1206772843
 21
31.4648836902
  0
LINE
  5
564
100
AcDbEntity
  8
0
100
AcDbLine
 62
7
  6
CONTINUOUS
 10
159.1977248838
 20
31.4648836902
 11
159.1977248838
 21
31.431004158
  0
LINE
  5
565
100
AcDbEntity
  8
0
100
AcDbLine
 62
7
  6
CONTINUOUS
 10
159.223579859
 20
31.4249488976
 11
159.223579859
 21
31.136797352
  0
LINE
  5
566
100
AcDbEntity
  8
0
100
AcDbLine
 62
7
  6
CONTINUOUS
 10
159.526082915
 20
31.367062814
 11
159.526082915
 21
31.1324473574
  0
LINE
  5
567
100
AcDbEntity
  8
0
100
AcDbLine
 62
7
  6
CONTINUOUS
 10
159.5726217028
 20
31.9648836902
 11
159.5726217028
 21
31.4648836902
  0
LINE
  5
568
100
AcDbEntity
  8
0
100
AcDbLine
 62
7
  6
CONTINUOUS
 10
159.7921301627
 20
31.3498129878
 11
159.7921301627
 21
31.136635333
  0
LINE
  5
569
100
AcDbEntity
  8
0
100
AcDbLine
 62
7
  6
CONTINUOUS
 10
159.8216049581
 20
31.0890116974
 11
159.8216049581
 21
30.863746281
  0
LINE
  5
56A
100
AcDbEntity
  8
0
100
AcDbLine
 62
7
  6
CONTINUOUS
 10
159.8652998152
 20
31.0897038097
 11
159.8652998152
 21
30.8978439067
  0
LINE
  5
56B
100
AcDbEntity
  8
0
100
AcDbLine
 62
7
  6
CONTINUOUS
 10
159.871504952
 20
31.9648836902
 11
159.871504952
 21
31.4648836902
  0
LINE
  5
56C
100
AcDbEntity
  8
0
100
AcDbLine
 62
7
  6
CONTINUOUS
 10
159.9451914362
 20
31.3340930251
 11
159.9451914362
 21
31.1451192337
  0
LINE
  5
56D
100
AcDbEntity
  8
0
100
AcDbLine
 62
7
  6
CONTINUOUS
 10
160.7104979107
 20
31.1875387434
 11
160.7578122989
 21
31.2429541674
  0
LINE
  5
56E
100
AcDbEntity
  8
RUNDUNGEN
100
AcDbLine
 62
7
  6
CONTINUOUS
 10
152.9145807338
 20
49.8924186299
 11
152.0269318585
 21
50.2654859737
  0
LINE
  5
56F
100
AcDbEntity
  8
0
100
AcDbLine
 62
7
  6
CONTINUOUS
 10
156.2792718924
 20
42.9736966219
 11
151.6244925792
 21
48.3551366929
  0
LINE
  5
570
100
AcDbEntity
  8
0
100
AcDbLine
 62
7
  6
CONTINUOUS
 10
160.0985112967
 20
31.1008245917
 11
160.0985112967
 21
30.9318875583
  0
LINE
  5
571
100
AcDbEntity
  8
0
100
AcDbLine
 62
7
  6
CONTINUOUS
 10
160.1383281161
 20
31.2993759659
 11
160.1383281161
 21
31.1663829663
  0
LINE
  5
572
100
AcDbEntity
  8
0
100
AcDbLine
 62
7
  6
CONTINUOUS
 10
160.1745248128
 20
31.4323534793
 11
160.1745248128
 21
31.379560664
  0
LINE
  5
573
100
AcDbEntity
  8
0
100
AcDbLine
 62
7
  6
CONTINUOUS
 10
160.2032237857
 20
31.9648836902
 11
160.2032237857
 21
31.4648836902
  0
LINE
  5
574
100
AcDbEntity
  8
0
100
AcDbLine
 62
7
  6
CONTINUOUS
 10
160.2761348779
 20
31.9648836902
 11
160.2761348779
 21
31.4648836902
  0
LINE
  5
575
100
AcDbEntity
  8
0
100
AcDbLine
 62
7
  6
CONTINUOUS
 10
160.295008934
 20
31.2544931844
 11
160.295008934
 21
31.1961846661
  0
LINE
  5
576
100
AcDbEntity
  8
0
100
AcDbLine
 62
7
  6
CONTINUOUS
 10
160.3027655341
 20
30.8832498894
 11
160.3027655341
 21
30.7953890098
  0
LINE
  5
577
100
AcDbEntity
  8
0
100
AcDbLine
 62
7
  6
CONTINUOUS
 10
160.4333329715
 20
31.4455992573
 11
160.4333329715
 21
31.3411130414
  0
LINE
  5
578
100
AcDbEntity
  8
0
100
AcDbLine
 62
7
  6
CONTINUOUS
 10
160.4547924381
 20
31.9648836902
 11
160.4547924381
 21
31.4648836902
  0
LINE
  5
579
100
AcDbEntity
  8
0
100
AcDbLine
 62
7
  6
CONTINUOUS
 10
160.6520658309
 20
31.4564520626
 11
160.6520658309
 21
31.289885593
  0
LINE
  5
57A
100
AcDbEntity
  8
0
100
AcDbLine
 62
7
  6
CONTINUOUS
 10
160.7578122989
 20
31.4598562476
 11
160.7578122989
 21
31.2429541674
  0
LINE
  5
57B
100
AcDbEntity
  8
0
100
AcDbLine
 62
7
  6
CONTINUOUS
 10
161.1875216531
 20
31.9641062513
 11
161.1875216531
 21
31.4648836902
  0
LINE
  5
57C
100
AcDbEntity
  8
0
100
AcDbLine
 62
7
  6
CONTINUOUS
 10
161.3374802405
 20
31.3953469328
 11
161.3374802405
 21
31.0850298718
  0
LINE
  5
57D
100
AcDbEntity
  8
0
100
AcDbLine
 62
7
  6
CONTINUOUS
 10
161.6436027874
 20
31.3236527346
 11
161.6436027874
 21
31.1019976733
  0
LINE
  5
57E
100
AcDbEntity
  8
0
100
AcDbLine
 62
7
  6
CONTINUOUS
 10
161.935246739
 20
31.2553494375
 11
161.935246739
 21
31.0336943761
  0
LINE
  5
57F
100
AcDbEntity
  8
0
100
AcDbLine
 62
7
  6
CONTINUOUS
 10
162.427007926
 20
31.7542408552
 11
162.427007926
 21
31.2510059888
  0
LINE
  5
580
100
AcDbEntity
  8
0
100
AcDbLine
 62
7
  6
CONTINUOUS
 10
162.5185342251
 20
31.0132320371
 11
162.5185342251
 21
30.8970878796
  0
LINE
  5
581
100
AcDbEntity
  8
0
100
AcDbLine
 62
7
  6
CONTINUOUS
 10
162.5474920472
 20
31.5708648573
 11
162.5474920472
 21
31.067629991
  0
LINE
  5
582
100
AcDbEntity
  8
0
100
AcDbLine
 62
7
  6
CONTINUOUS
 10
162.7297695691
 20
31.5281752844
 11
162.7297695691
 21
31.024940418
  0
LINE
  5
583
100
AcDbEntity
  8
RUNDUNGEN
100
AcDbLine
 62
7
  6
CONTINUOUS
 10
169.6606708956
 20
31.7148836902
 11
169.6606708956
 21
33.0546867065
  0
LINE
  5
584
100
AcDbEntity
  8
RUNDUNGEN
100
AcDbLine
 62
7
  6
CONTINUOUS
 10
169.6606708956
 20
41.3750806739
 11
169.6606708956
 21
42.7148836902
  0
LINE
  5
585
100
AcDbEntity
  8
0
100
AcDbLine
 62
7
  6
CONTINUOUS
 10
170.6547768123
 20
39.9648836902
 11
170.6547768123
 21
34.4648836902
  0
ARC
  5
586
100
AcDbEntity
  8
RUNDUNGEN
100
AcDbCircle
 62
7
  6
CONTINUOUS
 10
99.5744874705
 20
229.4499090185
 40
18.0
100
AcDbArc
 50
337.999988081
 51
31.147412132
  0
ARC
  5
587
100
AcDbEntity
  8
RUNDUNGEN
100
AcDbCircle
 62
7
  6
CONTINUOUS
 10
115.6160195797
 20
231.980267788
 40
4.0
100
AcDbArc
 50
337.06
 51
11.0
  0
ARC
  5
588
100
AcDbEntity
  8
RUNDUNGEN
100
AcDbCircle
 62
7
  6
CONTINUOUS
 10
117.648882729
 20
210.1183952048
 40
6.0
100
AcDbArc
 50
158.0
 51
203.0
  0
ARC
  5
589
100
AcDbEntity
  8
0
100
AcDbCircle
 62
7
  6
CONTINUOUS
 10
121.5334936967
 20
205.4101335876
 40
2.0
100
AcDbArc
 50
84.2608295227
 51
275.7391704773
  0
ARC
  5
58A
100
AcDbEntity
  8
0
100
AcDbCircle
 62
7
  6
CONTINUOUS
 10
118.1334936967
 20
205.4101335876
 40
2.0
100
AcDbArc
 50
84.2608295227
 51
275.7391704773
  0
ARC
  5
58B
100
AcDbEntity
  8
RUNDUNGEN
100
AcDbCircle
 62
7
  6
CONTINUOUS
 10
123.1547768123
 20
195.77751115
 40
1.5
100
AcDbArc
 50
270.0
 51
360.0
  0
ARC
  5
58C
100
AcDbEntity
  8
0
100
AcDbCircle
 62
7
  6
CONTINUOUS
 10
121.5334936967
 20
205.4101335876
 40
1.4
100
AcDbArc
 50
192.3736251162
 51
278.2132107017
  0
ARC
  5
58D
100
AcDbEntity
  8
0
100
AcDbCircle
 62
7
  6
CONTINUOUS
 10
121.5334936967
 20
205.4101335876
 40
1.4
100
AcDbArc
 50
81.7867892983
 51
167.4447123387
  0
ARC
  5
58E
100
AcDbEntity
  8
0
100
AcDbCircle
 62
7
  6
CONTINUOUS
 10
118.1334936967
 20
205.4101335876
 40
1.4
100
AcDbArc
 50
81.7867892983
 51
278.2132107017
  0
ARC
  5
58F
100
AcDbEntity
  8
RUNDUNGEN
100
AcDbCircle
 62
7
  6
CONTINUOUS
 10
126.4047768123
 20
212.75251115
 40
1.0
100
AcDbArc
 50
90.0
 51
180.0
  0
ARC
  5
590
100
AcDbEntity
  8
RUNDUNGEN
100
AcDbCircle
 62
7
  6
CONTINUOUS
 10
125.6547768123
 20
195.27751115
 40
1.0
100
AcDbArc
 50
104.4964728456
 51
168.5562634114
  0
ARC
  5
591
100
AcDbEntity
  8
RUNDUNGEN
100
AcDbCircle
 62
7
  6
CONTINUOUS
 10
125.6547768123
 20
208.27751115
 40
1.0
100
AcDbArc
 50
180.0
 51
255.5035271544
  0
ARC
  5
592
100
AcDbEntity
  8
RUNDUNGEN
100
AcDbCircle
 62
7
  6
CONTINUOUS
 10
118.516659982
 20
195.2775167839
 40
1.0
100
AcDbArc
 50
203.000350676
 51
270.000137013
  0
ARC
  5
593
100
AcDbEntity
  8
RUNDUNGEN
100
AcDbCircle
 62
7
  6
CONTINUOUS
 10
124.1547768123
 20
209.64251115
 40
0.5
100
AcDbArc
 50
0.0
 51
90.0
  0
ARC
  5
594
100
AcDbEntity
  8
RUNDUNGEN
100
AcDbCircle
 62
7
  6
CONTINUOUS
 10
133.7521557363
 20
222.27751115
 40
6.0
100
AcDbArc
 50
89.9999999996
 51
158.0000176946
  0
ARC
  5
595
100
AcDbEntity
  8
RUNDUNGEN
100
AcDbCircle
 62
7
  6
CONTINUOUS
 10
127.6547768123
 20
215.1943702226
 40
3.0
100
AcDbArc
 50
158.0
 51
180.0008553389
  0
ARC
  5
596
100
AcDbEntity
  8
RUNDUNGEN
100
AcDbCircle
 62
7
  6
CONTINUOUS
 10
133.9027768123
 20
214.10251115
 40
1.0
100
AcDbArc
 50
90.0
 51
166.7886700598
  0
ARC
  5
597
100
AcDbEntity
  8
0
100
AcDbCircle
 62
7
  6
CONTINUOUS
 10
132.4492768123
 20
214.10251115
 40
1.0
100
AcDbArc
 50
142.609172965
 51
166.7870196398
  0
ARC
  5
598
100
AcDbEntity
  8
RUNDUNGEN
100
AcDbCircle
 62
7
  6
CONTINUOUS
 10
131.3591518123
 20
214.10251115
 40
1.0
100
AcDbArc
 50
90.0
 51
166.7870196398
  0
ARC
  5
599
100
AcDbEntity
  8
0
100
AcDbCircle
 62
7
  6
CONTINUOUS
 10
133.8785123441
 20
214.0609750849
 40
0.9974795864
100
AcDbArc
 50
161.1155278174
 51
164.2887183588
  0
ARC
  5
59A
100
AcDbEntity
  8
RUNDUNGEN
100
AcDbCircle
 62
7
  6
CONTINUOUS
 10
129.6554793085
 20
214.50251115
 40
0.75
100
AcDbArc
 50
270.0
 51
346.7870196398
  0
ARC
  5
59B
100
AcDbEntity
  8
0
100
AcDbCircle
 62
7
  6
CONTINUOUS
 10
130.7456043085
 20
214.50251115
 40
0.75
100
AcDbArc
 50
270.0
 51
346.7870196398
  0
ARC
  5
59C
100
AcDbEntity
  8
RUNDUNGEN
100
AcDbCircle
 62
7
  6
CONTINUOUS
 10
132.1991043085
 20
214.50251115
 40
0.75
100
AcDbArc
 50
269.9984963564
 51
346.7848190813
  0
ARC
  5
59D
100
AcDbEntity
  8
0
100
AcDbCircle
 62
7
  6
CONTINUOUS
 10
132.3485900582
 20
214.4910692897
 40
0.5917476919
100
AcDbArc
 50
340.4480924674
 51
344.3141283914
  0
ARC
  5
59E
100
AcDbEntity
  8
0
100
AcDbCircle
 62
7
  6
CONTINUOUS
 10
132.3687220846
 20
214.4838463601
 40
0.5703592779
100
AcDbArc
 50
336.6133809313
 51
340.455028684
  0
ARC
  5
59F
100
AcDbEntity
  8
RUNDUNGEN
100
AcDbCircle
 62
7
  6
CONTINUOUS
 10
124.4932739369
 20
216.7125110875
 40
0.4999999688
100
AcDbArc
 50
270.0000028917
 51
338.0000077194
  0
ARC
  5
5A0
100
AcDbEntity
  8
RUNDUNGEN
100
AcDbCircle
 62
7
  6
CONTINUOUS
 10
125.6485564275
 20
270.8325828679
 40
4.0
100
AcDbArc
 50
111.0
 51
151.0
  0
ARC
  5
5A1
100
AcDbEntity
  8
RUNDUNGEN
100
AcDbCircle
 62
7
  6
CONTINUOUS
 10
118.6631944949
 20
258.2306563538
 40
4.0
100
AcDbArc
 50
151.0
 51
191.0
  0
ARC
  5
5A2
100
AcDbEntity
  8
RUNDUNGEN
100
AcDbCircle
 62
7
  6
CONTINUOUS
 10
163.6606708956
 20
210.1183952048
 40
6.0
100
AcDbArc
 50
337.0
 51
22.0
  0
ARC
  5
5A3
100
AcDbEntity
  8
RUNDUNGEN
100
AcDbCircle
 62
7
  6
CONTINUOUS
 10
158.1547768123
 20
195.77751115
 40
1.5
100
AcDbArc
 50
180.0
 51
270.0
  0
ARC
  5
5A4
100
AcDbEntity
  8
RUNDUNGEN
100
AcDbCircle
 62
7
  6
CONTINUOUS
 10
154.9047768123
 20
212.75251115
 40
1.0
100
AcDbArc
 50
0.0
 51
90.0
  0
ARC
  5
5A5
100
AcDbEntity
  8
RUNDUNGEN
100
AcDbCircle
 62
7
  6
CONTINUOUS
 10
155.6547768123
 20
195.27751115
 40
1.0
100
AcDbArc
 50
11.5210457177
 51
75.5035271686
  0
ARC
  5
5A6
100
AcDbEntity
  8
RUNDUNGEN
100
AcDbCircle
 62
7
  6
CONTINUOUS
 10
155.6547768123
 20
208.27751115
 40
1.0
100
AcDbArc
 50
284.4964728314
 51
360.0
  0
ARC
  5
5A7
100
AcDbEntity
  8
RUNDUNGEN
100
AcDbCircle
 62
7
  6
CONTINUOUS
 10
162.7928912511
 20
195.27751115
 40
1.0
100
AcDbArc
 50
270.0
 51
337.0
  0
ARC
  5
5A8
100
AcDbEntity
  8
RUNDUNGEN
100
AcDbCircle
 62
7
  6
CONTINUOUS
 10
157.1547768123
 20
209.64251115
 40
0.5
100
AcDbArc
 50
90.0
 51
180.0
  0
ARC
  5
5A9
100
AcDbEntity
  8
RUNDUNGEN
100
AcDbCircle
 62
7
  6
CONTINUOUS
 10
147.5573978883
 20
222.27751115
 40
6.0
100
AcDbArc
 50
21.9999822951
 51
90.0
  0
ARC
  5
5AA
100
AcDbEntity
  8
RUNDUNGEN
100
AcDbCircle
 62
7
  6
CONTINUOUS
 10
153.6547768123
 20
215.1943702226
 40
3.0
100
AcDbArc
 50
359.9991409938
 51
22.0
  0
ARC
  5
5AB
100
AcDbEntity
  8
0
100
AcDbCircle
 62
7
  6
CONTINUOUS
 10
147.3782577685
 20
214.0432688172
 40
1.0531504941
100
AcDbArc
 50
18.2912394172
 51
20.6889551147
  0
ARC
  5
5AC
100
AcDbEntity
  8
RUNDUNGEN
100
AcDbCircle
 62
7
  6
CONTINUOUS
 10
149.9504018123
 20
214.10251115
 40
1.0
100
AcDbArc
 50
13.2129803602
 51
90.0
  0
ARC
  5
5AD
100
AcDbEntity
  8
0
100
AcDbCircle
 62
7
  6
CONTINUOUS
 10
148.8602768123
 20
214.10251115
 40
1.0
100
AcDbArc
 50
13.2129803602
 51
37.3911148933
  0
ARC
  5
5AE
100
AcDbEntity
  8
0
100
AcDbCircle
 62
7
  6
CONTINUOUS
 10
147.4067768123
 20
214.10251115
 40
1.0
100
AcDbArc
 50
20.0617987365
 51
28.2655934955
  0
ARC
  5
5AF
100
AcDbEntity
  8
RUNDUNGEN
100
AcDbCircle
 62
7
  6
CONTINUOUS
 10
147.4067768123
 20
214.10251115
 40
1.0
100
AcDbArc
 50
13.2136347531
 51
90.0
  0
ARC
  5
5B0
100
AcDbEntity
  8
0
100
AcDbCircle
 62
7
  6
CONTINUOUS
 10
147.4378477228
 20
214.0629933511
 40
0.990380922
100
AcDbArc
 50
15.7055112181
 51
18.2897481927
  0
ARC
  5
5B1
100
AcDbEntity
  8
RUNDUNGEN
100
AcDbCircle
 62
7
  6
CONTINUOUS
 10
151.654074316
 20
214.50251115
 40
0.75
100
AcDbArc
 50
193.2129803602
 51
270.0
  0
ARC
  5
5B2
100
AcDbEntity
  8
RUNDUNGEN
100
AcDbCircle
 62
7
  6
CONTINUOUS
 10
149.110449316
 20
214.50251115
 40
0.75
100
AcDbArc
 50
193.212107836
 51
269.9981865373
  0
ARC
  5
5B3
100
AcDbEntity
  8
0
100
AcDbCircle
 62
7
  6
CONTINUOUS
 10
150.563949316
 20
214.50251115
 40
0.75
100
AcDbArc
 50
193.2129803602
 51
270.0
  0
ARC
  5
5B4
100
AcDbEntity
  8
0
100
AcDbCircle
 62
7
  6
CONTINUOUS
 10
148.953957805
 20
214.4889673679
 40
0.5844345684
100
AcDbArc
 50
195.6731716055
 51
201.4127516523
  0
ARC
  5
5B5
100
AcDbEntity
  8
RUNDUNGEN
100
AcDbCircle
 62
7
  6
CONTINUOUS
 10
156.8162796625
 20
216.71251115
 40
0.5
100
AcDbArc
 50
202.0
 51
270.0
  0
ARC
  5
5B6
100
AcDbEntity
  8
RUNDUNGEN
100
AcDbCircle
 62
7
  6
CONTINUOUS
 10
181.735066154
 20
229.4499090185
 40
18.0
100
AcDbArc
 50
148.852578251
 51
202.0000119174
  0
ARC
  5
5B7
100
AcDbEntity
  8
RUNDUNGEN
100
AcDbCircle
 62
7
  6
CONTINUOUS
 10
165.5552424294
 20
232.2582234002
 40
4.0
100
AcDbArc
 50
168.59
 51
202.92
  0
ARC
  5
5B8
100
AcDbEntity
  8
RUNDUNGEN
100
AcDbCircle
 62
7
  6
CONTINUOUS
 10
140.6547768123
 20
254.27751115
 40
30.0
100
AcDbArc
 50
328.8525936382
 51
211.147412132
  0
CIRCLE
  5
5B9
100
AcDbEntity
  8
RUNDUNGEN
100
AcDbCircle
 62
7
  6
CONTINUOUS
 10
140.6547768123
 20
254.27751115
 40
19.0
  0
ARC
  5
5BA
100
AcDbEntity
  8
RUNDUNGEN
100
AcDbCircle
 62
7
  6
CONTINUOUS
 10
162.6227065881
 20
258.1666377494
 40
4.0
100
AcDbArc
 50
348.59
 51
31.0
  0
ARC
  5
5BB
100
AcDbEntity
  8
RUNDUNGEN
100
AcDbCircle
 62
7
  6
CONTINUOUS
 10
154.3525369682
 20
271.9305113633
 40
4.0
100
AcDbArc
 50
31.0
 51
71.0
  0
ARC
  5
5BC
100
AcDbEntity
  8
RUNDUNGEN
100
AcDbCircle
 62
7
  6
CONTINUOUS
 10
140.7290666643
 20
276.6214483778
 40
4.0
100
AcDbArc
 50
71.0
 51
111.0
  0
ARC
  5
5BD
100
AcDbEntity
  8
RUNDUNGEN
100
AcDbCircle
 62
7
  6
CONTINUOUS
 10
245.8793372163
 20
225.600382073
 40
15.0
100
AcDbArc
 50
179.9998973594
 51
186.5000910059
  0
ARC
  5
5BE
100
AcDbEntity
  8
RUNDUNGEN
100
AcDbCircle
 62
7
  6
CONTINUOUS
 10
217.1293372163
 20
212.9257494231
 40
15.0
100
AcDbArc
 50
359.9999809609
 51
6.5000222028
  0
ARC
  5
5BF
100
AcDbEntity
  8
RUNDUNGEN
100
AcDbCircle
 62
7
  6
CONTINUOUS
 10
205.3793372163
 20
225.600382073
 40
15.0
100
AcDbArc
 50
353.4999528179
 51
0.0001280697
  0
ARC
  5
5C0
100
AcDbEntity
  8
RUNDUNGEN
100
AcDbCircle
 62
7
  6
CONTINUOUS
 10
234.1293372163
 20
212.9257494231
 40
15.0
100
AcDbArc
 50
173.4999777928
 51
180.000019034
  0
ARC
  5
5C1
100
AcDbEntity
  8
0
100
AcDbCircle
 62
7
  6
CONTINUOUS
 10
216.8793372163
 20
224.947364749
 40
3.0
100
AcDbArc
 50
353.5
 51
360.0
  0
ARC
  5
5C2
100
AcDbEntity
  8
0
100
AcDbCircle
 62
7
  6
CONTINUOUS
 10
234.3793372163
 20
224.947364749
 40
3.0
100
AcDbArc
 50
180.0
 51
186.5
  0
ARC
  5
5C3
100
AcDbEntity
  8
RUNDUNGEN
100
AcDbCircle
 62
7
  6
CONTINUOUS
 10
230.1293372163
 20
196.27751115
 40
2.0
100
AcDbArc
 50
270.0
 51
0.0012324438
  0
ARC
  5
5C4
100
AcDbEntity
  8
RUNDUNGEN
100
AcDbCircle
 62
7
  6
CONTINUOUS
 10
221.1293372163
 20
196.27751115
 40
2.0
100
AcDbArc
 50
180.0
 51
270.0
  0
ARC
  5
5C5
100
AcDbEntity
  8
RUNDUNGEN
100
AcDbCircle
 62
7
  6
CONTINUOUS
 10
222.8793372163
 20
282.77751115
 40
1.5
100
AcDbArc
 50
90.0
 51
180.0
  0
ARC
  5
5C6
100
AcDbEntity
  8
RUNDUNGEN
100
AcDbCircle
 62
7
  6
CONTINUOUS
 10
228.3793372163
 20
282.77751115
 40
1.5
100
AcDbArc
 50
0.0
 51
90.0
  0
ARC
  5
5C7
100
AcDbEntity
  8
RUNDUNGEN
100
AcDbCircle
 62
7
  6
CONTINUOUS
 10
211.3793372163
 20
214.10251115
 40
1.0
100
AcDbArc
 50
90.0
 51
180.0
  0
ARC
  5
5C8
100
AcDbEntity
  8
RUNDUNGEN
100
AcDbCircle
 62
7
  6
CONTINUOUS
 10
239.8793372163
 20
214.10251115
 40
1.0
100
AcDbArc
 50
0.0
 51
90.0
  0
ARC
  5
5C9
100
AcDbEntity
  8
RUNDUNGEN
100
AcDbCircle
 62
7
  6
CONTINUOUS
 10
220.8793372163
 20
281.1214483778
 40
0.5
100
AcDbArc
 50
270.0
 51
360.0
  0
ARC
  5
5CA
100
AcDbEntity
  8
RUNDUNGEN
100
AcDbCircle
 62
7
  6
CONTINUOUS
 10
220.8793372163
 20
280.1214483778
 40
0.5
100
AcDbArc
 50
90.0
 51
180.0
  0
ARC
  5
5CB
100
AcDbEntity
  8
RUNDUNGEN
100
AcDbCircle
 62
7
  6
CONTINUOUS
 10
230.3793372163
 20
281.1214483778
 40
0.5
100
AcDbArc
 50
180.0
 51
270.0
  0
ARC
  5
5CC
100
AcDbEntity
  8
RUNDUNGEN
100
AcDbCircle
 62
7
  6
CONTINUOUS
 10
230.3793372163
 20
280.1214483778
 40
0.5
100
AcDbArc
 50
0.0
 51
90.0
  0
ARC
  5
5CD
100
AcDbEntity
  8
RUNDUNGEN
100
AcDbCircle
 62
7
  6
CONTINUOUS
 10
130.2497768123
 20
29.0146171672
 40
4.845
100
AcDbArc
 50
180.0
 51
246.072900436
  0
ARC
  5
5CE
100
AcDbEntity
  8
RUNDUNGEN
100
AcDbCircle
 62
7
  6
CONTINUOUS
 10
123.6547752469
 20
32.2148836902
 40
1.5000002819
100
AcDbArc
 50
270.000059791
 51
323.1301382287
  0
ARC
  5
5CF
100
AcDbEntity
  8
RUNDUNGEN
100
AcDbCircle
 62
7
  6
CONTINUOUS
 10
112.1547768123
 20
34.4648836902
 40
1.5
100
AcDbArc
 50
180.0
 51
270.0
  0
ARC
  5
5D0
100
AcDbEntity
  8
RUNDUNGEN
100
AcDbCircle
 62
7
  6
CONTINUOUS
 10
123.1547768123
 20
32.2148836902
 40
1.5
100
AcDbArc
 50
270.0
 51
319.9923162216
  0
ARC
  5
5D1
100
AcDbEntity
  8
RUNDUNGEN
100
AcDbCircle
 62
7
  6
CONTINUOUS
 10
112.648882729
 20
31.7148836902
 40
1.0
100
AcDbArc
 50
180.0
 51
270.0
  0
ARC
  5
5D2
100
AcDbEntity
  8
RUNDUNGEN
100
AcDbCircle
 62
7
  6
CONTINUOUS
 10
125.6547768123
 20
30.7148836902
 40
1.0
100
AcDbArc
 50
133.6797263534
 51
143.1301023542
  0
ARC
  5
5D3
100
AcDbEntity
  8
RUNDUNGEN
100
AcDbCircle
 62
7
  6
CONTINUOUS
 10
114.1631944949
 20
32.4648836902
 40
0.5
100
AcDbArc
 50
0.0
 51
90.0
  0
ARC
  5
5D4
100
AcDbEntity
  8
RUNDUNGEN
100
AcDbCircle
 62
7
  6
CONTINUOUS
 10
115.1631944949
 20
32.4648836902
 40
0.5
100
AcDbArc
 50
180.0
 51
270.0
  0
ARC
  5
5D5
100
AcDbEntity
  8
RUNDUNGEN
100
AcDbCircle
 62
7
  6
CONTINUOUS
 10
121.4864811748
 20
31.2148836902
 40
0.5
100
AcDbArc
 50
270.0
 51
291.8689090909
  0
ARC
  5
5D6
100
AcDbEntity
  8
RUNDUNGEN
100
AcDbCircle
 62
7
  6
CONTINUOUS
 10
130.4047768123
 20
45.3141342135
 40
5.0
100
AcDbArc
 50
113.700813931
 51
180.0
  0
ARC
  5
5D7
100
AcDbEntity
  8
0
100
AcDbCircle
 62
7
  6
CONTINUOUS
 10
131.7286489511
 20
46.5874963247
 40
2.702
100
AcDbArc
 50
90.0
 51
139.1412076665
  0
ARC
  5
5D8
100
AcDbEntity
  8
RUNDUNGEN
100
AcDbCircle
 62
7
  6
CONTINUOUS
 10
123.6547752469
 20
42.2148836902
 40
1.5000002819
100
AcDbArc
 50
36.8698617713
 51
89.999940209
  0
ARC
  5
5D9
100
AcDbEntity
  8
RUNDUNGEN
100
AcDbCircle
 62
7
  6
CONTINUOUS
 10
112.1547768123
 20
39.9648836902
 40
1.5
100
AcDbArc
 50
90.0
 51
180.0
  0
ARC
  5
5DA
100
AcDbEntity
  8
RUNDUNGEN
100
AcDbCircle
 62
7
  6
CONTINUOUS
 10
123.1547761059
 20
42.2148836902
 40
1.5
100
AcDbArc
 50
40.0076690734
 51
90.0
  0
ARC
  5
5DB
100
AcDbEntity
  8
0
100
AcDbCircle
 62
7
  6
CONTINUOUS
 10
131.7286489511
 20
46.5874963247
 40
1.402
100
AcDbArc
 50
90.0
 51
139.1412076665
  0
ARC
  5
5DC
100
AcDbEntity
  8
RUNDUNGEN
100
AcDbCircle
 62
7
  6
CONTINUOUS
 10
112.648882729
 20
42.7148836902
 40
1.0
100
AcDbArc
 50
90.0
 51
180.0
  0
ARC
  5
5DD
100
AcDbEntity
  8
RUNDUNGEN
100
AcDbCircle
 62
7
  6
CONTINUOUS
 10
125.6547768123
 20
43.7148836902
 40
1.0
100
AcDbArc
 50
216.8698976458
 51
226.3202736466
  0
ARC
  5
5DE
100
AcDbEntity
  8
RUNDUNGEN
100
AcDbCircle
 62
7
  6
CONTINUOUS
 10
114.1631944949
 20
41.9648836902
 40
0.5
100
AcDbArc
 50
270.0
 51
360.0
  0
ARC
  5
5DF
100
AcDbEntity
  8
RUNDUNGEN
100
AcDbCircle
 62
7
  6
CONTINUOUS
 10
115.1631944949
 20
41.9648836902
 40
0.5
100
AcDbArc
 50
90.0
 51
180.0
  0
ARC
  5
5E0
100
AcDbEntity
  8
RUNDUNGEN
100
AcDbCircle
 62
7
  6
CONTINUOUS
 10
121.4864811748
 20
43.2148836902
 40
0.5
100
AcDbArc
 50
48.8118831941
 51
90.0
  0
ARC
  5
5E1
100
AcDbEntity
  8
RUNDUNGEN
100
AcDbCircle
 62
7
  6
CONTINUOUS
 10
140.6547768123
 20
21.9648836902
 40
30.5
100
AcDbArc
 50
66.299186069
 51
113.700813931
  0
ARC
  5
5E2
100
AcDbEntity
  8
RUNDUNGEN
100
AcDbCircle
 62
7
  6
CONTINUOUS
 10
151.0597768123
 20
29.0146171672
 40
4.845
100
AcDbArc
 50
293.927099564
 51
360.0
  0
ARC
  5
5E3
100
AcDbEntity
  8
RUNDUNGEN
100
AcDbCircle
 62
7
  6
CONTINUOUS
 10
157.654778543
 20
32.2148836902
 40
1.5000003137
100
AcDbArc
 50
216.8698579812
 51
269.9999338922
  0
ARC
  5
5E4
100
AcDbEntity
  8
RUNDUNGEN
100
AcDbCircle
 62
7
  6
CONTINUOUS
 10
169.1547768123
 20
34.4648836902
 40
1.5
100
AcDbArc
 50
270.0
 51
360.0
  0
ARC
  5
5E5
100
AcDbEntity
  8
RUNDUNGEN
100
AcDbCircle
 62
7
  6
CONTINUOUS
 10
158.1547768123
 20
32.2148836902
 40
1.5
100
AcDbArc
 50
220.0076837799
 51
270.0
  0
ARC
  5
5E6
100
AcDbEntity
  8
RUNDUNGEN
100
AcDbCircle
 62
7
  6
CONTINUOUS
 10
168.6606708956
 20
31.7148836902
 40
1.0
100
AcDbArc
 50
270.0
 51
360.0
  0
ARC
  5
5E7
100
AcDbEntity
  8
RUNDUNGEN
100
AcDbCircle
 62
7
  6
CONTINUOUS
 10
155.6547768123
 20
30.7148836902
 40
1.0
100
AcDbArc
 50
36.8698976458
 51
46.3202745526
  0
ARC
  5
5E8
100
AcDbEntity
  8
RUNDUNGEN
100
AcDbCircle
 62
7
  6
CONTINUOUS
 10
167.1227065881
 20
32.4648836902
 40
0.5
100
AcDbArc
 50
90.0
 51
180.0
  0
ARC
  5
5E9
100
AcDbEntity
  8
RUNDUNGEN
100
AcDbCircle
 62
7
  6
CONTINUOUS
 10
166.1227065881
 20
32.4648836902
 40
0.5
100
AcDbArc
 50
270.0
 51
360.0
  0
ARC
  5
5EA
100
AcDbEntity
  8
RUNDUNGEN
100
AcDbCircle
 62
7
  6
CONTINUOUS
 10
159.8230724498
 20
31.2148836902
 40
0.5
100
AcDbArc
 50
208.373274675
 51
270.0
  0
ARC
  5
5EB
100
AcDbEntity
  8
0
100
AcDbCircle
 62
7
  6
CONTINUOUS
 10
140.6547768123
 20
37.2148836902
 40
14.0
100
AcDbArc
 50
202.04094534
 51
337.95905466
  0
ARC
  5
5EC
100
AcDbEntity
  8
0
100
AcDbCircle
 62
7
  6
CONTINUOUS
 10
140.6547768123
 20
37.2148836902
 40
14.0
100
AcDbArc
 50
22.04094534
 51
157.95905466
  0
ARC
  5
5ED
100
AcDbEntity
  8
BEZUGSACHSEN
100
AcDbCircle
 62
7
  6
CONTINUOUS
 10
140.6547768123
 20
37.2148836902
 40
9.5
100
AcDbArc
 50
33.6104753921
 51
146.3895246079
  0
ARC
  5
5EE
100
AcDbEntity
  8
BEZUGSACHSEN
100
AcDbCircle
 62
7
  6
CONTINUOUS
 10
140.6547768123
 20
37.2148836902
 40
9.5
100
AcDbArc
 50
213.6104753921
 51
326.3895246079
  0
ARC
  5
5EF
100
AcDbEntity
  8
RUNDUNGEN
100
AcDbCircle
 62
7
  6
CONTINUOUS
 10
140.6547768123
 20
52.4648836902
 40
30.5
100
AcDbArc
 50
246.072900436
 51
293.927099564
  0
ARC
  5
5F0
100
AcDbEntity
  8
RUNDUNGEN
100
AcDbCircle
 62
7
  6
CONTINUOUS
 10
150.9047768123
 20
45.3141342135
 40
5.0
100
AcDbArc
 50
0.0
 51
66.299186069
  0
ARC
  5
5F1
100
AcDbEntity
  8
0
100
AcDbCircle
 62
7
  6
CONTINUOUS
 10
149.5809046734
 20
46.5874963247
 40
2.702
100
AcDbArc
 50
40.8587923335
 51
90.0
  0
ARC
  5
5F2
100
AcDbEntity
  8
0
100
AcDbCircle
 62
7
  6
CONTINUOUS
 10
149.5809046734
 20
46.5874963247
 40
1.402
100
AcDbArc
 50
40.8587923335
 51
90.0
  0
ARC
  5
5F3
100
AcDbEntity
  8
RUNDUNGEN
100
AcDbCircle
 62
7
  6
CONTINUOUS
 10
157.654778543
 20
42.2148836902
 40
1.5000003137
100
AcDbArc
 50
90.0000661078
 51
143.1301420188
  0
ARC
  5
5F4
100
AcDbEntity
  8
RUNDUNGEN
100
AcDbCircle
 62
7
  6
CONTINUOUS
 10
169.1547768123
 20
39.9648836902
 40
1.5
100
AcDbArc
 50
0.0
 51
90.0
  0
ARC
  5
5F5
100
AcDbEntity
  8
RUNDUNGEN
100
AcDbCircle
 62
7
  6
CONTINUOUS
 10
158.1547768123
 20
42.2148836902
 40
1.5
100
AcDbArc
 50
90.0
 51
139.9923162216
  0
ARC
  5
5F6
100
AcDbEntity
  8
RUNDUNGEN
100
AcDbCircle
 62
7
  6
CONTINUOUS
 10
168.6606708956
 20
42.7148836902
 40
1.0
100
AcDbArc
 50
0.0
 51
90.0
  0
ARC
  5
5F7
100
AcDbEntity
  8
RUNDUNGEN
100
AcDbCircle
 62
7
  6
CONTINUOUS
 10
155.6547768123
 20
43.7148836902
 40
1.0
100
AcDbArc
 50
313.6797254474
 51
323.1301023542
  0
ARC
  5
5F8
100
AcDbEntity
  8
RUNDUNGEN
100
AcDbCircle
 62
7
  6
CONTINUOUS
 10
167.1227065881
 20
41.9648836902
 40
0.5
100
AcDbArc
 50
180.0
 51
270.0
  0
ARC
  5
5F9
100
AcDbEntity
  8
RUNDUNGEN
100
AcDbCircle
 62
7
  6
CONTINUOUS
 10
166.1227065881
 20
41.9648836902
 40
0.5
100
AcDbArc
 50
0.0
 51
90.0
  0
ARC
  5
5FA
100
AcDbEntity
  8
RUNDUNGEN
100
AcDbCircle
 62
7
  6
CONTINUOUS
 10
159.8230724498
 20
43.2148836902
 40
0.5
100
AcDbArc
 50
90.0
 51
151.626725325
  0
SPLINE
  5
5FB
100
AcDbEntity
  8
KONSTRUKTIONSELEMENTE
100
AcDbSpline
 62
7
  6
CONTINUOUS
 70
0
 71
3
 72
9
 73
5
 74
0
 42
0.0000001
 43
0.0000001
 44
0.0000000001
 40
0.0
 40
0.0
 40
0.0
 40
0.0
 40
0.4961584509
 40
1.0
 40
1.0
 40
1.0
 40
1.0
 10
132.4275354764
 20
103.75251115
 30
0.0
 10
132.2226755802
 20
103.75251115
 30
0.0
 10
131.8092267603
 20
103.7212561181
 30
0.0
 10
131.4048656084
 20
103.6312647688
 30
0.0
 10
131.2049457553
 20
103.5737370102
 30
0.0
  0
SPLINE
  5
5FC
100
AcDbEntity
  8
KONSTRUKTIONSELEMENTE
100
AcDbSpline
 62
7
  6
CONTINUOUS
 70
0
 71
3
 72
9
 73
5
 74
0
 42
0.0000001
 43
0.0000001
 44
0.0000000001
 40
0.0
 40
0.0
 40
0.0
 40
0.0
 40
0.2431746232
 40
1.0
 40
1.0
 40
1.0
 40
1.0
 10
131.2049457553
 20
103.5737370102
 30
0.0
 10
131.0753752509
 20
103.5364525655
 30
0.0
 10
130.5486131381
 20
103.3618789134
 30
0.0
 10
130.0485249632
 20
103.1138163472
 30
0.0
 10
129.6851216977
 20
102.904005374
 30
0.0
  0
SPLINE
  5
5FD
100
AcDbEntity
  8
KONSTRUKTIONSELEMENTE
100
AcDbSpline
 62
7
  6
CONTINUOUS
 70
0
 71
3
 72
11
 73
7
 74
0
 42
0.0000001
 43
0.0000001
 44
0.0000000001
 40
0.0
 40
0.0
 40
0.0
 40
0.0
 40
0.2616356427
 40
0.514489011
 40
0.7595900019
 40
1.0
 40
1.0
 40
1.0
 40
1.0
 10
151.6244319269
 20
102.904005374
 30
0.0
 10
151.4052132679
 20
103.0305713257
 30
0.0
 10
150.9641853725
 20
103.2630091358
 30
0.0
 10
150.2803401736
 20
103.5367930354
 30
0.0
 10
149.5852169484
 20
103.7119650249
 30
0.0
 10
149.1146142873
 20
103.75251115
 30
0.0
 10
148.8820181478
 20
103.75251115
 30
0.0
  0
SPLINE
  5
5FE
100
AcDbEntity
  8
KONSTRUKTIONSELEMENTE
100
AcDbSpline
 62
7
  6
CONTINUOUS
 70
0
 71
3
 72
11
 73
7
 74
0
 42
0.0000001
 43
0.0000001
 44
0.0000000001
 40
0.0
 40
0.0
 40
0.0
 40
0.0
 40
0.2404100426
 40
0.485511054
 40
0.7383643636
 40
1.0
 40
1.0
 40
1.0
 40
1.0
 10
148.8820181478
 20
103.75251115
 30
0.0
 10
148.6494219654
 20
103.75251115
 30
0.0
 10
148.1788192414
 20
103.7119650116
 30
0.0
 10
147.4836960161
 20
103.5367929969
 30
0.0
 10
146.7998508654
 20
103.2630090979
 30
0.0
 10
146.3588230231
 20
103.0305713226
 30
0.0
 10
146.1396043696
 20
102.904005374
 30
0.0
  0
SPLINE
  5
5FF
100
AcDbEntity
  8
KONSTRUKTIONSELEMENTE
100
AcDbSpline
 62
7
  6
CONTINUOUS
 70
0
 71
3
 72
10
 73
6
 74
0
 42
0.0000001
 43
0.0000001
 44
0.0000000001
 40
0.0
 40
0.0
 40
0.0
 40
0.0
 40
0.4998915337
 40
0.7499457978
 40
1.0
 40
1.0
 40
1.0
 40
1.0
 10
146.1396043696
 20
102.904005374
 30
0.0
 10
145.2484589779
 20
103.1612568899
 30
0.0
 10
143.8898694371
 20
103.4828666918
 30
0.0
 10
142.0471726284
 20
103.7129212739
 30
0.0
 10
141.1187446789
 20
103.7525111486
 30
0.0
 10
140.6547767148
 20
103.752511154
 30
0.0
  0
SPLINE
  5
600
100
AcDbEntity
  8
BEZUGSACHSEN
100
AcDbSpline
 62
7
  6
CONTINUOUS
 70
0
 71
3
 72
17
 73
13
 74
0
 42
0.0000001
 43
0.0000001
 44
0.0000000001
 40
0.0
 40
0.0
 40
0.0
 40
0.0
 40
0.1379481619
 40
0.2669035432
 40
0.3865340403
 40
0.4437235944
 40
0.5000000952
 40
0.5562765982
 40
0.6134660789
 40
0.7330964437
 40
0.8620517414
 40
1.0
 40
1.0
 40
1.0
 40
1.0
 10
151.6244319269
 20
95.7221662647
 30
0.0
 10
151.4170408207
 20
95.5147751585
 30
0.0
 10
150.9985697391
 20
95.1297367204
 30
0.0
 10
150.32606817
 20
94.6523777263
 30
0.0
 10
149.7280640247
 20
94.38118794
 30
0.0
 10
149.2432603752
 20
94.2708711648
 30
0.0
 10
148.8820174833
 20
94.2435990974
 30
0.0
 10
148.5207748671
 20
94.2708717059
 30
0.0
 10
148.0359713332
 20
94.3811871469
 30
0.0
 10
147.4379684388
 20
94.6523784584
 30
0.0
 10
146.765466497
 20
95.1297361912
 30
0.0
 10
146.3469956211
 20
95.5147750132
 30
0.0
 10
146.1396043696
 20
95.7221662647
 30
0.0
  0
SPLINE
  5
601
100
AcDbEntity
  8
BEZUGSACHSEN
100
AcDbSpline
 62
7
  6
CONTINUOUS
 70
0
 71
3
 72
15
 73
11
 74
0
 42
0.0000001
 43
0.0000001
 44
0.0000000001
 40
0.0
 40
0.0
 40
0.0
 40
0.0
 40
0.1250025799
 40
0.2500165917
 40
0.3750124217
 40
0.5000001088
 40
0.6249877308
 40
0.7499833846
 40
0.8749973395
 40
1.0
 40
1.0
 40
1.0
 40
1.0
 10
146.1396043696
 20
95.7221662647
 30
0.0
 10
145.7126900701
 20
95.5087091149
 30
0.0
 10
144.8434601511
 20
95.1112067951
 30
0.0
 10
143.4896244381
 20
94.63703806
 30
0.0
 10
142.0877832508
 20
94.325649063
 30
0.0
 10
140.6547758061
 20
94.2161382741
 30
0.0
 10
139.2217688778
 20
94.3256484383
 30
0.0
 10
137.8199291817
 20
94.6370387534
 30
0.0
 10
136.4660936939
 20
95.1112062402
 30
0.0
 10
135.5968638298
 20
95.5087089773
 30
0.0
 10
135.169949255
 20
95.7221662647
 30
0.0
  0
SPLINE
  5
602
100
AcDbEntity
  8
KONSTRUKTIONSELEMENTE
100
AcDbSpline
 62
7
  6
CONTINUOUS
 70
0
 71
3
 72
10
 73
6
 74
0
 42
0.0000001
 43
0.0000001
 44
0.0000000001
 40
0.0
 40
0.0
 40
0.0
 40
0.0
 40
0.2500542288
 40
0.5001085083
 40
1.0
 40
1.0
 40
1.0
 40
1.0
 10
140.6547767148
 20
103.752511154
 30
0.0
 10
140.1908087176
 20
103.752511154
 30
0.0
 10
139.2623807232
 20
103.7129212448
 30
0.0
 10
137.4196839832
 20
103.482866647
 30
0.0
 10
136.0610945407
 20
103.1612568592
 30
0.0
 10
135.169949255
 20
102.904005374
 30
0.0
  0
SPLINE
  5
603
100
AcDbEntity
  8
KONSTRUKTIONSELEMENTE
100
AcDbSpline
 62
7
  6
CONTINUOUS
 70
0
 71
3
 72
11
 73
7
 74
0
 42
0.0000001
 43
0.0000001
 44
0.0000000001
 40
0.0
 40
0.0
 40
0.0
 40
0.0
 40
0.2616356427
 40
0.514489011
 40
0.7595900019
 40
1.0
 40
1.0
 40
1.0
 40
1.0
 10
135.169949255
 20
102.904005374
 30
0.0
 10
134.9507305961
 20
103.0305713257
 30
0.0
 10
134.5097027007
 20
103.2630091357
 30
0.0
 10
133.8258575019
 20
103.5367930353
 30
0.0
 10
133.1307342769
 20
103.7119650248
 30
0.0
 10
132.6601316158
 20
103.75251115
 30
0.0
 10
132.4275354764
 20
103.75251115
 30
0.0
  0
SPLINE
  5
604
100
AcDbEntity
  8
BEZUGSACHSEN
100
AcDbSpline
 62
7
  6
CONTINUOUS
 70
0
 71
3
 72
17
 73
13
 74
0
 42
0.0000001
 43
0.0000001
 44
0.0000000001
 40
0.0
 40
0.0
 40
0.0
 40
0.0
 40
0.1379481619
 40
0.2669035432
 40
0.3865340403
 40
0.4437235944
 40
0.5000000952
 40
0.5562765982
 40
0.6134660789
 40
0.7330964437
 40
0.8620517414
 40
1.0
 40
1.0
 40
1.0
 40
1.0
 10
135.169949255
 20
95.7221662647
 30
0.0
 10
134.9625581488
 20
95.5147751585
 30
0.0
 10
134.5440870672
 20
95.1297367204
 30
0.0
 10
133.8715854981
 20
94.6523777263
 30
0.0
 10
133.2735813528
 20
94.38118794
 30
0.0
 10
132.7887777033
 20
94.2708711648
 30
0.0
 10
132.4275348114
 20
94.2435990974
 30
0.0
 10
132.0662921952
 20
94.2708717059
 30
0.0
 10
131.5814886613
 20
94.3811871469
 30
0.0
 10
130.9834857669
 20
94.6523784584
 30
0.0
 10
130.3109838251
 20
95.1297361912
 30
0.0
 10
129.8925129492
 20
95.5147750132
 30
0.0
 10
129.6851216977
 20
95.7221662647
 30
0.0
  0
SPLINE
  5
605
100
AcDbEntity
  8
0
100
AcDbSpline
 62
7
  6
CONTINUOUS
 70
0
 71
3
 72
9
 73
5
 74
0
 42
0.0000001
 43
0.0000001
 44
0.0000000001
 40
0.0
 40
0.0
 40
0.0
 40
0.0
 40
0.2399093939
 40
1.0
 40
1.0
 40
1.0
 40
1.0
 10
133.0602089358
 20
214.6411013222
 30
0.0
 10
133.0478645485
 20
214.621789822
 30
0.0
 10
132.9985516643
 20
214.5399718504
 30
0.0
 10
132.9582058396
 20
214.4525343085
 30
0.0
 10
132.9347239823
 20
214.3838203316
 30
0.0
  0
SPLINE
  5
606
100
AcDbEntity
  8
0
100
AcDbSpline
 62
7
  6
CONTINUOUS
 70
0
 71
3
 72
10
 73
6
 74
0
 42
0.0000001
 43
0.0000001
 44
0.0000000001
 40
0.0
 40
0.0
 40
0.0
 40
0.0
 40
0.5272998496
 40
0.7521851266
 40
1.0
 40
1.0
 40
1.0
 40
1.0
 10
131.4414406067
 20
213.9912255151
 30
0.0
 10
131.4169668613
 20
214.0078721701
 30
0.0
 10
131.3753085974
 20
214.030618264
 30
0.0
 10
131.3191823779
 20
214.0137998375
 30
0.0
 10
131.2988709326
 20
213.9959644665
 30
0.0
 10
131.2892888646
 20
213.985880621
 30
0.0
  0
SPLINE
  5
607
100
AcDbEntity
  8
0
100
AcDbSpline
 62
7
  6
CONTINUOUS
 70
0
 71
3
 72
13
 73
9
 74
0
 42
0.0000001
 43
0.0000001
 44
0.0000000001
 40
0.0
 40
0.0
 40
0.0
 40
0.0
 40
0.3192642376
 40
0.5887577142
 40
0.7060952258
 40
0.81245584
 40
0.9091498862
 40
1.0
 40
1.0
 40
1.0
 40
1.0
 10
132.6393216568
 20
214.0080371579
 30
0.0
 10
132.5161223916
 20
213.9649992613
 30
0.0
 10
132.279568065
 20
213.9122299002
 30
0.0
 10
131.9912810338
 20
213.8884158915
 30
0.0
 10
131.7895246808
 20
213.893000296
 30
0.0
 10
131.6592136818
 20
213.9080982043
 30
0.0
 10
131.5419995452
 20
213.9364257853
 30
0.0
 10
131.4721461164
 20
213.9703401125
 30
0.0
 10
131.4414406067
 20
213.9912255151
 30
0.0
  0
SPLINE
  5
608
100
AcDbEntity
  8
0
100
AcDbSpline
 62
7
  6
CONTINUOUS
 70
0
 71
3
 72
9
 73
5
 74
0
 42
0.0000001
 43
0.0000001
 44
0.0000000001
 40
0.0
 40
0.0
 40
0.0
 40
0.0
 40
0.5576415868
 40
1.0
 40
1.0
 40
1.0
 40
1.0
 10
132.892224837
 20
214.2574516294
 30
0.0
 10
132.8654268137
 20
214.1955341657
 30
0.0
 10
132.7960140321
 20
214.0913881001
 30
0.0
 10
132.6898473776
 20
214.0256875939
 30
0.0
 10
132.6393216568
 20
214.0080371579
 30
0.0
  0
SPLINE
  5
609
100
AcDbEntity
  8
0
100
AcDbSpline
 62
7
  6
CONTINUOUS
 70
0
 71
3
 72
9
 73
5
 74
0
 42
0.0000001
 43
0.0000001
 44
0.0000000001
 40
0.0
 40
0.0
 40
0.0
 40
0.0
 40
0.2598899986
 40
1.0
 40
1.0
 40
1.0
 40
1.0
 10
148.3634928543
 20
214.4153411071
 30
0.0
 10
148.3557467804
 20
214.4358667622
 30
0.0
 10
148.323541041
 20
214.5139297956
 30
0.0
 10
148.2829939044
 20
214.5884606508
 30
0.0
 10
148.2493446887
 20
214.6411013222
 30
0.0
  0
SPLINE
  5
60A
100
AcDbEntity
  8
0
100
AcDbSpline
 62
7
  6
CONTINUOUS
 70
0
 71
3
 72
9
 73
5
 74
0
 42
0.0000001
 43
0.0000001
 44
0.0000000001
 40
0.0
 40
0.0
 40
0.0
 40
0.0
 40
0.4392644413
 40
1.0
 40
1.0
 40
1.0
 40
1.0
 10
148.6702319677
 20
214.0080371579
 30
0.0
 10
148.6173988467
 20
214.0264936511
 30
0.0
 10
148.5059923114
 20
214.0969878275
 30
0.0
 10
148.435956244
 20
214.2090949589
 30
0.0
 10
148.4098640744
 20
214.2755996641
 30
0.0
  0
SPLINE
  5
60B
100
AcDbEntity
  8
0
100
AcDbSpline
 62
7
  6
CONTINUOUS
 70
0
 71
3
 72
12
 73
8
 74
0
 42
0.0000001
 43
0.0000001
 44
0.0000000001
 40
0.0
 40
0.0
 40
0.0
 40
0.0
 40
0.1866768935
 40
0.2931309019
 40
0.4106149162
 40
0.6804280198
 40
1.0
 40
1.0
 40
1.0
 40
1.0
 10
149.8681130178
 20
213.9912255151
 30
0.0
 10
149.8050856844
 20
213.9483553186
 30
0.0
 10
149.6862709327
 20
213.9119464442
 30
0.0
 10
149.5201913581
 20
213.8931512321
 30
0.0
 10
149.3181870818
 20
213.8883170248
 30
0.0
 10
149.0300171191
 20
213.9122451674
 30
0.0
 10
148.793421575
 20
213.9650026352
 30
0.0
 10
148.6702319677
 20
214.0080371579
 30
0.0
  0
SPLINE
  5
60C
100
AcDbEntity
  8
0
100
AcDbSpline
 62
7
  6
CONTINUOUS
 70
0
 71
3
 72
10
 73
6
 74
0
 42
0.0000001
 43
0.0000001
 44
0.0000000001
 40
0.0
 40
0.0
 40
0.0
 40
0.0
 40
0.2478149084
 40
0.4727002134
 40
1.0
 40
1.0
 40
1.0
 40
1.0
 10
150.02026476
 20
213.985880621
 30
0.0
 10
150.0106826913
 20
213.9959644671
 30
0.0
 10
149.9903712255
 20
214.0137998134
 30
0.0
 10
149.9342450237
 20
214.0306182656
 30
0.0
 10
149.8925867585
 20
214.0078721669
 30
0.0
 10
149.8681130178
 20
213.9912255151
 30
0.0
  0
SPLINE
  5
60D
100
AcDbEntity
  8
BEZUGSACHSEN
100
AcDbSpline
 62
7
  6
CONTINUOUS
 70
0
 71
3
 72
11
 73
7
 74
0
 42
0.0000001
 43
0.0000001
 44
0.0000000001
 40
0.0
 40
0.0
 40
0.0
 40
0.0
 40
0.2404128614
 40
0.4855264342
 40
0.7383770716
 40
1.0
 40
1.0
 40
1.0
 40
1.0
 10
132.4275355344
 20
226.2525111562
 30
0.0
 10
132.6601335782
 20
226.2525111562
 30
0.0
 10
133.1307422168
 20
226.2118788492
 30
0.0
 10
133.8258794014
 20
226.0367566532
 30
0.0
 10
134.5097451437
 20
225.7630259737
 30
0.0
 10
134.9507420652
 20
225.530564704
 30
0.0
 10
135.169949255
 20
225.404005374
 30
0.0
  0
SPLINE
  5
60E
100
AcDbEntity
  8
BEZUGSACHSEN
100
AcDbSpline
 62
7
  6
CONTINUOUS
 70
0
 71
3
 72
11
 73
7
 74
0
 42
0.0000001
 43
0.0000001
 44
0.0000000001
 40
0.0
 40
0.0
 40
0.0
 40
0.0
 40
0.261622934
 40
0.5144736199
 40
0.7595871898
 40
1.0
 40
1.0
 40
1.0
 40
1.0
 10
129.6851216977
 20
225.404005374
 30
0.0
 10
129.9043289019
 20
225.5305647123
 30
0.0
 10
130.3453258385
 20
225.7630261484
 30
0.0
 10
131.0291917978
 20
226.0367564416
 30
0.0
 10
131.7243288742
 20
226.2118792124
 30
0.0
 10
132.1949375299
 20
226.2525111562
 30
0.0
 10
132.4275355344
 20
226.2525111562
 30
0.0
  0
SPLINE
  5
60F
100
AcDbEntity
  8
BEZUGSACHSEN
100
AcDbSpline
 62
7
  6
CONTINUOUS
 70
0
 71
3
 72
10
 73
6
 74
0
 42
0.0000001
 43
0.0000001
 44
0.0000000001
 40
0.0
 40
0.0
 40
0.0
 40
0.0
 40
0.4998775273
 40
0.7499452582
 40
1.0
 40
1.0
 40
1.0
 40
1.0
 10
135.169949255
 20
225.404005374
 30
0.0
 10
136.0610685071
 20
225.661249344
 30
0.0
 10
137.4196589638
 20
225.9828629279
 30
0.0
 10
139.2623600851
 20
226.2128312467
 30
0.0
 10
140.1908085237
 20
226.2525111478
 30
0.0
 10
140.6547768794
 20
226.2525111536
 30
0.0
  0
SPLINE
  5
610
100
AcDbEntity
  8
BEZUGSACHSEN
100
AcDbSpline
 62
7
  6
CONTINUOUS
 70
0
 71
3
 72
10
 73
6
 74
0
 42
0.0000001
 43
0.0000001
 44
0.0000000001
 40
0.0
 40
0.0
 40
0.0
 40
0.0
 40
0.2500554377
 40
0.5001240227
 40
1.0
 40
1.0
 40
1.0
 40
1.0
 10
140.6547768794
 20
226.2525111536
 30
0.0
 10
141.1187465094
 20
226.2525111536
 30
0.0
 10
142.0471974589
 20
226.2128258962
 30
0.0
 10
143.8898995893
 20
225.9828671908
 30
0.0
 10
145.2484879133
 20
225.6612485369
 30
0.0
 10
146.1396043696
 20
225.404005374
 30
0.0
  0
SPLINE
  5
611
100
AcDbEntity
  8
BEZUGSACHSEN
100
AcDbSpline
 62
7
  6
CONTINUOUS
 70
0
 71
3
 72
11
 73
7
 74
0
 42
0.0000001
 43
0.0000001
 44
0.0000000001
 40
0.0
 40
0.0
 40
0.0
 40
0.0
 40
0.2616229339
 40
0.5144736199
 40
0.7595871899
 40
1.0
 40
1.0
 40
1.0
 40
1.0
 10
146.1396043696
 20
225.404005374
 30
0.0
 10
146.3588115693
 20
225.5305647097
 30
0.0
 10
146.7998084968
 20
225.7630261413
 30
0.0
 10
147.4836744412
 20
226.0367564318
 30
0.0
 10
148.1788115023
 20
226.2118792044
 30
0.0
 10
148.6494201485
 20
226.25251115
 30
0.0
 10
148.8820181482
 20
226.2525111501
 30
0.0
  0
SPLINE
  5
612
100
AcDbEntity
  8
BEZUGSACHSEN
100
AcDbSpline
 62
7
  6
CONTINUOUS
 70
0
 71
3
 72
9
 73
5
 74
0
 42
0.0000001
 43
0.0000001
 44
0.0000000001
 40
0.0
 40
0.0
 40
0.0
 40
0.0
 40
0.4961270079
 40
1.0
 40
1.0
 40
1.0
 40
1.0
 10
148.8820181482
 20
226.2525111501
 30
0.0
 10
149.0872210055
 20
226.2525111501
 30
0.0
 10
149.5013708152
 20
226.2209956115
 30
0.0
 10
149.9064429237
 20
226.130878501
 30
0.0
 10
150.1066885547
 20
226.0731288048
 30
0.0
  0
SPLINE
  5
613
100
AcDbEntity
  8
BEZUGSACHSEN
100
AcDbSpline
 62
7
  6
CONTINUOUS
 70
0
 71
3
 72
9
 73
5
 74
0
 42
0.0000001
 43
0.0000001
 44
0.0000000001
 40
0.0
 40
0.0
 40
0.0
 40
0.0
 40
0.2431956553
 40
1.0
 40
1.0
 40
1.0
 40
1.0
 10
150.1066885547
 20
226.0731288048
 30
0.0
 10
150.2360797536
 20
226.0358131221
 30
0.0
 10
150.7621028995
 20
225.8613178466
 30
0.0
 10
151.2615112282
 20
225.613537737
 30
0.0
 10
151.6244319269
 20
225.404005374
 30
0.0
  0
SPLINE
  5
614
100
AcDbEntity
  8
RUNDUNGEN
100
AcDbSpline
 62
7
  6
CONTINUOUS
 70
0
 71
3
 72
9
 73
5
 74
0
 42
0.0000001
 43
0.0000001
 44
0.0000000001
 40
0.0
 40
0.0
 40
0.0
 40
0.0
 40
0.4995507696
 40
1.0
 40
1.0
 40
1.0
 40
1.0
 10
163.9170147349
 20
225.8508184904
 30
0.0
 10
163.8252863706
 20
226.0749219634
 30
0.0
 10
163.6379525032
 20
226.5220061558
 30
0.0
 10
163.4490499076
 20
226.9684151361
 30
0.0
 10
163.354575776
 20
227.1918479164
 30
0.0
  0
SPLINE
  5
615
100
AcDbEntity
  8
RUNDUNGEN
100
AcDbSpline
 62
7
  6
CONTINUOUS
 70
0
 71
3
 72
16
 73
12
 74
0
 42
0.0000001
 43
0.0000001
 44
0.0000000001
 40
0.0
 40
0.0
 40
0.0
 40
0.0
 40
0.01215318
 40
0.0481936453
 40
0.1089161005
 40
0.1953746747
 40
0.3141503226
 40
0.4827437449
 40
0.7025877606
 40
0.8320116164
 40
1.0
 40
1.0
 40
1.0
 40
1.0
 10
164.2477877876
 20
225.1843381332
 30
0.0
 10
164.2478920518
 20
225.1839106854
 30
0.0
 10
164.2461977342
 20
225.1825342217
 30
0.0
 10
164.2448924908
 20
225.1790648104
 30
0.0
 10
164.2411394672
 20
225.1733816355
 30
0.0
 10
164.2366912907
 20
225.1649210768
 30
0.0
 10
164.230977334
 20
225.1525821144
 30
0.0
 10
164.2263391985
 20
225.1347354758
 30
0.0
 10
164.2233190489
 20
225.1162529097
 30
0.0
 10
164.2207478229
 20
225.0976447328
 30
0.0
 10
164.2217687334
 20
225.086828336
 30
0.0
 10
164.2225977199
 20
225.080803434
 30
0.0
  0
SPLINE
  5
616
100
AcDbEntity
  8
RUNDUNGEN
100
AcDbSpline
 62
7
  6
CONTINUOUS
 70
0
 71
3
 72
8
 73
4
 74
0
 42
0.0000001
 43
0.0000001
 44
0.0000000001
 40
0.0
 40
0.0
 40
0.0
 40
0.0
 40
1.0
 40
1.0
 40
1.0
 40
1.0
 10
164.2225718426
 20
225.0807961063
 30
0.0
 10
164.2260297131
 20
225.0621891082
 30
0.0
 10
164.2312998811
 20
225.0439405639
 30
0.0
 10
164.2367828301
 20
225.0258266323
 30
0.0
  0
SPLINE
  5
617
100
AcDbEntity
  8
RUNDUNGEN
100
AcDbSpline
 62
7
  6
CONTINUOUS
 70
0
 71
3
 72
9
 73
5
 74
0
 42
0.0000001
 43
0.0000001
 44
0.0000000001
 40
0.0
 40
0.0
 40
0.0
 40
0.0
 40
0.5073346886
 40
1.0
 40
1.0
 40
1.0
 40
1.0
 10
164.2367941261
 20
225.0257933428
 30
0.0
 10
164.235080735
 20
225.0300564485
 30
0.0
 10
164.2319917366
 20
225.038576719
 30
0.0
 10
164.2281382858
 20
225.0467823115
 30
0.0
 10
164.2264641298
 20
225.0509179938
 30
0.0
  0
SPLINE
  5
618
100
AcDbEntity
  8
KONSTRUKTIONSELEMENTE
100
AcDbSpline
 62
7
  6
CONTINUOUS
 70
0
 71
3
 72
10
 73
6
 74
0
 42
0.0000001
 43
0.0000001
 44
0.0000000001
 40
0.0
 40
0.0
 40
0.0
 40
0.0
 40
0.2489289214
 40
0.4984051138
 40
1.0
 40
1.0
 40
1.0
 40
1.0
 10
220.8793372161
 20
103.75251115
 30
0.0
 10
220.477412323
 20
103.75251115
 30
0.0
 10
219.6721160002
 20
103.7128149003
 30
0.0
 10
218.0722955261
 20
103.4819357029
 30
0.0
 10
216.8976603374
 20
103.160113081
 30
0.0
 10
216.1293372163
 20
102.904005374
 30
0.0
  0
SPLINE
  5
619
100
AcDbEntity
  8
KONSTRUKTIONSELEMENTE
100
AcDbSpline
 62
7
  6
CONTINUOUS
 70
0
 71
3
 72
10
 73
6
 74
0
 42
0.0000001
 43
0.0000001
 44
0.0000000001
 40
0.0
 40
0.0
 40
0.0
 40
0.0
 40
0.5015949514
 40
0.7510711245
 40
1.0
 40
1.0
 40
1.0
 40
1.0
 10
235.1293372163
 20
102.904005374
 30
0.0
 10
234.3610139954
 20
103.1601131142
 30
0.0
 10
233.1863787316
 20
103.48193575
 30
0.0
 10
231.5865582527
 20
103.7128149125
 30
0.0
 10
230.7812620355
 20
103.75251115
 30
0.0
 10
230.3793372165
 20
103.75251115
 30
0.0
  0
SPLINE
  5
61A
100
AcDbEntity
  8
BEZUGSACHSEN
100
AcDbSpline
 62
7
  6
CONTINUOUS
 70
0
 71
3
 72
15
 73
11
 74
0
 42
0.0000001
 43
0.0000001
 44
0.0000000001
 40
0.0
 40
0.0
 40
0.0
 40
0.0
 40
0.1267857622
 40
0.2523051428
 40
0.3765638107
 40
0.5000001064
 40
0.6234363375
 40
0.7476948349
 40
0.8732141549
 40
1.0
 40
1.0
 40
1.0
 40
1.0
 10
235.1293372163
 20
95.7221662647
 30
0.0
 10
234.7613488708
 20
95.5097080944
 30
0.0
 10
234.0127018553
 20
95.1139815758
 30
0.0
 10
232.8404555832
 20
94.6390460775
 30
0.0
 10
231.6245643044
 20
94.3262622034
 30
0.0
 10
230.3793363532
 20
94.215952727
 30
0.0
 10
229.1341087973
 20
94.3262615888
 30
0.0
 10
227.9182189072
 20
94.6390467526
 30
0.0
 10
226.7459727308
 20
95.1139810326
 30
0.0
 10
225.9973258023
 20
95.5097079555
 30
0.0
 10
225.6293372163
 20
95.7221662647
 30
0.0
  0
SPLINE
  5
61B
100
AcDbEntity
  8
KONSTRUKTIONSELEMENTE
100
AcDbSpline
 62
7
  6
CONTINUOUS
 70
0
 71
3
 72
10
 73
6
 74
0
 42
0.0000001
 43
0.0000001
 44
0.0000000001
 40
0.0
 40
0.0
 40
0.0
 40
0.0
 40
0.2489289214
 40
0.4984051138
 40
1.0
 40
1.0
 40
1.0
 40
1.0
 10
230.3793372165
 20
103.75251115
 30
0.0
 10
229.9774123233
 20
103.75251115
 30
0.0
 10
229.1721160005
 20
103.7128149004
 30
0.0
 10
227.5722955263
 20
103.4819357029
 30
0.0
 10
226.3976603375
 20
103.160113081
 30
0.0
 10
225.6293372163
 20
102.904005374
 30
0.0
  0
SPLINE
  5
61C
100
AcDbEntity
  8
KONSTRUKTIONSELEMENTE
100
AcDbSpline
 62
7
  6
CONTINUOUS
 70
0
 71
3
 72
10
 73
6
 74
0
 42
0.0000001
 43
0.0000001
 44
0.0000000001
 40
0.0
 40
0.0
 40
0.0
 40
0.0
 40
0.5015949514
 40
0.7510711245
 40
1.0
 40
1.0
 40
1.0
 40
1.0
 10
225.6293372163
 20
102.904005374
 30
0.0
 10
224.8610139954
 20
103.1601131143
 30
0.0
 10
223.6863787314
 20
103.48193575
 30
0.0
 10
222.0865582524
 20
103.7128149126
 30
0.0
 10
221.2812620351
 20
103.75251115
 30
0.0
 10
220.8793372161
 20
103.75251115
 30
0.0
  0
SPLINE
  5
61D
100
AcDbEntity
  8
BEZUGSACHSEN
100
AcDbSpline
 62
7
  6
CONTINUOUS
 70
0
 71
3
 72
15
 73
11
 74
0
 42
0.0000001
 43
0.0000001
 44
0.0000000001
 40
0.0
 40
0.0
 40
0.0
 40
0.0
 40
0.1267857622
 40
0.2523051428
 40
0.3765638107
 40
0.5000001064
 40
0.6234363375
 40
0.7476948349
 40
0.8732141549
 40
1.0
 40
1.0
 40
1.0
 40
1.0
 10
225.6293372163
 20
95.7221662647
 30
0.0
 10
225.2613488708
 20
95.5097080944
 30
0.0
 10
224.5127018553
 20
95.1139815758
 30
0.0
 10
223.3404555832
 20
94.6390460775
 30
0.0
 10
222.1245643044
 20
94.3262622034
 30
0.0
 10
220.8793363532
 20
94.215952727
 30
0.0
 10
219.6341087973
 20
94.3262615888
 30
0.0
 10
218.4182189072
 20
94.6390467526
 30
0.0
 10
217.2459727308
 20
95.1139810326
 30
0.0
 10
216.4973258023
 20
95.5097079555
 30
0.0
 10
216.1293372163
 20
95.7221662647
 30
0.0
  0
SPLINE
  5
61E
100
AcDbEntity
  8
0
100
AcDbSpline
 62
7
  6
CONTINUOUS
 70
0
 71
3
 72
9
 73
5
 74
0
 42
0.0000001
 43
0.0000001
 44
0.0000000001
 40
0.0
 40
0.0
 40
0.0
 40
0.0
 40
0.2445538521
 40
1.0
 40
1.0
 40
1.0
 40
1.0
 10
232.3121881049
 20
215.10251115
 30
0.0
 10
232.2850834827
 20
215.10251115
 30
0.0
 10
232.1742661341
 20
215.0981022231
 30
0.0
 10
232.0643494709
 20
215.0768840985
 30
0.0
 10
231.9840020899
 20
215.0533314033
 30
0.0
  0
SPLINE
  5
61F
100
AcDbEntity
  8
BEZUGSACHSEN
100
AcDbSpline
 62
7
  6
CONTINUOUS
 70
0
 71
3
 72
9
 73
5
 74
0
 42
0.0000001
 43
0.0000001
 44
0.0000000001
 40
0.0
 40
0.0
 40
0.0
 40
0.0
 40
0.4984060315
 40
1.0
 40
1.0
 40
1.0
 40
1.0
 10
231.3796590691
 20
226.2120347264
 30
0.0
 10
232.0160347147
 20
226.1608935792
 30
0.0
 10
233.2861176484
 20
225.9604554174
 30
0.0
 10
234.5197979326
 20
225.6071851352
 30
0.0
 10
235.1293372163
 20
225.404005374
 30
0.0
  0
SPLINE
  5
620
100
AcDbEntity
  8
BEZUGSACHSEN
100
AcDbSpline
 62
7
  6
CONTINUOUS
 70
0
 71
3
 72
9
 73
5
 74
0
 42
0.0000001
 43
0.0000001
 44
0.0000000001
 40
0.0
 40
0.0
 40
0.0
 40
0.0
 40
0.5015939819
 40
1.0
 40
1.0
 40
1.0
 40
1.0
 10
216.1293372163
 20
225.404005374
 30
0.0
 10
216.7388766209
 20
225.6071851755
 30
0.0
 10
217.9725571489
 20
225.9604553539
 30
0.0
 10
219.2426402592
 20
226.1608938496
 30
0.0
 10
219.8790160023
 20
226.2120349367
 30
0.0
  0
LINE
  5
621
100
AcDbEntity
  8
RUNDUNGEN
100
AcDbLine
 62
7
  6
CONTINUOUS
 10
151.6851317014
 20
49.4148836902
 11
151.6540106587
 21
49.4148703912
  0
LINE
  5
622
100
AcDbEntity
  8
RUNDUNGEN
100
AcDbLine
 62
7
  6
CONTINUOUS
 10
129.624430282
 20
49.4148836516
 11
129.6556039306
 21
49.4148836902
  0
ELLIPSE
  5
623
100
AcDbEntity
  8
0
100
AcDbEllipse
 62
7
  6
CONTINUOUS
 10
122.7043775363
 20
45.9648836902
 30
0.0
 11
-0.0
 21
3.0
 31
0.0
 40
0.7503091092
 41
-3.0877020574
 42
-3.0281462522
  0
ELLIPSE
  5
624
100
AcDbEntity
  8
0
100
AcDbEllipse
 62
7
  6
CONTINUOUS
 10
160.9576955005
 20
28.4648836902
 30
0.0
 11
0.0
 21
3.0
 31
0.0
 40
0.4864864865
 41
-0.1134464014
 42
-0.0201804098
  0
ELLIPSE
  5
625
100
AcDbEntity
  8
0
100
AcDbEllipse
 62
7
  6
CONTINUOUS
 10
161.1115834052
 20
28.4648836902
 30
0.0
 11
6.1666666667
 21
-0.0
 31
0.0
 40
0.4864864865
 41
1.6773619468
 42
1.6842427282
  0
ELLIPSE
  5
626
100
AcDbEntity
  8
0
100
AcDbEllipse
 62
7
  6
CONTINUOUS
 10
123.5689505519
 20
28.4648836902
 30
0.0
 11
-0.0
 21
3.0
 31
0.0
 40
0.213998805
 41
-0.1134464014
 42
-0.0347513591
  0
ELLIPSE
  5
627
100
AcDbEntity
  8
0
100
AcDbEllipse
 62
7
  6
CONTINUOUS
 10
120.5923527052
 20
28.4648836902
 30
0.0
 11
-0.0
 21
3.0
 31
0.0
 40
0.1378238777
 41
0.0881444686
 42
0.1134464014
  0
ELLIPSE
  5
628
100
AcDbEntity
  8
0
100
AcDbEllipse
 62
7
  6
CONTINUOUS
 10
157.1548638385
 20
28.4648836902
 30
0.0
 11
5.2364577532
 21
0.0
 31
0.0
 40
0.5729063694
 41
7.7741941717
 42
7.799277272
  0
ELLIPSE
  5
629
100
AcDbEntity
  8
0
100
AcDbEllipse
 62
7
  6
CONTINUOUS
 10
120.6635669612
 20
28.4648836902
 30
0.0
 11
0.0
 21
3.0
 31
0.0
 40
0.4074817726
 41
0.0587728415
 42
0.0881444686
  0
ELLIPSE
  5
62A
100
AcDbEntity
  8
0
100
AcDbEllipse
 62
7
  6
CONTINUOUS
 10
155.6777019597
 20
28.4648836902
 30
0.0
 11
23.7698247751
 21
0.0
 31
0.0
 40
0.1262104382
 41
7.7614203485
 42
7.7741941717
  0
ELLIPSE
  5
62B
100
AcDbEntity
  8
0
100
AcDbEllipse
 62
7
  6
CONTINUOUS
 10
159.8817374525
 20
28.4648836902
 30
0.0
 11
21.7140354746
 21
-0.0
 31
0.0
 40
0.1381594869
 41
1.6510593185
 42
1.6633576123
  0
ELLIPSE
  5
62C
100
AcDbEntity
  8
0
100
AcDbEllipse
 62
7
  6
CONTINUOUS
 10
158.6351985238
 20
28.4648836902
 30
0.0
 11
6.1666666667
 21
0.0
 31
0.0
 40
0.4864864865
 41
1.6262141936
 42
1.6510593185
  0
ELLIPSE
  5
62D
100
AcDbEntity
  8
0
100
AcDbEllipse
 62
7
  6
CONTINUOUS
 10
120.378255105
 20
16.9648836902
 30
0.0
 11
0.0
 21
15.0
 31
0.0
 40
0.4074817726
 41
6.2851762983
 42
6.3314985047
  0
ELLIPSE
  5
62E
100
AcDbEntity
  8
0
100
AcDbEllipse
 62
7
  6
CONTINUOUS
 10
120.2189776685
 20
16.9648836902
 30
0.0
 11
0.0
 21
15.0
 31
0.0
 40
0.1876116683
 41
6.3314985047
 42
6.3594186944
  0
ELLIPSE
  5
62F
100
AcDbEntity
  8
0
100
AcDbEllipse
 62
7
  6
CONTINUOUS
 10
161.1132267657
 20
16.9648836902
 30
0.0
 11
0.0
 21
15.0
 31
0.0
 40
0.4864864865
 41
-0.1134464014
 42
-0.0101813271
  0
ELLIPSE
  5
630
100
AcDbEntity
  8
0
100
AcDbEllipse
 62
7
  6
CONTINUOUS
 10
161.5014404828
 20
16.9648836902
 30
0.0
 11
30.8333333333
 21
0.0
 31
0.0
 40
0.4864864865
 41
7.8655685454
 42
7.8879284114
  0
ELLIPSE
  5
631
100
AcDbEntity
  8
0
100
AcDbEllipse
 62
7
  6
CONTINUOUS
 10
119.952293544
 20
57.4648836902
 30
0.0
 11
0.0
 21
15.0
 31
0.0
 40
0.3636363636
 41
-3.255039055
 42
-3.2483234304
  0
ELLIPSE
  5
632
100
AcDbEntity
  8
0
100
AcDbEllipse
 62
7
  6
CONTINUOUS
 10
114.9769397836
 20
57.4648836902
 30
0.0
 11
41.25
 21
0.0
 31
0.0
 40
0.3636363636
 41
-1.4640655499
 42
-1.4573499254
  0
ELLIPSE
  5
633
100
AcDbEntity
  8
0
100
AcDbEllipse
 62
7
  6
CONTINUOUS
 10
123.3424452408
 20
45.9648836902
 30
0.0
 11
0.0
 21
3.0
 31
0.0
 40
0.479549227
 41
-3.1415926536
 42
-3.0281462522
  0
ELLIPSE
  5
634
100
AcDbEntity
  8
0
100
AcDbEllipse
 62
7
  6
CONTINUOUS
 10
160.1591270946
 20
28.4648836902
 30
0.0
 11
6.1666666667
 21
0.0
 31
0.0
 40
0.4864864865
 41
1.6276119364
 42
1.6842427282
  0
ELLIPSE
  5
635
100
AcDbEntity
  8
0
100
AcDbEllipse
 62
7
  6
CONTINUOUS
 10
161.4309108693
 20
28.4648836902
 30
0.0
 11
0.0
 21
3.0
 31
0.0
 40
0.4864864865
 41
-0.1134464014
 42
0.0
  0
ELLIPSE
  5
636
100
AcDbEntity
  8
0
100
AcDbEllipse
 62
7
  6
CONTINUOUS
 10
120.1121624483
 20
28.4648836902
 30
0.0
 11
-0.0
 21
3.0
 31
0.0
 40
0.4074817726
 41
-0.0
 42
0.0238018289
  0
ELLIPSE
  5
637
100
AcDbEntity
  8
0
100
AcDbEllipse
 62
7
  6
CONTINUOUS
 10
120.0964639989
 20
28.4648836902
 30
0.0
 11
0.0
 21
3.0
 31
0.0
 40
0.1876116683
 41
0.0238018289
 42
0.1134464014
  0
ELLIPSE
  5
638
100
AcDbEntity
  8
0
100
AcDbEllipse
 62
7
  6
CONTINUOUS
 10
124.1087890226
 20
28.4648836902
 30
0.0
 11
0.0
 21
3.0
 31
0.0
 40
0.085388927
 41
-0.1134464014
 42
-0.0317966589
  0
ENDSEC
  0
SECTION
  2
OBJECTS
  0
DICTIONARY
  5
C
100
AcDbDictionary
280
0
281
1
  3
ACAD_GROUP
350
D
  3
ACAD_MLINESTYLE
350
17
  3
ACAD_LAYOUT
350
1A
  3
ACAD_PLOTSETTINGS
350
19
  3
ACAD_PLOTSTYLENAME
350
E
  0
DICTIONARY
  5
D
102
{ACAD_REACTORS
330
C
102
}
100
AcDbDictionary
280
0
281
1
  0
ACDBDICTIONARYWDFLT
  5
E
102
{ACAD_REACTORS
330
C
102
}
100
AcDbDictionary
281
1
  3
Normal
350
F
100
AcDbDictionaryWithDefault
340
F
  0
DICTIONARY
  5
17
102
{ACAD_REACTORS
330
C
102
}
100
AcDbDictionary
280
0
281
1
  3
Standard
350
18
  0
DICTIONARY
  5
19
102
{ACAD_REACTORS
330
C
102
}
100
AcDbDictionary
281
1
  0
DICTIONARY
  5
1A
102
{ACAD_REACTORS
330
C
102
}
100
AcDbDictionary
281
1
  3
Model
350
639
  3
Layout1
350
63A
  0
ACDBPLACEHOLDER
  5
F
102
{ACAD_REACTORS
330
E
102
}
  0
MLINESTYLE
  5
18
102
{ACAD_REACTORS
330
17
102
}
100
AcDbMlineStyle
  2
STANDARD
 70
0
  3

 62
256
 51
90.0
 52
90.0
 71
2
 49
0.5
 62
256
  6
BYLAYER
 49
-0.5
 62
256
  6
BYLAYER
  0
LAYOUT
  5
639
102
{ACAD_REACTORS
330
1A
102
}
100
AcDbPlotSettings
  1

  2
none_device
  4
ISO_A3_(420.00_x_297.00_MM)
  6

 40
0.0
 41
0.0
 42
0.0
 43
0.0
 44
420.0
 45
297.0
 46
0.0
 47
0.0
 48
0.0
 49
0.0
140
0.0
141
0.0
142
1.0
143
1.0
 70
1024
 72
1
 73
0
 74
0
  7

 75
0
147
1.0
148
0.0
149
0.0
100
AcDbLayout
  1
Model
 70
0
 71
0
 10
0.0
 20
0.0
 11
420.0
 21
297.0
 12
0.0
 22
0.0
 32
0.0
 14
0.0
 24
0.0
 34
0.0
 15
0.0
 25
0.0
 35
0.0
146
0.0
 13
0.0
 23
0.0
 33
0.0
 16
1.0
 26
0.0
 36
0.0
 17
0.0
 27
1.0
 37
0.0
 76
0
330
20F
345
0
346
0
  0
LAYOUT
  5
63A
102
{ACAD_REACTORS
330
1A
102
}
100
AcDbPlotSettings
  1

  2
none_device
  4
ISO_A3_(420.00_x_297.00_MM)
  6

 40
0.0
 41
0.0
 42
0.0
 43
0.0
 44
420.0
 45
297.0
 46
0.0
 47
0.0
 48
0.0
 49
0.0
140
0.0
141
0.0
142
1.0
143
1.0
 70
0
 72
1
 73
0
 74
0
  7

 75
0
147
1.0
148
0.0
149
0.0
100
AcDbLayout
  1
Layout1
 70
0
 71
1
 10
0.0
 20
0.0
 11
420.0
 21
297.0
 12
0.0
 22
0.0
 32
0.0
 14
0.0
 24
0.0
 34
0.0
 15
0.0
 25
0.0
 35
0.0
146
0.0
 13
0.0
 23
0.0
 33
0.0
 16
1.0
 26
0.0
 36
0.0
 17
0.0
 27
1.0
 37
0.0
 76
0
330
210
345
0
346
0
  0
ENDSEC
  0
EOF
