999
DXF file: 001-m36283-p-1.dxf
999
Pro/ENGINEER 2022162 by Parametric Technology Corporation
  0
SECTION
  2
HEADER
  9
$ACADVER
  1
AC1015
  9
$DWGCODEPAGE
  3
ANSI_1252
  9
$EXTMAX
 10
420.0
 20
297.0
 30
0.0
  9
$EXTMIN
 10
0.0
 20
0.0
 30
0.0
  9
$LIMMIN
 10
0.0
 20
0.0
  9
$LIMMAX
 10
420.0
 20
297.0
  9
$VIEWCTR
 10
210.0
 20
148.5
  9
$VIEWSIZE
 40
297.0
  9
$CLAYER
  8
0
  9
$LTSCALE
 40
23.1
  9
$CELTYPE
  6
BYLAYER
  9
$DIMSCALE
 40
1.0
  9
$DIMASZ
 40
3.5
  9
$DIMEXO
 40
1.5
  9
$DIMDLI
 40
15.96
  9
$DIMEXE
 40
1.5
  9
$DIMCEN
 40
3.78
  9
$DIMLFAC
 40
1.0
  9
$DIMBLK
  1
_FILLED
  9
$DIMALT
 70
0
  9
$DIMALTF
 40
0.0393700787
  9
$DIMTXT
 40
3.5
  9
$DIMTOL
 70
1
  9
$DIMLIM
 70
0
  9
$DIMTFAC
 40
1.0
  9
$DIMTP
 40
0.05
  9
$DIMTM
 40
0.05
  9
$DIMGAP
 40
0.625
  9
$DIMDSEP
 70
46
  9
$AUNITS
 70
0
  9
$PDMODE
 70
3
  9
$PDSIZE
 40
0.3125
  9
$HANDSEED
  5
534
  9
$TILEMODE
 70
1
  9
$MEASUREMENT
 70
1
  9
$INSUNITS
 70
4
  0
ENDSEC
  0
SECTION
  2
CLASSES
  0
CLASS
  1
ACDBDICTIONARYWDFLT
  2
AcDbDictionaryWithDefault
  3
AutoCAD 2000
 90
0
280
0
281
0
  0
CLASS
  1
ACDBPLACEHOLDER
  2
AcDbPlaceHolder
  3
AutoCAD 2000
 90
0
280
0
281
0
  0
CLASS
  1
LAYOUT
  2
AcDbLayout
  3
AutoCAD 2000
 90
0
280
0
281
0
  0
ENDSEC
  0
SECTION
  2
TABLES
  0
TABLE
  2
VPORT
  5
8
100
AcDbSymbolTable
 70
2
  0
VPORT
  5
1F4
100
AcDbSymbolTableRecord
100
AcDbViewportTableRecord
  2
*ACTIVE
 70
0
 10
0.0
 20
0.0
 11
1.0
 21
1.0
 12
210.0
 22
148.5
 13
0.0
 23
0.0
 14
1.0
 24
1.0
 15
0.0
 25
0.0
 16
0.0
 26
0.0
 36
1.0
 17
0.0
 27
0.0
 37
0.0
 40
297.0
 41
1.4141414141
 42
50.0
 43
0.0
 44
0.0
 50
0.0
 51
0.0
 71
0
 72
100
 73
1
 74
1
 75
0
 76
0
 77
0
 78
0
  0
ENDTAB
  0
TABLE
  2
LTYPE
  5
5
100
AcDbSymbolTable
 70
6
  0
LTYPE
  5
14
100
AcDbSymbolTableRecord
100
AcDbLinetypeTableRecord
  2
BYBLOCK
 70
0
  3

 72
65
 73
0
 40
0.0
  0
LTYPE
  5
15
100
AcDbSymbolTableRecord
100
AcDbLinetypeTableRecord
  2
BYLAYER
 70
0
  3

 72
65
 73
0
 40
0.0
  0
LTYPE
  5
16
100
AcDbSymbolTableRecord
100
AcDbLinetypeTableRecord
  2
CONTINUOUS
 70
64
  3
Solid line
 72
65
 73
0
 40
0.0
  0
LTYPE
  5
1F5
100
AcDbSymbolTableRecord
100
AcDbLinetypeTableRecord
  2
CENTER
 70
64
  3
____ _ ____ _ ____ _ ____ _ ____ _ ____ _ ____
 72
65
 73
4
 40
0.6
 49
0.375
 74
0
 49
-0.075
 74
0
 49
0.075
 74
0
 49
-0.075
 74
0
  0
LTYPE
  5
1F6
100
AcDbSymbolTableRecord
100
AcDbLinetypeTableRecord
  2
HIDDEN
 70
64
  3
- - - - - - - - - - - - - - - - - - - -
 72
65
 73
2
 40
0.2
 49
0.1
 74
0
 49
-0.1
 74
0
  0
LTYPE
  5
1F7
100
AcDbSymbolTableRecord
100
AcDbLinetypeTableRecord
  2
PHANTOM
 70
64
  3
_____ _ _ _____ _ _ _____ _ _ _____
 72
65
 73
6
 40
0.8
 49
0.45
 74
0
 49
-0.05
 74
0
 49
0.1
 74
0
 49
-0.05
 74
0
 49
0.1
 74
0
 49
-0.05
 74
0
  0
LTYPE
  5
1F8
100
AcDbSymbolTableRecord
100
AcDbLinetypeTableRecord
  2
DOT
 70
64
  3
. . . . . . . . . . . . . . . . . . . .
 72
65
 73
2
 40
0.2
 49
0.1
 74
0
 49
-0.1
 74
0
  0
LTYPE
  5
1F9
100
AcDbSymbolTableRecord
100
AcDbLinetypeTableRecord
  2
DASHED
 70
64
  3
- - - - - - - - - - - - - - - - - - - -
 72
65
 73
2
 40
0.2
 49
0.1
 74
0
 49
-0.1
 74
0
  0
ENDTAB
  0
TABLE
  2
LAYER
  5
2
100
AcDbSymbolTable
 70
36
  0
LAYER
  5
10
100
AcDbSymbolTableRecord
100
AcDbLayerTableRecord
  2
0
 70
0
 62
7
  6
CONTINUOUS
370
-3
390
F
  0
LAYER
  5
1FA
100
AcDbSymbolTableRecord
100
AcDbLayerTableRecord
  2
DEFAULT_1
 70
0
 62
7
  6
CENTER
370
-3
390
F
  0
LAYER
  5
1FB
100
AcDbSymbolTableRecord
100
AcDbLayerTableRecord
  2
DEFAULT_2
 70
0
 62
8
  6
HIDDEN
370
-3
390
F
  0
LAYER
  5
1FC
100
AcDbSymbolTableRecord
100
AcDbLayerTableRecord
  2
DEFAULT_3
 70
0
 62
7
  6
PHANTOM
370
-3
390
F
  0
LAYER
  5
1FD
100
AcDbSymbolTableRecord
100
AcDbLayerTableRecord
  2
AUSFORMSCHRAEGEN
 70
0
 62
7
  6
CONTINUOUS
370
-3
390
F
  0
LAYER
  5
1FE
100
AcDbSymbolTableRecord
100
AcDbLayerTableRecord
  2
BEZUGSACHSEN
 70
0
 62
7
  6
CONTINUOUS
370
-3
390
F
  0
LAYER
  5
1FF
100
AcDbSymbolTableRecord
100
AcDbLayerTableRecord
  2
BEZUGSEBENEN
 70
0
 62
7
  6
CONTINUOUS
370
-3
390
F
  0
LAYER
  5
200
100
AcDbSymbolTableRecord
100
AcDbLayerTableRecord
  2
FLAECHEN
 70
0
 62
7
  6
CONTINUOUS
370
-3
390
F
  0
LAYER
  5
201
100
AcDbSymbolTableRecord
100
AcDbLayerTableRecord
  2
HILFEN
 70
0
 62
7
  6
CONTINUOUS
370
-3
390
F
  0
LAYER
  5
202
100
AcDbSymbolTableRecord
100
AcDbLayerTableRecord
  2
KURVEN
 70
0
 62
7
  6
CONTINUOUS
370
-3
390
F
  0
LAYER
  5
203
100
AcDbSymbolTableRecord
100
AcDbLayerTableRecord
  2
PLATZIERUNG
 70
0
 62
7
  6
CONTINUOUS
370
-3
390
F
  0
LAYER
  5
204
100
AcDbSymbolTableRecord
100
AcDbLayerTableRecord
  2
RUNDUNGEN
 70
0
 62
7
  6
CONTINUOUS
370
-3
390
F
  0
LAYER
  5
205
100
AcDbSymbolTableRecord
100
AcDbLayerTableRecord
  2
TEIL_STARTBEZUEGE
 70
0
 62
7
  6
CONTINUOUS
370
-3
390
F
  0
LAYER
  5
206
100
AcDbSymbolTableRecord
100
AcDbLayerTableRecord
  2
ZEICHNUNGSBEMASSUNGEN
 70
0
 62
7
  6
CONTINUOUS
370
-3
390
F
  0
LAYER
  5
207
100
AcDbSymbolTableRecord
100
AcDbLayerTableRecord
  2
_04_NOTIZEN
 70
0
 62
7
  6
CONTINUOUS
370
-3
390
F
  0
LAYER
  5
208
100
AcDbSymbolTableRecord
100
AcDbLayerTableRecord
  2
_30_VOLUMEN
 70
0
 62
7
  6
CONTINUOUS
370
-3
390
F
  0
ENDTAB
  0
TABLE
  2
STYLE
  5
3
100
AcDbSymbolTable
 70
1
  0
STYLE
  5
11
100
AcDbSymbolTableRecord
100
AcDbTextStyleTableRecord
  2
STANDARD
 70
0
 40
0.0
 41
0.7
 50
0.0
 71
0
 42
0.2
  3
txt
  4

  0
STYLE
  5
209
100
AcDbSymbolTableRecord
100
AcDbTextStyleTableRecord
  2
TEXTSTYLE_1
 70
0
 40
0.0
 41
0.8
 50
0.0
 71
0
 42
0.2
  3
gdt
  4

  0
ENDTAB
  0
TABLE
  2
VIEW
  5
6
100
AcDbSymbolTable
 70
0
  0
ENDTAB
  0
TABLE
  2
UCS
  5
7
100
AcDbSymbolTable
 70
0
  0
ENDTAB
  0
TABLE
  2
APPID
  5
9
100
AcDbSymbolTable
 70
1
  0
APPID
  5
20A
100
AcDbSymbolTableRecord
100
AcDbRegAppTableRecord
  2
ACAD
 70
0
  0
ENDTAB
  0
TABLE
  2
BLOCK_RECORD
  5
1
100
AcDbSymbolTable
 70
0
  0
BLOCK_RECORD
  5
20B
100
AcDbSymbolTableRecord
100
AcDbBlockTableRecord
  2
*Model_Space
  0
BLOCK_RECORD
  5
20C
100
AcDbSymbolTableRecord
100
AcDbBlockTableRecord
  2
*Paper_Space
  0
BLOCK_RECORD
  5
20D
100
AcDbSymbolTableRecord
100
AcDbBlockTableRecord
  2
_FILLED
  0
ENDTAB
  0
TABLE
  2
DIMSTYLE
  5
A
100
AcDbSymbolTable
 70
1
100
AcDbDimStyleTable
 71
0
  0
DIMSTYLE
105
20E
100
AcDbSymbolTableRecord
100
AcDbDimStyleTableRecord
  2
STANDARD
 70
0
  3

  4

 40
1.0
 41
3.5
 42
1.5
 43
0.38
 44
1.5
 45
0.0
 46
0.0
 47
0.05
 48
0.05
140
3.5
141
0.09
142
0.0
143
25.4
144
1.0
145
0.0
146
1.0
147
0.625
 71
1
 72
0
 73
0
 74
0
 75
0
 76
0
 77
1
 78
8
 79
2
170
0
171
1
172
0
173
0
174
0
175
0
176
0
177
0
178
5
270
2
179
2
271
2
272
2
273
2
274
2
275
0
280
0
281
0
282
0
283
1
284
8
285
0
286
0
287
3
288
0
340
11
278
46
341
20D
342
20D
343
20D
344
20D
  0
ENDTAB
  0
ENDSEC
  0
SECTION
  2
BLOCKS
  0
BLOCK
  5
20
100
AcDbEntity
  8
0
100
AcDbBlockBegin
  2
*Model_Space
 70
0
 10
0.0
 20
0.0
 30
0.0
  3
*Model_Space
  1

  0
ENDBLK
  5
21
100
AcDbEntity
  8
0
100
AcDbBlockEnd
  0
BLOCK
  5
1C
100
AcDbEntity
  8
0
100
AcDbBlockBegin
  2
*Paper_Space
 70
0
 10
0.0
 20
0.0
 30
0.0
  3
*Paper_Space
  1

  0
ENDBLK
  5
1D
100
AcDbEntity
  8
0
100
AcDbBlockEnd
  0
BLOCK
  5
20F
100
AcDbEntity
  8
0
100
AcDbBlockBegin
  2
_FILLED
 70
64
 10
0.0
 20
0.0
  3
_FILLED
  1

  0
SOLID
  5
210
100
AcDbEntity
  8
0
  6
BYBLOCK
 62
0
100
AcDbTrace
 10
0.0
 20
0.0
 11
-1.0
 21
0.125
 12
-1.0
 22
-0.125
 13
-1.0
 23
-0.125
  0
ENDBLK
  5
211
100
AcDbEntity
  8
0
  6
BYBLOCK
 62
0
100
AcDbBlockEnd
  0
ENDSEC
  0
SECTION
  2
ENTITIES
  0
MTEXT
  5
212
100
AcDbEntity
  8
0
100
AcDbMText
 62
5
  6
CONTINUOUS
  7
STANDARD
 71
1
 72
1
 10
105.7337482202
 20
188.0200998823
 30
0.0
 11
1.0
 21
0.0
 31
0.0
 73
2
 44
0.9
  1
RUD INOX-ABA 2,7t
 40
4.0
 41
79.4285714286
  0
MTEXT
  5
213
100
AcDbEntity
  8
_04_NOTIZEN
100
AcDbMText
 62
5
  6
CONTINUOUS
  7
STANDARD
 71
1
 72
1
 10
108.4783566833
 20
106.3361020741
 30
0.0
 11
1.0
 21
0.0
 31
0.0
 73
2
 44
0.9
  1
RUD INOX-ABA 2,7t
 40
4.0
 41
79.4285714286
  0
MTEXT
  5
214
100
AcDbEntity
  8
_04_NOTIZEN
100
AcDbMText
 62
5
  6
CONTINUOUS
  7
STANDARD
 71
1
 72
1
 10
297.996843855
 20
197.5739366755
 30
0.0
 11
0.0
 21
1.0
 31
0.0
 73
2
 44
0.9
  1
RUD INOX-ABA 2,7t
 40
4.0
 41
79.4285714286
  0
LINE
  5
215
100
AcDbEntity
  8
0
100
AcDbLine
 62
7
  6
CONTINUOUS
 10
0.0
 20
0.0
 11
0.0
 21
297.0
  0
LINE
  5
216
100
AcDbEntity
  8
0
100
AcDbLine
 62
7
  6
CONTINUOUS
 10
0.0
 20
0.0
 11
420.0
 21
0.0
  0
LINE
  5
217
100
AcDbEntity
  8
0
100
AcDbLine
 62
7
  6
CONTINUOUS
 10
0.0
 20
297.0
 11
420.0
 21
297.0
  0
LINE
  5
218
100
AcDbEntity
  8
0
100
AcDbLine
 62
7
  6
CONTINUOUS
 10
420.0
 20
0.0
 11
420.0
 21
297.0
  0
LINE
  5
219
100
AcDbEntity
  8
RUNDUNGEN
100
AcDbLine
 62
7
  6
CONTINUOUS
 10
62.5503475104
 20
181.7855446058
 11
62.5503475104
 21
191.4360325309
  0
LINE
  5
21A
100
AcDbEntity
  8
_30_VOLUMEN
100
AcDbLine
 62
7
  6
CONTINUOUS
 10
62.5503475104
 20
191.4360325309
 11
62.5503475104
 21
194.425538296
  0
LINE
  5
21B
100
AcDbEntity
  8
RUNDUNGEN
100
AcDbLine
 62
7
  6
CONTINUOUS
 10
72.6831814563
 20
222.2978605369
 11
63.6534032118
 21
200.0713278035
  0
LINE
  5
21C
100
AcDbEntity
  8
0
100
AcDbLine
 62
7
  6
CONTINUOUS
 10
77.7963879686
 20
211.9785424092
 11
78.5804761494
 21
209.2800055944
  0
LINE
  5
21D
100
AcDbEntity
  8
0
100
AcDbLine
 62
7
  6
CONTINUOUS
 10
79.3354465746
 20
209.6730030806
 11
78.3019490566
 21
213.2298500117
  0
LINE
  5
21E
100
AcDbEntity
  8
0
100
AcDbLine
 62
7
  6
CONTINUOUS
 10
76.9691167572
 20
209.9310370481
 11
76.5781640697
 21
208.9633951909
  0
LINE
  5
21F
100
AcDbEntity
  8
0
100
AcDbLine
 62
7
  6
CONTINUOUS
 10
78.3019490566
 20
213.2298500117
 11
77.7963879686
 21
211.9785424092
  0
LINE
  5
220
100
AcDbEntity
  8
0
100
AcDbLine
 62
7
  6
CONTINUOUS
 10
76.2654293568
 20
208.1892868759
 11
75.8744710231
 21
207.2216310439
  0
LINE
  5
221
100
AcDbEntity
  8
0
100
AcDbLine
 62
7
  6
CONTINUOUS
 10
74.936184573
 20
204.8992905867
 11
74.5452262393
 21
203.9316347546
  0
LINE
  5
222
100
AcDbEntity
  8
0
100
AcDbLine
 62
7
  6
CONTINUOUS
 10
78.9472327354
 20
205.354734
 11
78.4433984232
 21
204.1077003177
  0
LINE
  5
223
100
AcDbEntity
  8
_30_VOLUMEN
100
AcDbLine
 62
7
  6
CONTINUOUS
 10
98.6844814952
 20
193.5431025257
 11
99.1011477645
 21
193.143233338
  0
LINE
  5
224
100
AcDbEntity
  8
_30_VOLUMEN
100
AcDbLine
 62
7
  6
CONTINUOUS
 10
98.6844814952
 20
193.8509206547
 11
99.1011477645
 21
193.451051467
  0
LINE
  5
225
100
AcDbEntity
  8
_30_VOLUMEN
100
AcDbLine
 62
7
  6
CONTINUOUS
 10
96.4969811972
 20
196.9419908135
 11
96.7053146299
 21
196.7420562371
  0
LINE
  5
226
100
AcDbEntity
  8
_30_VOLUMEN
100
AcDbLine
 62
7
  6
CONTINUOUS
 10
97.3303146299
 20
197.0498743661
 11
97.0178146299
 21
197.4497435188
  0
LINE
  5
227
100
AcDbEntity
  8
_30_VOLUMEN
100
AcDbLine
 62
7
  6
CONTINUOUS
 10
99.3094814952
 20
194.0508553011
 11
99.1011477645
 21
194.3507571656
  0
LINE
  5
228
100
AcDbEntity
  8
_30_VOLUMEN
100
AcDbLine
 62
7
  6
CONTINUOUS
 10
98.4761480626
 20
193.9429717484
 11
98.6844814952
 21
193.5431025257
  0
LINE
  5
229
100
AcDbEntity
  8
_30_VOLUMEN
100
AcDbLine
 62
7
  6
CONTINUOUS
 10
97.5386480626
 20
193.1511495675
 11
96.6011480626
 21
195.4503974754
  0
LINE
  5
22A
100
AcDbEntity
  8
_30_VOLUMEN
100
AcDbLine
 62
7
  6
CONTINUOUS
 10
95.9761479136
 20
194.9426447701
 11
96.8094811972
 21
192.8433314385
  0
LINE
  5
22B
100
AcDbEntity
  8
_30_VOLUMEN
100
AcDbLine
 62
7
  6
CONTINUOUS
 10
95.9761479136
 20
195.2504628991
 11
96.8094811972
 21
193.1511495675
  0
LINE
  5
22C
100
AcDbEntity
  8
_30_VOLUMEN
100
AcDbLine
 62
7
  6
CONTINUOUS
 10
93.5803146299
 20
192.8433314385
 11
93.5803146299
 21
197.8496126715
  0
LINE
  5
22D
100
AcDbEntity
  8
_30_VOLUMEN
100
AcDbLine
 62
7
  6
CONTINUOUS
 10
94.2053146299
 20
192.8433314385
 11
94.2053146299
 21
195.2504628991
  0
LINE
  5
22E
100
AcDbEntity
  8
_30_VOLUMEN
100
AcDbLine
 62
7
  6
CONTINUOUS
 10
94.2053146299
 20
195.8502666281
 11
94.2053146299
 21
197.3497762306
  0
LINE
  5
22F
100
AcDbEntity
  8
0
100
AcDbLine
 62
7
  6
CONTINUOUS
 10
79.4057836336
 20
203.7037426864
 11
79.9201299996
 21
204.9767946149
  0
LINE
  5
230
100
AcDbEntity
  8
0
100
AcDbLine
 62
7
  6
CONTINUOUS
 10
82.0539610797
 20
210.2582138559
 11
82.5574208853
 21
211.5043206019
  0
LINE
  5
231
100
AcDbEntity
  8
0
100
AcDbLine
 62
7
  6
CONTINUOUS
 10
80.8358225706
 20
207.2431894959
 11
81.2267752581
 21
208.2108313531
  0
LINE
  5
232
100
AcDbEntity
  8
0
100
AcDbLine
 62
7
  6
CONTINUOUS
 10
82.727148107
 20
209.6957917448
 11
82.2127995757
 21
208.422734457
  0
LINE
  5
233
100
AcDbEntity
  8
0
100
AcDbLine
 62
7
  6
CONTINUOUS
 10
81.2971700762
 20
206.1563316637
 11
80.1718340344
 21
203.371027221
  0
LINE
  5
234
100
AcDbEntity
  8
0
100
AcDbLine
 62
7
  6
CONTINUOUS
 10
83.1856978041
 20
208.0447917446
 11
83.689533721
 21
209.2918293988
  0
LINE
  5
235
100
AcDbEntity
  8
0
100
AcDbLine
 62
7
  6
CONTINUOUS
 10
81.144733761
 20
202.9930789833
 11
82.2648151405
 21
205.7653776804
  0
LINE
  5
236
100
AcDbEntity
  8
0
100
AcDbLine
 62
7
  6
CONTINUOUS
 10
85.2614575876
 20
209.2821470378
 11
84.3231711375
 21
206.9598065806
  0
LINE
  5
237
100
AcDbEntity
  8
0
100
AcDbLine
 62
7
  6
CONTINUOUS
 10
85.2908129947
 20
206.5688538931
 11
86.2290994448
 21
208.8911943503
  0
LINE
  5
238
100
AcDbEntity
  8
0
100
AcDbLine
 62
7
  6
CONTINUOUS
 10
84.5871555978
 20
204.8270912303
 11
83.4670742183
 21
202.0547925332
  0
LINE
  5
239
100
AcDbEntity
  8
RUNDUNGEN
100
AcDbLine
 62
7
  6
CONTINUOUS
 10
62.5503475104
 20
181.7855446058
 11
199.5503475104
 21
181.7855446058
  0
LINE
  5
23A
100
AcDbEntity
  8
0
100
AcDbLine
 62
7
  6
CONTINUOUS
 10
74.5452262393
 20
203.9316347546
 11
77.3305159106
 21
202.8063046809
  0
LINE
  5
23B
100
AcDbEntity
  8
0
100
AcDbLine
 62
7
  6
CONTINUOUS
 10
81.0822634246
 20
201.2905002925
 11
82.3292971068
 21
200.7866659804
  0
LINE
  5
23C
100
AcDbEntity
  8
0
100
AcDbLine
 62
7
  6
CONTINUOUS
 10
82.7202554405
 20
201.7543218124
 11
81.4732217583
 21
202.2581561246
  0
LINE
  5
23D
100
AcDbEntity
  8
0
100
AcDbLine
 62
7
  6
CONTINUOUS
 10
77.7084665704
 20
203.7792159543
 11
74.936184573
 21
204.8992905867
  0
LINE
  5
23E
100
AcDbEntity
  8
_30_VOLUMEN
100
AcDbLine
 62
7
  6
CONTINUOUS
 10
99.1011477645
 20
193.143233338
 11
99.5178146299
 21
192.9432987355
  0
LINE
  5
23F
100
AcDbEntity
  8
_30_VOLUMEN
100
AcDbLine
 62
7
  6
CONTINUOUS
 10
99.1011477645
 20
193.451051467
 11
99.5178146299
 21
193.2511168645
  0
LINE
  5
240
100
AcDbEntity
  8
_30_VOLUMEN
100
AcDbLine
 62
7
  6
CONTINUOUS
 10
99.6219814952
 20
193.8509206547
 11
99.3094814952
 21
194.0508553011
  0
LINE
  5
241
100
AcDbEntity
  8
_30_VOLUMEN
100
AcDbLine
 62
7
  6
CONTINUOUS
 10
97.0178146299
 20
197.4497435188
 11
96.6011480626
 21
197.7496453833
  0
LINE
  5
242
100
AcDbEntity
  8
_30_VOLUMEN
100
AcDbLine
 62
7
  6
CONTINUOUS
 10
96.4969811972
 20
197.2498089425
 11
96.7053146299
 21
197.0498743661
  0
LINE
  5
243
100
AcDbEntity
  8
_30_VOLUMEN
100
AcDbLine
 62
7
  6
CONTINUOUS
 10
98.4761480626
 20
194.2507898774
 11
98.6844814952
 21
193.8509206547
  0
LINE
  5
244
100
AcDbEntity
  8
_30_VOLUMEN
100
AcDbLine
 62
7
  6
CONTINUOUS
 10
96.7053146299
 20
196.7420562371
 11
96.8094811972
 21
196.4421543726
  0
LINE
  5
245
100
AcDbEntity
  8
_30_VOLUMEN
100
AcDbLine
 62
7
  6
CONTINUOUS
 10
96.7053146299
 20
197.0498743661
 11
96.8094811972
 21
196.7499725016
  0
LINE
  5
246
100
AcDbEntity
  8
_30_VOLUMEN
100
AcDbLine
 62
7
  6
CONTINUOUS
 10
97.4344811972
 20
196.7499725016
 11
97.3303146299
 21
197.0498743661
  0
LINE
  5
247
100
AcDbEntity
  8
_30_VOLUMEN
100
AcDbLine
 62
7
  6
CONTINUOUS
 10
99.1011477645
 20
194.3507571656
 11
98.9969814952
 21
194.7506263182
  0
LINE
  5
248
100
AcDbEntity
  8
_30_VOLUMEN
100
AcDbLine
 62
7
  6
CONTINUOUS
 10
98.3719811972
 20
194.4428081892
 11
98.4761480626
 21
193.9429717484
  0
LINE
  5
249
100
AcDbEntity
  8
_30_VOLUMEN
100
AcDbLine
 62
7
  6
CONTINUOUS
 10
98.3719811972
 20
194.7506263182
 11
98.4761480626
 21
194.2507898774
  0
LINE
  5
24A
100
AcDbEntity
  8
_30_VOLUMEN
100
AcDbLine
 62
7
  6
CONTINUOUS
 10
95.9761479136
 20
194.9426447701
 11
95.9761479136
 21
195.2504628991
  0
LINE
  5
24B
100
AcDbEntity
  8
_30_VOLUMEN
100
AcDbLine
 62
7
  6
CONTINUOUS
 10
96.1844811972
 20
197.0419581016
 11
96.1844811972
 21
197.3497762306
  0
LINE
  5
24C
100
AcDbEntity
  8
_30_VOLUMEN
100
AcDbLine
 62
7
  6
CONTINUOUS
 10
96.4969811972
 20
196.9419908135
 11
96.4969811972
 21
197.2498089425
  0
LINE
  5
24D
100
AcDbEntity
  8
_30_VOLUMEN
100
AcDbLine
 62
7
  6
CONTINUOUS
 10
96.7053146299
 20
196.7420562371
 11
96.7053146299
 21
197.0498743661
  0
LINE
  5
24E
100
AcDbEntity
  8
_30_VOLUMEN
100
AcDbLine
 62
7
  6
CONTINUOUS
 10
96.8094811972
 20
196.7499725016
 11
96.8094811972
 21
196.4500703571
  0
LINE
  5
24F
100
AcDbEntity
  8
_30_VOLUMEN
100
AcDbLine
 62
7
  6
CONTINUOUS
 10
96.8094811972
 20
192.8433314385
 11
96.8094811972
 21
193.1511495675
  0
LINE
  5
250
100
AcDbEntity
  8
_30_VOLUMEN
100
AcDbLine
 62
7
  6
CONTINUOUS
 10
97.0178146299
 20
195.3425139228
 11
97.0178146299
 21
195.6503320517
  0
LINE
  5
251
100
AcDbEntity
  8
_30_VOLUMEN
100
AcDbLine
 62
7
  6
CONTINUOUS
 10
97.3303146299
 20
195.7423830754
 11
97.3303146299
 21
196.0502012044
  0
LINE
  5
252
100
AcDbEntity
  8
_30_VOLUMEN
100
AcDbLine
 62
7
  6
CONTINUOUS
 10
97.4344811972
 20
196.0422849399
 11
97.4344811972
 21
196.7499725016
  0
LINE
  5
253
100
AcDbEntity
  8
_30_VOLUMEN
100
AcDbLine
 62
7
  6
CONTINUOUS
 10
97.5386480626
 20
192.8433314385
 11
97.5386480626
 21
193.1511495675
  0
LINE
  5
254
100
AcDbEntity
  8
_30_VOLUMEN
100
AcDbLine
 62
7
  6
CONTINUOUS
 10
98.3719811972
 20
194.4428081892
 11
98.3719811972
 21
197.8496126715
  0
LINE
  5
255
100
AcDbEntity
  8
_30_VOLUMEN
100
AcDbLine
 62
7
  6
CONTINUOUS
 10
98.4761480626
 20
193.9429717484
 11
98.4761480626
 21
194.2507898774
  0
LINE
  5
256
100
AcDbEntity
  8
_30_VOLUMEN
100
AcDbLine
 62
7
  6
CONTINUOUS
 10
98.6844814952
 20
193.5431025257
 11
98.6844814952
 21
193.8509206547
  0
LINE
  5
257
100
AcDbEntity
  8
_30_VOLUMEN
100
AcDbLine
 62
7
  6
CONTINUOUS
 10
98.9969814952
 20
194.7506263182
 11
98.9969814952
 21
197.8496126715
  0
LINE
  5
258
100
AcDbEntity
  8
_30_VOLUMEN
100
AcDbLine
 62
7
  6
CONTINUOUS
 10
99.1011477645
 20
193.143233338
 11
99.1011477645
 21
193.451051467
  0
LINE
  5
259
100
AcDbEntity
  8
_30_VOLUMEN
100
AcDbLine
 62
7
  6
CONTINUOUS
 10
99.5178146299
 20
192.9432987355
 11
99.5178146299
 21
193.2511168645
  0
LINE
  5
25A
100
AcDbEntity
  8
_30_VOLUMEN
100
AcDbLine
 62
7
  6
CONTINUOUS
 10
100.0386477645
 20
192.8433314385
 11
100.0386477645
 21
193.1511495675
  0
LINE
  5
25B
100
AcDbEntity
  8
0
100
AcDbLine
 62
7
  6
CONTINUOUS
 10
84.4294646203
 20
201.6508328044
 11
85.5548006621
 21
204.436137247
  0
LINE
  5
25C
100
AcDbEntity
  8
0
100
AcDbLine
 62
7
  6
CONTINUOUS
 10
85.8675571659
 20
205.210236758
 11
86.2585099814
 21
206.1778789318
  0
LINE
  5
25D
100
AcDbEntity
  8
0
100
AcDbLine
 62
7
  6
CONTINUOUS
 10
87.1967964314
 20
208.500219389
 11
87.5877491189
 21
209.4678612462
  0
LINE
  5
25E
100
AcDbEntity
  8
_30_VOLUMEN
100
AcDbLine
 62
7
  6
CONTINUOUS
 10
99.5178146299
 20
192.9432987355
 11
100.0386477645
 21
192.8433314385
  0
LINE
  5
25F
100
AcDbEntity
  8
_30_VOLUMEN
100
AcDbLine
 62
7
  6
CONTINUOUS
 10
99.5178146299
 20
193.2511168645
 11
100.0386477645
 21
193.1511495675
  0
LINE
  5
260
100
AcDbEntity
  8
_30_VOLUMEN
100
AcDbLine
 62
7
  6
CONTINUOUS
 10
100.0386477645
 20
193.7509533665
 11
99.6219814952
 21
193.8509206547
  0
LINE
  5
261
100
AcDbEntity
  8
_30_VOLUMEN
100
AcDbLine
 62
7
  6
CONTINUOUS
 10
96.1844811972
 20
197.0419581016
 11
96.4969811972
 21
196.9419908135
  0
LINE
  5
262
100
AcDbEntity
  8
_30_VOLUMEN
100
AcDbLine
 62
7
  6
CONTINUOUS
 10
96.1844811972
 20
197.3497762306
 11
96.4969811972
 21
197.2498089425
  0
LINE
  5
263
100
AcDbEntity
  8
0
100
AcDbLine
 62
7
  6
CONTINUOUS
 10
75.8744710231
 20
207.2216310439
 11
78.6467530204
 21
206.1015564116
  0
LINE
  5
264
100
AcDbEntity
  8
0
100
AcDbLine
 62
7
  6
CONTINUOUS
 10
85.5548006621
 20
204.436137247
 11
84.5871555978
 21
204.8270912303
  0
LINE
  5
265
100
AcDbEntity
  8
0
100
AcDbLine
 62
7
  6
CONTINUOUS
 10
82.2648151405
 20
205.7653776804
 11
81.2971700762
 21
206.1563316637
  0
LINE
  5
266
100
AcDbEntity
  8
0
100
AcDbLine
 62
7
  6
CONTINUOUS
 10
79.0507190281
 20
207.0639568022
 11
76.2654293568
 21
208.1892868759
  0
LINE
  5
267
100
AcDbEntity
  8
0
100
AcDbLine
 62
7
  6
CONTINUOUS
 10
76.5781640697
 20
208.9633951909
 11
80.8358225706
 21
207.2431894959
  0
LINE
  5
268
100
AcDbEntity
  8
0
100
AcDbLine
 62
7
  6
CONTINUOUS
 10
83.0822166498
 20
206.3355873743
 11
85.8675571659
 21
205.210236758
  0
LINE
  5
269
100
AcDbEntity
  8
0
100
AcDbLine
 62
7
  6
CONTINUOUS
 10
86.2585099814
 20
206.1778789318
 11
85.2908129947
 21
206.5688538931
  0
LINE
  5
26A
100
AcDbEntity
  8
0
100
AcDbLine
 62
7
  6
CONTINUOUS
 10
84.3231711375
 20
206.9598065806
 11
83.4861791237
 21
207.297973305
  0
LINE
  5
26B
100
AcDbEntity
  8
0
100
AcDbLine
 62
7
  6
CONTINUOUS
 10
81.2267752581
 20
208.2108313531
 11
79.6047843976
 21
208.8661581988
  0
LINE
  5
26C
100
AcDbEntity
  8
0
100
AcDbLine
 62
7
  6
CONTINUOUS
 10
78.5804761494
 20
209.2800055944
 11
76.9691167572
 21
209.9310370481
  0
LINE
  5
26D
100
AcDbEntity
  8
_30_VOLUMEN
100
AcDbLine
 62
7
  6
CONTINUOUS
 10
106.3928146299
 20
197.549710807
 11
105.9761483606
 21
197.7496453833
  0
LINE
  5
26E
100
AcDbEntity
  8
_30_VOLUMEN
100
AcDbLine
 62
7
  6
CONTINUOUS
 10
105.8719808992
 20
196.8420235253
 11
106.1844808992
 21
196.642088949
  0
LINE
  5
26F
100
AcDbEntity
  8
_30_VOLUMEN
100
AcDbLine
 62
7
  6
CONTINUOUS
 10
105.8719808992
 20
197.1498416543
 11
106.1844808992
 21
196.949907078
  0
LINE
  5
270
100
AcDbEntity
  8
_30_VOLUMEN
100
AcDbLine
 62
7
  6
CONTINUOUS
 10
106.8094808992
 20
197.1498416543
 11
106.3928146299
 21
197.549710807
  0
LINE
  5
271
100
AcDbEntity
  8
_30_VOLUMEN
100
AcDbLine
 62
7
  6
CONTINUOUS
 10
106.1844808992
 20
196.642088949
 11
106.3928146299
 21
196.3421868044
  0
LINE
  5
272
100
AcDbEntity
  8
_30_VOLUMEN
100
AcDbLine
 62
7
  6
CONTINUOUS
 10
106.1844808992
 20
196.949907078
 11
106.3928146299
 21
196.6500049334
  0
LINE
  5
273
100
AcDbEntity
  8
_30_VOLUMEN
100
AcDbLine
 62
7
  6
CONTINUOUS
 10
107.0178146299
 20
196.7499725016
 11
106.8094808992
 21
197.1498416543
  0
LINE
  5
274
100
AcDbEntity
  8
_30_VOLUMEN
100
AcDbLine
 62
7
  6
CONTINUOUS
 10
100.4553146299
 20
192.8433314385
 11
100.4553146299
 21
193.1511495675
  0
LINE
  5
275
100
AcDbEntity
  8
_30_VOLUMEN
100
AcDbLine
 62
7
  6
CONTINUOUS
 10
100.9761477645
 20
192.9432987355
 11
100.9761477645
 21
193.2511168645
  0
LINE
  5
276
100
AcDbEntity
  8
_30_VOLUMEN
100
AcDbLine
 62
7
  6
CONTINUOUS
 10
101.3928146299
 20
193.143233338
 11
101.3928146299
 21
193.451051467
  0
LINE
  5
277
100
AcDbEntity
  8
_30_VOLUMEN
100
AcDbLine
 62
7
  6
CONTINUOUS
 10
101.4969814952
 20
197.8496126715
 11
101.4969814952
 21
194.7506263182
  0
LINE
  5
278
100
AcDbEntity
  8
_30_VOLUMEN
100
AcDbLine
 62
7
  6
CONTINUOUS
 10
101.8094814952
 20
193.5431025257
 11
101.8094814952
 21
193.8509206547
  0
LINE
  5
279
100
AcDbEntity
  8
_30_VOLUMEN
100
AcDbLine
 62
7
  6
CONTINUOUS
 10
102.0178146299
 20
193.9429717484
 11
102.0178146299
 21
194.2507898774
  0
LINE
  5
27A
100
AcDbEntity
  8
_30_VOLUMEN
100
AcDbLine
 62
7
  6
CONTINUOUS
 10
102.1219814952
 20
194.4428081892
 11
102.1219814952
 21
197.8496126715
  0
LINE
  5
27B
100
AcDbEntity
  8
_30_VOLUMEN
100
AcDbLine
 62
7
  6
CONTINUOUS
 10
102.9553146299
 20
192.8433314385
 11
102.9553146299
 21
197.8496126715
  0
LINE
  5
27C
100
AcDbEntity
  8
_30_VOLUMEN
100
AcDbLine
 62
7
  6
CONTINUOUS
 10
103.5803146299
 20
193.7509533665
 11
103.5803146299
 21
197.2498089425
  0
LINE
  5
27D
100
AcDbEntity
  8
BEZUGSACHSEN
100
AcDbLine
 62
7
  6
CONTINUOUS
 10
91.1266150605
 20
201.9588077437
 11
92.1598923275
 21
204.6063219941
  0
LINE
  5
27E
100
AcDbEntity
  8
_30_VOLUMEN
100
AcDbLine
 62
7
  6
CONTINUOUS
 10
93.5803146299
 20
192.8433314385
 11
94.2053146299
 21
192.8433314385
  0
LINE
  5
27F
100
AcDbEntity
  8
_30_VOLUMEN
100
AcDbLine
 62
7
  6
CONTINUOUS
 10
96.8094811972
 20
192.8433314385
 11
97.5386480626
 21
192.8433314385
  0
LINE
  5
280
100
AcDbEntity
  8
_30_VOLUMEN
100
AcDbLine
 62
7
  6
CONTINUOUS
 10
100.0386477645
 20
192.8433314385
 11
100.4553146299
 21
192.8433314385
  0
LINE
  5
281
100
AcDbEntity
  8
_30_VOLUMEN
100
AcDbLine
 62
7
  6
CONTINUOUS
 10
102.9553146299
 20
192.8433314385
 11
105.4553146299
 21
192.8433314385
  0
LINE
  5
282
100
AcDbEntity
  8
_30_VOLUMEN
100
AcDbLine
 62
7
  6
CONTINUOUS
 10
93.5803146299
 20
193.1511495675
 11
94.2053146299
 21
193.1511495675
  0
LINE
  5
283
100
AcDbEntity
  8
_30_VOLUMEN
100
AcDbLine
 62
7
  6
CONTINUOUS
 10
96.8094811972
 20
193.1511495675
 11
97.5386480626
 21
193.1511495675
  0
LINE
  5
284
100
AcDbEntity
  8
_30_VOLUMEN
100
AcDbLine
 62
7
  6
CONTINUOUS
 10
100.0386477645
 20
193.1511495675
 11
100.4553146299
 21
193.1511495675
  0
LINE
  5
285
100
AcDbEntity
  8
_30_VOLUMEN
100
AcDbLine
 62
7
  6
CONTINUOUS
 10
102.9553146299
 20
193.1511495675
 11
105.4553146299
 21
193.1511495675
  0
LINE
  5
286
100
AcDbEntity
  8
_30_VOLUMEN
100
AcDbLine
 62
7
  6
CONTINUOUS
 10
105.4553146299
 20
193.7509533665
 11
103.5803146299
 21
193.7509533665
  0
LINE
  5
287
100
AcDbEntity
  8
_30_VOLUMEN
100
AcDbLine
 62
7
  6
CONTINUOUS
 10
100.4553146299
 20
193.7509533665
 11
100.0386477645
 21
193.7509533665
  0
LINE
  5
288
100
AcDbEntity
  8
_30_VOLUMEN
100
AcDbLine
 62
7
  6
CONTINUOUS
 10
94.2053146299
 20
194.9426447701
 11
95.9761479136
 21
194.9426447701
  0
LINE
  5
289
100
AcDbEntity
  8
_30_VOLUMEN
100
AcDbLine
 62
7
  6
CONTINUOUS
 10
94.2053146299
 20
195.2504628991
 11
95.9761479136
 21
195.2504628991
  0
LINE
  5
28A
100
AcDbEntity
  8
_30_VOLUMEN
100
AcDbLine
 62
7
  6
CONTINUOUS
 10
96.1844811972
 20
195.8502666281
 11
94.2053146299
 21
195.8502666281
  0
LINE
  5
28B
100
AcDbEntity
  8
_30_VOLUMEN
100
AcDbLine
 62
7
  6
CONTINUOUS
 10
96.6011480626
 20
197.7496453833
 11
96.0803146299
 21
197.8496126715
  0
LINE
  5
28C
100
AcDbEntity
  8
_30_VOLUMEN
100
AcDbLine
 62
7
  6
CONTINUOUS
 10
105.9761483606
 20
197.7496453833
 11
105.4553146299
 21
197.8496126715
  0
LINE
  5
28D
100
AcDbEntity
  8
_30_VOLUMEN
100
AcDbLine
 62
7
  6
CONTINUOUS
 10
105.4553146299
 20
196.9419908135
 11
105.8719808992
 21
196.8420235253
  0
LINE
  5
28E
100
AcDbEntity
  8
_30_VOLUMEN
100
AcDbLine
 62
7
  6
CONTINUOUS
 10
105.4553146299
 20
197.2498089425
 11
105.8719808992
 21
197.1498416543
  0
LINE
  5
28F
100
AcDbEntity
  8
0
100
AcDbLine
 62
7
  6
CONTINUOUS
 10
84.4244655738
 20
209.6203137622
 11
85.2614575876
 21
209.2821470378
  0
LINE
  5
290
100
AcDbEntity
  8
0
100
AcDbLine
 62
7
  6
CONTINUOUS
 10
86.2290994448
 20
208.8911943503
 11
87.1967964314
 21
208.500219389
  0
LINE
  5
291
100
AcDbEntity
  8
0
100
AcDbLine
 62
7
  6
CONTINUOUS
 10
87.5877491189
 20
209.4678612462
 11
84.8024086028
 21
210.5932118626
  0
LINE
  5
292
100
AcDbEntity
  8
_30_VOLUMEN
100
AcDbLine
 62
7
  6
CONTINUOUS
 10
106.3928146299
 20
196.3421868044
 11
106.4969808992
 21
195.9423176518
  0
LINE
  5
293
100
AcDbEntity
  8
_30_VOLUMEN
100
AcDbLine
 62
7
  6
CONTINUOUS
 10
106.3928146299
 20
196.6500049334
 11
106.4969808992
 21
196.2501357807
  0
LINE
  5
294
100
AcDbEntity
  8
_30_VOLUMEN
100
AcDbLine
 62
7
  6
CONTINUOUS
 10
107.1219808992
 20
196.2501357807
 11
107.0178146299
 21
196.7499725016
  0
LINE
  5
295
100
AcDbEntity
  8
_30_VOLUMEN
100
AcDbLine
 62
7
  6
CONTINUOUS
 10
105.4553146299
 20
192.8433314385
 11
105.4553146299
 21
193.1511495675
  0
LINE
  5
296
100
AcDbEntity
  8
_30_VOLUMEN
100
AcDbLine
 62
7
  6
CONTINUOUS
 10
105.4553146299
 20
196.9419908135
 11
105.4553146299
 21
197.2498089425
  0
LINE
  5
297
100
AcDbEntity
  8
_30_VOLUMEN
100
AcDbLine
 62
7
  6
CONTINUOUS
 10
105.8719808992
 20
196.8420235253
 11
105.8719808992
 21
197.1498416543
  0
LINE
  5
298
100
AcDbEntity
  8
_30_VOLUMEN
100
AcDbLine
 62
7
  6
CONTINUOUS
 10
105.9761483606
 20
192.9432987355
 11
105.9761483606
 21
193.2511168645
  0
LINE
  5
299
100
AcDbEntity
  8
_30_VOLUMEN
100
AcDbLine
 62
7
  6
CONTINUOUS
 10
106.1844808992
 20
196.642088949
 11
106.1844808992
 21
196.949907078
  0
LINE
  5
29A
100
AcDbEntity
  8
_30_VOLUMEN
100
AcDbLine
 62
7
  6
CONTINUOUS
 10
106.3928146299
 20
193.143233338
 11
106.3928146299
 21
193.451051467
  0
LINE
  5
29B
100
AcDbEntity
  8
_30_VOLUMEN
100
AcDbLine
 62
7
  6
CONTINUOUS
 10
106.3928146299
 20
196.3421868044
 11
106.3928146299
 21
196.6500049334
  0
LINE
  5
29C
100
AcDbEntity
  8
_30_VOLUMEN
100
AcDbLine
 62
7
  6
CONTINUOUS
 10
106.4969808992
 20
196.2501357807
 11
106.4969808992
 21
194.7506263182
  0
LINE
  5
29D
100
AcDbEntity
  8
_30_VOLUMEN
100
AcDbLine
 62
7
  6
CONTINUOUS
 10
106.8094808992
 20
193.5431025257
 11
106.8094808992
 21
193.8509206547
  0
LINE
  5
29E
100
AcDbEntity
  8
_30_VOLUMEN
100
AcDbLine
 62
7
  6
CONTINUOUS
 10
107.0178146299
 20
193.9429717484
 11
107.0178146299
 21
194.2507898774
  0
LINE
  5
29F
100
AcDbEntity
  8
_30_VOLUMEN
100
AcDbLine
 62
7
  6
CONTINUOUS
 10
107.1219808992
 20
194.4428081892
 11
107.1219808992
 21
196.2501357807
  0
LINE
  5
2A0
100
AcDbEntity
  8
_30_VOLUMEN
100
AcDbLine
 62
7
  6
CONTINUOUS
 10
102.0178146299
 20
194.2507898774
 11
102.1219814952
 21
194.7506263182
  0
LINE
  5
2A1
100
AcDbEntity
  8
_30_VOLUMEN
100
AcDbLine
 62
7
  6
CONTINUOUS
 10
102.0178146299
 20
193.9429717484
 11
102.1219814952
 21
194.4428081892
  0
LINE
  5
2A2
100
AcDbEntity
  8
_30_VOLUMEN
100
AcDbLine
 62
7
  6
CONTINUOUS
 10
101.4969814952
 20
194.7506263182
 11
101.3928146299
 21
194.3507571656
  0
LINE
  5
2A3
100
AcDbEntity
  8
_30_VOLUMEN
100
AcDbLine
 62
7
  6
CONTINUOUS
 10
96.8094811972
 20
196.4500703571
 11
96.7053146299
 21
196.1501684926
  0
LINE
  5
2A4
100
AcDbEntity
  8
_30_VOLUMEN
100
AcDbLine
 62
7
  6
CONTINUOUS
 10
97.3303146299
 20
196.0502012044
 11
97.4344811972
 21
196.3501030689
  0
LINE
  5
2A5
100
AcDbEntity
  8
_30_VOLUMEN
100
AcDbLine
 62
7
  6
CONTINUOUS
 10
97.3303146299
 20
195.7423830754
 11
97.4344811972
 21
196.0422849399
  0
LINE
  5
2A6
100
AcDbEntity
  8
_30_VOLUMEN
100
AcDbLine
 62
7
  6
CONTINUOUS
 10
105.8719808992
 20
193.8509206547
 11
105.4553146299
 21
193.7509533665
  0
LINE
  5
2A7
100
AcDbEntity
  8
_30_VOLUMEN
100
AcDbLine
 62
7
  6
CONTINUOUS
 10
105.4553146299
 20
192.8433314385
 11
105.9761483606
 21
192.9432987355
  0
LINE
  5
2A8
100
AcDbEntity
  8
_30_VOLUMEN
100
AcDbLine
 62
7
  6
CONTINUOUS
 10
105.4553146299
 20
193.1511495675
 11
105.9761483606
 21
193.2511168645
  0
LINE
  5
2A9
100
AcDbEntity
  8
_30_VOLUMEN
100
AcDbLine
 62
7
  6
CONTINUOUS
 10
100.4553146299
 20
192.8433314385
 11
100.9761477645
 21
192.9432987355
  0
LINE
  5
2AA
100
AcDbEntity
  8
_30_VOLUMEN
100
AcDbLine
 62
7
  6
CONTINUOUS
 10
100.4553146299
 20
193.1511495675
 11
100.9761477645
 21
193.2511168645
  0
LINE
  5
2AB
100
AcDbEntity
  8
_30_VOLUMEN
100
AcDbLine
 62
7
  6
CONTINUOUS
 10
103.5803146299
 20
196.9419908135
 11
105.4553146299
 21
196.9419908135
  0
LINE
  5
2AC
100
AcDbEntity
  8
_30_VOLUMEN
100
AcDbLine
 62
7
  6
CONTINUOUS
 10
94.2053146299
 20
197.0419581016
 11
96.1844811972
 21
197.0419581016
  0
LINE
  5
2AD
100
AcDbEntity
  8
_30_VOLUMEN
100
AcDbLine
 62
7
  6
CONTINUOUS
 10
103.5803146299
 20
197.2498089425
 11
105.4553146299
 21
197.2498089425
  0
LINE
  5
2AE
100
AcDbEntity
  8
_30_VOLUMEN
100
AcDbLine
 62
7
  6
CONTINUOUS
 10
94.2053146299
 20
197.3497762306
 11
96.1844811972
 21
197.3497762306
  0
LINE
  5
2AF
100
AcDbEntity
  8
_30_VOLUMEN
100
AcDbLine
 62
7
  6
CONTINUOUS
 10
105.4553146299
 20
197.8496126715
 11
102.9553146299
 21
197.8496126715
  0
LINE
  5
2B0
100
AcDbEntity
  8
_30_VOLUMEN
100
AcDbLine
 62
7
  6
CONTINUOUS
 10
102.1219814952
 20
197.8496126715
 11
101.4969814952
 21
197.8496126715
  0
LINE
  5
2B1
100
AcDbEntity
  8
_30_VOLUMEN
100
AcDbLine
 62
7
  6
CONTINUOUS
 10
98.9969814952
 20
197.8496126715
 11
98.3719811972
 21
197.8496126715
  0
LINE
  5
2B2
100
AcDbEntity
  8
_30_VOLUMEN
100
AcDbLine
 62
7
  6
CONTINUOUS
 10
96.0803146299
 20
197.8496126715
 11
93.5803146299
 21
197.8496126715
  0
LINE
  5
2B3
100
AcDbEntity
  8
_30_VOLUMEN
100
AcDbLine
 62
7
  6
CONTINUOUS
 10
107.0178146299
 20
194.2507898774
 11
107.1219808992
 21
194.7506263182
  0
LINE
  5
2B4
100
AcDbEntity
  8
_30_VOLUMEN
100
AcDbLine
 62
7
  6
CONTINUOUS
 10
107.0178146299
 20
193.9429717484
 11
107.1219808992
 21
194.4428081892
  0
LINE
  5
2B5
100
AcDbEntity
  8
_30_VOLUMEN
100
AcDbLine
 62
7
  6
CONTINUOUS
 10
106.4969808992
 20
194.7506263182
 11
106.3928146299
 21
194.3507571656
  0
LINE
  5
2B6
100
AcDbEntity
  8
_30_VOLUMEN
100
AcDbLine
 62
7
  6
CONTINUOUS
 10
100.8719814952
 20
193.8509206547
 11
100.4553146299
 21
193.7509533665
  0
LINE
  5
2B7
100
AcDbEntity
  8
RUNDUNGEN
100
AcDbLine
 62
7
  6
CONTINUOUS
 10
65.0810441153
 20
194.3990975527
 11
85.8168028388
 21
197.6833190928
  0
LINE
  5
2B8
100
AcDbEntity
  8
0
100
AcDbLine
 62
7
  6
CONTINUOUS
 10
182.4537309349
 20
213.8853916169
 11
183.0605610963
 21
213.974476497
  0
LINE
  5
2B9
100
AcDbEntity
  8
RUNDUNGEN
100
AcDbLine
 62
7
  6
CONTINUOUS
 10
197.0196509055
 20
194.3990975527
 11
176.2838921819
 21
197.6833190928
  0
LINE
  5
2BA
100
AcDbEntity
  8
_30_VOLUMEN
100
AcDbLine
 62
7
  6
CONTINUOUS
 10
101.8094814952
 20
193.8509206547
 11
102.0178146299
 21
194.2507898774
  0
LINE
  5
2BB
100
AcDbEntity
  8
_30_VOLUMEN
100
AcDbLine
 62
7
  6
CONTINUOUS
 10
101.8094814952
 20
193.5431025257
 11
102.0178146299
 21
193.9429717484
  0
LINE
  5
2BC
100
AcDbEntity
  8
_30_VOLUMEN
100
AcDbLine
 62
7
  6
CONTINUOUS
 10
97.0178146299
 20
195.6503320517
 11
97.3303146299
 21
196.0502012044
  0
LINE
  5
2BD
100
AcDbEntity
  8
_30_VOLUMEN
100
AcDbLine
 62
7
  6
CONTINUOUS
 10
97.0178146299
 20
195.3425139228
 11
97.3303146299
 21
195.7423830754
  0
LINE
  5
2BE
100
AcDbEntity
  8
0
100
AcDbLine
 62
7
  6
CONTINUOUS
 10
82.5574208853
 20
211.5043206019
 11
79.3354465746
 21
209.6730030806
  0
LINE
  5
2BF
100
AcDbEntity
  8
0
100
AcDbLine
 62
7
  6
CONTINUOUS
 10
79.6047843976
 20
208.8661581988
 11
82.0539610797
 21
210.2582138559
  0
LINE
  5
2C0
100
AcDbEntity
  8
0
100
AcDbLine
 62
7
  6
CONTINUOUS
 10
182.0225096737
 20
218.9045952114
 11
181.4156794583
 21
218.8155104642
  0
LINE
  5
2C1
100
AcDbEntity
  8
0
100
AcDbLine
 62
7
  6
CONTINUOUS
 10
180.7289068806
 20
206.2589653002
 11
187.6220000829
 21
205.9107876279
  0
LINE
  5
2C2
100
AcDbEntity
  8
0
100
AcDbLine
 62
7
  6
CONTINUOUS
 10
187.2927104266
 20
206.7214622373
 11
180.3996172243
 21
207.0696399096
  0
LINE
  5
2C3
100
AcDbEntity
  8
_30_VOLUMEN
100
AcDbLine
 62
7
  6
CONTINUOUS
 10
106.8094808992
 20
193.8509206547
 11
107.0178146299
 21
194.2507898774
  0
LINE
  5
2C4
100
AcDbEntity
  8
_30_VOLUMEN
100
AcDbLine
 62
7
  6
CONTINUOUS
 10
106.8094808992
 20
193.5431025257
 11
107.0178146299
 21
193.9429717484
  0
LINE
  5
2C5
100
AcDbEntity
  8
_30_VOLUMEN
100
AcDbLine
 62
7
  6
CONTINUOUS
 10
101.3928146299
 20
194.3507571656
 11
101.1844814952
 21
194.0508553011
  0
LINE
  5
2C6
100
AcDbEntity
  8
_30_VOLUMEN
100
AcDbLine
 62
7
  6
CONTINUOUS
 10
106.3928146299
 20
194.3507571656
 11
106.1844808992
 21
194.0508553011
  0
LINE
  5
2C7
100
AcDbEntity
  8
_30_VOLUMEN
100
AcDbLine
 62
7
  6
CONTINUOUS
 10
96.7053146299
 20
196.1501684926
 11
96.4969811972
 21
195.9502339162
  0
LINE
  5
2C8
100
AcDbEntity
  8
0
100
AcDbLine
 62
7
  6
CONTINUOUS
 10
178.2545355958
 20
209.9760425286
 11
180.1016841075
 21
209.7819102595
  0
LINE
  5
2C9
100
AcDbEntity
  8
0
100
AcDbLine
 62
7
  6
CONTINUOUS
 10
179.8272758512
 20
210.4574729494
 11
177.9801274965
 21
210.6516048319
  0
LINE
  5
2CA
100
AcDbEntity
  8
_30_VOLUMEN
100
AcDbLine
 62
7
  6
CONTINUOUS
 10
101.3928146299
 20
193.451051467
 11
101.8094814952
 21
193.8509206547
  0
LINE
  5
2CB
100
AcDbEntity
  8
_30_VOLUMEN
100
AcDbLine
 62
7
  6
CONTINUOUS
 10
101.3928146299
 20
193.143233338
 11
101.8094814952
 21
193.5431025257
  0
LINE
  5
2CC
100
AcDbEntity
  8
0
100
AcDbLine
 62
7
  6
CONTINUOUS
 10
182.73127144
 20
214.7851511063
 11
182.0695595645
 21
214.8311789189
  0
LINE
  5
2CD
100
AcDbEntity
  8
_30_VOLUMEN
100
AcDbLine
 62
7
  6
CONTINUOUS
 10
106.3928146299
 20
193.451051467
 11
106.8094808992
 21
193.8509206547
  0
LINE
  5
2CE
100
AcDbEntity
  8
_30_VOLUMEN
100
AcDbLine
 62
7
  6
CONTINUOUS
 10
106.3928146299
 20
193.143233338
 11
106.8094808992
 21
193.5431025257
  0
LINE
  5
2CF
100
AcDbEntity
  8
0
100
AcDbLine
 62
7
  6
CONTINUOUS
 10
181.9300062105
 20
213.987468726
 11
182.4537309349
 21
213.8853916169
  0
LINE
  5
2D0
100
AcDbEntity
  8
_30_VOLUMEN
100
AcDbLine
 62
7
  6
CONTINUOUS
 10
101.1844814952
 20
194.0508553011
 11
100.8719814952
 21
193.8509206547
  0
LINE
  5
2D1
100
AcDbEntity
  8
_30_VOLUMEN
100
AcDbLine
 62
7
  6
CONTINUOUS
 10
106.1844808992
 20
194.0508553011
 11
105.8719808992
 21
193.8509206547
  0
LINE
  5
2D2
100
AcDbEntity
  8
_30_VOLUMEN
100
AcDbLine
 62
7
  6
CONTINUOUS
 10
96.6011480626
 20
195.4503974754
 11
97.0178146299
 21
195.6503320517
  0
LINE
  5
2D3
100
AcDbEntity
  8
_30_VOLUMEN
100
AcDbLine
 62
7
  6
CONTINUOUS
 10
96.7212086005
 20
195.2001895668
 11
97.0178146299
 21
195.3425139228
  0
LINE
  5
2D4
100
AcDbEntity
  8
0
100
AcDbLine
 62
7
  6
CONTINUOUS
 10
181.6900875035
 20
218.1399482938
 11
182.2138121887
 21
218.0378712814
  0
LINE
  5
2D5
100
AcDbEntity
  8
_30_VOLUMEN
100
AcDbLine
 62
7
  6
CONTINUOUS
 10
100.9761477645
 20
193.2511168645
 11
101.3928146299
 21
193.451051467
  0
LINE
  5
2D6
100
AcDbEntity
  8
_30_VOLUMEN
100
AcDbLine
 62
7
  6
CONTINUOUS
 10
100.9761477645
 20
192.9432987355
 11
101.3928146299
 21
193.143233338
  0
LINE
  5
2D7
100
AcDbEntity
  8
_30_VOLUMEN
100
AcDbLine
 62
7
  6
CONTINUOUS
 10
105.9761483606
 20
193.2511168645
 11
106.3928146299
 21
193.451051467
  0
LINE
  5
2D8
100
AcDbEntity
  8
_30_VOLUMEN
100
AcDbLine
 62
7
  6
CONTINUOUS
 10
105.9761483606
 20
192.9432987355
 11
106.3928146299
 21
193.143233338
  0
LINE
  5
2D9
100
AcDbEntity
  8
_30_VOLUMEN
100
AcDbLine
 62
7
  6
CONTINUOUS
 10
96.4969811972
 20
195.9502339162
 11
96.1844811972
 21
195.8502666281
  0
LINE
  5
2DA
100
AcDbEntity
  8
0
100
AcDbLine
 62
7
  6
CONTINUOUS
 10
182.0695595645
 20
214.8311789189
 11
177.0831954867
 21
217.2130944363
  0
LINE
  5
2DB
100
AcDbEntity
  8
0
100
AcDbLine
 62
7
  6
CONTINUOUS
 10
177.5222483748
 20
216.1321949249
 11
181.9300062105
 21
213.987468726
  0
LINE
  5
2DC
100
AcDbEntity
  8
0
100
AcDbLine
 62
7
  6
CONTINUOUS
 10
177.0831954867
 20
217.2130944363
 11
176.3932596345
 21
216.9328479144
  0
LINE
  5
2DD
100
AcDbEntity
  8
0
100
AcDbLine
 62
7
  6
CONTINUOUS
 10
182.7939847123
 20
218.588342666
 11
182.0225096737
 21
218.9045952114
  0
LINE
  5
2DE
100
AcDbEntity
  8
0
100
AcDbLine
 62
7
  6
CONTINUOUS
 10
183.0072461288
 20
214.8972498564
 11
182.73127144
 21
214.7851511063
  0
LINE
  5
2DF
100
AcDbEntity
  8
0
100
AcDbLine
 62
7
  6
CONTINUOUS
 10
178.3689975724
 20
212.0688002583
 11
179.0589334245
 21
212.3490467801
  0
LINE
  5
2E0
100
AcDbEntity
  8
0
100
AcDbLine
 62
7
  6
CONTINUOUS
 10
183.0605610963
 20
213.974476497
 11
183.3365357851
 21
214.086575247
  0
LINE
  5
2E1
100
AcDbEntity
  8
0
100
AcDbLine
 62
7
  6
CONTINUOUS
 10
182.2138121887
 20
218.0378712814
 11
182.6544313191
 21
217.7446325697
  0
LINE
  5
2E2
100
AcDbEntity
  8
0
100
AcDbLine
 62
7
  6
CONTINUOUS
 10
186.3361979006
 20
211.0550817667
 11
185.6462621451
 21
210.7748352841
  0
LINE
  5
2E3
100
AcDbEntity
  8
0
100
AcDbLine
 62
7
  6
CONTINUOUS
 10
183.289485439
 20
218.1599915516
 11
182.7939847123
 21
218.588342666
  0
LINE
  5
2E4
100
AcDbEntity
  8
RUNDUNGEN
100
AcDbLine
 62
7
  6
CONTINUOUS
 10
170.9740799603
 20
201.9588077437
 11
169.9408026932
 21
204.6063219941
  0
LINE
  5
2E5
100
AcDbEntity
  8
0
100
AcDbLine
 62
7
  6
CONTINUOUS
 10
183.3365357851
 20
214.086575247
 11
183.8336028324
 21
214.4458847392
  0
LINE
  5
2E6
100
AcDbEntity
  8
0
100
AcDbLine
 62
7
  6
CONTINUOUS
 10
187.6220000829
 20
205.9107876279
 11
188.3119358384
 21
206.1910341105
  0
LINE
  5
2E7
100
AcDbEntity
  8
0
100
AcDbLine
 62
7
  6
CONTINUOUS
 10
186.6811812698
 20
204.2693945112
 11
186.1292326654
 21
204.0451973251
  0
LINE
  5
2E8
100
AcDbEntity
  8
0
100
AcDbLine
 62
7
  6
CONTINUOUS
 10
188.2241313215
 20
203.636890592
 11
187.1202337261
 21
203.1884960629
  0
LINE
  5
2E9
100
AcDbEntity
  8
0
100
AcDbLine
 62
7
  6
CONTINUOUS
 10
186.5682851217
 20
202.9642988768
 11
183.8085418098
 21
201.8433128286
  0
LINE
  5
2EA
100
AcDbEntity
  8
0
100
AcDbLine
 62
7
  6
CONTINUOUS
 10
184.3589244649
 20
201.2798487711
 11
186.842693378
 21
202.2887361869
  0
LINE
  5
2EB
100
AcDbEntity
  8
0
100
AcDbLine
 62
7
  6
CONTINUOUS
 10
187.3946419824
 20
202.512933373
 11
188.4985395778
 21
202.9613279022
  0
LINE
  5
2EC
100
AcDbEntity
  8
0
100
AcDbLine
 62
7
  6
CONTINUOUS
 10
183.4729872451
 20
199.5033438133
 11
184.0249358978
 21
199.727541019
  0
LINE
  5
2ED
100
AcDbEntity
  8
0
100
AcDbLine
 62
7
  6
CONTINUOUS
 10
187.4463912906
 20
200.8024988877
 11
187.998339895
 21
201.0266960738
  0
LINE
  5
2EE
100
AcDbEntity
  8
0
100
AcDbLine
 62
7
  6
CONTINUOUS
 10
182.6544313191
 20
217.7446325697
 11
183.0668265302
 21
217.1251196596
  0
LINE
  5
2EF
100
AcDbEntity
  8
0
100
AcDbLine
 62
7
  6
CONTINUOUS
 10
177.9801274965
 20
210.6516048319
 11
178.2545355958
 21
209.9760425286
  0
LINE
  5
2F0
100
AcDbEntity
  8
0
100
AcDbLine
 62
7
  6
CONTINUOUS
 10
176.3932596345
 20
216.9328479144
 11
178.3689975724
 21
212.0688002583
  0
LINE
  5
2F1
100
AcDbEntity
  8
0
100
AcDbLine
 62
7
  6
CONTINUOUS
 10
180.3996172243
 20
207.0696399096
 11
180.7289068806
 21
206.2589653002
  0
LINE
  5
2F2
100
AcDbEntity
  8
0
100
AcDbLine
 62
7
  6
CONTINUOUS
 10
180.1016841075
 20
209.7819102595
 11
179.8272758512
 21
210.4574729494
  0
LINE
  5
2F3
100
AcDbEntity
  8
0
100
AcDbLine
 62
7
  6
CONTINUOUS
 10
179.0589334245
 20
212.3490467801
 11
177.5222483748
 21
216.1321949249
  0
LINE
  5
2F4
100
AcDbEntity
  8
0
100
AcDbLine
 62
7
  6
CONTINUOUS
 10
183.311444311
 20
215.3356227446
 11
183.0072461288
 21
214.8972498564
  0
LINE
  5
2F5
100
AcDbEntity
  8
0
100
AcDbLine
 62
7
  6
CONTINUOUS
 10
183.8116438427
 20
217.2702538361
 11
183.289485439
 21
218.1599915516
  0
LINE
  5
2F6
100
AcDbEntity
  8
0
100
AcDbLine
 62
7
  6
CONTINUOUS
 10
186.1292326654
 20
204.0451973251
 11
186.5682851217
 21
202.9642988768
  0
LINE
  5
2F7
100
AcDbEntity
  8
0
100
AcDbLine
 62
7
  6
CONTINUOUS
 10
186.842693378
 20
202.2887361869
 11
187.4463912906
 21
200.8024988877
  0
LINE
  5
2F8
100
AcDbEntity
  8
0
100
AcDbLine
 62
7
  6
CONTINUOUS
 10
187.998339895
 20
201.0266960738
 11
187.3946419824
 21
202.512933373
  0
LINE
  5
2F9
100
AcDbEntity
  8
0
100
AcDbLine
 62
7
  6
CONTINUOUS
 10
187.1202337261
 20
203.1884960629
 11
186.6811812698
 21
204.2693945112
  0
LINE
  5
2FA
100
AcDbEntity
  8
0
100
AcDbLine
 62
7
  6
CONTINUOUS
 10
181.4156794583
 20
218.8155104642
 11
181.6900875035
 21
218.1399482938
  0
LINE
  5
2FB
100
AcDbEntity
  8
0
100
AcDbLine
 62
7
  6
CONTINUOUS
 10
188.4985395778
 20
202.9613279022
 11
188.2241313215
 21
203.636890592
  0
LINE
  5
2FC
100
AcDbEntity
  8
0
100
AcDbLine
 62
7
  6
CONTINUOUS
 10
183.0668265302
 20
217.1251196596
 11
183.2863529154
 21
216.5846700489
  0
LINE
  5
2FD
100
AcDbEntity
  8
0
100
AcDbLine
 62
7
  6
CONTINUOUS
 10
185.6462621451
 20
210.7748352841
 11
187.2927104266
 21
206.7214622373
  0
LINE
  5
2FE
100
AcDbEntity
  8
0
100
AcDbLine
 62
7
  6
CONTINUOUS
 10
188.3119358384
 20
206.1910341105
 11
186.3361979006
 21
211.0550817667
  0
LINE
  5
2FF
100
AcDbEntity
  8
0
100
AcDbLine
 62
7
  6
CONTINUOUS
 10
184.0311703064
 20
216.7298040321
 11
183.8116438427
 21
217.2702538361
  0
LINE
  5
300
100
AcDbEntity
  8
0
100
AcDbLine
 62
7
  6
CONTINUOUS
 10
183.281684752
 20
200.3700677241
 11
183.4729872451
 21
199.5033438133
  0
LINE
  5
301
100
AcDbEntity
  8
0
100
AcDbLine
 62
7
  6
CONTINUOUS
 10
184.0249358978
 20
199.727541019
 11
183.888514841
 21
200.4591530251
  0
LINE
  5
302
100
AcDbEntity
  8
0
100
AcDbLine
 62
7
  6
CONTINUOUS
 10
183.255027087
 20
200.8314543302
 11
183.281684752
 21
200.3700677241
  0
LINE
  5
303
100
AcDbEntity
  8
0
100
AcDbLine
 62
7
  6
CONTINUOUS
 10
184.1660248946
 20
215.2105319225
 11
184.2224728116
 21
215.8630801263
  0
LINE
  5
304
100
AcDbEntity
  8
0
100
AcDbLine
 62
7
  6
CONTINUOUS
 10
183.422773785
 20
215.8530586423
 11
183.311444311
 21
215.3356227446
  0
LINE
  5
305
100
AcDbEntity
  8
0
100
AcDbLine
 62
7
  6
CONTINUOUS
 10
183.8336028324
 20
214.4458847392
 11
184.1660248946
 21
215.2105319225
  0
LINE
  5
306
100
AcDbEntity
  8
0
100
AcDbLine
 62
7
  6
CONTINUOUS
 10
183.8085418098
 20
201.8433128286
 11
183.3663565852
 21
201.3488902377
  0
LINE
  5
307
100
AcDbEntity
  8
0
100
AcDbLine
 62
7
  6
CONTINUOUS
 10
183.999844315
 20
200.9765889228
 11
184.3589244649
 21
201.2798487711
  0
LINE
  5
308
100
AcDbEntity
  8
0
100
AcDbLine
 62
7
  6
CONTINUOUS
 10
184.2224728116
 20
215.8630801263
 11
184.0311703064
 21
216.7298040321
  0
LINE
  5
309
100
AcDbEntity
  8
0
100
AcDbLine
 62
7
  6
CONTINUOUS
 10
183.2863529154
 20
216.5846700489
 11
183.422773785
 21
215.8530586423
  0
LINE
  5
30A
100
AcDbEntity
  8
0
100
AcDbLine
 62
7
  6
CONTINUOUS
 10
183.3663565852
 20
201.3488902377
 11
183.255027087
 21
200.8314543302
  0
LINE
  5
30B
100
AcDbEntity
  8
0
100
AcDbLine
 62
7
  6
CONTINUOUS
 10
183.888514841
 20
200.4591530251
 11
183.999844315
 21
200.9765889228
  0
LINE
  5
30C
100
AcDbEntity
  8
RUNDUNGEN
100
AcDbLine
 62
7
  6
CONTINUOUS
 10
198.447291809
 20
200.0713278035
 11
189.4175135644
 21
222.2978605369
  0
LINE
  5
30D
100
AcDbEntity
  8
_30_VOLUMEN
100
AcDbLine
 62
7
  6
CONTINUOUS
 10
199.5503475104
 20
194.425538296
 11
199.5503475104
 21
191.4360325309
  0
LINE
  5
30E
100
AcDbEntity
  8
RUNDUNGEN
100
AcDbLine
 62
7
  6
CONTINUOUS
 10
199.5503475104
 20
181.7855446058
 11
199.5503475104
 21
191.4360325309
  0
LINE
  5
30F
100
AcDbEntity
  8
RUNDUNGEN
100
AcDbLine
 62
7
  6
CONTINUOUS
 10
320.2759917908
 20
181.7855446058
 11
279.2759917908
 21
181.7855446058
  0
LINE
  5
310
100
AcDbEntity
  8
_30_VOLUMEN
100
AcDbLine
 62
7
  6
CONTINUOUS
 10
281.0568205606
 20
192.8433314385
 11
280.2110972019
 21
193.1511495675
  0
LINE
  5
311
100
AcDbEntity
  8
_30_VOLUMEN
100
AcDbLine
 62
7
  6
CONTINUOUS
 10
282.7669212772
 20
197.5417945425
 11
281.9211979185
 21
197.8496126715
  0
LWPOLYLINE
  5
312
100
AcDbEntity
  8
_30_VOLUMEN
100
AcDbPolyline
 62
7
  6
CONTINUOUS
 90
15
 70
0
 10
294.1176107003
 20
259.6032558852
 10
293.9939337803
 20
259.4052089106
 10
293.8552288482
 20
259.2173801392
 10
293.7023361729
 20
259.0409075334
 10
293.5361817859
 20
258.876860022
 10
293.3577718406
 20
258.7262311399
 10
293.1681868701
 20
258.5899333849
 10
292.9685753658
 20
258.4687926437
 10
292.7601465513
 20
258.3635429295
 10
292.5441630213
 20
258.2748219423
 10
292.3219330891
 20
258.2031672335
 10
292.0948029599
 20
258.1490129926
 10
291.8641485334
 20
258.1126873948
 10
291.6313670683
 20
258.0944106133
 10
291.6003855737
 20
258.0933487339
  0
LINE
  5
313
100
AcDbEntity
  8
_30_VOLUMEN
100
AcDbLine
 62
7
  6
CONTINUOUS
 10
294.1729030903
 20
259.7044481681
 11
294.1176107003
 21
259.6032558852
  0
LINE
  5
314
100
AcDbEntity
  8
0
100
AcDbLine
 62
7
  6
CONTINUOUS
 10
305.7759917908
 20
200.657478469
 11
306.6759917908
 21
200.657478469
  0
LINE
  5
315
100
AcDbEntity
  8
0
100
AcDbLine
 62
7
  6
CONTINUOUS
 10
305.7759917908
 20
200.7866659804
 11
306.6759917908
 21
200.7866659804
  0
LINE
  5
316
100
AcDbEntity
  8
RUNDUNGEN
100
AcDbLine
 62
7
  6
CONTINUOUS
 10
279.2759917908
 20
181.7855446058
 11
279.2759917908
 21
187.5978965499
  0
LINE
  5
317
100
AcDbEntity
  8
0
100
AcDbLine
 62
7
  6
CONTINUOUS
 10
305.7759917908
 20
201.2905002925
 11
306.6759917908
 21
201.2905002925
  0
LINE
  5
318
100
AcDbEntity
  8
0
100
AcDbLine
 62
7
  6
CONTINUOUS
 10
305.7759917908
 20
202.6940108386
 11
306.6759917908
 21
202.6940108386
  0
LINE
  5
319
100
AcDbEntity
  8
0
100
AcDbLine
 62
7
  6
CONTINUOUS
 10
305.7759917908
 20
202.8063046809
 11
306.6759917908
 21
202.8063046809
  0
LINE
  5
31A
100
AcDbEntity
  8
0
100
AcDbLine
 62
7
  6
CONTINUOUS
 10
305.7759917908
 20
203.9316347546
 11
306.6759917908
 21
203.9316347546
  0
LINE
  5
31B
100
AcDbEntity
  8
0
100
AcDbLine
 62
7
  6
CONTINUOUS
 10
293.7759917908
 20
204.0719351027
 11
292.8759917908
 21
204.0719351027
  0
LINE
  5
31C
100
AcDbEntity
  8
0
100
AcDbLine
 62
7
  6
CONTINUOUS
 10
293.7759917908
 20
204.5506908493
 11
292.8759917908
 21
204.5506908493
  0
LINE
  5
31D
100
AcDbEntity
  8
0
100
AcDbLine
 62
7
  6
CONTINUOUS
 10
305.7759917908
 20
204.8992905867
 11
306.6759917908
 21
204.8992905867
  0
LINE
  5
31E
100
AcDbEntity
  8
0
100
AcDbLine
 62
7
  6
CONTINUOUS
 10
305.7759917908
 20
206.1015564116
 11
306.6759917908
 21
206.1015564116
  0
LINE
  5
31F
100
AcDbEntity
  8
0
100
AcDbLine
 62
7
  6
CONTINUOUS
 10
293.7759917908
 20
206.145304552
 11
292.8759917908
 21
206.145304552
  0
LINE
  5
320
100
AcDbEntity
  8
0
100
AcDbLine
 62
7
  6
CONTINUOUS
 10
293.7759917908
 20
206.6240602986
 11
292.8759917908
 21
206.6240602986
  0
LINE
  5
321
100
AcDbEntity
  8
0
100
AcDbLine
 62
7
  6
CONTINUOUS
 10
293.7759917908
 20
206.7461098444
 11
292.8759917908
 21
206.7461098444
  0
LINE
  5
322
100
AcDbEntity
  8
0
100
AcDbLine
 62
7
  6
CONTINUOUS
 10
305.7759917908
 20
207.2216310439
 11
306.6759917908
 21
207.2216310439
  0
LINE
  5
323
100
AcDbEntity
  8
0
100
AcDbLine
 62
7
  6
CONTINUOUS
 10
293.7759917908
 20
207.2248655909
 11
292.8759917908
 21
207.2248655909
  0
LINE
  5
324
100
AcDbEntity
  8
0
100
AcDbLine
 62
7
  6
CONTINUOUS
 10
305.7759917908
 20
208.1892868759
 11
306.6759917908
 21
208.1892868759
  0
LINE
  5
325
100
AcDbEntity
  8
0
100
AcDbLine
 62
7
  6
CONTINUOUS
 10
305.7759917908
 20
208.9633951909
 11
306.6759917908
 21
208.9633951909
  0
LINE
  5
326
100
AcDbEntity
  8
0
100
AcDbLine
 62
7
  6
CONTINUOUS
 10
305.7759917908
 20
209.9310370481
 11
306.6759917908
 21
209.9310370481
  0
LINE
  5
327
100
AcDbEntity
  8
0
100
AcDbLine
 62
7
  6
CONTINUOUS
 10
293.7759917908
 20
210.0156829883
 11
292.8759917908
 21
210.0156829883
  0
LINE
  5
328
100
AcDbEntity
  8
BEZUGSACHSEN
100
AcDbLine
 62
7
  6
CONTINUOUS
 10
288.2759917908
 20
216.3807077832
 11
288.2759917908
 21
254.7284447891
  0
LINE
  5
329
100
AcDbEntity
  8
_30_VOLUMEN
100
AcDbLine
 62
7
  6
CONTINUOUS
 10
288.2759920276
 20
254.7295754351
 11
288.2759917908
 21
254.7284447891
  0
LINE
  5
32A
100
AcDbEntity
  8
_30_VOLUMEN
100
AcDbLine
 62
7
  6
CONTINUOUS
 10
280.2110972019
 20
193.1511495675
 11
281.9211979185
 21
197.8496126715
  0
LINE
  5
32B
100
AcDbEntity
  8
0
100
AcDbLine
 62
7
  6
CONTINUOUS
 10
293.7759917908
 20
210.3076446796
 11
292.8759917908
 21
210.3076446796
  0
LINE
  5
32C
100
AcDbEntity
  8
0
100
AcDbLine
 62
7
  6
CONTINUOUS
 10
293.7759917908
 20
210.7864004262
 11
292.8759917908
 21
210.7864004262
  0
LINE
  5
32D
100
AcDbEntity
  8
0
100
AcDbLine
 62
7
  6
CONTINUOUS
 10
305.7759917908
 20
211.9785424092
 11
306.6759917908
 21
211.9785424092
  0
LINE
  5
32E
100
AcDbEntity
  8
0
100
AcDbLine
 62
7
  6
CONTINUOUS
 10
293.7759917908
 20
212.9818194213
 11
292.8759917908
 21
212.9818194213
  0
LINE
  5
32F
100
AcDbEntity
  8
0
100
AcDbLine
 62
7
  6
CONTINUOUS
 10
292.8759917908
 20
204.0719351027
 11
292.8759917908
 21
210.015644283
  0
LINE
  5
330
100
AcDbEntity
  8
0
100
AcDbLine
 62
7
  6
CONTINUOUS
 10
292.8759917908
 20
210.3076446796
 11
292.8759917908
 21
216.2513538599
  0
LINE
  5
331
100
AcDbEntity
  8
_30_VOLUMEN
100
AcDbLine
 62
7
  6
CONTINUOUS
 10
293.7759917908
 20
197.6637145817
 11
293.7759917908
 21
198.7539769184
  0
LINE
  5
332
100
AcDbEntity
  8
RUNDUNGEN
100
AcDbLine
 62
7
  6
CONTINUOUS
 10
293.7759917908
 20
198.7539769184
 11
293.7759917908
 21
220.9805096519
  0
LINE
  5
333
100
AcDbEntity
  8
_30_VOLUMEN
100
AcDbLine
 62
7
  6
CONTINUOUS
 10
293.7759917908
 20
220.9805096519
 11
293.7759917908
 21
257.1184218691
  0
LINE
  5
334
100
AcDbEntity
  8
RUNDUNGEN
100
AcDbLine
 62
7
  6
CONTINUOUS
 10
279.3966065493
 20
188.281930931
 11
282.0135461509
 21
195.4719133946
  0
LINE
  5
335
100
AcDbEntity
  8
BEZUGSACHSEN
100
AcDbLine
 62
7
  6
CONTINUOUS
 10
280.8143517452
 20
192.1771538433
 11
287.0095872538
 21
209.1984235115
  0
LINE
  5
336
100
AcDbEntity
  8
0
100
AcDbLine
 62
7
  6
CONTINUOUS
 10
305.7759917908
 20
213.2298500117
 11
306.6759917908
 21
213.2298500117
  0
LINE
  5
337
100
AcDbEntity
  8
0
100
AcDbLine
 62
7
  6
CONTINUOUS
 10
293.7759917908
 20
213.4605751678
 11
292.8759917908
 21
213.4605751678
  0
LINE
  5
338
100
AcDbEntity
  8
0
100
AcDbLine
 62
7
  6
CONTINUOUS
 10
293.7759917908
 20
216.2513925652
 11
292.8759917908
 21
216.2513925652
  0
LINE
  5
339
100
AcDbEntity
  8
_30_VOLUMEN
100
AcDbLine
 62
7
  6
CONTINUOUS
 10
305.7759917908
 20
257.1184218723
 11
305.7759917908
 21
220.9805096519
  0
LINE
  5
33A
100
AcDbEntity
  8
RUNDUNGEN
100
AcDbLine
 62
7
  6
CONTINUOUS
 10
305.7759917908
 20
220.9805096519
 11
305.7759917908
 21
198.7539769184
  0
LINE
  5
33B
100
AcDbEntity
  8
_30_VOLUMEN
100
AcDbLine
 62
7
  6
CONTINUOUS
 10
305.7759917908
 20
198.7539769184
 11
305.7759917908
 21
197.663714585
  0
LINE
  5
33C
100
AcDbEntity
  8
0
100
AcDbLine
 62
7
  6
CONTINUOUS
 10
306.6759917908
 20
213.2298500117
 11
306.6759917908
 21
200.6577197792
  0
LINE
  5
33D
100
AcDbEntity
  8
RUNDUNGEN
100
AcDbLine
 62
7
  6
CONTINUOUS
 10
320.1553770324
 20
188.281930931
 11
317.5384374308
 21
195.4719133946
  0
LINE
  5
33E
100
AcDbEntity
  8
BEZUGSACHSEN
100
AcDbLine
 62
7
  6
CONTINUOUS
 10
317.5384374308
 20
195.4719133946
 11
312.5423963279
 21
209.1984235115
  0
LINE
  5
33F
100
AcDbEntity
  8
_30_VOLUMEN
100
AcDbLine
 62
7
  6
CONTINUOUS
 10
317.6307856632
 20
197.8496126715
 11
319.3408863798
 21
193.1511495675
  0
LWPOLYLINE
  5
340
100
AcDbEntity
  8
RUNDUNGEN
100
AcDbPolyline
 62
7
  6
CONTINUOUS
 90
22
 70
0
 10
311.2759901607
 20
254.7295816847
 10
311.274431015
 20
254.8272323518
 10
311.2554337246
 20
255.0957747464
 10
311.2151950169
 20
255.3593762176
 10
311.1539117059
 20
255.6183353972
 10
311.0720974306
 20
255.8715639248
 10
310.9706319396
 20
256.1169159388
 10
310.8503854868
 20
256.3526258125
 10
310.7119464997
 20
256.5780752672
 10
310.5556858673
 20
256.7926403034
 10
310.382241223
 20
256.9951256196
 10
310.1927339554
 20
257.1840711404
 10
309.9881365087
 20
257.3582302263
 10
309.7699162862
 20
257.516117033
 10
309.5395908738
 20
257.6566707751
 10
309.2981994362
 20
257.7791359639
 10
309.0477621307
 20
257.8823417824
 10
308.7901566332
 20
257.9656324022
 10
308.5260685986
 20
258.028732815
 10
308.2571372521
 20
258.0710232978
 10
307.986274821
 20
258.0921671392
 10
307.9515990066
 20
258.0933486867
  0
LINE
  5
341
100
AcDbEntity
  8
_30_VOLUMEN
100
AcDbLine
 62
7
  6
CONTINUOUS
 10
311.2759915545
 20
254.7295745433
 11
311.2759917908
 21
254.7284447891
  0
LINE
  5
342
100
AcDbEntity
  8
BEZUGSACHSEN
100
AcDbLine
 62
7
  6
CONTINUOUS
 10
311.2759917908
 20
216.3807077832
 11
311.2759917908
 21
254.7284447891
  0
LINE
  5
343
100
AcDbEntity
  8
RUNDUNGEN
100
AcDbLine
 62
7
  6
CONTINUOUS
 10
311.2759917908
 20
243.3992387759
 11
311.2759917908
 21
254.7284447891
  0
LINE
  5
344
100
AcDbEntity
  8
RUNDUNGEN
100
AcDbLine
 62
7
  6
CONTINUOUS
 10
320.2759917908
 20
187.5978962065
 11
320.2759917908
 21
181.7855446058
  0
LINE
  5
345
100
AcDbEntity
  8
_30_VOLUMEN
100
AcDbLine
 62
7
  6
CONTINUOUS
 10
316.7850623045
 20
197.5417945425
 11
317.6307856632
 21
197.8496126715
  0
LINE
  5
346
100
AcDbEntity
  8
_30_VOLUMEN
100
AcDbLine
 62
7
  6
CONTINUOUS
 10
318.4951630211
 20
192.8433314385
 11
319.3408863798
 21
193.1511495675
  0
LWPOLYLINE
  5
347
100
AcDbEntity
  8
BEZUGSACHSEN
100
AcDbPolyline
 62
7
  6
CONTINUOUS
 90
22
 70
0
 10
291.6003855784
 20
258.0933487159
 10
291.5656370157
 20
258.0921643371
 10
291.2946896332
 20
258.0710049074
 10
291.0256926706
 20
258.0286888294
 10
290.7615571045
 20
257.9655566294
 10
290.503924132
 20
257.8822326511
 10
290.2534842692
 20
257.77899836
 10
290.0121129833
 20
257.6565147393
 10
289.781826572
 20
257.5159568562
 10
289.5636640397
 20
257.3580864771
 10
289.3591471645
 20
257.1839767015
 10
289.1697259584
 20
256.99510793
 10
288.9963460075
 20
256.7927013986
 10
288.8401300103
 20
256.5782140449
 10
288.7017176802
 20
256.3528389281
 10
288.5814686387
 20
256.1171696677
 10
288.4799721687
 20
255.871797839
 10
288.3981205657
 20
255.6185095548
 10
288.3368110815
 20
255.3594920469
 10
288.2965581258
 20
255.0958488731
 10
288.277553648
 20
254.8272678894
 10
288.2759934225
 20
254.7295825821
  0
LWPOLYLINE
  5
348
100
AcDbEntity
  8
_30_VOLUMEN
100
AcDbPolyline
 62
7
  6
CONTINUOUS
 90
16
 70
0
 10
307.951599008
 20
258.0933486811
 10
307.9202413629
 20
258.0944254318
 10
307.6870893354
 20
258.1127755053
 10
307.4560766975
 20
258.1492317346
 10
307.2286073275
 20
258.2035722206
 10
307.0060635419
 20
258.2754663821
 10
306.7897976953
 20
258.3644769627
 10
306.5811238441
 20
258.4700627511
 10
306.3813100287
 20
258.5915817518
 10
306.1915705585
 20
258.7282950132
 10
306.0130585353
 20
258.8793710987
 10
305.846858123
 20
259.0438918402
 10
305.6939782859
 20
259.2208580538
 10
305.5553476144
 20
259.409194587
 10
305.4318086075
 20
259.6077565281
 10
305.3790833716
 20
259.7044489607
  0
LINE
  5
349
100
AcDbEntity
  8
0
100
AcDbLine
 62
7
  6
CONTINUOUS
 10
297.2759917908
 20
261.5855446058
 11
302.2759917908
 21
261.5855446058
  0
LINE
  5
34A
100
AcDbEntity
  8
RUNDUNGEN
100
AcDbLine
 62
7
  6
CONTINUOUS
 10
62.5503475104
 20
122.2545383817
 11
62.5503475104
 21
120.493898546
  0
LINE
  5
34B
100
AcDbEntity
  8
_30_VOLUMEN
100
AcDbLine
 62
7
  6
CONTINUOUS
 10
62.5503475104
 20
120.493898546
 11
62.5503475104
 21
107.2545383817
  0
LINE
  5
34C
100
AcDbEntity
  8
RUNDUNGEN
100
AcDbLine
 62
7
  6
CONTINUOUS
 10
62.5503475104
 20
87.2545383817
 11
62.5503475104
 21
89.0151782175
  0
LINE
  5
34D
100
AcDbEntity
  8
_30_VOLUMEN
100
AcDbLine
 62
7
  6
CONTINUOUS
 10
62.5503475104
 20
89.0151782175
 11
62.5503475104
 21
102.2545383817
  0
LINE
  5
34E
100
AcDbEntity
  8
RUNDUNGEN
100
AcDbLine
 62
7
  6
CONTINUOUS
 10
62.5503475104
 20
102.2545383817
 11
62.5503475104
 21
107.2545383817
  0
LINE
  5
34F
100
AcDbEntity
  8
0
100
AcDbLine
 62
7
  6
CONTINUOUS
 10
73.6643125084
 20
110.7545383817
 11
73.6643125084
 21
111.6545383817
  0
LINE
  5
350
100
AcDbEntity
  8
0
100
AcDbLine
 62
7
  6
CONTINUOUS
 10
74.5452262393
 20
98.7545383817
 11
74.5452262393
 21
97.8545383817
  0
LINE
  5
351
100
AcDbEntity
  8
0
100
AcDbLine
 62
7
  6
CONTINUOUS
 10
74.936184573
 20
98.7545383817
 11
74.936184573
 21
97.8545383817
  0
LINE
  5
352
100
AcDbEntity
  8
0
100
AcDbLine
 62
7
  6
CONTINUOUS
 10
75.8744710231
 20
98.7545383817
 11
75.8744710231
 21
97.8545383817
  0
LINE
  5
353
100
AcDbEntity
  8
0
100
AcDbLine
 62
7
  6
CONTINUOUS
 10
76.2654293568
 20
98.7545383817
 11
76.2654293568
 21
97.8545383817
  0
LINE
  5
354
100
AcDbEntity
  8
0
100
AcDbLine
 62
7
  6
CONTINUOUS
 10
76.3543125084
 20
110.7545383817
 11
76.3543125084
 21
111.6545383817
  0
LINE
  5
355
100
AcDbEntity
  8
0
100
AcDbLine
 62
7
  6
CONTINUOUS
 10
76.5781640697
 20
98.7545383817
 11
76.5781640697
 21
97.8545383817
  0
LINE
  5
356
100
AcDbEntity
  8
0
100
AcDbLine
 62
7
  6
CONTINUOUS
 10
76.9691167572
 20
98.7545383817
 11
76.9691167572
 21
97.8545383817
  0
LINE
  5
357
100
AcDbEntity
  8
0
100
AcDbLine
 62
7
  6
CONTINUOUS
 10
77.7963879686
 20
98.7545383817
 11
77.7963879686
 21
97.8545383817
  0
LINE
  5
358
100
AcDbEntity
  8
0
100
AcDbLine
 62
7
  6
CONTINUOUS
 10
78.3019490566
 20
98.7545383817
 11
78.3019490566
 21
97.8545383817
  0
LINE
  5
359
100
AcDbEntity
  8
0
100
AcDbLine
 62
7
  6
CONTINUOUS
 10
79.3354465746
 20
98.7545383817
 11
79.3354465746
 21
97.8545383817
  0
LINE
  5
35A
100
AcDbEntity
  8
0
100
AcDbLine
 62
7
  6
CONTINUOUS
 10
82.5574208853
 20
98.7545383817
 11
82.5574208853
 21
97.8545383817
  0
LINE
  5
35B
100
AcDbEntity
  8
0
100
AcDbLine
 62
7
  6
CONTINUOUS
 10
84.1671693682
 20
110.7545383817
 11
84.1671693682
 21
111.6545383817
  0
LINE
  5
35C
100
AcDbEntity
  8
0
100
AcDbLine
 62
7
  6
CONTINUOUS
 10
84.8024086028
 20
98.7545383817
 11
84.8024086028
 21
97.8545383817
  0
LINE
  5
35D
100
AcDbEntity
  8
0
100
AcDbLine
 62
7
  6
CONTINUOUS
 10
87.5877491189
 20
98.6806552543
 11
87.5877491189
 21
97.8545383817
  0
LWPOLYLINE
  5
35E
100
AcDbEntity
  8
_30_VOLUMEN
100
AcDbPolyline
 62
7
  6
CONTINUOUS
 90
16
 70
0
 10
89.906371682
 20
113.3253828178
 10
89.8993346414
 20
113.2792353949
 10
89.8496749298
 20
113.0350654498
 10
89.7799237555
 20
112.7958576648
 10
89.6905619009
 20
112.5632619677
 10
89.5822056574
 20
112.3388833398
 10
89.4556028262
 20
112.1242706251
 10
89.3116267682
 20
111.9209043569
 10
89.1512706942
 20
111.7301874833
 10
88.9756415427
 20
111.553436366
 10
88.7859510092
 20
111.3918701333
 10
88.583507856
 20
111.2466032199
 10
88.3697097821
 20
111.1186381161
 10
88.1460321209
 20
111.008857221
 10
87.9140178821
 20
110.9180172341
 10
87.6752681261
 20
110.846744404
  0
LINE
  5
35F
100
AcDbEntity
  8
_30_VOLUMEN
100
AcDbLine
 62
7
  6
CONTINUOUS
 10
95.9761479136
 20
85.9537313578
 11
96.8094811972
 21
85.1896437928
  0
LINE
  5
360
100
AcDbEntity
  8
_30_VOLUMEN
100
AcDbLine
 62
7
  6
CONTINUOUS
 10
98.3719811972
 20
85.7718057204
 11
98.4761480626
 21
85.5898801339
  0
LWPOLYLINE
  5
361
100
AcDbEntity
  8
BEZUGSACHSEN
100
AcDbPolyline
 62
7
  6
CONTINUOUS
 90
61
 70
0
 10
89.9063718399
 20
96.1836942529
 10
89.9107918308
 20
96.1540319689
 10
89.9270281131
 20
96.0574742988
 10
89.9458664838
 20
95.9621312316
 10
89.9672358216
 20
95.8680479523
 10
89.9910609298
 20
95.7752859165
 10
90.0172657571
 20
95.683902918
 10
90.0457799103
 20
95.5939339823
 10
90.0765276242
 20
95.5054303038
 10
90.1094326599
 20
95.4184396285
 10
90.1444263475
 20
95.3329877083
 10
90.1814333596
 20
95.2491162479
 10
90.2203782142
 20
95.1668637423
 10
90.2611947704
 20
95.0862475986
 10
90.3038089147
 20
95.0073009361
 10
90.3481467508
 20
94.9300537101
 10
90.3941454829
 20
94.8545156215
 10
90.441733121
 20
94.7807116788
 10
90.4908378061
 20
94.708664491
 10
90.5414000994
 20
94.6383777284
 10
90.5933505285
 20
94.5698692726
 10
90.6466198122
 20
94.5031549569
 10
90.7011519634
 20
94.4382333953
 10
90.7568800013
 20
94.3751165306
 10
90.8137379204
 20
94.3138136811
 10
90.8716743957
 20
94.2543180106
 10
90.9306255782
 20
94.1966359155
 10
90.9905287776
 20
94.1407713646
 10
91.0513376787
 20
94.0867128826
 10
91.1129919084
 20
94.0344619795
 10
91.1754322054
 20
93.9840181067
 10
91.2386172133
 20
93.9353661752
 10
91.3024906203
 20
93.8885031939
 10
91.3669962665
 20
93.8434250987
 10
91.4320962241
 20
93.8001149662
 10
91.4977365277
 20
93.7585669897
 10
91.5638657581
 20
93.718772858
 10
91.6304530579
 20
93.6807120349
 10
91.6974864776
 20
93.6443555065
 10
91.7648808332
 20
93.6097142514
 10
91.832495088
 20
93.5768207076
 10
91.9003214822
 20
93.5456371519
 10
91.968271424
 20
93.5161635071
 10
92.0360767797
 20
93.4884659516
 10
92.1036391256
 20
93.4625254547
 10
92.1709583075
 20
93.43828396
 10
92.2379126672
 20
93.4157272777
 10
92.3042615289
 20
93.3948703111
 10
92.370159669
 20
93.3755995192
 10
92.4361023204
 20
93.3577297827
 10
92.5024450943
 20
93.3411537144
 10
92.5687990173
 20
93.3259574047
 10
92.634600185
 20
93.3122298794
 10
92.7004642097
 20
93.2998046158
 10
92.765846997
 20
93.2887472492
 10
92.8286411458
 20
93.2792990842
 10
92.8894114877
 20
93.2712180721
 10
92.9482724648
 20
93.2643485776
 10
93.0026938493
 20
93.2587888279
 10
93.0522164585
 20
93.2543396038
 10
93.0867503662
 20
93.2515497918
  0
LINE
  5
362
100
AcDbEntity
  8
_30_VOLUMEN
100
AcDbLine
 62
7
  6
CONTINUOUS
 10
93.5803146299
 20
87.7454678681
 11
93.5803146299
 21
85.1896437928
  0
LINE
  5
363
100
AcDbEntity
  8
_30_VOLUMEN
100
AcDbLine
 62
7
  6
CONTINUOUS
 10
94.2053146299
 20
85.1896437928
 11
94.2053146299
 21
85.9537313578
  0
LINE
  5
364
100
AcDbEntity
  8
_30_VOLUMEN
100
AcDbLine
 62
7
  6
CONTINUOUS
 10
94.2053146299
 20
86.1720420616
 11
94.2053146299
 21
86.7178189229
  0
LINE
  5
365
100
AcDbEntity
  8
_30_VOLUMEN
100
AcDbLine
 62
7
  6
CONTINUOUS
 10
95.0092513399
 20
123.473709612
 11
95.0092513399
 21
124.3194329707
  0
LINE
  5
366
100
AcDbEntity
  8
_30_VOLUMEN
100
AcDbLine
 62
7
  6
CONTINUOUS
 10
96.0803146299
 20
87.7454678681
 11
96.0803146299
 21
86.8997445094
  0
LINE
  5
367
100
AcDbEntity
  8
_30_VOLUMEN
100
AcDbLine
 62
7
  6
CONTINUOUS
 10
96.1844811972
 20
86.7178189229
 11
96.1844811972
 21
86.1720420616
  0
LINE
  5
368
100
AcDbEntity
  8
_30_VOLUMEN
100
AcDbLine
 62
7
  6
CONTINUOUS
 10
96.4969811972
 20
86.6814338056
 11
96.4969811972
 21
86.2084271789
  0
LINE
  5
369
100
AcDbEntity
  8
_30_VOLUMEN
100
AcDbLine
 62
7
  6
CONTINUOUS
 10
96.6011480626
 20
87.7090827508
 11
96.6011480626
 21
86.8633593921
  0
LINE
  5
36A
100
AcDbEntity
  8
_30_VOLUMEN
100
AcDbLine
 62
7
  6
CONTINUOUS
 10
96.6759164171
 20
121.7636088954
 11
96.6759164171
 21
122.6093322541
  0
LINE
  5
36B
100
AcDbEntity
  8
_30_VOLUMEN
100
AcDbLine
 62
7
  6
CONTINUOUS
 10
96.7053146299
 20
86.608663571
 11
96.7053146299
 21
86.2811974135
  0
LINE
  5
36C
100
AcDbEntity
  8
_30_VOLUMEN
100
AcDbLine
 62
7
  6
CONTINUOUS
 10
96.8094811972
 20
86.4995082192
 11
96.8094811972
 21
86.3903527654
  0
LINE
  5
36D
100
AcDbEntity
  8
_30_VOLUMEN
100
AcDbLine
 62
7
  6
CONTINUOUS
 10
97.0178146299
 20
87.5999273989
 11
97.0178146299
 21
86.7542040402
  0
LINE
  5
36E
100
AcDbEntity
  8
_30_VOLUMEN
100
AcDbLine
 62
7
  6
CONTINUOUS
 10
97.3303146299
 20
87.4543869298
 11
97.3303146299
 21
86.608663571
  0
LINE
  5
36F
100
AcDbEntity
  8
_30_VOLUMEN
100
AcDbLine
 62
7
  6
CONTINUOUS
 10
97.4344811972
 20
86.3539676481
 11
97.4344811972
 21
87.3452315779
  0
LINE
  5
370
100
AcDbEntity
  8
_30_VOLUMEN
100
AcDbLine
 62
7
  6
CONTINUOUS
 10
97.5092513399
 20
121.7636088954
 11
97.5092513399
 21
122.6093322541
  0
LINE
  5
371
100
AcDbEntity
  8
_30_VOLUMEN
100
AcDbLine
 62
7
  6
CONTINUOUS
 10
97.5386480626
 20
86.0353671515
 11
97.5386480626
 21
85.1896437928
  0
LINE
  5
372
100
AcDbEntity
  8
_30_VOLUMEN
100
AcDbLine
 62
7
  6
CONTINUOUS
 10
98.5509164171
 20
124.3194329707
 11
98.1342513399
 21
123.8828115122
  0
LINE
  5
373
100
AcDbEntity
  8
_30_VOLUMEN
100
AcDbLine
 62
7
  6
CONTINUOUS
 10
98.0300862626
 20
123.7372710431
 11
97.0925862626
 21
122.7548727233
  0
LINE
  5
374
100
AcDbEntity
  8
_30_VOLUMEN
100
AcDbLine
 62
7
  6
CONTINUOUS
 10
100.1134164171
 20
124.0283520069
 11
100.0092513399
 21
123.9191966295
  0
LINE
  5
375
100
AcDbEntity
  8
_30_VOLUMEN
100
AcDbLine
 62
7
  6
CONTINUOUS
 10
100.6342513399
 20
123.8828115122
 11
100.7384164171
 21
123.9919668641
  0
LINE
  5
376
100
AcDbEntity
  8
_30_VOLUMEN
100
AcDbLine
 62
7
  6
CONTINUOUS
 10
100.1134164171
 20
123.2642644673
 11
100.0092513399
 21
123.1551091154
  0
LINE
  5
377
100
AcDbEntity
  8
_30_VOLUMEN
100
AcDbLine
 62
7
  6
CONTINUOUS
 10
100.6342513399
 20
123.1187239981
 11
100.7384164171
 21
123.22787935
  0
LINE
  5
378
100
AcDbEntity
  8
_30_VOLUMEN
100
AcDbLine
 62
7
  6
CONTINUOUS
 10
97.5092513399
 20
122.6093322541
 11
99.1759164171
 21
124.3194329707
  0
LINE
  5
379
100
AcDbEntity
  8
_30_VOLUMEN
100
AcDbLine
 62
7
  6
CONTINUOUS
 10
97.5092513399
 20
121.7636088954
 11
99.1759164171
 21
123.473709612
  0
LINE
  5
37A
100
AcDbEntity
  8
_30_VOLUMEN
100
AcDbLine
 62
7
  6
CONTINUOUS
 10
98.4761480626
 20
85.5898801339
 11
98.6844814952
 21
85.4443396393
  0
LINE
  5
37B
100
AcDbEntity
  8
_30_VOLUMEN
100
AcDbLine
 62
7
  6
CONTINUOUS
 10
97.5386480626
 20
85.1896437928
 11
96.6011480626
 21
86.0265015924
  0
LINE
  5
37C
100
AcDbEntity
  8
_30_VOLUMEN
100
AcDbLine
 62
7
  6
CONTINUOUS
 10
97.5386480626
 20
86.0353671515
 11
97.3186515887
 21
86.2317466342
  0
LINE
  5
37D
100
AcDbEntity
  8
_30_VOLUMEN
100
AcDbLine
 62
7
  6
CONTINUOUS
 10
96.7053146299
 20
86.608663571
 11
96.8094811972
 21
86.4995082192
  0
LINE
  5
37E
100
AcDbEntity
  8
_30_VOLUMEN
100
AcDbLine
 62
7
  6
CONTINUOUS
 10
97.4344811972
 20
86.4995082192
 11
97.3303146299
 21
86.608663571
  0
LINE
  5
37F
100
AcDbEntity
  8
_30_VOLUMEN
100
AcDbLine
 62
7
  6
CONTINUOUS
 10
97.4344811972
 20
87.3452315779
 11
97.3303146299
 21
87.4543869298
  0
LINE
  5
380
100
AcDbEntity
  8
_30_VOLUMEN
100
AcDbLine
 62
7
  6
CONTINUOUS
 10
99.1011477645
 20
85.6262652512
 11
98.9969814952
 21
85.7718057204
  0
LINE
  5
381
100
AcDbEntity
  8
_30_VOLUMEN
100
AcDbLine
 62
7
  6
CONTINUOUS
 10
99.1011477645
 20
86.4719886099
 11
98.9969814952
 21
86.6175290791
  0
LINE
  5
382
100
AcDbEntity
  8
_30_VOLUMEN
100
AcDbLine
 62
7
  6
CONTINUOUS
 10
98.3719811972
 20
87.7454678681
 11
98.3719811972
 21
85.7718057204
  0
LINE
  5
383
100
AcDbEntity
  8
_30_VOLUMEN
100
AcDbLine
 62
7
  6
CONTINUOUS
 10
98.9969814952
 20
85.7718057204
 11
98.9969814952
 21
87.7454678681
  0
LINE
  5
384
100
AcDbEntity
  8
_30_VOLUMEN
100
AcDbLine
 62
7
  6
CONTINUOUS
 10
99.1011477645
 20
86.4719886099
 11
99.1011477645
 21
85.6262652512
  0
LINE
  5
385
100
AcDbEntity
  8
_30_VOLUMEN
100
AcDbLine
 62
7
  6
CONTINUOUS
 10
99.1759164171
 20
123.473709612
 11
99.1759164171
 21
124.3194329707
  0
LINE
  5
386
100
AcDbEntity
  8
_30_VOLUMEN
100
AcDbLine
 62
7
  6
CONTINUOUS
 10
99.3094814952
 20
86.3628332581
 11
99.3094814952
 21
85.5171098994
  0
LINE
  5
387
100
AcDbEntity
  8
_30_VOLUMEN
100
AcDbLine
 62
7
  6
CONTINUOUS
 10
99.6219814952
 20
86.290062998
 11
99.6219814952
 21
85.4443396393
  0
LINE
  5
388
100
AcDbEntity
  8
_30_VOLUMEN
100
AcDbLine
 62
7
  6
CONTINUOUS
 10
100.0092513399
 20
122.1638451856
 11
100.0092513399
 21
123.9191966295
  0
LINE
  5
389
100
AcDbEntity
  8
_30_VOLUMEN
100
AcDbLine
 62
7
  6
CONTINUOUS
 10
100.0386477645
 20
86.2536778807
 11
100.0386477645
 21
85.407954522
  0
LINE
  5
38A
100
AcDbEntity
  8
_30_VOLUMEN
100
AcDbLine
 62
7
  6
CONTINUOUS
 10
100.1134164171
 20
122.0546898337
 11
100.1134164171
 21
122.9004131924
  0
LINE
  5
38B
100
AcDbEntity
  8
_30_VOLUMEN
100
AcDbLine
 62
7
  6
CONTINUOUS
 10
100.1134164171
 20
123.2642644673
 11
100.1134164171
 21
123.6281156402
  0
LINE
  5
38C
100
AcDbEntity
  8
_30_VOLUMEN
100
AcDbLine
 62
7
  6
CONTINUOUS
 10
100.4259164171
 20
121.9091493646
 11
100.4259164171
 21
122.7548727233
  0
LINE
  5
38D
100
AcDbEntity
  8
_30_VOLUMEN
100
AcDbLine
 62
7
  6
CONTINUOUS
 10
100.4259164171
 20
123.4098049365
 11
100.4259164171
 21
123.4825751711
  0
LINE
  5
38E
100
AcDbEntity
  8
_30_VOLUMEN
100
AcDbLine
 62
7
  6
CONTINUOUS
 10
100.4553146299
 20
86.2536778807
 11
100.4553146299
 21
85.407954522
  0
LINE
  5
38F
100
AcDbEntity
  8
_30_VOLUMEN
100
AcDbLine
 62
7
  6
CONTINUOUS
 10
100.6342513399
 20
123.0459537635
 11
100.6342513399
 21
123.1187239981
  0
LINE
  5
390
100
AcDbEntity
  8
_30_VOLUMEN
100
AcDbLine
 62
7
  6
CONTINUOUS
 10
100.6342513399
 20
123.7736561604
 11
100.6342513399
 21
123.8828115122
  0
LINE
  5
391
100
AcDbEntity
  8
_30_VOLUMEN
100
AcDbLine
 62
7
  6
CONTINUOUS
 10
100.7384164171
 20
122.9367983097
 11
100.7384164171
 21
123.22787935
  0
LINE
  5
392
100
AcDbEntity
  8
_30_VOLUMEN
100
AcDbLine
 62
7
  6
CONTINUOUS
 10
100.7384164171
 20
123.6645007575
 11
100.7384164171
 21
123.9919668641
  0
LINE
  5
393
100
AcDbEntity
  8
_30_VOLUMEN
100
AcDbLine
 62
7
  6
CONTINUOUS
 10
100.8425862626
 20
121.7999940127
 11
100.8425862626
 21
122.6457173714
  0
LINE
  5
394
100
AcDbEntity
  8
_30_VOLUMEN
100
AcDbLine
 62
7
  6
CONTINUOUS
 10
100.8719814952
 20
86.290062998
 11
100.8719814952
 21
85.4443396393
  0
LINE
  5
395
100
AcDbEntity
  8
_30_VOLUMEN
100
AcDbLine
 62
7
  6
CONTINUOUS
 10
100.9467513399
 20
122.8640280751
 11
100.9467513399
 21
123.3006495846
  0
LINE
  5
396
100
AcDbEntity
  8
_30_VOLUMEN
100
AcDbLine
 62
7
  6
CONTINUOUS
 10
100.9467513399
 20
123.5917305229
 11
100.9467513399
 21
124.0647371242
  0
LINE
  5
397
100
AcDbEntity
  8
_30_VOLUMEN
100
AcDbLine
 62
7
  6
CONTINUOUS
 10
101.1844814952
 20
86.3628332581
 11
101.1844814952
 21
85.5171098994
  0
LINE
  5
398
100
AcDbEntity
  8
_30_VOLUMEN
100
AcDbLine
 62
7
  6
CONTINUOUS
 10
101.2592513399
 20
122.8276429579
 11
101.2592513399
 21
123.3370347019
  0
LINE
  5
399
100
AcDbEntity
  8
_30_VOLUMEN
100
AcDbLine
 62
7
  6
CONTINUOUS
 10
101.2592513399
 20
123.5553454056
 11
101.2592513399
 21
124.1011222415
  0
LINE
  5
39A
100
AcDbEntity
  8
_30_VOLUMEN
100
AcDbLine
 62
7
  6
CONTINUOUS
 10
101.3634164171
 20
121.7636088954
 11
101.3634164171
 21
122.6093322541
  0
LINE
  5
39B
100
AcDbEntity
  8
_30_VOLUMEN
100
AcDbLine
 62
7
  6
CONTINUOUS
 10
101.3928146299
 20
86.4719886099
 11
101.3928146299
 21
85.6262652512
  0
LINE
  5
39C
100
AcDbEntity
  8
_30_VOLUMEN
100
AcDbLine
 62
7
  6
CONTINUOUS
 10
101.4969814952
 20
87.7454678681
 11
101.4969814952
 21
85.7718057204
  0
LINE
  5
39D
100
AcDbEntity
  8
_30_VOLUMEN
100
AcDbLine
 62
7
  6
CONTINUOUS
 10
102.1219814952
 20
85.7718057204
 11
102.1219814952
 21
87.7454678681
  0
LINE
  5
39E
100
AcDbEntity
  8
_30_VOLUMEN
100
AcDbLine
 62
7
  6
CONTINUOUS
 10
102.9553146299
 20
87.7454678681
 11
102.9553146299
 21
85.1896437928
  0
LINE
  5
39F
100
AcDbEntity
  8
_30_VOLUMEN
100
AcDbLine
 62
7
  6
CONTINUOUS
 10
108.2384164171
 20
124.3194329707
 11
107.8217513399
 21
123.8828115122
  0
LINE
  5
3A0
100
AcDbEntity
  8
_30_VOLUMEN
100
AcDbLine
 62
7
  6
CONTINUOUS
 10
107.7175862626
 20
123.7372710431
 11
106.7800862626
 21
122.7548727233
  0
LINE
  5
3A1
100
AcDbEntity
  8
_30_VOLUMEN
100
AcDbLine
 62
7
  6
CONTINUOUS
 10
107.1967513399
 20
122.6093322541
 11
108.8634164171
 21
124.3194329707
  0
LINE
  5
3A2
100
AcDbEntity
  8
_30_VOLUMEN
100
AcDbLine
 62
7
  6
CONTINUOUS
 10
107.1967513399
 20
121.7636088954
 11
108.8634164171
 21
123.473709612
  0
LINE
  5
3A3
100
AcDbEntity
  8
_30_VOLUMEN
100
AcDbLine
 62
7
  6
CONTINUOUS
 10
100.4259164171
 20
124.1738924888
 11
100.1134164171
 21
124.0283520069
  0
LINE
  5
3A4
100
AcDbEntity
  8
_30_VOLUMEN
100
AcDbLine
 62
7
  6
CONTINUOUS
 10
100.4259164171
 20
123.4098049365
 11
100.1134164171
 21
123.2642644673
  0
LINE
  5
3A5
100
AcDbEntity
  8
_30_VOLUMEN
100
AcDbLine
 62
7
  6
CONTINUOUS
 10
100.7384164171
 20
123.9919668641
 11
100.9467513399
 21
124.0647371242
  0
LINE
  5
3A6
100
AcDbEntity
  8
_30_VOLUMEN
100
AcDbLine
 62
7
  6
CONTINUOUS
 10
98.6844814952
 20
85.4443396393
 11
99.1011477645
 21
85.2987991574
  0
LINE
  5
3A7
100
AcDbEntity
  8
_30_VOLUMEN
100
AcDbLine
 62
7
  6
CONTINUOUS
 10
96.4969811972
 20
86.6814338056
 11
96.7053146299
 21
86.608663571
  0
LINE
  5
3A8
100
AcDbEntity
  8
_30_VOLUMEN
100
AcDbLine
 62
7
  6
CONTINUOUS
 10
97.3303146299
 20
86.608663571
 11
97.0178146299
 21
86.7542040402
  0
LINE
  5
3A9
100
AcDbEntity
  8
_30_VOLUMEN
100
AcDbLine
 62
7
  6
CONTINUOUS
 10
97.3303146299
 20
87.4543869298
 11
97.0178146299
 21
87.5999273989
  0
LINE
  5
3AA
100
AcDbEntity
  8
_30_VOLUMEN
100
AcDbLine
 62
7
  6
CONTINUOUS
 10
99.3094814952
 20
85.5171098994
 11
99.1011477645
 21
85.6262652512
  0
LINE
  5
3AB
100
AcDbEntity
  8
_30_VOLUMEN
100
AcDbLine
 62
7
  6
CONTINUOUS
 10
99.3094814952
 20
86.3628332581
 11
99.1011477645
 21
86.4719886099
  0
LINE
  5
3AC
100
AcDbEntity
  8
_30_VOLUMEN
100
AcDbLine
 62
7
  6
CONTINUOUS
 10
107.0178146299
 20
86.4995082192
 11
106.8094808992
 21
86.6450486883
  0
LINE
  5
3AD
100
AcDbEntity
  8
_30_VOLUMEN
100
AcDbLine
 62
7
  6
CONTINUOUS
 10
107.0178146299
 20
87.3452315779
 11
106.8094808992
 21
87.490772047
  0
LINE
  5
3AE
100
AcDbEntity
  8
_30_VOLUMEN
100
AcDbLine
 62
7
  6
CONTINUOUS
 10
106.3928146299
 20
86.4631229999
 11
106.4969808992
 21
86.3175825308
  0
LINE
  5
3AF
100
AcDbEntity
  8
_30_VOLUMEN
100
AcDbLine
 62
7
  6
CONTINUOUS
 10
107.1219808992
 20
86.3175825308
 11
107.0178146299
 21
86.4995082192
  0
LINE
  5
3B0
100
AcDbEntity
  8
_30_VOLUMEN
100
AcDbLine
 62
7
  6
CONTINUOUS
 10
107.1219808992
 20
87.1633058895
 11
107.0178146299
 21
87.3452315779
  0
LINE
  5
3B1
100
AcDbEntity
  8
_30_VOLUMEN
100
AcDbLine
 62
7
  6
CONTINUOUS
 10
103.2384164171
 20
124.1011222415
 11
103.2384164171
 21
123.5553454056
  0
LINE
  5
3B2
100
AcDbEntity
  8
_30_VOLUMEN
100
AcDbLine
 62
7
  6
CONTINUOUS
 10
103.2384164171
 20
123.3370347019
 11
103.2384164171
 21
122.8276429579
  0
LINE
  5
3B3
100
AcDbEntity
  8
_30_VOLUMEN
100
AcDbLine
 62
7
  6
CONTINUOUS
 10
103.5803146299
 20
85.407954522
 11
103.5803146299
 21
86.6814338056
  0
LINE
  5
3B4
100
AcDbEntity
  8
_30_VOLUMEN
100
AcDbLine
 62
7
  6
CONTINUOUS
 10
103.8634164171
 20
121.7636088954
 11
103.8634164171
 21
124.3194329707
  0
LINE
  5
3B5
100
AcDbEntity
  8
_30_VOLUMEN
100
AcDbLine
 62
7
  6
CONTINUOUS
 10
104.6967513399
 20
123.473709612
 11
104.6967513399
 21
124.3194329707
  0
LINE
  5
3B6
100
AcDbEntity
  8
_30_VOLUMEN
100
AcDbLine
 62
7
  6
CONTINUOUS
 10
105.4553146299
 20
87.7454678681
 11
105.4553146299
 21
86.8997445094
  0
LINE
  5
3B7
100
AcDbEntity
  8
_30_VOLUMEN
100
AcDbLine
 62
7
  6
CONTINUOUS
 10
105.4553146299
 20
86.2536778807
 11
105.4553146299
 21
85.407954522
  0
LINE
  5
3B8
100
AcDbEntity
  8
_30_VOLUMEN
100
AcDbLine
 62
7
  6
CONTINUOUS
 10
105.8719808992
 20
86.290062998
 11
105.8719808992
 21
85.4443396393
  0
LINE
  5
3B9
100
AcDbEntity
  8
_30_VOLUMEN
100
AcDbLine
 62
7
  6
CONTINUOUS
 10
105.9761483606
 20
87.7090827508
 11
105.9761483606
 21
86.8633593921
  0
LINE
  5
3BA
100
AcDbEntity
  8
_30_VOLUMEN
100
AcDbLine
 62
7
  6
CONTINUOUS
 10
106.1844808992
 20
86.3628332581
 11
106.1844808992
 21
85.5171098994
  0
LINE
  5
3BB
100
AcDbEntity
  8
_30_VOLUMEN
100
AcDbLine
 62
7
  6
CONTINUOUS
 10
106.3634164171
 20
121.7636088954
 11
106.3634164171
 21
122.6093322541
  0
LINE
  5
3BC
100
AcDbEntity
  8
_30_VOLUMEN
100
AcDbLine
 62
7
  6
CONTINUOUS
 10
106.3928146299
 20
87.6363125162
 11
106.3928146299
 21
86.7905891575
  0
LINE
  5
3BD
100
AcDbEntity
  8
_30_VOLUMEN
100
AcDbLine
 62
7
  6
CONTINUOUS
 10
106.3928146299
 20
86.4719886099
 11
106.3928146299
 21
85.6262652512
  0
LINE
  5
3BE
100
AcDbEntity
  8
_30_VOLUMEN
100
AcDbLine
 62
7
  6
CONTINUOUS
 10
106.4969808992
 20
86.3175825308
 11
106.4969808992
 21
85.7718057204
  0
LINE
  5
3BF
100
AcDbEntity
  8
_30_VOLUMEN
100
AcDbLine
 62
7
  6
CONTINUOUS
 10
106.8094808992
 20
87.490772047
 11
106.8094808992
 21
86.6450486883
  0
LINE
  5
3C0
100
AcDbEntity
  8
_30_VOLUMEN
100
AcDbLine
 62
7
  6
CONTINUOUS
 10
107.0178146299
 20
87.3452315779
 11
107.0178146299
 21
86.4995082192
  0
LINE
  5
3C1
100
AcDbEntity
  8
_30_VOLUMEN
100
AcDbLine
 62
7
  6
CONTINUOUS
 10
107.1219808992
 20
85.7718057204
 11
107.1219808992
 21
87.1633058895
  0
LINE
  5
3C2
100
AcDbEntity
  8
_30_VOLUMEN
100
AcDbLine
 62
7
  6
CONTINUOUS
 10
107.1967513399
 20
121.7636088954
 11
107.1967513399
 21
122.6093322541
  0
LINE
  5
3C3
100
AcDbEntity
  8
_30_VOLUMEN
100
AcDbLine
 62
7
  6
CONTINUOUS
 10
93.6528869764
 20
116.4412965945
 11
93.652044628
 21
116.4408544214
  0
LINE
  5
3C4
100
AcDbEntity
  8
BEZUGSACHSEN
100
AcDbLine
 62
7
  6
CONTINUOUS
 10
93.652044628
 20
116.4408544214
 11
93.6111490544
 21
116.4198961754
  0
LWPOLYLINE
  5
3C5
100
AcDbEntity
  8
BEZUGSACHSEN
100
AcDbPolyline
 62
7
  6
CONTINUOUS
 90
4
 70
0
 10
93.6111490544
 20
116.4198961754
 10
93.5332000253
 20
116.382818411
 10
93.4575182407
 20
116.350608424
 10
93.384239456
 20
116.3232288804
  0
LINE
  5
3C6
100
AcDbEntity
  8
_30_VOLUMEN
100
AcDbLine
 62
7
  6
CONTINUOUS
 10
100.7384164171
 20
123.22787935
 11
100.9467513399
 21
123.3006495846
  0
LINE
  5
3C7
100
AcDbEntity
  8
_30_VOLUMEN
100
AcDbLine
 62
7
  6
CONTINUOUS
 10
99.1011477645
 20
85.2987991574
 11
99.5178146299
 21
85.2260289132
  0
LINE
  5
3C8
100
AcDbEntity
  8
_30_VOLUMEN
100
AcDbLine
 62
7
  6
CONTINUOUS
 10
99.6219814952
 20
85.4443396393
 11
99.3094814952
 21
85.5171098994
  0
LINE
  5
3C9
100
AcDbEntity
  8
_30_VOLUMEN
100
AcDbLine
 62
7
  6
CONTINUOUS
 10
99.6219814952
 20
86.290062998
 11
99.3094814952
 21
86.3628332581
  0
LINE
  5
3CA
100
AcDbEntity
  8
_30_VOLUMEN
100
AcDbLine
 62
7
  6
CONTINUOUS
 10
105.8719808992
 20
86.6450486883
 11
106.1844808992
 21
86.5722784538
  0
LINE
  5
3CB
100
AcDbEntity
  8
_30_VOLUMEN
100
AcDbLine
 62
7
  6
CONTINUOUS
 10
97.0178146299
 20
86.7542040402
 11
96.6011480626
 21
86.8633593921
  0
LINE
  5
3CC
100
AcDbEntity
  8
_30_VOLUMEN
100
AcDbLine
 62
7
  6
CONTINUOUS
 10
97.0178146299
 20
87.5999273989
 11
96.6011480626
 21
87.7090827508
  0
LINE
  5
3CD
100
AcDbEntity
  8
_30_VOLUMEN
100
AcDbLine
 62
7
  6
CONTINUOUS
 10
106.8094808992
 20
86.6450486883
 11
106.3928146299
 21
86.7905891575
  0
LINE
  5
3CE
100
AcDbEntity
  8
_30_VOLUMEN
100
AcDbLine
 62
7
  6
CONTINUOUS
 10
106.8094808992
 20
87.490772047
 11
106.3928146299
 21
87.6363125162
  0
LINE
  5
3CF
100
AcDbEntity
  8
BEZUGSACHSEN
100
AcDbLine
 62
7
  6
CONTINUOUS
 10
93.4570262781
 20
93.158664953
 11
93.5328059005
 21
93.126435968
  0
LINE
  5
3D0
100
AcDbEntity
  8
BEZUGSACHSEN
100
AcDbLine
 62
7
  6
CONTINUOUS
 10
93.5328059005
 20
93.126435968
 11
93.6109177513
 21
93.0892962286
  0
LINE
  5
3D1
100
AcDbEntity
  8
BEZUGSACHSEN
100
AcDbLine
 62
7
  6
CONTINUOUS
 10
93.6109177513
 20
93.0892962286
 11
93.6520533096
 21
93.068217783
  0
LINE
  5
3D2
100
AcDbEntity
  8
_30_VOLUMEN
100
AcDbLine
 62
7
  6
CONTINUOUS
 10
106.1844808992
 20
86.5722784538
 11
106.3928146299
 21
86.4631229999
  0
LINE
  5
3D3
100
AcDbEntity
  8
_30_VOLUMEN
100
AcDbLine
 62
7
  6
CONTINUOUS
 10
93.6528968946
 20
93.0677749648
 11
93.6520533096
 21
93.068217783
  0
LINE
  5
3D4
100
AcDbEntity
  8
_30_VOLUMEN
100
AcDbLine
 62
7
  6
CONTINUOUS
 10
108.8634164171
 20
123.473709612
 11
108.8634164171
 21
124.3194329707
  0
LWPOLYLINE
  5
3D5
100
AcDbEntity
  8
BEZUGSACHSEN
100
AcDbPolyline
 62
7
  6
CONTINUOUS
 90
4
 70
0
 10
93.384239456
 20
116.3232288804
 10
93.3138166743
 20
116.3007218978
 10
93.2468921161
 20
116.2830752358
 10
93.1835466829
 20
116.2700136694
  0
LINE
  5
3D6
100
AcDbEntity
  8
RUNDUNGEN
100
AcDbLine
 62
7
  6
CONTINUOUS
 10
65.5503475104
 20
84.2545383817
 11
196.5503475104
 21
84.2545383817
  0
LINE
  5
3D7
100
AcDbEntity
  8
_30_VOLUMEN
100
AcDbLine
 62
7
  6
CONTINUOUS
 10
93.5803146299
 20
85.1896437928
 11
94.2053146299
 21
85.1896437928
  0
LINE
  5
3D8
100
AcDbEntity
  8
_30_VOLUMEN
100
AcDbLine
 62
7
  6
CONTINUOUS
 10
96.8094811972
 20
85.1896437928
 11
97.5386480626
 21
85.1896437928
  0
LINE
  5
3D9
100
AcDbEntity
  8
_30_VOLUMEN
100
AcDbLine
 62
7
  6
CONTINUOUS
 10
100.0386477645
 20
85.1896437928
 11
100.4553146299
 21
85.1896437928
  0
LINE
  5
3DA
100
AcDbEntity
  8
_30_VOLUMEN
100
AcDbLine
 62
7
  6
CONTINUOUS
 10
102.9553146299
 20
85.1896437928
 11
105.4553146299
 21
85.1896437928
  0
LINE
  5
3DB
100
AcDbEntity
  8
_30_VOLUMEN
100
AcDbLine
 62
7
  6
CONTINUOUS
 10
105.4553146299
 20
85.407954522
 11
103.5803146299
 21
85.407954522
  0
LINE
  5
3DC
100
AcDbEntity
  8
_30_VOLUMEN
100
AcDbLine
 62
7
  6
CONTINUOUS
 10
100.4553146299
 20
85.407954522
 11
100.0386477645
 21
85.407954522
  0
LINE
  5
3DD
100
AcDbEntity
  8
_30_VOLUMEN
100
AcDbLine
 62
7
  6
CONTINUOUS
 10
94.2053146299
 20
85.9537313578
 11
95.9761479136
 21
85.9537313578
  0
LINE
  5
3DE
100
AcDbEntity
  8
_30_VOLUMEN
100
AcDbLine
 62
7
  6
CONTINUOUS
 10
96.1844811972
 20
86.1720420616
 11
94.2053146299
 21
86.1720420616
  0
LINE
  5
3DF
100
AcDbEntity
  8
_30_VOLUMEN
100
AcDbLine
 62
7
  6
CONTINUOUS
 10
105.4553146299
 20
86.2536778807
 11
103.5803146299
 21
86.2536778807
  0
LINE
  5
3E0
100
AcDbEntity
  8
_30_VOLUMEN
100
AcDbLine
 62
7
  6
CONTINUOUS
 10
100.4553146299
 20
86.2536778807
 11
100.0386477645
 21
86.2536778807
  0
LINE
  5
3E1
100
AcDbEntity
  8
_30_VOLUMEN
100
AcDbLine
 62
7
  6
CONTINUOUS
 10
99.5178146299
 20
85.2260289132
 11
100.0386477645
 21
85.1896437928
  0
LINE
  5
3E2
100
AcDbEntity
  8
_30_VOLUMEN
100
AcDbLine
 62
7
  6
CONTINUOUS
 10
96.6011480626
 20
86.8633593921
 11
96.0803146299
 21
86.8997445094
  0
LINE
  5
3E3
100
AcDbEntity
  8
_30_VOLUMEN
100
AcDbLine
 62
7
  6
CONTINUOUS
 10
105.9761483606
 20
86.8633593921
 11
105.4553146299
 21
86.8997445094
  0
LINE
  5
3E4
100
AcDbEntity
  8
_30_VOLUMEN
100
AcDbLine
 62
7
  6
CONTINUOUS
 10
96.6011480626
 20
87.7090827508
 11
96.0803146299
 21
87.7454678681
  0
LINE
  5
3E5
100
AcDbEntity
  8
_30_VOLUMEN
100
AcDbLine
 62
7
  6
CONTINUOUS
 10
105.9761483606
 20
87.7090827508
 11
105.4553146299
 21
87.7454678681
  0
LINE
  5
3E6
100
AcDbEntity
  8
_30_VOLUMEN
100
AcDbLine
 62
7
  6
CONTINUOUS
 10
100.0386477645
 20
85.407954522
 11
99.6219814952
 21
85.4443396393
  0
LINE
  5
3E7
100
AcDbEntity
  8
_30_VOLUMEN
100
AcDbLine
 62
7
  6
CONTINUOUS
 10
100.0386477645
 20
86.2536778807
 11
99.6219814952
 21
86.290062998
  0
LINE
  5
3E8
100
AcDbEntity
  8
_30_VOLUMEN
100
AcDbLine
 62
7
  6
CONTINUOUS
 10
105.4553146299
 20
86.6814338056
 11
105.8719808992
 21
86.6450486883
  0
LINE
  5
3E9
100
AcDbEntity
  8
_30_VOLUMEN
100
AcDbLine
 62
7
  6
CONTINUOUS
 10
96.1844811972
 20
86.7178189229
 11
96.4969811972
 21
86.6814338056
  0
LINE
  5
3EA
100
AcDbEntity
  8
_30_VOLUMEN
100
AcDbLine
 62
7
  6
CONTINUOUS
 10
106.3928146299
 20
86.7905891575
 11
105.9761483606
 21
86.8633593921
  0
LINE
  5
3EB
100
AcDbEntity
  8
_30_VOLUMEN
100
AcDbLine
 62
7
  6
CONTINUOUS
 10
106.3928146299
 20
87.6363125162
 11
105.9761483606
 21
87.7090827508
  0
LINE
  5
3EC
100
AcDbEntity
  8
_30_VOLUMEN
100
AcDbLine
 62
7
  6
CONTINUOUS
 10
102.0178146299
 20
85.5898801339
 11
102.1219814952
 21
85.7718057204
  0
LINE
  5
3ED
100
AcDbEntity
  8
_30_VOLUMEN
100
AcDbLine
 62
7
  6
CONTINUOUS
 10
174.4254268946
 20
98.6623323595
 11
174.6692649761
 21
98.7135469847
  0
LINE
  5
3EE
100
AcDbEntity
  8
_30_VOLUMEN
100
AcDbLine
 62
7
  6
CONTINUOUS
 10
105.9761483606
 20
85.2260289132
 11
106.3928146299
 21
85.2987991574
  0
LINE
  5
3EF
100
AcDbEntity
  8
_30_VOLUMEN
100
AcDbLine
 62
7
  6
CONTINUOUS
 10
100.9761477645
 20
85.2260289132
 11
101.3928146299
 21
85.2987991574
  0
LINE
  5
3F0
100
AcDbEntity
  8
RUNDUNGEN
100
AcDbLine
 62
7
  6
CONTINUOUS
 10
168.9171483378
 20
93.2390630941
 11
168.9773045122
 21
93.247931881
  0
LINE
  5
3F1
100
AcDbEntity
  8
_30_VOLUMEN
100
AcDbLine
 62
7
  6
CONTINUOUS
 10
96.4969811972
 20
86.2084271789
 11
96.1844811972
 21
86.1720420616
  0
LINE
  5
3F2
100
AcDbEntity
  8
RUNDUNGEN
100
AcDbLine
 62
7
  6
CONTINUOUS
 10
168.9773045122
 20
93.247931881
 11
169.0162789509
 21
93.2517300327
  0
LINE
  5
3F3
100
AcDbEntity
  8
_30_VOLUMEN
100
AcDbLine
 62
7
  6
CONTINUOUS
 10
105.8719808992
 20
85.4443396393
 11
105.4553146299
 21
85.407954522
  0
LINE
  5
3F4
100
AcDbEntity
  8
_30_VOLUMEN
100
AcDbLine
 62
7
  6
CONTINUOUS
 10
100.8719814952
 20
85.4443396393
 11
100.4553146299
 21
85.407954522
  0
LINE
  5
3F5
100
AcDbEntity
  8
_30_VOLUMEN
100
AcDbLine
 62
7
  6
CONTINUOUS
 10
105.8719808992
 20
86.290062998
 11
105.4553146299
 21
86.2536778807
  0
LINE
  5
3F6
100
AcDbEntity
  8
_30_VOLUMEN
100
AcDbLine
 62
7
  6
CONTINUOUS
 10
100.8719814952
 20
86.290062998
 11
100.4553146299
 21
86.2536778807
  0
LWPOLYLINE
  5
3F7
100
AcDbEntity
  8
RUNDUNGEN
100
AcDbPolyline
 62
7
  6
CONTINUOUS
 90
61
 70
0
 10
169.013949272
 20
93.2515501475
 10
169.0481020798
 20
93.254307857
 10
169.0974114161
 20
93.2587325353
 10
169.1515801056
 20
93.2642568575
 10
169.2101552985
 20
93.2710776808
 10
169.2706424396
 20
93.2790996725
 10
169.3331641224
 20
93.2884790361
 10
169.3982765981
 20
93.2994558055
 10
169.4638874635
 20
93.3117922773
 10
169.5294647105
 20
93.3254265457
 10
169.5956132776
 20
93.3405236485
 10
169.6617504787
 20
93.3569909811
 10
169.7274830491
 20
93.3747413555
 10
169.7931719403
 20
93.3938828943
 10
169.8593081156
 20
93.4145984691
 10
169.9260438291
 20
93.4369997903
 10
169.9931421909
 20
93.4610726276
 10
170.0604867022
 20
93.4868325787
 10
170.1280785474
 20
93.5143377886
 10
170.1958190509
 20
93.5436069035
 10
170.2634426311
 20
93.574574949
 10
170.3308615292
 20
93.6072423306
 10
170.3980680839
 20
93.6416466156
 10
170.4649225513
 20
93.6777561285
 10
170.5313407604
 20
93.7155605206
 10
170.5973105758
 20
93.7550886168
 10
170.6628006218
 20
93.7963605192
 10
170.7277597229
 20
93.8393845622
 10
170.7921346167
 20
93.8841668955
 10
170.8558876096
 20
93.9307244257
 10
170.9189630354
 20
93.9790614379
 10
170.9813050728
 20
94.0291811599
 10
171.0428726349
 20
94.0810986785
 10
171.1036069803
 20
94.1348148106
 10
171.1634482457
 20
94.1903283311
 10
171.2223504152
 20
94.2476507329
 10
171.2802513397
 20
94.3067783691
 10
171.3370877026
 20
94.3677051858
 10
171.3928085122
 20
94.4304380688
 10
171.4473483239
 20
94.4949680837
 10
171.5006407091
 20
94.5612836976
 10
171.5526300525
 20
94.6293863922
 10
171.6032476424
 20
94.6992607836
 10
171.6524245814
 20
94.7708894839
 10
171.7001018605
 20
94.8442690018
 10
171.7462082059
 20
94.9193772719
 10
171.7906722022
 20
94.9961898597
 10
171.8334315168
 20
95.074697316
 10
171.8744128395
 20
95.1548703233
 10
171.9135426298
 20
95.2366764393
 10
171.9507552364
 20
95.3200986039
 10
171.9859757536
 20
95.405099069
 10
172.0191294121
 20
95.4916369184
 10
172.0501480474
 20
95.5796868556
 10
172.0789559726
 20
95.6692020025
 10
172.1054779507
 20
95.7601320758
 10
172.1296440941
 20
95.8524426282
 10
172.1513788621
 20
95.9460768652
 10
172.1706075369
 20
96.0409743761
 10
172.1872594847
 20
96.1370906896
 10
172.1943231599
 20
96.183694108
  0
LINE
  5
3F8
100
AcDbEntity
  8
_30_VOLUMEN
100
AcDbLine
 62
7
  6
CONTINUOUS
 10
169.013949272
 20
93.2515501475
 11
169.0162789622
 21
93.2517305311
  0
LINE
  5
3F9
100
AcDbEntity
  8
_30_VOLUMEN
100
AcDbLine
 62
7
  6
CONTINUOUS
 10
105.4553146299
 20
85.1896437928
 11
105.9761483606
 21
85.2260289132
  0
LINE
  5
3FA
100
AcDbEntity
  8
_30_VOLUMEN
100
AcDbLine
 62
7
  6
CONTINUOUS
 10
100.4553146299
 20
85.1896437928
 11
100.9761477645
 21
85.2260289132
  0
LINE
  5
3FB
100
AcDbEntity
  8
_30_VOLUMEN
100
AcDbLine
 62
7
  6
CONTINUOUS
 10
103.5803146299
 20
86.6814338056
 11
105.4553146299
 21
86.6814338056
  0
LINE
  5
3FC
100
AcDbEntity
  8
_30_VOLUMEN
100
AcDbLine
 62
7
  6
CONTINUOUS
 10
94.2053146299
 20
86.7178189229
 11
96.1844811972
 21
86.7178189229
  0
LINE
  5
3FD
100
AcDbEntity
  8
_30_VOLUMEN
100
AcDbLine
 62
7
  6
CONTINUOUS
 10
105.4553146299
 20
86.8997445094
 11
102.9553146299
 21
86.8997445094
  0
LINE
  5
3FE
100
AcDbEntity
  8
_30_VOLUMEN
100
AcDbLine
 62
7
  6
CONTINUOUS
 10
102.1219814952
 20
86.8997445094
 11
101.4969814952
 21
86.8997445094
  0
LINE
  5
3FF
100
AcDbEntity
  8
_30_VOLUMEN
100
AcDbLine
 62
7
  6
CONTINUOUS
 10
98.9969814952
 20
86.8997445094
 11
98.3719811972
 21
86.8997445094
  0
LINE
  5
400
100
AcDbEntity
  8
_30_VOLUMEN
100
AcDbLine
 62
7
  6
CONTINUOUS
 10
96.0803146299
 20
86.8997445094
 11
93.5803146299
 21
86.8997445094
  0
LINE
  5
401
100
AcDbEntity
  8
_30_VOLUMEN
100
AcDbLine
 62
7
  6
CONTINUOUS
 10
105.4553146299
 20
87.7454678681
 11
102.9553146299
 21
87.7454678681
  0
LINE
  5
402
100
AcDbEntity
  8
_30_VOLUMEN
100
AcDbLine
 62
7
  6
CONTINUOUS
 10
102.1219814952
 20
87.7454678681
 11
101.4969814952
 21
87.7454678681
  0
LINE
  5
403
100
AcDbEntity
  8
_30_VOLUMEN
100
AcDbLine
 62
7
  6
CONTINUOUS
 10
98.9969814952
 20
87.7454678681
 11
98.3719811972
 21
87.7454678681
  0
LINE
  5
404
100
AcDbEntity
  8
_30_VOLUMEN
100
AcDbLine
 62
7
  6
CONTINUOUS
 10
96.0803146299
 20
87.7454678681
 11
93.5803146299
 21
87.7454678681
  0
LINE
  5
405
100
AcDbEntity
  8
_30_VOLUMEN
100
AcDbLine
 62
7
  6
CONTINUOUS
 10
93.0867503662
 20
93.2515497918
 11
93.0844110784
 21
93.2517309187
  0
LWPOLYLINE
  5
406
100
AcDbEntity
  8
BEZUGSACHSEN
100
AcDbPolyline
 62
7
  6
CONTINUOUS
 90
7
 70
0
 10
93.0844110898
 20
93.2517304203
 10
93.1232083617
 20
93.2479532737
 10
93.1832186253
 20
93.2391210301
 10
93.2464553642
 20
93.2261040407
 10
93.3133106399
 20
93.2085023643
 10
93.3837117618
 20
93.1860307702
 10
93.4570262781
 20
93.158664953
  0
LINE
  5
407
100
AcDbEntity
  8
_30_VOLUMEN
100
AcDbLine
 62
7
  6
CONTINUOUS
 10
107.0178146299
 20
85.5898801339
 11
107.1219808992
 21
85.7718057204
  0
LINE
  5
408
100
AcDbEntity
  8
_30_VOLUMEN
100
AcDbLine
 62
7
  6
CONTINUOUS
 10
101.4969814952
 20
86.6175290791
 11
101.3928146299
 21
86.4719886099
  0
LINE
  5
409
100
AcDbEntity
  8
_30_VOLUMEN
100
AcDbLine
 62
7
  6
CONTINUOUS
 10
101.4969814952
 20
85.7718057204
 11
101.3928146299
 21
85.6262652512
  0
LINE
  5
40A
100
AcDbEntity
  8
_30_VOLUMEN
100
AcDbLine
 62
7
  6
CONTINUOUS
 10
106.4969808992
 20
85.7718057204
 11
106.3928146299
 21
85.6262652512
  0
LINE
  5
40B
100
AcDbEntity
  8
_30_VOLUMEN
100
AcDbLine
 62
7
  6
CONTINUOUS
 10
96.8094811972
 20
86.3903527654
 11
96.7053146299
 21
86.2811974135
  0
LINE
  5
40C
100
AcDbEntity
  8
_30_VOLUMEN
100
AcDbLine
 62
7
  6
CONTINUOUS
 10
97.3303146299
 20
86.2448122962
 11
97.4344811972
 21
86.3539676481
  0
LINE
  5
40D
100
AcDbEntity
  8
_30_VOLUMEN
100
AcDbLine
 62
7
  6
CONTINUOUS
 10
106.1844808992
 20
85.5171098994
 11
105.8719808992
 21
85.4443396393
  0
LINE
  5
40E
100
AcDbEntity
  8
_30_VOLUMEN
100
AcDbLine
 62
7
  6
CONTINUOUS
 10
106.1844808992
 20
86.3628332581
 11
105.8719808992
 21
86.290062998
  0
LINE
  5
40F
100
AcDbEntity
  8
_30_VOLUMEN
100
AcDbLine
 62
7
  6
CONTINUOUS
 10
101.1844814952
 20
85.5171098994
 11
100.8719814952
 21
85.4443396393
  0
LINE
  5
410
100
AcDbEntity
  8
_30_VOLUMEN
100
AcDbLine
 62
7
  6
CONTINUOUS
 10
101.1844814952
 20
86.3628332581
 11
100.8719814952
 21
86.290062998
  0
LINE
  5
411
100
AcDbEntity
  8
_30_VOLUMEN
100
AcDbLine
 62
7
  6
CONTINUOUS
 10
96.6011480626
 20
86.0265015924
 11
97.0178146299
 21
86.099271827
  0
LWPOLYLINE
  5
412
100
AcDbEntity
  8
_30_VOLUMEN
100
AcDbPolyline
 62
7
  6
CONTINUOUS
 90
3
 70
0
 10
174.6692649761
 20
98.7135469847
 10
174.9165094278
 20
98.7443508077
 10
175.1634656965
 20
98.7545326441
  0
LINE
  5
413
100
AcDbEntity
  8
BEZUGSACHSEN
100
AcDbLine
 62
7
  6
CONTINUOUS
 10
93.4543288529
 20
93.2545383817
 11
131.0503475104
 21
93.2545383817
  0
LINE
  5
414
100
AcDbEntity
  8
RUNDUNGEN
100
AcDbLine
 62
7
  6
CONTINUOUS
 10
104.2217357484
 20
93.2545383817
 11
168.6463661678
 21
93.2545383817
  0
LINE
  5
415
100
AcDbEntity
  8
_30_VOLUMEN
100
AcDbLine
 62
7
  6
CONTINUOUS
 10
95.0092513399
 20
123.473709612
 11
96.6759164171
 21
121.7636088954
  0
LINE
  5
416
100
AcDbEntity
  8
_30_VOLUMEN
100
AcDbLine
 62
7
  6
CONTINUOUS
 10
95.0092513399
 20
124.3194329707
 11
96.6759164171
 21
122.6093322541
  0
LINE
  5
417
100
AcDbEntity
  8
_30_VOLUMEN
100
AcDbLine
 62
7
  6
CONTINUOUS
 10
97.0925862626
 20
122.7548727233
 11
96.1550862626
 21
123.7372710431
  0
LINE
  5
418
100
AcDbEntity
  8
_30_VOLUMEN
100
AcDbLine
 62
7
  6
CONTINUOUS
 10
96.0509164171
 20
123.8828115122
 11
95.6342513399
 21
124.3194329707
  0
LINE
  5
419
100
AcDbEntity
  8
_30_VOLUMEN
100
AcDbLine
 62
7
  6
CONTINUOUS
 10
100.0092513399
 20
122.1638451856
 11
100.1134164171
 21
122.0546898337
  0
LINE
  5
41A
100
AcDbEntity
  8
_30_VOLUMEN
100
AcDbLine
 62
7
  6
CONTINUOUS
 10
100.0092513399
 20
123.0095685443
 11
100.1134164171
 21
122.9004131924
  0
LINE
  5
41B
100
AcDbEntity
  8
_30_VOLUMEN
100
AcDbLine
 62
7
  6
CONTINUOUS
 10
100.7384164171
 20
122.9367983097
 11
100.6342513399
 21
123.0459537635
  0
LINE
  5
41C
100
AcDbEntity
  8
_30_VOLUMEN
100
AcDbLine
 62
7
  6
CONTINUOUS
 10
100.0092513399
 20
123.7372710431
 11
100.1134164171
 21
123.6281156402
  0
LINE
  5
41D
100
AcDbEntity
  8
_30_VOLUMEN
100
AcDbLine
 62
7
  6
CONTINUOUS
 10
157.0925850706
 20
123.4461900538
 11
158.8634176092
 21
124.3194329707
  0
LINE
  5
41E
100
AcDbEntity
  8
_30_VOLUMEN
100
AcDbLine
 62
7
  6
CONTINUOUS
 10
157.968343105
 20
123.0323254303
 11
158.8634176092
 21
123.473709612
  0
LINE
  5
41F
100
AcDbEntity
  8
_30_VOLUMEN
100
AcDbLine
 62
7
  6
CONTINUOUS
 10
158.2384176092
 20
124.3194329707
 11
156.7800850706
 21
123.6281156402
  0
LINE
  5
420
100
AcDbEntity
  8
_30_VOLUMEN
100
AcDbLine
 62
7
  6
CONTINUOUS
 10
155.3217513399
 20
122.6093322541
 11
156.7800850706
 21
123.3006495846
  0
LINE
  5
421
100
AcDbEntity
  8
_30_VOLUMEN
100
AcDbLine
 62
7
  6
CONTINUOUS
 10
155.3217513399
 20
121.7636088954
 11
156.7800850706
 21
122.4549262259
  0
LINE
  5
422
100
AcDbEntity
  8
_30_VOLUMEN
100
AcDbLine
 62
7
  6
CONTINUOUS
 10
156.4675850706
 20
123.4461900538
 11
154.6967513399
 21
122.6093322541
  0
LINE
  5
423
100
AcDbEntity
  8
_30_VOLUMEN
100
AcDbLine
 62
7
  6
CONTINUOUS
 10
160.4259182052
 20
124.2102776061
 11
160.0092513399
 21
124.0647371242
  0
LINE
  5
424
100
AcDbEntity
  8
_30_VOLUMEN
100
AcDbLine
 62
7
  6
CONTINUOUS
 10
163.1342513399
 20
122.718487606
 11
163.5509182052
 21
122.8640280751
  0
LINE
  5
425
100
AcDbEntity
  8
_30_VOLUMEN
100
AcDbLine
 62
7
  6
CONTINUOUS
 10
163.1342513399
 20
121.8727642473
 11
163.5509182052
 21
122.0183047164
  0
LINE
  5
426
100
AcDbEntity
  8
0
100
AcDbLine
 62
7
  6
CONTINUOUS
 10
188.4985395778
 20
97.8545383817
 11
176.3932596345
 21
97.8545383817
  0
LINE
  5
427
100
AcDbEntity
  8
0
100
AcDbLine
 62
7
  6
CONTINUOUS
 10
87.5877491189
 20
97.8545383817
 11
74.5452262393
 21
97.8545383817
  0
LINE
  5
428
100
AcDbEntity
  8
_30_VOLUMEN
100
AcDbLine
 62
7
  6
CONTINUOUS
 10
195.5850298581
 20
98.7545383817
 11
195.2046714726
 21
98.7545383817
  0
LINE
  5
429
100
AcDbEntity
  8
RUNDUNGEN
100
AcDbLine
 62
7
  6
CONTINUOUS
 10
195.2046714726
 20
98.7545383817
 11
186.1748932281
 21
98.7545383817
  0
LINE
  5
42A
100
AcDbEntity
  8
_30_VOLUMEN
100
AcDbLine
 62
7
  6
CONTINUOUS
 10
186.1748932281
 20
98.7545383817
 11
141.7345545206
 21
98.7545383817
  0
LINE
  5
42B
100
AcDbEntity
  8
_30_VOLUMEN
100
AcDbLine
 62
7
  6
CONTINUOUS
 10
120.366140513
 20
98.7545383817
 11
75.9258017926
 21
98.7545383817
  0
LINE
  5
42C
100
AcDbEntity
  8
RUNDUNGEN
100
AcDbLine
 62
7
  6
CONTINUOUS
 10
75.9258017926
 20
98.7545383817
 11
66.8960235481
 21
98.7545383817
  0
LINE
  5
42D
100
AcDbEntity
  8
_30_VOLUMEN
100
AcDbLine
 62
7
  6
CONTINUOUS
 10
66.8960235481
 20
98.7545383817
 11
66.5156651833
 21
98.7545383817
  0
LINE
  5
42E
100
AcDbEntity
  8
_30_VOLUMEN
100
AcDbLine
 62
7
  6
CONTINUOUS
 10
104.6967513399
 20
123.473709612
 11
106.3634164171
 21
121.7636088954
  0
LINE
  5
42F
100
AcDbEntity
  8
_30_VOLUMEN
100
AcDbLine
 62
7
  6
CONTINUOUS
 10
104.6967513399
 20
124.3194329707
 11
106.3634164171
 21
122.6093322541
  0
LINE
  5
430
100
AcDbEntity
  8
_30_VOLUMEN
100
AcDbLine
 62
7
  6
CONTINUOUS
 10
100.7384164171
 20
123.6645007575
 11
100.6342513399
 21
123.7736561604
  0
LINE
  5
431
100
AcDbEntity
  8
_30_VOLUMEN
100
AcDbLine
 62
7
  6
CONTINUOUS
 10
106.7800862626
 20
122.7548727233
 11
105.8425862626
 21
123.7372710431
  0
LINE
  5
432
100
AcDbEntity
  8
_30_VOLUMEN
100
AcDbLine
 62
7
  6
CONTINUOUS
 10
105.7384164171
 20
123.8828115122
 11
105.3217513399
 21
124.3194329707
  0
LINE
  5
433
100
AcDbEntity
  8
_30_VOLUMEN
100
AcDbLine
 62
7
  6
CONTINUOUS
 10
101.8094814952
 20
85.4443396393
 11
102.0178146299
 21
85.5898801339
  0
LINE
  5
434
100
AcDbEntity
  8
_30_VOLUMEN
100
AcDbLine
 62
7
  6
CONTINUOUS
 10
160.4259182052
 20
123.8828115122
 11
160.6342513399
 21
123.9919668641
  0
LINE
  5
435
100
AcDbEntity
  8
_30_VOLUMEN
100
AcDbLine
 62
7
  6
CONTINUOUS
 10
160.4343786216
 20
123.0415209565
 11
160.6342513399
 21
123.1462435054
  0
LINE
  5
436
100
AcDbEntity
  8
_30_VOLUMEN
100
AcDbLine
 62
7
  6
CONTINUOUS
 10
163.1342513399
 20
123.0459537635
 11
162.9259182052
 21
122.9367983097
  0
LINE
  5
437
100
AcDbEntity
  8
_30_VOLUMEN
100
AcDbLine
 62
7
  6
CONTINUOUS
 10
160.0092513399
 20
124.0647371242
 11
159.8009176092
 21
123.9191966295
  0
LINE
  5
438
100
AcDbEntity
  8
_30_VOLUMEN
100
AcDbLine
 62
7
  6
CONTINUOUS
 10
106.8094808992
 20
85.4443396393
 11
107.0178146299
 21
85.5898801339
  0
LINE
  5
439
100
AcDbEntity
  8
_30_VOLUMEN
100
AcDbLine
 62
7
  6
CONTINUOUS
 10
163.5509182052
 20
122.8640280751
 11
163.7592513399
 21
123.0095685443
  0
LINE
  5
43A
100
AcDbEntity
  8
_30_VOLUMEN
100
AcDbLine
 62
7
  6
CONTINUOUS
 10
163.5509182052
 20
122.0183047164
 11
163.7592513399
 21
122.1638451856
  0
LINE
  5
43B
100
AcDbEntity
  8
_30_VOLUMEN
100
AcDbLine
 62
7
  6
CONTINUOUS
 10
101.3928146299
 20
86.4719886099
 11
101.1844814952
 21
86.3628332581
  0
LINE
  5
43C
100
AcDbEntity
  8
_30_VOLUMEN
100
AcDbLine
 62
7
  6
CONTINUOUS
 10
101.3928146299
 20
85.6262652512
 11
101.1844814952
 21
85.5171098994
  0
LINE
  5
43D
100
AcDbEntity
  8
_30_VOLUMEN
100
AcDbLine
 62
7
  6
CONTINUOUS
 10
106.3843541893
 20
86.467555807
 11
106.1844808992
 21
86.3628332581
  0
LINE
  5
43E
100
AcDbEntity
  8
_30_VOLUMEN
100
AcDbLine
 62
7
  6
CONTINUOUS
 10
97.0178146299
 20
86.099271827
 11
97.3303146299
 21
86.2448122962
  0
LINE
  5
43F
100
AcDbEntity
  8
_30_VOLUMEN
100
AcDbLine
 62
7
  6
CONTINUOUS
 10
100.1134164171
 20
122.0546898337
 11
100.4259164171
 21
121.9091493646
  0
LINE
  5
440
100
AcDbEntity
  8
_30_VOLUMEN
100
AcDbLine
 62
7
  6
CONTINUOUS
 10
100.1134164171
 20
122.9004131924
 11
100.4259164171
 21
122.7548727233
  0
LINE
  5
441
100
AcDbEntity
  8
_30_VOLUMEN
100
AcDbLine
 62
7
  6
CONTINUOUS
 10
100.1134164171
 20
123.6281156402
 11
100.4259164171
 21
123.4825751711
  0
LINE
  5
442
100
AcDbEntity
  8
_30_VOLUMEN
100
AcDbLine
 62
7
  6
CONTINUOUS
 10
106.3928146299
 20
85.6262652512
 11
106.1844808992
 21
85.5171098994
  0
LINE
  5
443
100
AcDbEntity
  8
_30_VOLUMEN
100
AcDbLine
 62
7
  6
CONTINUOUS
 10
96.7053146299
 20
86.2811974135
 11
96.4969811972
 21
86.2084271789
  0
LINE
  5
444
100
AcDbEntity
  8
_30_VOLUMEN
100
AcDbLine
 62
7
  6
CONTINUOUS
 10
101.3928146299
 20
85.2987991574
 11
101.8094814952
 21
85.4443396393
  0
LINE
  5
445
100
AcDbEntity
  8
_30_VOLUMEN
100
AcDbLine
 62
7
  6
CONTINUOUS
 10
66.5156651626
 20
110.7545383817
 11
66.8960235481
 21
110.7545383817
  0
LINE
  5
446
100
AcDbEntity
  8
RUNDUNGEN
100
AcDbLine
 62
7
  6
CONTINUOUS
 10
66.8960235481
 20
110.7545383817
 11
75.9258017926
 21
110.7545383817
  0
LINE
  5
447
100
AcDbEntity
  8
_30_VOLUMEN
100
AcDbLine
 62
7
  6
CONTINUOUS
 10
75.9258017926
 20
110.7545383817
 11
120.3661405053
 21
110.7545383817
  0
LINE
  5
448
100
AcDbEntity
  8
_30_VOLUMEN
100
AcDbLine
 62
7
  6
CONTINUOUS
 10
141.734554508
 20
110.7545383817
 11
186.1748932281
 21
110.7545383817
  0
LINE
  5
449
100
AcDbEntity
  8
RUNDUNGEN
100
AcDbLine
 62
7
  6
CONTINUOUS
 10
141.7345545171
 20
110.7545383817
 11
195.2046714726
 21
110.7545383817
  0
LINE
  5
44A
100
AcDbEntity
  8
_30_VOLUMEN
100
AcDbLine
 62
7
  6
CONTINUOUS
 10
195.2046714726
 20
110.7545383817
 11
195.5850298374
 21
110.7545383817
  0
LINE
  5
44B
100
AcDbEntity
  8
0
100
AcDbLine
 62
7
  6
CONTINUOUS
 10
73.6643125084
 20
111.6545383817
 11
84.1671651725
 21
111.6545383817
  0
LINE
  5
44C
100
AcDbEntity
  8
_30_VOLUMEN
100
AcDbLine
 62
7
  6
CONTINUOUS
 10
100.4259164171
 20
121.9091493646
 11
100.8425862626
 21
121.7999940127
  0
LINE
  5
44D
100
AcDbEntity
  8
_30_VOLUMEN
100
AcDbLine
 62
7
  6
CONTINUOUS
 10
100.4259164171
 20
122.7548727233
 11
100.8425862626
 21
122.6457173714
  0
LINE
  5
44E
100
AcDbEntity
  8
_30_VOLUMEN
100
AcDbLine
 62
7
  6
CONTINUOUS
 10
100.9467513399
 20
122.8640280751
 11
100.7384164171
 21
122.9367983097
  0
LINE
  5
44F
100
AcDbEntity
  8
_30_VOLUMEN
100
AcDbLine
 62
7
  6
CONTINUOUS
 10
100.9467513399
 20
123.5917305229
 11
100.7384164171
 21
123.6645007575
  0
LINE
  5
450
100
AcDbEntity
  8
_30_VOLUMEN
100
AcDbLine
 62
7
  6
CONTINUOUS
 10
160.3217513399
 20
123.7372710431
 11
160.4259182052
 21
123.8828115122
  0
LINE
  5
451
100
AcDbEntity
  8
_30_VOLUMEN
100
AcDbLine
 62
7
  6
CONTINUOUS
 10
106.3928146299
 20
85.2987991574
 11
106.8094808992
 21
85.4443396393
  0
LINE
  5
452
100
AcDbEntity
  8
_30_VOLUMEN
100
AcDbLine
 62
7
  6
CONTINUOUS
 10
162.9259182052
 20
122.9367983097
 11
162.6134182052
 21
122.8640280751
  0
LINE
  5
453
100
AcDbEntity
  8
_30_VOLUMEN
100
AcDbLine
 62
7
  6
CONTINUOUS
 10
160.6342513399
 20
123.1462435054
 11
160.9467513399
 21
123.2190137655
  0
LINE
  5
454
100
AcDbEntity
  8
_30_VOLUMEN
100
AcDbLine
 62
7
  6
CONTINUOUS
 10
160.6342513399
 20
123.9919668641
 11
160.9467513399
 21
124.0647371242
  0
LINE
  5
455
100
AcDbEntity
  8
_30_VOLUMEN
100
AcDbLine
 62
7
  6
CONTINUOUS
 10
87.6752681261
 20
110.846744404
 11
87.4314300446
 21
110.7955297788
  0
LINE
  5
456
100
AcDbEntity
  8
_30_VOLUMEN
100
AcDbLine
 62
7
  6
CONTINUOUS
 10
162.7175844745
 20
121.7999940127
 11
163.1342513399
 21
121.8727642473
  0
LINE
  5
457
100
AcDbEntity
  8
_30_VOLUMEN
100
AcDbLine
 62
7
  6
CONTINUOUS
 10
162.7175844745
 20
122.6457173714
 11
163.1342513399
 21
122.718487606
  0
LINE
  5
458
100
AcDbEntity
  8
_30_VOLUMEN
100
AcDbLine
 62
7
  6
CONTINUOUS
 10
160.8425844745
 20
124.2830478502
 11
160.4259182052
 21
124.2102776061
  0
LWPOLYLINE
  5
459
100
AcDbEntity
  8
_30_VOLUMEN
100
AcDbPolyline
 62
7
  6
CONTINUOUS
 90
3
 70
0
 10
87.4314300446
 20
110.7955297788
 10
87.1841855929
 20
110.7647259558
 10
86.9372293242
 20
110.7545441194
  0
LWPOLYLINE
  5
45A
100
AcDbEntity
  8
BEZUGSACHSEN
100
AcDbPolyline
 62
7
  6
CONTINUOUS
 90
61
 70
0
 10
93.0867457487
 20
116.257526616
 10
93.052592941
 20
116.2547689065
 10
93.0032836047
 20
116.2503442282
 10
92.9491149151
 20
116.244819906
 10
92.8905397223
 20
116.2379990827
 10
92.8300525811
 20
116.2299770909
 10
92.7675308984
 20
116.2205977273
 10
92.7024184226
 20
116.2096209579
 10
92.6368075573
 20
116.1972844862
 10
92.5712303103
 20
116.1836502177
 10
92.5050817431
 20
116.168553115
 10
92.438944542
 20
116.1520857824
 10
92.3732119716
 20
116.134335408
 10
92.3075230804
 20
116.1151938692
 10
92.2413869052
 20
116.0944782943
 10
92.1746511916
 20
116.0720769732
 10
92.1075528299
 20
116.0480041359
 10
92.0402083186
 20
116.0222441848
 10
91.9726164733
 20
115.9947389749
 10
91.9048759699
 20
115.96546986
 10
91.8372523896
 20
115.9345018145
 10
91.7698334916
 20
115.9018344328
 10
91.7026269368
 20
115.8674301479
 10
91.6357724694
 20
115.831320635
 10
91.5693542603
 20
115.7935162429
 10
91.5033844449
 20
115.7539881466
 10
91.437894399
 20
115.7127162443
 10
91.3729352979
 20
115.6696922013
 10
91.3085604041
 20
115.624909868
 10
91.2448074111
 20
115.5783523378
 10
91.1817319854
 20
115.5300153256
 10
91.119389948
 20
115.4798956036
 10
91.0578223858
 20
115.427978085
 10
90.9970880404
 20
115.3742619529
 10
90.937246775
 20
115.3187484324
 10
90.8783446056
 20
115.2614260305
 10
90.8204436811
 20
115.2022983944
 10
90.7636073182
 20
115.1413715777
 10
90.7078865085
 20
115.0786386947
 10
90.6533466968
 20
115.0141086797
 10
90.6000543116
 20
114.9477930659
 10
90.5480649683
 20
114.8796903713
 10
90.4974473784
 20
114.8098159799
 10
90.4482704393
 20
114.7381872796
 10
90.4005931603
 20
114.6648077616
 10
90.3544868149
 20
114.5896994915
 10
90.3100228185
 20
114.5128869038
 10
90.267263504
 20
114.4343794474
 10
90.2262821812
 20
114.3542064402
 10
90.187152391
 20
114.2724003242
 10
90.1499397843
 20
114.1889781596
 10
90.1147192671
 20
114.1039776945
 10
90.0815656086
 20
114.0174398451
 10
90.0505469733
 20
113.9293899078
 10
90.0217390481
 20
113.839874761
 10
89.99521707
 20
113.7489446877
 10
89.9710509266
 20
113.6566341352
 10
89.9493161586
 20
113.5629998983
 10
89.9300874839
 20
113.4681023874
 10
89.9134355361
 20
113.3719860739
 10
89.9063718608
 20
113.3253826555
  0
LINE
  5
45B
100
AcDbEntity
  8
_30_VOLUMEN
100
AcDbLine
 62
7
  6
CONTINUOUS
 10
93.0867457487
 20
116.257526616
 11
93.0844160585
 21
116.2573462324
  0
LINE
  5
45C
100
AcDbEntity
  8
_30_VOLUMEN
100
AcDbLine
 62
7
  6
CONTINUOUS
 10
162.1967513399
 20
121.7636088954
 11
162.7175844745
 21
121.7999940127
  0
LINE
  5
45D
100
AcDbEntity
  8
BEZUGSACHSEN
100
AcDbLine
 62
7
  6
CONTINUOUS
 10
93.4543288529
 20
116.2545383817
 11
168.6463661678
 21
116.2545383817
  0
LINE
  5
45E
100
AcDbEntity
  8
_30_VOLUMEN
100
AcDbLine
 62
7
  6
CONTINUOUS
 10
100.8425862626
 20
121.7999940127
 11
101.3634164171
 21
121.7636088954
  0
LINE
  5
45F
100
AcDbEntity
  8
_30_VOLUMEN
100
AcDbLine
 62
7
  6
CONTINUOUS
 10
169.0139446545
 20
116.2575269717
 11
169.0162839423
 21
116.2573458448
  0
LINE
  5
460
100
AcDbEntity
  8
_30_VOLUMEN
100
AcDbLine
 62
7
  6
CONTINUOUS
 10
101.2592513399
 20
122.8276429579
 11
100.9467513399
 21
122.8640280751
  0
LINE
  5
461
100
AcDbEntity
  8
_30_VOLUMEN
100
AcDbLine
 62
7
  6
CONTINUOUS
 10
100.4259164171
 20
123.4825751711
 11
100.6342513399
 21
123.4461900538
  0
LINE
  5
462
100
AcDbEntity
  8
_30_VOLUMEN
100
AcDbLine
 62
7
  6
CONTINUOUS
 10
159.8009176092
 20
123.9191966295
 11
159.6967513399
 21
123.7372710431
  0
LINE
  5
463
100
AcDbEntity
  8
_30_VOLUMEN
100
AcDbLine
 62
7
  6
CONTINUOUS
 10
163.7592513399
 20
123.0095685443
 11
163.8634182052
 21
123.1914942327
  0
LINE
  5
464
100
AcDbEntity
  8
_30_VOLUMEN
100
AcDbLine
 62
7
  6
CONTINUOUS
 10
163.2384182052
 20
123.1914942327
 11
163.1342513399
 21
123.0459537635
  0
LINE
  5
465
100
AcDbEntity
  8
BEZUGSACHSEN
100
AcDbLine
 62
7
  6
CONTINUOUS
 10
93.1835466829
 20
116.2700136694
 11
93.1233905085
 21
116.2611448825
  0
LINE
  5
466
100
AcDbEntity
  8
BEZUGSACHSEN
100
AcDbLine
 62
7
  6
CONTINUOUS
 10
93.1233905085
 20
116.2611448825
 11
93.0844160699
 21
116.2573467308
  0
LINE
  5
467
100
AcDbEntity
  8
_30_VOLUMEN
100
AcDbLine
 62
7
  6
CONTINUOUS
 10
162.6134182052
 20
122.8640280751
 11
162.1967513399
 21
122.8276429579
  0
LINE
  5
468
100
AcDbEntity
  8
_30_VOLUMEN
100
AcDbLine
 62
7
  6
CONTINUOUS
 10
160.9467513399
 20
123.2190137655
 11
161.3634182052
 21
123.2553988828
  0
LINE
  5
469
100
AcDbEntity
  8
_30_VOLUMEN
100
AcDbLine
 62
7
  6
CONTINUOUS
 10
160.9467513399
 20
124.0647371242
 11
161.3634182052
 21
124.1011222415
  0
LINE
  5
46A
100
AcDbEntity
  8
_30_VOLUMEN
100
AcDbLine
 62
7
  6
CONTINUOUS
 10
162.1967513399
 20
122.6093322541
 11
162.7175844745
 21
122.6457173714
  0
LINE
  5
46B
100
AcDbEntity
  8
_30_VOLUMEN
100
AcDbLine
 62
7
  6
CONTINUOUS
 10
161.3634182052
 20
124.3194329707
 11
160.8425844745
 21
124.2830478502
  0
LINE
  5
46C
100
AcDbEntity
  8
_30_VOLUMEN
100
AcDbLine
 62
7
  6
CONTINUOUS
 10
96.6759164171
 20
121.7636088954
 11
97.5092513399
 21
121.7636088954
  0
LINE
  5
46D
100
AcDbEntity
  8
_30_VOLUMEN
100
AcDbLine
 62
7
  6
CONTINUOUS
 10
101.3634164171
 20
121.7636088954
 11
103.8634164171
 21
121.7636088954
  0
LINE
  5
46E
100
AcDbEntity
  8
_30_VOLUMEN
100
AcDbLine
 62
7
  6
CONTINUOUS
 10
106.3634164171
 20
121.7636088954
 11
107.1967513399
 21
121.7636088954
  0
LINE
  5
46F
100
AcDbEntity
  8
_30_VOLUMEN
100
AcDbLine
 62
7
  6
CONTINUOUS
 10
154.6967513399
 20
121.7636088954
 11
155.3217513399
 21
121.7636088954
  0
LINE
  5
470
100
AcDbEntity
  8
_30_VOLUMEN
100
AcDbLine
 62
7
  6
CONTINUOUS
 10
158.2384176092
 20
121.7636088954
 11
158.8634176092
 21
121.7636088954
  0
LINE
  5
471
100
AcDbEntity
  8
_30_VOLUMEN
100
AcDbLine
 62
7
  6
CONTINUOUS
 10
161.3634182052
 20
121.7636088954
 11
162.1967513399
 21
121.7636088954
  0
LINE
  5
472
100
AcDbEntity
  8
_30_VOLUMEN
100
AcDbLine
 62
7
  6
CONTINUOUS
 10
164.6967513399
 20
121.7636088954
 11
165.3217513399
 21
121.7636088954
  0
LINE
  5
473
100
AcDbEntity
  8
_30_VOLUMEN
100
AcDbLine
 62
7
  6
CONTINUOUS
 10
167.9259180562
 20
121.7636088954
 11
168.8634180562
 21
121.7636088954
  0
LINE
  5
474
100
AcDbEntity
  8
_30_VOLUMEN
100
AcDbLine
 62
7
  6
CONTINUOUS
 10
169.6967513399
 20
121.7636088954
 11
170.3217513399
 21
121.7636088954
  0
LINE
  5
475
100
AcDbEntity
  8
_30_VOLUMEN
100
AcDbLine
 62
7
  6
CONTINUOUS
 10
96.6759164171
 20
122.6093322541
 11
97.5092513399
 21
122.6093322541
  0
LINE
  5
476
100
AcDbEntity
  8
_30_VOLUMEN
100
AcDbLine
 62
7
  6
CONTINUOUS
 10
101.3634164171
 20
122.6093322541
 11
103.8634164171
 21
122.6093322541
  0
LINE
  5
477
100
AcDbEntity
  8
_30_VOLUMEN
100
AcDbLine
 62
7
  6
CONTINUOUS
 10
106.3634164171
 20
122.6093322541
 11
107.1967513399
 21
122.6093322541
  0
LINE
  5
478
100
AcDbEntity
  8
_30_VOLUMEN
100
AcDbLine
 62
7
  6
CONTINUOUS
 10
154.6967513399
 20
122.6093322541
 11
155.3217513399
 21
122.6093322541
  0
LINE
  5
479
100
AcDbEntity
  8
_30_VOLUMEN
100
AcDbLine
 62
7
  6
CONTINUOUS
 10
158.2384176092
 20
122.6093322541
 11
158.8634176092
 21
122.6093322541
  0
LINE
  5
47A
100
AcDbEntity
  8
_30_VOLUMEN
100
AcDbLine
 62
7
  6
CONTINUOUS
 10
161.3634182052
 20
122.6093322541
 11
162.1967513399
 21
122.6093322541
  0
LINE
  5
47B
100
AcDbEntity
  8
_30_VOLUMEN
100
AcDbLine
 62
7
  6
CONTINUOUS
 10
164.6967513399
 20
122.6093322541
 11
165.3217513399
 21
122.6093322541
  0
LINE
  5
47C
100
AcDbEntity
  8
_30_VOLUMEN
100
AcDbLine
 62
7
  6
CONTINUOUS
 10
167.9259180562
 20
122.6093322541
 11
168.8634180562
 21
122.6093322541
  0
LINE
  5
47D
100
AcDbEntity
  8
_30_VOLUMEN
100
AcDbLine
 62
7
  6
CONTINUOUS
 10
169.6967513399
 20
122.6093322541
 11
170.3217513399
 21
122.6093322541
  0
LINE
  5
47E
100
AcDbEntity
  8
_30_VOLUMEN
100
AcDbLine
 62
7
  6
CONTINUOUS
 10
162.1967513399
 20
122.8276429579
 11
161.3634182052
 21
122.8276429579
  0
LINE
  5
47F
100
AcDbEntity
  8
_30_VOLUMEN
100
AcDbLine
 62
7
  6
CONTINUOUS
 10
103.2384164171
 20
122.8276429579
 11
101.2592513399
 21
122.8276429579
  0
LINE
  5
480
100
AcDbEntity
  8
_30_VOLUMEN
100
AcDbLine
 62
7
  6
CONTINUOUS
 10
96.9621577252
 20
122.8915476844
 11
97.2230148001
 21
122.8915476844
  0
LINE
  5
481
100
AcDbEntity
  8
_30_VOLUMEN
100
AcDbLine
 62
7
  6
CONTINUOUS
 10
106.6496577252
 20
122.8915476844
 11
106.9105148001
 21
122.8915476844
  0
LINE
  5
482
100
AcDbEntity
  8
_30_VOLUMEN
100
AcDbLine
 62
7
  6
CONTINUOUS
 10
161.3634182052
 20
123.2553988828
 11
162.1967513399
 21
123.2553988828
  0
LINE
  5
483
100
AcDbEntity
  8
_30_VOLUMEN
100
AcDbLine
 62
7
  6
CONTINUOUS
 10
101.2592513399
 20
123.3370347019
 11
103.2384164171
 21
123.3370347019
  0
LINE
  5
484
100
AcDbEntity
  8
_30_VOLUMEN
100
AcDbLine
 62
7
  6
CONTINUOUS
 10
103.2384164171
 20
123.5553454056
 11
101.2592513399
 21
123.5553454056
  0
LINE
  5
485
100
AcDbEntity
  8
_30_VOLUMEN
100
AcDbLine
 62
7
  6
CONTINUOUS
 10
96.1550862626
 20
123.7372710431
 11
98.0300862626
 21
123.7372710431
  0
LINE
  5
486
100
AcDbEntity
  8
_30_VOLUMEN
100
AcDbLine
 62
7
  6
CONTINUOUS
 10
105.8425862626
 20
123.7372710431
 11
107.7175862626
 21
123.7372710431
  0
LINE
  5
487
100
AcDbEntity
  8
_30_VOLUMEN
100
AcDbLine
 62
7
  6
CONTINUOUS
 10
107.8217513399
 20
123.8828115122
 11
105.7384164171
 21
123.8828115122
  0
LINE
  5
488
100
AcDbEntity
  8
_30_VOLUMEN
100
AcDbLine
 62
7
  6
CONTINUOUS
 10
98.1342513399
 20
123.8828115122
 11
96.0509164171
 21
123.8828115122
  0
LINE
  5
489
100
AcDbEntity
  8
_30_VOLUMEN
100
AcDbLine
 62
7
  6
CONTINUOUS
 10
101.2592513399
 20
124.1011222415
 11
103.2384164171
 21
124.1011222415
  0
LINE
  5
48A
100
AcDbEntity
  8
_30_VOLUMEN
100
AcDbLine
 62
7
  6
CONTINUOUS
 10
161.3634182052
 20
124.1011222415
 11
162.1967513399
 21
124.1011222415
  0
LINE
  5
48B
100
AcDbEntity
  8
_30_VOLUMEN
100
AcDbLine
 62
7
  6
CONTINUOUS
 10
170.3217513399
 20
124.3194329707
 11
169.6967513399
 21
124.3194329707
  0
LINE
  5
48C
100
AcDbEntity
  8
_30_VOLUMEN
100
AcDbLine
 62
7
  6
CONTINUOUS
 10
168.8634180562
 20
124.3194329707
 11
168.2384180562
 21
124.3194329707
  0
LINE
  5
48D
100
AcDbEntity
  8
_30_VOLUMEN
100
AcDbLine
 62
7
  6
CONTINUOUS
 10
165.6342513399
 20
124.3194329707
 11
164.6967513399
 21
124.3194329707
  0
LINE
  5
48E
100
AcDbEntity
  8
_30_VOLUMEN
100
AcDbLine
 62
7
  6
CONTINUOUS
 10
162.1967513399
 20
124.3194329707
 11
161.3634182052
 21
124.3194329707
  0
LINE
  5
48F
100
AcDbEntity
  8
_30_VOLUMEN
100
AcDbLine
 62
7
  6
CONTINUOUS
 10
158.8634176092
 20
124.3194329707
 11
158.2384176092
 21
124.3194329707
  0
LINE
  5
490
100
AcDbEntity
  8
_30_VOLUMEN
100
AcDbLine
 62
7
  6
CONTINUOUS
 10
155.3217513399
 20
124.3194329707
 11
154.6967513399
 21
124.3194329707
  0
LINE
  5
491
100
AcDbEntity
  8
_30_VOLUMEN
100
AcDbLine
 62
7
  6
CONTINUOUS
 10
108.8634164171
 20
124.3194329707
 11
108.2384164171
 21
124.3194329707
  0
LINE
  5
492
100
AcDbEntity
  8
_30_VOLUMEN
100
AcDbLine
 62
7
  6
CONTINUOUS
 10
105.3217513399
 20
124.3194329707
 11
104.6967513399
 21
124.3194329707
  0
LINE
  5
493
100
AcDbEntity
  8
_30_VOLUMEN
100
AcDbLine
 62
7
  6
CONTINUOUS
 10
103.8634164171
 20
124.3194329707
 11
101.3634164171
 21
124.3194329707
  0
LINE
  5
494
100
AcDbEntity
  8
_30_VOLUMEN
100
AcDbLine
 62
7
  6
CONTINUOUS
 10
99.1759164171
 20
124.3194329707
 11
98.5509164171
 21
124.3194329707
  0
LINE
  5
495
100
AcDbEntity
  8
_30_VOLUMEN
100
AcDbLine
 62
7
  6
CONTINUOUS
 10
95.6342513399
 20
124.3194329707
 11
95.0092513399
 21
124.3194329707
  0
LINE
  5
496
100
AcDbEntity
  8
_30_VOLUMEN
100
AcDbLine
 62
7
  6
CONTINUOUS
 10
100.8425862626
 20
122.6457173714
 11
101.3634164171
 21
122.6093322541
  0
LINE
  5
497
100
AcDbEntity
  8
_30_VOLUMEN
100
AcDbLine
 62
7
  6
CONTINUOUS
 10
160.8425844745
 20
121.7999940127
 11
161.3634182052
 21
121.7636088954
  0
LWPOLYLINE
  5
498
100
AcDbEntity
  8
BEZUGSACHSEN
100
AcDbPolyline
 62
7
  6
CONTINUOUS
 90
7
 70
0
 10
169.016283931
 20
116.2573463432
 10
168.977486659
 20
116.2611234898
 10
168.9174763954
 20
116.2699557334
 10
168.8542396566
 20
116.2829727228
 10
168.7873843808
 20
116.3005743992
 10
168.7169832589
 20
116.3230459932
 10
168.6436687426
 20
116.3504118105
  0
LINE
  5
499
100
AcDbEntity
  8
_30_VOLUMEN
100
AcDbLine
 62
7
  6
CONTINUOUS
 10
101.2592513399
 20
123.5553454056
 11
100.9467513399
 21
123.5917305229
  0
LINE
  5
49A
100
AcDbEntity
  8
_30_VOLUMEN
100
AcDbLine
 62
7
  6
CONTINUOUS
 10
154.6967513399
 20
121.7636088954
 11
154.6967513399
 21
122.6093322541
  0
LINE
  5
49B
100
AcDbEntity
  8
_30_VOLUMEN
100
AcDbLine
 62
7
  6
CONTINUOUS
 10
154.6967513399
 20
123.473709612
 11
154.6967513399
 21
124.3194329707
  0
LINE
  5
49C
100
AcDbEntity
  8
_30_VOLUMEN
100
AcDbLine
 62
7
  6
CONTINUOUS
 10
155.3217513399
 20
121.7636088954
 11
155.3217513399
 21
122.6093322541
  0
LINE
  5
49D
100
AcDbEntity
  8
_30_VOLUMEN
100
AcDbLine
 62
7
  6
CONTINUOUS
 10
163.7592513399
 20
122.1638451856
 11
163.8634182052
 21
122.345770874
  0
LWPOLYLINE
  5
49E
100
AcDbEntity
  8
RUNDUNGEN
100
AcDbPolyline
 62
7
  6
CONTINUOUS
 90
4
 70
0
 10
168.7164555647
 20
93.1858478831
 10
168.7868783464
 20
93.2083548657
 10
168.8538029047
 20
93.2260015277
 10
168.9171483378
 20
93.2390630941
  0
LINE
  5
49F
100
AcDbEntity
  8
_30_VOLUMEN
100
AcDbLine
 62
7
  6
CONTINUOUS
 10
100.6342513399
 20
123.4461900538
 11
100.4259164171
 21
123.4098049365
  0
LINE
  5
4A0
100
AcDbEntity
  8
_30_VOLUMEN
100
AcDbLine
 62
7
  6
CONTINUOUS
 10
100.9467513399
 20
123.3006495846
 11
101.2592513399
 21
123.3370347019
  0
LINE
  5
4A1
100
AcDbEntity
  8
_30_VOLUMEN
100
AcDbLine
 62
7
  6
CONTINUOUS
 10
100.9467513399
 20
124.0647371242
 11
101.2592513399
 21
124.1011222415
  0
LINE
  5
4A2
100
AcDbEntity
  8
_30_VOLUMEN
100
AcDbLine
 62
7
  6
CONTINUOUS
 10
101.3634164171
 20
124.3194329707
 11
100.8425862626
 21
124.2830478502
  0
LINE
  5
4A3
100
AcDbEntity
  8
RUNDUNGEN
100
AcDbLine
 62
7
  6
CONTINUOUS
 10
65.5503475104
 20
125.2545383817
 11
196.5503475104
 21
125.2545383817
  0
LINE
  5
4A4
100
AcDbEntity
  8
_30_VOLUMEN
100
AcDbLine
 62
7
  6
CONTINUOUS
 10
160.8425844745
 20
122.6457173714
 11
161.3634182052
 21
122.6093322541
  0
LINE
  5
4A5
100
AcDbEntity
  8
_30_VOLUMEN
100
AcDbLine
 62
7
  6
CONTINUOUS
 10
162.7175844745
 20
124.2830478502
 11
162.1967513399
 21
124.3194329707
  0
LINE
  5
4A6
100
AcDbEntity
  8
_30_VOLUMEN
100
AcDbLine
 62
7
  6
CONTINUOUS
 10
161.3634182052
 20
122.8276429579
 11
160.9467513399
 21
122.8640280751
  0
LINE
  5
4A7
100
AcDbEntity
  8
_30_VOLUMEN
100
AcDbLine
 62
7
  6
CONTINUOUS
 10
162.1967513399
 20
123.2553988828
 11
162.6134182052
 21
123.2190137655
  0
LINE
  5
4A8
100
AcDbEntity
  8
_30_VOLUMEN
100
AcDbLine
 62
7
  6
CONTINUOUS
 10
162.1967513399
 20
124.1011222415
 11
162.6134182052
 21
124.0647371242
  0
LINE
  5
4A9
100
AcDbEntity
  8
_30_VOLUMEN
100
AcDbLine
 62
7
  6
CONTINUOUS
 10
160.4259182052
 20
121.8727642473
 11
160.8425844745
 21
121.7999940127
  0
LINE
  5
4AA
100
AcDbEntity
  8
_30_VOLUMEN
100
AcDbLine
 62
7
  6
CONTINUOUS
 10
160.4259182052
 20
122.718487606
 11
160.8425844745
 21
122.6457173714
  0
LINE
  5
4AB
100
AcDbEntity
  8
_30_VOLUMEN
100
AcDbLine
 62
7
  6
CONTINUOUS
 10
160.9467513399
 20
122.8640280751
 11
160.6342513399
 21
122.9367983097
  0
LINE
  5
4AC
100
AcDbEntity
  8
_30_VOLUMEN
100
AcDbLine
 62
7
  6
CONTINUOUS
 10
156.7800850706
 20
122.4549262259
 11
156.7800850706
 21
123.3006495846
  0
LINE
  5
4AD
100
AcDbEntity
  8
_30_VOLUMEN
100
AcDbLine
 62
7
  6
CONTINUOUS
 10
158.2384176092
 20
121.7636088954
 11
158.2384176092
 21
122.6093322541
  0
LINE
  5
4AE
100
AcDbEntity
  8
_30_VOLUMEN
100
AcDbLine
 62
7
  6
CONTINUOUS
 10
158.8634176092
 20
121.7636088954
 11
158.8634176092
 21
122.6093322541
  0
LINE
  5
4AF
100
AcDbEntity
  8
_30_VOLUMEN
100
AcDbLine
 62
7
  6
CONTINUOUS
 10
158.8634176092
 20
123.473709612
 11
158.8634176092
 21
124.3194329707
  0
LINE
  5
4B0
100
AcDbEntity
  8
_30_VOLUMEN
100
AcDbLine
 62
7
  6
CONTINUOUS
 10
159.6967513399
 20
122.345770874
 11
159.6967513399
 21
123.7372710431
  0
LINE
  5
4B1
100
AcDbEntity
  8
_30_VOLUMEN
100
AcDbLine
 62
7
  6
CONTINUOUS
 10
159.8009176092
 20
122.1638451856
 11
159.8009176092
 21
123.0095685443
  0
LINE
  5
4B2
100
AcDbEntity
  8
_30_VOLUMEN
100
AcDbLine
 62
7
  6
CONTINUOUS
 10
160.0092513399
 20
122.0183047164
 11
160.0092513399
 21
122.8640280751
  0
LINE
  5
4B3
100
AcDbEntity
  8
_30_VOLUMEN
100
AcDbLine
 62
7
  6
CONTINUOUS
 10
168.4478080444
 20
93.067780169
 11
168.4486503928
 21
93.0682223421
  0
LINE
  5
4B4
100
AcDbEntity
  8
RUNDUNGEN
100
AcDbLine
 62
7
  6
CONTINUOUS
 10
168.4486503928
 20
93.0682223421
 11
168.4895459663
 21
93.0891805881
  0
LWPOLYLINE
  5
4B5
100
AcDbEntity
  8
RUNDUNGEN
100
AcDbPolyline
 62
7
  6
CONTINUOUS
 90
4
 70
0
 10
168.4895459663
 20
93.0891805881
 10
168.5674949955
 20
93.1262583525
 10
168.64317678
 20
93.1584683395
 10
168.7164555647
 20
93.1858478831
  0
LINE
  5
4B6
100
AcDbEntity
  8
_30_VOLUMEN
100
AcDbLine
 62
7
  6
CONTINUOUS
 10
100.8425862626
 20
124.2830478502
 11
100.4259164171
 21
124.1738924888
  0
LINE
  5
4B7
100
AcDbEntity
  8
_30_VOLUMEN
100
AcDbLine
 62
7
  6
CONTINUOUS
 10
163.1342513399
 20
124.2102776061
 11
162.7175844745
 21
124.2830478502
  0
LINE
  5
4B8
100
AcDbEntity
  8
_30_VOLUMEN
100
AcDbLine
 62
7
  6
CONTINUOUS
 10
162.6134182052
 20
123.2190137655
 11
162.9259182052
 21
123.1462435054
  0
LINE
  5
4B9
100
AcDbEntity
  8
_30_VOLUMEN
100
AcDbLine
 62
7
  6
CONTINUOUS
 10
162.6134182052
 20
124.0647371242
 11
162.9259182052
 21
123.9919668641
  0
LINE
  5
4BA
100
AcDbEntity
  8
_30_VOLUMEN
100
AcDbLine
 62
7
  6
CONTINUOUS
 10
160.0092513399
 20
122.0183047164
 11
160.4259182052
 21
121.8727642473
  0
LINE
  5
4BB
100
AcDbEntity
  8
_30_VOLUMEN
100
AcDbLine
 62
7
  6
CONTINUOUS
 10
160.0092513399
 20
122.8640280751
 11
160.4259182052
 21
122.718487606
  0
LINE
  5
4BC
100
AcDbEntity
  8
_30_VOLUMEN
100
AcDbLine
 62
7
  6
CONTINUOUS
 10
163.5509182052
 20
124.0647371242
 11
163.1342513399
 21
124.2102776061
  0
LINE
  5
4BD
100
AcDbEntity
  8
BEZUGSACHSEN
100
AcDbLine
 62
7
  6
CONTINUOUS
 10
168.6436687426
 20
116.3504118105
 11
168.5678891202
 21
116.3826407955
  0
LINE
  5
4BE
100
AcDbEntity
  8
_30_VOLUMEN
100
AcDbLine
 62
7
  6
CONTINUOUS
 10
158.8634176092
 20
122.6093322541
 11
157.0925850706
 21
123.4461900538
  0
LINE
  5
4BF
100
AcDbEntity
  8
_30_VOLUMEN
100
AcDbLine
 62
7
  6
CONTINUOUS
 10
156.7800850706
 20
122.4549262259
 11
158.2384176092
 21
121.7636088954
  0
LINE
  5
4C0
100
AcDbEntity
  8
_30_VOLUMEN
100
AcDbLine
 62
7
  6
CONTINUOUS
 10
156.7800850706
 20
123.3006495846
 11
158.2384176092
 21
122.6093322541
  0
LINE
  5
4C1
100
AcDbEntity
  8
_30_VOLUMEN
100
AcDbLine
 62
7
  6
CONTINUOUS
 10
156.7800850706
 20
123.6281156402
 11
155.3217513399
 21
124.3194329707
  0
LINE
  5
4C2
100
AcDbEntity
  8
BEZUGSACHSEN
100
AcDbLine
 62
7
  6
CONTINUOUS
 10
168.5678891202
 20
116.3826407955
 11
168.4897772695
 21
116.4197805349
  0
LINE
  5
4C3
100
AcDbEntity
  8
_30_VOLUMEN
100
AcDbLine
 62
7
  6
CONTINUOUS
 10
154.6967513399
 20
123.473709612
 11
155.5918264466
 21
123.0323254303
  0
LINE
  5
4C4
100
AcDbEntity
  8
_30_VOLUMEN
100
AcDbLine
 62
7
  6
CONTINUOUS
 10
154.6967513399
 20
124.3194329707
 11
156.4675850706
 21
123.4461900538
  0
LINE
  5
4C5
100
AcDbEntity
  8
BEZUGSACHSEN
100
AcDbLine
 62
7
  6
CONTINUOUS
 10
168.4897772695
 20
116.4197805349
 11
168.4486417111
 21
116.4408589805
  0
LINE
  5
4C6
100
AcDbEntity
  8
_30_VOLUMEN
100
AcDbLine
 62
7
  6
CONTINUOUS
 10
168.4477981261
 20
116.4413017987
 11
168.4486417111
 21
116.4408589805
  0
LINE
  5
4C7
100
AcDbEntity
  8
_30_VOLUMEN
100
AcDbLine
 62
7
  6
CONTINUOUS
 10
160.3217513399
 20
123.1914942327
 11
160.3217513399
 21
123.7372710431
  0
LINE
  5
4C8
100
AcDbEntity
  8
_30_VOLUMEN
100
AcDbLine
 62
7
  6
CONTINUOUS
 10
160.4259182052
 20
121.8727642473
 11
160.4259182052
 21
122.718487606
  0
LINE
  5
4C9
100
AcDbEntity
  8
_30_VOLUMEN
100
AcDbLine
 62
7
  6
CONTINUOUS
 10
160.4259182052
 20
123.0370881535
 11
160.4259182052
 21
123.8828115122
  0
LINE
  5
4CA
100
AcDbEntity
  8
_30_VOLUMEN
100
AcDbLine
 62
7
  6
CONTINUOUS
 10
160.6342513399
 20
123.1462435054
 11
160.6342513399
 21
123.9919668641
  0
LINE
  5
4CB
100
AcDbEntity
  8
_30_VOLUMEN
100
AcDbLine
 62
7
  6
CONTINUOUS
 10
160.8425844745
 20
121.7999940127
 11
160.8425844745
 21
122.6457173714
  0
LINE
  5
4CC
100
AcDbEntity
  8
_30_VOLUMEN
100
AcDbLine
 62
7
  6
CONTINUOUS
 10
160.9467513399
 20
123.2190137655
 11
160.9467513399
 21
124.0647371242
  0
LINE
  5
4CD
100
AcDbEntity
  8
_30_VOLUMEN
100
AcDbLine
 62
7
  6
CONTINUOUS
 10
161.3634182052
 20
121.7636088954
 11
161.3634182052
 21
122.6093322541
  0
LINE
  5
4CE
100
AcDbEntity
  8
_30_VOLUMEN
100
AcDbLine
 62
7
  6
CONTINUOUS
 10
161.3634182052
 20
123.2553988828
 11
161.3634182052
 21
124.1011222415
  0
LINE
  5
4CF
100
AcDbEntity
  8
_30_VOLUMEN
100
AcDbLine
 62
7
  6
CONTINUOUS
 10
162.1967513399
 20
121.7636088954
 11
162.1967513399
 21
122.6093322541
  0
LINE
  5
4D0
100
AcDbEntity
  8
_30_VOLUMEN
100
AcDbLine
 62
7
  6
CONTINUOUS
 10
162.1967513399
 20
123.2553988828
 11
162.1967513399
 21
124.1011222415
  0
LINE
  5
4D1
100
AcDbEntity
  8
_30_VOLUMEN
100
AcDbLine
 62
7
  6
CONTINUOUS
 10
162.6134182052
 20
123.2190137655
 11
162.6134182052
 21
124.0647371242
  0
LINE
  5
4D2
100
AcDbEntity
  8
_30_VOLUMEN
100
AcDbLine
 62
7
  6
CONTINUOUS
 10
162.7175844745
 20
121.7999940127
 11
162.7175844745
 21
122.6457173714
  0
LINE
  5
4D3
100
AcDbEntity
  8
_30_VOLUMEN
100
AcDbLine
 62
7
  6
CONTINUOUS
 10
162.9259182052
 20
123.1462435054
 11
162.9259182052
 21
123.9919668641
  0
LINE
  5
4D4
100
AcDbEntity
  8
_30_VOLUMEN
100
AcDbLine
 62
7
  6
CONTINUOUS
 10
163.1342513399
 20
121.8727642473
 11
163.1342513399
 21
122.718487606
  0
LINE
  5
4D5
100
AcDbEntity
  8
_30_VOLUMEN
100
AcDbLine
 62
7
  6
CONTINUOUS
 10
163.1342513399
 20
123.0370881535
 11
163.1342513399
 21
123.8828115122
  0
LINE
  5
4D6
100
AcDbEntity
  8
_30_VOLUMEN
100
AcDbLine
 62
7
  6
CONTINUOUS
 10
163.2384182052
 20
123.7372710431
 11
163.2384182052
 21
123.1914942327
  0
LINE
  5
4D7
100
AcDbEntity
  8
_30_VOLUMEN
100
AcDbLine
 62
7
  6
CONTINUOUS
 10
163.5509182052
 20
122.0183047164
 11
163.5509182052
 21
122.8640280751
  0
LINE
  5
4D8
100
AcDbEntity
  8
_30_VOLUMEN
100
AcDbLine
 62
7
  6
CONTINUOUS
 10
163.7592513399
 20
122.1638451856
 11
163.7592513399
 21
123.0095685443
  0
LINE
  5
4D9
100
AcDbEntity
  8
_30_VOLUMEN
100
AcDbLine
 62
7
  6
CONTINUOUS
 10
163.8634182052
 20
122.345770874
 11
163.8634182052
 21
123.7372710431
  0
LINE
  5
4DA
100
AcDbEntity
  8
_30_VOLUMEN
100
AcDbLine
 62
7
  6
CONTINUOUS
 10
164.6967513399
 20
121.7636088954
 11
164.6967513399
 21
124.3194329707
  0
LINE
  5
4DB
100
AcDbEntity
  8
_30_VOLUMEN
100
AcDbLine
 62
7
  6
CONTINUOUS
 10
160.6342513399
 20
122.9367983097
 11
160.4259182052
 21
123.0459537635
  0
LINE
  5
4DC
100
AcDbEntity
  8
_30_VOLUMEN
100
AcDbLine
 62
7
  6
CONTINUOUS
 10
162.9259182052
 20
123.1462435054
 11
163.1257909234
 21
123.0415209565
  0
LINE
  5
4DD
100
AcDbEntity
  8
_30_VOLUMEN
100
AcDbLine
 62
7
  6
CONTINUOUS
 10
162.9259182052
 20
123.9919668641
 11
163.1342513399
 21
123.8828115122
  0
LINE
  5
4DE
100
AcDbEntity
  8
_30_VOLUMEN
100
AcDbLine
 62
7
  6
CONTINUOUS
 10
165.3217513399
 20
123.2190137655
 11
167.9259180562
 21
121.7636088954
  0
LINE
  5
4DF
100
AcDbEntity
  8
_30_VOLUMEN
100
AcDbLine
 62
7
  6
CONTINUOUS
 10
165.3217513399
 20
124.0647371242
 11
167.9259180562
 21
122.6093322541
  0
LINE
  5
4E0
100
AcDbEntity
  8
_30_VOLUMEN
100
AcDbLine
 62
7
  6
CONTINUOUS
 10
159.8009176092
 20
122.1638451856
 11
160.0092513399
 21
122.0183047164
  0
LINE
  5
4E1
100
AcDbEntity
  8
_30_VOLUMEN
100
AcDbLine
 62
7
  6
CONTINUOUS
 10
159.8009176092
 20
123.0095685443
 11
160.0092513399
 21
122.8640280751
  0
LINE
  5
4E2
100
AcDbEntity
  8
_30_VOLUMEN
100
AcDbLine
 62
7
  6
CONTINUOUS
 10
159.6967513399
 20
122.345770874
 11
159.8009176092
 21
122.1638451856
  0
LINE
  5
4E3
100
AcDbEntity
  8
_30_VOLUMEN
100
AcDbLine
 62
7
  6
CONTINUOUS
 10
165.3217513399
 20
121.7636088954
 11
165.3217513399
 21
124.0647371242
  0
LINE
  5
4E4
100
AcDbEntity
  8
_30_VOLUMEN
100
AcDbLine
 62
7
  6
CONTINUOUS
 10
167.9259180562
 20
121.7636088954
 11
167.9259180562
 21
122.6093322541
  0
LINE
  5
4E5
100
AcDbEntity
  8
_30_VOLUMEN
100
AcDbLine
 62
7
  6
CONTINUOUS
 10
168.2384180562
 20
124.3194329707
 11
168.2384180562
 21
122.8276429579
  0
LINE
  5
4E6
100
AcDbEntity
  8
_30_VOLUMEN
100
AcDbLine
 62
7
  6
CONTINUOUS
 10
168.8634180562
 20
121.7636088954
 11
168.8634180562
 21
124.3194329707
  0
LINE
  5
4E7
100
AcDbEntity
  8
_30_VOLUMEN
100
AcDbLine
 62
7
  6
CONTINUOUS
 10
169.6967513399
 20
121.7636088954
 11
169.6967513399
 21
124.3194329707
  0
LINE
  5
4E8
100
AcDbEntity
  8
_30_VOLUMEN
100
AcDbLine
 62
7
  6
CONTINUOUS
 10
168.2384180562
 20
122.8276429579
 11
165.6342513399
 21
124.3194329707
  0
LINE
  5
4E9
100
AcDbEntity
  8
_30_VOLUMEN
100
AcDbLine
 62
7
  6
CONTINUOUS
 10
163.7592513399
 20
123.9191966295
 11
163.5509182052
 21
124.0647371242
  0
LINE
  5
4EA
100
AcDbEntity
  8
_30_VOLUMEN
100
AcDbLine
 62
7
  6
CONTINUOUS
 10
160.4259182052
 20
123.0459537635
 11
160.3217513399
 21
123.1914942327
  0
LINE
  5
4EB
100
AcDbEntity
  8
_30_VOLUMEN
100
AcDbLine
 62
7
  6
CONTINUOUS
 10
163.1342513399
 20
123.8828115122
 11
163.2384182052
 21
123.7372710431
  0
LINE
  5
4EC
100
AcDbEntity
  8
_30_VOLUMEN
100
AcDbLine
 62
7
  6
CONTINUOUS
 10
159.6967513399
 20
123.1914942327
 11
159.8009176092
 21
123.0095685443
  0
LINE
  5
4ED
100
AcDbEntity
  8
_30_VOLUMEN
100
AcDbLine
 62
7
  6
CONTINUOUS
 10
163.8634182052
 20
123.7372710431
 11
163.7592513399
 21
123.9191966295
  0
LINE
  5
4EE
100
AcDbEntity
  8
_30_VOLUMEN
100
AcDbLine
 62
7
  6
CONTINUOUS
 10
170.3217513399
 20
121.7636088954
 11
170.3217513399
 21
124.3194329707
  0
LWPOLYLINE
  5
4EF
100
AcDbEntity
  8
_30_VOLUMEN
100
AcDbPolyline
 62
7
  6
CONTINUOUS
 90
16
 70
0
 10
172.1943233388
 20
96.1836939457
 10
172.2013603794
 20
96.2298413686
 10
172.2510200909
 20
96.4740113136
 10
172.3207712653
 20
96.7132190987
 10
172.4101331198
 20
96.9458147958
 10
172.5184893633
 20
97.1701934237
 10
172.6450921945
 20
97.3848061384
 10
172.7890682525
 20
97.5881724065
 10
172.9494243265
 20
97.7788892802
 10
173.125053478
 20
97.9556403974
 10
173.3147440115
 20
98.1172066302
 10
173.5171871647
 20
98.2624735435
 10
173.7309852386
 20
98.3904386474
 10
173.9546628998
 20
98.5002195425
 10
174.1866771386
 20
98.5910595293
 10
174.4254268946
 20
98.6623323595
  0
LWPOLYLINE
  5
4F0
100
AcDbEntity
  8
BEZUGSACHSEN
100
AcDbPolyline
 62
7
  6
CONTINUOUS
 90
61
 70
0
 10
172.1943231808
 20
113.3253825106
 10
172.1899031899
 20
113.3550447946
 10
172.1736669077
 20
113.4516024647
 10
172.154828537
 20
113.5469455319
 10
172.1334591991
 20
113.6410288112
 10
172.109634091
 20
113.733790847
 10
172.0834292636
 20
113.8251738454
 10
172.0549151105
 20
113.9151427812
 10
172.0241673965
 20
114.0036464597
 10
171.9912623608
 20
114.090637135
 10
171.9562686732
 20
114.1760890552
 10
171.9192616611
 20
114.2599605156
 10
171.8803168065
 20
114.3422130212
 10
171.8395002504
 20
114.4228291649
 10
171.7968861061
 20
114.5017758274
 10
171.75254827
 20
114.5790230533
 10
171.7065495378
 20
114.654561142
 10
171.6589618998
 20
114.7283650847
 10
171.6098572146
 20
114.8004122725
 10
171.5592949213
 20
114.8706990351
 10
171.5073444923
 20
114.9392074909
 10
171.4540752085
 20
115.0059218066
 10
171.3995430573
 20
115.0708433682
 10
171.3438150195
 20
115.1339602329
 10
171.2869571003
 20
115.1952630824
 10
171.2290206251
 20
115.2547587529
 10
171.1700694426
 20
115.3124408479
 10
171.1101662432
 20
115.3683053989
 10
171.049357342
 20
115.4223638809
 10
170.9877031124
 20
115.474614784
 10
170.9252628154
 20
115.5250586567
 10
170.8620778074
 20
115.5737105883
 10
170.7982044004
 20
115.6205735695
 10
170.7336987543
 20
115.6656516648
 10
170.6685987966
 20
115.7089617973
 10
170.6029584931
 20
115.7505097738
 10
170.5368292627
 20
115.7903039055
 10
170.4702419628
 20
115.8283647285
 10
170.4032085432
 20
115.864721257
 10
170.3358141876
 20
115.8993625121
 10
170.2681999328
 20
115.9322560559
 10
170.2003735385
 20
115.9634396116
 10
170.1324235967
 20
115.9929132564
 10
170.064618241
 20
116.0206108119
 10
169.9970558952
 20
116.0465513088
 10
169.9297367133
 20
116.0707928035
 10
169.8627823535
 20
116.0933494857
 10
169.7964334918
 20
116.1142064524
 10
169.7305353517
 20
116.1334772442
 10
169.6645927003
 20
116.1513469808
 10
169.5982499264
 20
116.167923049
 10
169.5318960034
 20
116.1831193588
 10
169.4660948358
 20
116.1968468841
 10
169.4002308111
 20
116.2092721477
 10
169.3348480237
 20
116.2203295142
 10
169.272053875
 20
116.2297776793
 10
169.211283533
 20
116.2378586914
 10
169.1524225559
 20
116.2447281859
 10
169.0980011714
 20
116.2502879356
 10
169.0484785622
 20
116.2547371597
 10
169.0139446545
 20
116.2575269717
  0
LINE
  5
4F1
100
AcDbEntity
  8
0
100
AcDbLine
 62
7
  6
CONTINUOUS
 10
176.3932596345
 20
98.7545383817
 11
176.3932596345
 21
97.8545383817
  0
LINE
  5
4F2
100
AcDbEntity
  8
0
100
AcDbLine
 62
7
  6
CONTINUOUS
 10
177.0831954867
 20
98.7545383817
 11
177.0831954867
 21
97.8545383817
  0
LINE
  5
4F3
100
AcDbEntity
  8
0
100
AcDbLine
 62
7
  6
CONTINUOUS
 10
181.4156794583
 20
98.7545383817
 11
181.4156794583
 21
97.8545383817
  0
LINE
  5
4F4
100
AcDbEntity
  8
0
100
AcDbLine
 62
7
  6
CONTINUOUS
 10
182.0225096737
 20
98.7545383817
 11
182.0225096737
 21
97.8545383817
  0
LINE
  5
4F5
100
AcDbEntity
  8
0
100
AcDbLine
 62
7
  6
CONTINUOUS
 10
182.7939847123
 20
98.7545383817
 11
182.7939847123
 21
97.8545383817
  0
LINE
  5
4F6
100
AcDbEntity
  8
0
100
AcDbLine
 62
7
  6
CONTINUOUS
 10
183.289485439
 20
98.7545383817
 11
183.289485439
 21
97.8545383817
  0
LINE
  5
4F7
100
AcDbEntity
  8
0
100
AcDbLine
 62
7
  6
CONTINUOUS
 10
183.8116438427
 20
98.7545383817
 11
183.8116438427
 21
97.8545383817
  0
LINE
  5
4F8
100
AcDbEntity
  8
0
100
AcDbLine
 62
7
  6
CONTINUOUS
 10
184.0311703064
 20
98.7545383817
 11
184.0311703064
 21
97.8545383817
  0
LINE
  5
4F9
100
AcDbEntity
  8
0
100
AcDbLine
 62
7
  6
CONTINUOUS
 10
184.2224728116
 20
98.7545383817
 11
184.2224728116
 21
97.8545383817
  0
LINE
  5
4FA
100
AcDbEntity
  8
0
100
AcDbLine
 62
7
  6
CONTINUOUS
 10
185.6462621451
 20
98.7545383817
 11
185.6462621451
 21
97.8545383817
  0
LINE
  5
4FB
100
AcDbEntity
  8
0
100
AcDbLine
 62
7
  6
CONTINUOUS
 10
186.3361979006
 20
98.7545383817
 11
186.3361979006
 21
97.8545383817
  0
LINE
  5
4FC
100
AcDbEntity
  8
0
100
AcDbLine
 62
7
  6
CONTINUOUS
 10
188.3119358384
 20
98.7545383817
 11
188.3119358384
 21
97.8545383817
  0
LINE
  5
4FD
100
AcDbEntity
  8
0
100
AcDbLine
 62
7
  6
CONTINUOUS
 10
188.4985395778
 20
98.7545383817
 11
188.4985395778
 21
97.8545383817
  0
LINE
  5
4FE
100
AcDbEntity
  8
RUNDUNGEN
100
AcDbLine
 62
7
  6
CONTINUOUS
 10
199.5503475104
 20
122.2545383817
 11
199.5503475104
 21
120.493898546
  0
LINE
  5
4FF
100
AcDbEntity
  8
_30_VOLUMEN
100
AcDbLine
 62
7
  6
CONTINUOUS
 10
199.5503475104
 20
120.493898546
 11
199.5503475104
 21
107.2545383817
  0
LINE
  5
500
100
AcDbEntity
  8
RUNDUNGEN
100
AcDbLine
 62
7
  6
CONTINUOUS
 10
199.5503475104
 20
107.2545383817
 11
199.5503475104
 21
102.2545383817
  0
LINE
  5
501
100
AcDbEntity
  8
RUNDUNGEN
100
AcDbLine
 62
7
  6
CONTINUOUS
 10
199.5503475104
 20
87.2545383817
 11
199.5503475104
 21
89.0151782175
  0
LINE
  5
502
100
AcDbEntity
  8
_30_VOLUMEN
100
AcDbLine
 62
7
  6
CONTINUOUS
 10
199.5503475104
 20
89.0151782175
 11
199.5503475104
 21
102.2545383817
  0
ARC
  5
503
100
AcDbEntity
  8
RUNDUNGEN
100
AcDbCircle
 62
7
  6
CONTINUOUS
 10
65.5503475104
 20
191.4360325309
 40
3.0
100
AcDbArc
 50
99.0
 51
180.0
  0
ARC
  5
504
100
AcDbEntity
  8
_30_VOLUMEN
100
AcDbCircle
 62
7
  6
CONTINUOUS
 10
65.5503475104
 20
191.4360325309
 40
3.0
100
AcDbArc
 50
99.0
 51
180.0
  0
ARC
  5
505
100
AcDbEntity
  8
RUNDUNGEN
100
AcDbCircle
 62
7
  6
CONTINUOUS
 10
77.5503475104
 20
194.425538296
 40
15.0
100
AcDbArc
 50
157.89
 51
180.0
  0
ARC
  5
506
100
AcDbEntity
  8
0
100
AcDbCircle
 62
7
  6
CONTINUOUS
 10
82.9567562548
 20
202.2458456071
 40
1.588367138
100
AcDbArc
 50
246.7319005613
 51
338.0
  0
ARC
  5
507
100
AcDbEntity
  8
0
100
AcDbCircle
 62
7
  6
CONTINUOUS
 10
81.6445423139
 20
202.7760144531
 40
1.5883670453
100
AcDbArc
 50
158.0
 51
249.2679482936
  0
ARC
  5
508
100
AcDbEntity
  8
0
100
AcDbCircle
 62
7
  6
CONTINUOUS
 10
82.9490062094
 20
202.2641055956
 40
0.5587543466
100
AcDbArc
 50
245.8332171541
 51
338.0
  0
ARC
  5
509
100
AcDbEntity
  8
0
100
AcDbCircle
 62
7
  6
CONTINUOUS
 10
81.6628016252
 20
202.7837659794
 40
0.5587541905
100
AcDbArc
 50
158.0
 51
250.1663598754
  0
ARC
  5
50A
100
AcDbEntity
  8
BEZUGSACHSEN
100
AcDbCircle
 62
7
  6
CONTINUOUS
 10
84.7452764898
 20
204.4489921034
 40
6.85
100
AcDbArc
 50
278.9995788007
 51
338.6828209993
  0
ARC
  5
50B
100
AcDbEntity
  8
_30_VOLUMEN
100
AcDbCircle
 62
7
  6
CONTINUOUS
 10
85.7787418943
 20
207.0969884087
 40
6.85
100
AcDbArc
 50
338.680191336
 51
3.358992695
  0
ARC
  5
50C
100
AcDbEntity
  8
_30_VOLUMEN
100
AcDbCircle
 62
7
  6
CONTINUOUS
 10
85.7787418943
 20
207.0969884087
 40
6.85
100
AcDbArc
 50
5.1923167474
 51
14.805109222
  0
ARC
  5
50D
100
AcDbEntity
  8
BEZUGSACHSEN
100
AcDbCircle
 62
7
  6
CONTINUOUS
 10
85.7787418943
 20
207.0969884087
 40
6.85
100
AcDbArc
 50
338.6784927256
 51
5.1923167474
  0
ARC
  5
50E
100
AcDbEntity
  8
0
100
AcDbCircle
 62
7
  6
CONTINUOUS
 10
84.2195667969
 20
209.0928154541
 40
1.6096254078
100
AcDbArc
 50
68.7709153812
 51
158.0
  0
ARC
  5
50F
100
AcDbEntity
  8
0
100
AcDbCircle
 62
7
  6
CONTINUOUS
 10
83.7052182657
 20
207.8197581664
 40
1.6096254078
100
AcDbArc
 50
158.0
 51
247.2290846188
  0
ARC
  5
510
100
AcDbEntity
  8
0
100
AcDbCircle
 62
7
  6
CONTINUOUS
 10
77.9191984365
 20
204.2931948
 40
1.5991839615
100
AcDbArc
 50
248.4006302106
 51
338.3709718982
  0
ARC
  5
511
100
AcDbEntity
  8
0
100
AcDbCircle
 62
7
  6
CONTINUOUS
 10
78.4558016143
 20
205.5914845324
 40
1.5881125006
100
AcDbArc
 50
337.2285047388
 51
68.0
  0
ARC
  5
512
100
AcDbEntity
  8
0
100
AcDbCircle
 62
7
  6
CONTINUOUS
 10
78.4091930186
 20
205.5721161561
 40
0.5802945275
100
AcDbArc
 50
338.0
 51
65.834211849
  0
ARC
  5
513
100
AcDbEntity
  8
0
100
AcDbCircle
 62
7
  6
CONTINUOUS
 10
83.7237333959
 20
207.8274112551
 40
0.5802900785
100
AcDbArc
 50
158.0
 51
245.8346348199
  0
ARC
  5
514
100
AcDbEntity
  8
0
100
AcDbCircle
 62
7
  6
CONTINUOUS
 10
77.911945349
 20
204.3103534644
 40
0.5687799821
100
AcDbArc
 50
249.0381638334
 51
339.1272013467
  0
ARC
  5
515
100
AcDbEntity
  8
0
100
AcDbCircle
 62
7
  6
CONTINUOUS
 10
84.2151490709
 20
209.1022372377
 40
0.5587635311
100
AcDbArc
 50
68.0
 51
160.1653651801
  0
ARC
  5
516
100
AcDbEntity
  8
RUNDUNGEN
100
AcDbCircle
 62
7
  6
CONTINUOUS
 10
131.0503475104
 20
198.5855446058
 40
63.0
100
AcDbArc
 50
22.11
 51
157.89
  0
ARC
  5
517
100
AcDbEntity
  8
RUNDUNGEN
100
AcDbCircle
 62
7
  6
CONTINUOUS
 10
184.5503475104
 20
194.425538296
 40
15.0
100
AcDbArc
 50
0.0
 51
22.11
  0
ARC
  5
518
100
AcDbEntity
  8
RUNDUNGEN
100
AcDbCircle
 62
7
  6
CONTINUOUS
 10
196.5503475104
 20
191.4360325309
 40
3.0
100
AcDbArc
 50
0.0
 51
81.0
  0
ARC
  5
519
100
AcDbEntity
  8
_30_VOLUMEN
100
AcDbCircle
 62
7
  6
CONTINUOUS
 10
196.5503475104
 20
191.4360325309
 40
3.0
100
AcDbArc
 50
0.0
 51
81.0
  0
ARC
  5
51A
100
AcDbEntity
  8
RUNDUNGEN
100
AcDbCircle
 62
7
  6
CONTINUOUS
 10
131.0503475104
 20
215.7855446058
 40
25.0
100
AcDbArc
 50
343.8179829121
 51
1.1000788527
  0
ARC
  5
51B
100
AcDbEntity
  8
BEZUGSACHSEN
100
AcDbCircle
 62
7
  6
CONTINUOUS
 10
131.0503475104
 20
215.7855446058
 40
25.0
100
AcDbArc
 50
1.1000788527
 51
343.8179829121
  0
ARC
  5
51C
100
AcDbEntity
  8
RUNDUNGEN
100
AcDbCircle
 62
7
  6
CONTINUOUS
 10
177.3554185309
 20
204.4489921034
 40
6.85
100
AcDbArc
 50
201.3171790007
 51
261.0004211993
  0
ARC
  5
51D
100
AcDbEntity
  8
RUNDUNGEN
100
AcDbCircle
 62
7
  6
CONTINUOUS
 10
176.3219531265
 20
207.0969884087
 40
6.85
100
AcDbArc
 50
174.8076832526
 51
201.3215072744
  0
ARC
  5
51E
100
AcDbEntity
  8
_30_VOLUMEN
100
AcDbCircle
 62
7
  6
CONTINUOUS
 10
176.3219531265
 20
207.0969884087
 40
6.85
100
AcDbArc
 50
165.1948908237
 51
174.8076832526
  0
ARC
  5
51F
100
AcDbEntity
  8
_30_VOLUMEN
100
AcDbCircle
 62
7
  6
CONTINUOUS
 10
176.3219531265
 20
207.0969884087
 40
6.85
100
AcDbArc
 50
176.6410073051
 51
201.319808664
  0
ARC
  5
520
100
AcDbEntity
  8
BEZUGSACHSEN
100
AcDbCircle
 62
7
  6
CONTINUOUS
 10
176.3219531265
 20
207.0969884087
 40
6.85
100
AcDbArc
 50
176.6408987546
 51
201.3215072744
  0
ARC
  5
521
100
AcDbEntity
  8
BEZUGSACHSEN
100
AcDbCircle
 62
7
  6
CONTINUOUS
 10
332.2759917908
 20
216.3807079758
 40
21.0
100
AcDbArc
 50
180.0000005254
 51
199.9995977362
  0
ARC
  5
522
100
AcDbEntity
  8
BEZUGSACHSEN
100
AcDbCircle
 62
7
  6
CONTINUOUS
 10
267.2759917908
 20
216.3807079758
 40
21.0
100
AcDbArc
 50
340.0004022638
 51
359.9999994746
  0
ARC
  5
523
100
AcDbEntity
  8
RUNDUNGEN
100
AcDbCircle
 62
7
  6
CONTINUOUS
 10
297.2759917908
 20
258.0855446058
 40
3.5
100
AcDbArc
 50
90.0
 51
152.469760782
  0
ARC
  5
524
100
AcDbEntity
  8
RUNDUNGEN
100
AcDbCircle
 62
7
  6
CONTINUOUS
 10
302.2759917908
 20
258.0855446058
 40
3.5
100
AcDbArc
 50
27.5083897682
 51
90.0
  0
ARC
  5
525
100
AcDbEntity
  8
RUNDUNGEN
100
AcDbCircle
 62
7
  6
CONTINUOUS
 10
318.2759917908
 20
187.5978906444
 40
2.0
100
AcDbArc
 50
0.0001593431
 51
20.0
  0
ARC
  5
526
100
AcDbEntity
  8
RUNDUNGEN
100
AcDbCircle
 62
7
  6
CONTINUOUS
 10
281.2759917908
 20
187.5978906444
 40
2.0
100
AcDbArc
 50
160.0004172764
 51
180.0000359986
  0
ARC
  5
527
100
AcDbEntity
  8
RUNDUNGEN
100
AcDbCircle
 62
7
  6
CONTINUOUS
 10
66.0503475104
 20
102.2545383817
 40
3.5
100
AcDbArc
 50
180.0
 51
208.6862837133
  0
ARC
  5
528
100
AcDbEntity
  8
_30_VOLUMEN
100
AcDbCircle
 62
7
  6
CONTINUOUS
 10
66.0503475104
 20
102.2545383817
 40
3.5
100
AcDbArc
 50
180.0
 51
208.6862837133
  0
ARC
  5
529
100
AcDbEntity
  8
_30_VOLUMEN
100
AcDbCircle
 62
7
  6
CONTINUOUS
 10
196.0503475104
 20
102.2545383817
 40
3.5
100
AcDbArc
 50
331.3137162867
 51
360.0
  0
ARC
  5
52A
100
AcDbEntity
  8
_30_VOLUMEN
100
AcDbCircle
 62
7
  6
CONTINUOUS
 10
196.0503475104
 20
107.2545383817
 40
3.5
100
AcDbArc
 50
0.0
 51
28.6862837133
  0
ARC
  5
52B
100
AcDbEntity
  8
_30_VOLUMEN
100
AcDbCircle
 62
7
  6
CONTINUOUS
 10
66.0503475104
 20
107.2545383817
 40
3.5
100
AcDbArc
 50
151.3137162867
 51
180.0
  0
ARC
  5
52C
100
AcDbEntity
  8
RUNDUNGEN
100
AcDbCircle
 62
7
  6
CONTINUOUS
 10
65.5503475104
 20
122.2545383817
 40
3.0
100
AcDbArc
 50
90.0
 51
180.0
  0
ARC
  5
52D
100
AcDbEntity
  8
RUNDUNGEN
100
AcDbCircle
 62
7
  6
CONTINUOUS
 10
196.5503475104
 20
87.2545383817
 40
3.0
100
AcDbArc
 50
270.0
 51
360.0
  0
ARC
  5
52E
100
AcDbEntity
  8
RUNDUNGEN
100
AcDbCircle
 62
7
  6
CONTINUOUS
 10
196.5503475104
 20
122.2545383817
 40
3.0
100
AcDbArc
 50
0.0
 51
90.0
  0
ARC
  5
52F
100
AcDbEntity
  8
RUNDUNGEN
100
AcDbCircle
 62
7
  6
CONTINUOUS
 10
65.5503475104
 20
87.2545383817
 40
3.0
100
AcDbArc
 50
180.0
 51
270.0
  0
ARC
  5
530
100
AcDbEntity
  8
_30_VOLUMEN
100
AcDbCircle
 62
7
  6
CONTINUOUS
 10
175.163468708
 20
113.7545383817
 40
2.9999999842
100
AcDbArc
 50
188.2244881658
 51
269.8884113666
  0
ARC
  5
531
100
AcDbEntity
  8
_30_VOLUMEN
100
AcDbCircle
 62
7
  6
CONTINUOUS
 10
86.9372263127
 20
95.7545383817
 40
2.9999999842
100
AcDbArc
 50
8.2244881658
 51
89.8884113665
  0
ENDSEC
  0
SECTION
  2
OBJECTS
  0
DICTIONARY
  5
C
100
AcDbDictionary
280
0
281
1
  3
ACAD_GROUP
350
D
  3
ACAD_MLINESTYLE
350
17
  3
ACAD_LAYOUT
350
1A
  3
ACAD_PLOTSETTINGS
350
19
  3
ACAD_PLOTSTYLENAME
350
E
  0
DICTIONARY
  5
D
102
{ACAD_REACTORS
330
C
102
}
100
AcDbDictionary
280
0
281
1
  0
ACDBDICTIONARYWDFLT
  5
E
102
{ACAD_REACTORS
330
C
102
}
100
AcDbDictionary
281
1
  3
Normal
350
F
100
AcDbDictionaryWithDefault
340
F
  0
DICTIONARY
  5
17
102
{ACAD_REACTORS
330
C
102
}
100
AcDbDictionary
280
0
281
1
  3
Standard
350
18
  0
DICTIONARY
  5
19
102
{ACAD_REACTORS
330
C
102
}
100
AcDbDictionary
281
1
  0
DICTIONARY
  5
1A
102
{ACAD_REACTORS
330
C
102
}
100
AcDbDictionary
281
1
  3
Model
350
532
  3
Layout1
350
533
  0
ACDBPLACEHOLDER
  5
F
102
{ACAD_REACTORS
330
E
102
}
  0
MLINESTYLE
  5
18
102
{ACAD_REACTORS
330
17
102
}
100
AcDbMlineStyle
  2
STANDARD
 70
0
  3

 62
256
 51
90.0
 52
90.0
 71
2
 49
0.5
 62
256
  6
BYLAYER
 49
-0.5
 62
256
  6
BYLAYER
  0
LAYOUT
  5
532
102
{ACAD_REACTORS
330
1A
102
}
100
AcDbPlotSettings
  1

  2
none_device
  4
ISO_A3_(420.00_x_297.00_MM)
  6

 40
0.0
 41
0.0
 42
0.0
 43
0.0
 44
420.0
 45
297.0
 46
0.0
 47
0.0
 48
0.0
 49
0.0
140
0.0
141
0.0
142
1.0
143
1.0
 70
1024
 72
1
 73
0
 74
0
  7

 75
0
147
1.0
148
0.0
149
0.0
100
AcDbLayout
  1
Model
 70
0
 71
0
 10
0.0
 20
0.0
 11
420.0
 21
297.0
 12
0.0
 22
0.0
 32
0.0
 14
0.0
 24
0.0
 34
0.0
 15
0.0
 25
0.0
 35
0.0
146
0.0
 13
0.0
 23
0.0
 33
0.0
 16
1.0
 26
0.0
 36
0.0
 17
0.0
 27
1.0
 37
0.0
 76
0
330
20B
345
0
346
0
  0
LAYOUT
  5
533
102
{ACAD_REACTORS
330
1A
102
}
100
AcDbPlotSettings
  1

  2
none_device
  4
ISO_A3_(420.00_x_297.00_MM)
  6

 40
0.0
 41
0.0
 42
0.0
 43
0.0
 44
420.0
 45
297.0
 46
0.0
 47
0.0
 48
0.0
 49
0.0
140
0.0
141
0.0
142
1.0
143
1.0
 70
0
 72
1
 73
0
 74
0
  7

 75
0
147
1.0
148
0.0
149
0.0
100
AcDbLayout
  1
Layout1
 70
0
 71
1
 10
0.0
 20
0.0
 11
420.0
 21
297.0
 12
0.0
 22
0.0
 32
0.0
 14
0.0
 24
0.0
 34
0.0
 15
0.0
 25
0.0
 35
0.0
146
0.0
 13
0.0
 23
0.0
 33
0.0
 16
1.0
 26
0.0
 36
0.0
 17
0.0
 27
1.0
 37
0.0
 76
0
330
20C
345
0
346
0
  0
ENDSEC
  0
EOF
