999
DXF file: 001-m36282-p-1.dxf
999
Pro/ENGINEER 2022162 by Parametric Technology Corporation
  0
SECTION
  2
HEADER
  9
$ACADVER
  1
AC1015
  9
$DWGCODEPAGE
  3
ANSI_1252
  9
$EXTMAX
 10
420.0
 20
297.0
 30
0.0
  9
$EXTMIN
 10
0.0
 20
0.0
 30
0.0
  9
$LIMMIN
 10
0.0
 20
0.0
  9
$LIMMAX
 10
420.0
 20
297.0
  9
$VIEWCTR
 10
210.0
 20
148.5
  9
$VIEWSIZE
 40
297.0
  9
$CLAYER
  8
0
  9
$LTSCALE
 40
23.1
  9
$CELTYPE
  6
BYLAYER
  9
$DIMSCALE
 40
1.0
  9
$DIMASZ
 40
3.5
  9
$DIMEXO
 40
1.5
  9
$DIMDLI
 40
15.96
  9
$DIMEXE
 40
1.5
  9
$DIMCEN
 40
3.78
  9
$DIMLFAC
 40
1.0
  9
$DIMBLK
  1
_FILLED
  9
$DIMALT
 70
0
  9
$DIMALTF
 40
0.0393700787
  9
$DIMTXT
 40
3.5
  9
$DIMTOL
 70
1
  9
$DIMLIM
 70
0
  9
$DIMTFAC
 40
1.0
  9
$DIMTP
 40
0.05
  9
$DIMTM
 40
0.05
  9
$DIMGAP
 40
0.625
  9
$DIMDSEP
 70
46
  9
$AUNITS
 70
0
  9
$PDMODE
 70
3
  9
$PDSIZE
 40
0.3125
  9
$HANDSEED
  5
551
  9
$TILEMODE
 70
1
  9
$MEASUREMENT
 70
1
  9
$INSUNITS
 70
4
  0
ENDSEC
  0
SECTION
  2
CLASSES
  0
CLASS
  1
ACDBDICTIONARYWDFLT
  2
AcDbDictionaryWithDefault
  3
AutoCAD 2000
 90
0
280
0
281
0
  0
CLASS
  1
ACDBPLACEHOLDER
  2
AcDbPlaceHolder
  3
AutoCAD 2000
 90
0
280
0
281
0
  0
CLASS
  1
LAYOUT
  2
AcDbLayout
  3
AutoCAD 2000
 90
0
280
0
281
0
  0
ENDSEC
  0
SECTION
  2
TABLES
  0
TABLE
  2
VPORT
  5
8
100
AcDbSymbolTable
 70
2
  0
VPORT
  5
1F4
100
AcDbSymbolTableRecord
100
AcDbViewportTableRecord
  2
*ACTIVE
 70
0
 10
0.0
 20
0.0
 11
1.0
 21
1.0
 12
210.0
 22
148.5
 13
0.0
 23
0.0
 14
1.0
 24
1.0
 15
0.0
 25
0.0
 16
0.0
 26
0.0
 36
1.0
 17
0.0
 27
0.0
 37
0.0
 40
297.0
 41
1.4141414141
 42
50.0
 43
0.0
 44
0.0
 50
0.0
 51
0.0
 71
0
 72
100
 73
1
 74
1
 75
0
 76
0
 77
0
 78
0
  0
ENDTAB
  0
TABLE
  2
LTYPE
  5
5
100
AcDbSymbolTable
 70
6
  0
LTYPE
  5
14
100
AcDbSymbolTableRecord
100
AcDbLinetypeTableRecord
  2
BYBLOCK
 70
0
  3

 72
65
 73
0
 40
0.0
  0
LTYPE
  5
15
100
AcDbSymbolTableRecord
100
AcDbLinetypeTableRecord
  2
BYLAYER
 70
0
  3

 72
65
 73
0
 40
0.0
  0
LTYPE
  5
16
100
AcDbSymbolTableRecord
100
AcDbLinetypeTableRecord
  2
CONTINUOUS
 70
64
  3
Solid line
 72
65
 73
0
 40
0.0
  0
LTYPE
  5
1F5
100
AcDbSymbolTableRecord
100
AcDbLinetypeTableRecord
  2
CENTER
 70
64
  3
____ _ ____ _ ____ _ ____ _ ____ _ ____ _ ____
 72
65
 73
4
 40
0.6
 49
0.375
 74
0
 49
-0.075
 74
0
 49
0.075
 74
0
 49
-0.075
 74
0
  0
LTYPE
  5
1F6
100
AcDbSymbolTableRecord
100
AcDbLinetypeTableRecord
  2
HIDDEN
 70
64
  3
- - - - - - - - - - - - - - - - - - - -
 72
65
 73
2
 40
0.2
 49
0.1
 74
0
 49
-0.1
 74
0
  0
LTYPE
  5
1F7
100
AcDbSymbolTableRecord
100
AcDbLinetypeTableRecord
  2
PHANTOM
 70
64
  3
_____ _ _ _____ _ _ _____ _ _ _____
 72
65
 73
6
 40
0.8
 49
0.45
 74
0
 49
-0.05
 74
0
 49
0.1
 74
0
 49
-0.05
 74
0
 49
0.1
 74
0
 49
-0.05
 74
0
  0
LTYPE
  5
1F8
100
AcDbSymbolTableRecord
100
AcDbLinetypeTableRecord
  2
DOT
 70
64
  3
. . . . . . . . . . . . . . . . . . . .
 72
65
 73
2
 40
0.2
 49
0.1
 74
0
 49
-0.1
 74
0
  0
LTYPE
  5
1F9
100
AcDbSymbolTableRecord
100
AcDbLinetypeTableRecord
  2
DASHED
 70
64
  3
- - - - - - - - - - - - - - - - - - - -
 72
65
 73
2
 40
0.2
 49
0.1
 74
0
 49
-0.1
 74
0
  0
ENDTAB
  0
TABLE
  2
LAYER
  5
2
100
AcDbSymbolTable
 70
36
  0
LAYER
  5
10
100
AcDbSymbolTableRecord
100
AcDbLayerTableRecord
  2
0
 70
0
 62
7
  6
CONTINUOUS
370
-3
390
F
  0
LAYER
  5
1FA
100
AcDbSymbolTableRecord
100
AcDbLayerTableRecord
  2
DEFAULT_1
 70
0
 62
7
  6
CENTER
370
-3
390
F
  0
LAYER
  5
1FB
100
AcDbSymbolTableRecord
100
AcDbLayerTableRecord
  2
DEFAULT_2
 70
0
 62
8
  6
HIDDEN
370
-3
390
F
  0
LAYER
  5
1FC
100
AcDbSymbolTableRecord
100
AcDbLayerTableRecord
  2
DEFAULT_3
 70
0
 62
7
  6
PHANTOM
370
-3
390
F
  0
LAYER
  5
1FD
100
AcDbSymbolTableRecord
100
AcDbLayerTableRecord
  2
AUSFORMSCHRAEGEN
 70
0
 62
7
  6
CONTINUOUS
370
-3
390
F
  0
LAYER
  5
1FE
100
AcDbSymbolTableRecord
100
AcDbLayerTableRecord
  2
BEZUGSACHSEN
 70
0
 62
7
  6
CONTINUOUS
370
-3
390
F
  0
LAYER
  5
1FF
100
AcDbSymbolTableRecord
100
AcDbLayerTableRecord
  2
BEZUGSEBENEN
 70
0
 62
7
  6
CONTINUOUS
370
-3
390
F
  0
LAYER
  5
200
100
AcDbSymbolTableRecord
100
AcDbLayerTableRecord
  2
FLAECHEN
 70
0
 62
7
  6
CONTINUOUS
370
-3
390
F
  0
LAYER
  5
201
100
AcDbSymbolTableRecord
100
AcDbLayerTableRecord
  2
HILFEN
 70
0
 62
7
  6
CONTINUOUS
370
-3
390
F
  0
LAYER
  5
202
100
AcDbSymbolTableRecord
100
AcDbLayerTableRecord
  2
KURVEN
 70
0
 62
7
  6
CONTINUOUS
370
-3
390
F
  0
LAYER
  5
203
100
AcDbSymbolTableRecord
100
AcDbLayerTableRecord
  2
PLATZIERUNG
 70
0
 62
7
  6
CONTINUOUS
370
-3
390
F
  0
LAYER
  5
204
100
AcDbSymbolTableRecord
100
AcDbLayerTableRecord
  2
RUNDUNGEN
 70
0
 62
7
  6
CONTINUOUS
370
-3
390
F
  0
LAYER
  5
205
100
AcDbSymbolTableRecord
100
AcDbLayerTableRecord
  2
TEIL_STARTBEZUEGE
 70
0
 62
7
  6
CONTINUOUS
370
-3
390
F
  0
LAYER
  5
206
100
AcDbSymbolTableRecord
100
AcDbLayerTableRecord
  2
ZEICHNUNGSBEMASSUNGEN
 70
0
 62
7
  6
CONTINUOUS
370
-3
390
F
  0
LAYER
  5
207
100
AcDbSymbolTableRecord
100
AcDbLayerTableRecord
  2
_04_NOTIZEN
 70
0
 62
7
  6
CONTINUOUS
370
-3
390
F
  0
LAYER
  5
208
100
AcDbSymbolTableRecord
100
AcDbLayerTableRecord
  2
_30_VOLUMEN
 70
0
 62
7
  6
CONTINUOUS
370
-3
390
F
  0
ENDTAB
  0
TABLE
  2
STYLE
  5
3
100
AcDbSymbolTable
 70
1
  0
STYLE
  5
11
100
AcDbSymbolTableRecord
100
AcDbTextStyleTableRecord
  2
STANDARD
 70
0
 40
0.0
 41
0.7
 50
0.0
 71
0
 42
0.2
  3
txt
  4

  0
STYLE
  5
209
100
AcDbSymbolTableRecord
100
AcDbTextStyleTableRecord
  2
TEXTSTYLE_1
 70
0
 40
0.0
 41
0.8
 50
0.0
 71
0
 42
0.2
  3
gdt
  4

  0
ENDTAB
  0
TABLE
  2
VIEW
  5
6
100
AcDbSymbolTable
 70
0
  0
ENDTAB
  0
TABLE
  2
UCS
  5
7
100
AcDbSymbolTable
 70
0
  0
ENDTAB
  0
TABLE
  2
APPID
  5
9
100
AcDbSymbolTable
 70
1
  0
APPID
  5
20A
100
AcDbSymbolTableRecord
100
AcDbRegAppTableRecord
  2
ACAD
 70
0
  0
ENDTAB
  0
TABLE
  2
BLOCK_RECORD
  5
1
100
AcDbSymbolTable
 70
0
  0
BLOCK_RECORD
  5
20B
100
AcDbSymbolTableRecord
100
AcDbBlockTableRecord
  2
*Model_Space
  0
BLOCK_RECORD
  5
20C
100
AcDbSymbolTableRecord
100
AcDbBlockTableRecord
  2
*Paper_Space
  0
BLOCK_RECORD
  5
20D
100
AcDbSymbolTableRecord
100
AcDbBlockTableRecord
  2
_FILLED
  0
ENDTAB
  0
TABLE
  2
DIMSTYLE
  5
A
100
AcDbSymbolTable
 70
1
100
AcDbDimStyleTable
 71
0
  0
DIMSTYLE
105
20E
100
AcDbSymbolTableRecord
100
AcDbDimStyleTableRecord
  2
STANDARD
 70
0
  3

  4

 40
1.0
 41
3.5
 42
1.5
 43
0.38
 44
1.5
 45
0.0
 46
0.0
 47
0.05
 48
0.05
140
3.5
141
0.09
142
0.0
143
25.4
144
1.0
145
0.0
146
1.0
147
0.625
 71
1
 72
0
 73
0
 74
0
 75
0
 76
0
 77
1
 78
8
 79
2
170
0
171
1
172
0
173
0
174
0
175
0
176
0
177
0
178
5
270
2
179
2
271
2
272
2
273
2
274
2
275
0
280
0
281
0
282
0
283
1
284
8
285
0
286
0
287
3
288
0
340
11
278
46
341
20D
342
20D
343
20D
344
20D
  0
ENDTAB
  0
ENDSEC
  0
SECTION
  2
BLOCKS
  0
BLOCK
  5
20
100
AcDbEntity
  8
0
100
AcDbBlockBegin
  2
*Model_Space
 70
0
 10
0.0
 20
0.0
 30
0.0
  3
*Model_Space
  1

  0
ENDBLK
  5
21
100
AcDbEntity
  8
0
100
AcDbBlockEnd
  0
BLOCK
  5
1C
100
AcDbEntity
  8
0
100
AcDbBlockBegin
  2
*Paper_Space
 70
0
 10
0.0
 20
0.0
 30
0.0
  3
*Paper_Space
  1

  0
ENDBLK
  5
1D
100
AcDbEntity
  8
0
100
AcDbBlockEnd
  0
BLOCK
  5
20F
100
AcDbEntity
  8
0
100
AcDbBlockBegin
  2
_FILLED
 70
64
 10
0.0
 20
0.0
  3
_FILLED
  1

  0
SOLID
  5
210
100
AcDbEntity
  8
0
  6
BYBLOCK
 62
0
100
AcDbTrace
 10
0.0
 20
0.0
 11
-1.0
 21
0.125
 12
-1.0
 22
-0.125
 13
-1.0
 23
-0.125
  0
ENDBLK
  5
211
100
AcDbEntity
  8
0
  6
BYBLOCK
 62
0
100
AcDbBlockEnd
  0
ENDSEC
  0
SECTION
  2
ENTITIES
  0
MTEXT
  5
212
100
AcDbEntity
  8
0
100
AcDbMText
 62
5
  6
CONTINUOUS
  7
STANDARD
 71
1
 72
1
 10
111.319392442
 20
196.3201522434
 30
0.0
 11
1.0
 21
0.0
 31
0.0
 73
2
 44
0.9
  1
RUD INOX-ABA 1,6t
 40
3.5
 41
68.375
  0
MTEXT
  5
213
100
AcDbEntity
  8
_04_NOTIZEN
100
AcDbMText
 62
5
  6
CONTINUOUS
  7
STANDARD
 71
1
 72
1
 10
108.1933361241
 20
113.5590813417
 30
0.0
 11
1.0
 21
0.0
 31
0.0
 73
2
 44
0.9
  1
RUD INOX-ABA 1,6t
 40
3.5
 41
68.375
  0
MTEXT
  5
214
100
AcDbEntity
  8
_04_NOTIZEN
100
AcDbMText
 62
5
  6
CONTINUOUS
  7
STANDARD
 71
1
 72
1
 10
271.6843830115
 20
196.5573220613
 30
0.0
 11
0.0
 21
1.0
 31
0.0
 73
2
 44
0.9
  1
RUD INOX-ABA 1,6t
 40
3.5
 41
68.375
  0
LINE
  5
215
100
AcDbEntity
  8
0
100
AcDbLine
 62
7
  6
CONTINUOUS
 10
0.0
 20
0.0
 11
0.0
 21
297.0
  0
LINE
  5
216
100
AcDbEntity
  8
0
100
AcDbLine
 62
7
  6
CONTINUOUS
 10
0.0
 20
0.0
 11
420.0
 21
0.0
  0
LINE
  5
217
100
AcDbEntity
  8
0
100
AcDbLine
 62
7
  6
CONTINUOUS
 10
0.0
 20
297.0
 11
420.0
 21
297.0
  0
LINE
  5
218
100
AcDbEntity
  8
0
100
AcDbLine
 62
7
  6
CONTINUOUS
 10
420.0
 20
0.0
 11
420.0
 21
297.0
  0
LINE
  5
219
100
AcDbEntity
  8
_30_VOLUMEN
100
AcDbLine
 62
7
  6
CONTINUOUS
 10
81.3138099531
 20
199.6052730315
 11
81.3138099531
 21
197.9611295415
  0
LINE
  5
21A
100
AcDbEntity
  8
RUNDUNGEN
100
AcDbLine
 62
7
  6
CONTINUOUS
 10
81.3138099531
 20
191.7651875957
 11
81.3138099531
 21
197.9611295415
  0
LINE
  5
21B
100
AcDbEntity
  8
RUNDUNGEN
100
AcDbLine
 62
7
  6
CONTINUOUS
 10
88.769157481
 20
220.5877596561
 11
82.4556169654
 21
205.345524517
  0
LINE
  5
21C
100
AcDbEntity
  8
0
100
AcDbLine
 62
7
  6
CONTINUOUS
 10
92.0394923884
 20
213.2539281747
 11
92.6539440669
 21
211.3852581153
  0
LINE
  5
21D
100
AcDbEntity
  8
0
100
AcDbLine
 62
7
  6
CONTINUOUS
 10
93.1725006391
 20
211.6786324348
 11
92.3626005642
 21
214.1416605918
  0
LINE
  5
21E
100
AcDbEntity
  8
0
100
AcDbLine
 62
7
  6
CONTINUOUS
 10
91.5107751409
 20
211.8013375771
 11
91.2609141198
 21
211.1148500636
  0
LINE
  5
21F
100
AcDbEntity
  8
0
100
AcDbLine
 62
7
  6
CONTINUOUS
 10
92.3626005642
 20
214.1416605918
 11
92.0394923884
 21
213.2539281747
  0
LINE
  5
220
100
AcDbEntity
  8
0
100
AcDbLine
 62
7
  6
CONTINUOUS
 10
91.0610443708
 20
210.5656643403
 11
90.8111797412
 21
209.8791669124
  0
LINE
  5
221
100
AcDbEntity
  8
0
100
AcDbLine
 62
7
  6
CONTINUOUS
 10
90.2115132905
 20
208.2315968799
 11
89.9616486608
 21
207.545099452
  0
LINE
  5
222
100
AcDbEntity
  8
0
100
AcDbLine
 62
7
  6
CONTINUOUS
 10
93.0064102865
 20
208.648201552
 11
92.6844057071
 21
207.7635012411
  0
LINE
  5
223
100
AcDbEntity
  8
0
100
AcDbLine
 62
7
  6
CONTINUOUS
 10
93.3675335156
 20
207.5044138869
 11
93.6962564335
 21
208.4075726812
  0
LINE
  5
224
100
AcDbEntity
  8
0
100
AcDbLine
 62
7
  6
CONTINUOUS
 10
95.0600050677
 20
212.1544427829
 11
95.3817702969
 21
213.0384854845
  0
LINE
  5
225
100
AcDbEntity
  8
0
100
AcDbLine
 62
7
  6
CONTINUOUS
 10
94.2814835342
 20
210.0154527062
 11
94.5313445553
 21
210.7019402198
  0
LINE
  5
226
100
AcDbEntity
  8
0
100
AcDbLine
 62
7
  6
CONTINUOUS
 10
95.5446886997
 20
211.7774328556
 11
95.2159643979
 21
210.8742702593
  0
LINE
  5
227
100
AcDbEntity
  8
0
100
AcDbLine
 62
7
  6
CONTINUOUS
 10
94.6307816137
 20
209.2663862398
 11
93.9115702577
 21
207.2903692794
  0
LINE
  5
228
100
AcDbEntity
  8
_30_VOLUMEN
100
AcDbLine
 62
7
  6
CONTINUOUS
 10
108.014002624
 20
199.4292528139
 11
108.3473356394
 21
199.1093574638
  0
LINE
  5
229
100
AcDbEntity
  8
_30_VOLUMEN
100
AcDbLine
 62
7
  6
CONTINUOUS
 10
108.014002624
 20
199.6344648999
 11
108.3473356394
 21
199.3145695498
  0
LINE
  5
22A
100
AcDbEntity
  8
_30_VOLUMEN
100
AcDbLine
 62
7
  6
CONTINUOUS
 10
106.2640023856
 20
202.1483634441
 11
106.4306691317
 21
201.9884157831
  0
LINE
  5
22B
100
AcDbEntity
  8
_30_VOLUMEN
100
AcDbLine
 62
7
  6
CONTINUOUS
 10
106.2640023856
 20
202.3535755301
 11
106.4306691317
 21
202.1936278691
  0
LINE
  5
22C
100
AcDbEntity
  8
_30_VOLUMEN
100
AcDbLine
 62
7
  6
CONTINUOUS
 10
106.9306691317
 20
202.1936278691
 11
106.6806691317
 21
202.5135231912
  0
LINE
  5
22D
100
AcDbEntity
  8
_30_VOLUMEN
100
AcDbLine
 62
7
  6
CONTINUOUS
 10
108.514002624
 20
199.794412617
 11
108.3473356394
 21
200.0343341086
  0
LINE
  5
22E
100
AcDbEntity
  8
_30_VOLUMEN
100
AcDbLine
 62
7
  6
CONTINUOUS
 10
107.8473358778
 20
199.7491481921
 11
108.014002624
 21
199.4292528139
  0
LINE
  5
22F
100
AcDbEntity
  8
_30_VOLUMEN
100
AcDbLine
 62
7
  6
CONTINUOUS
 10
107.8473358778
 20
199.9543602781
 11
108.014002624
 21
199.6344648999
  0
LINE
  5
230
100
AcDbEntity
  8
_30_VOLUMEN
100
AcDbLine
 62
7
  6
CONTINUOUS
 10
107.0973358778
 20
199.0746480302
 11
106.3473358778
 21
200.9140463565
  0
LINE
  5
231
100
AcDbEntity
  8
_30_VOLUMEN
100
AcDbLine
 62
7
  6
CONTINUOUS
 10
105.8473357586
 20
200.5488866094
 11
106.5140023856
 21
198.8694359442
  0
LINE
  5
232
100
AcDbEntity
  8
_30_VOLUMEN
100
AcDbLine
 62
7
  6
CONTINUOUS
 10
105.8473357586
 20
200.7540986954
 11
106.5140023856
 21
199.0746480302
  0
LINE
  5
233
100
AcDbEntity
  8
_30_VOLUMEN
100
AcDbLine
 62
7
  6
CONTINUOUS
 10
103.9306691317
 20
198.8694359442
 11
103.9306691317
 21
202.8334185133
  0
LINE
  5
234
100
AcDbEntity
  8
_30_VOLUMEN
100
AcDbLine
 62
7
  6
CONTINUOUS
 10
104.4306691317
 20
198.8694359442
 11
104.4306691317
 21
200.7540986954
  0
LINE
  5
235
100
AcDbEntity
  8
_30_VOLUMEN
100
AcDbLine
 62
7
  6
CONTINUOUS
 10
104.4306691317
 20
201.2339416786
 11
104.4306691317
 21
202.4335493607
  0
LINE
  5
236
100
AcDbEntity
  8
0
100
AcDbLine
 62
7
  6
CONTINUOUS
 10
95.9058113007
 20
210.6336390843
 11
96.2278169057
 21
211.518342213
  0
LINE
  5
237
100
AcDbEntity
  8
0
100
AcDbLine
 62
7
  6
CONTINUOUS
 10
94.6014183437
 20
207.0497342757
 11
95.3172714025
 21
209.0165243905
  0
LINE
  5
238
100
AcDbEntity
  8
0
100
AcDbLine
 62
7
  6
CONTINUOUS
 10
97.3277298475
 20
211.5499702353
 11
96.7280633968
 21
209.9024002028
  0
LINE
  5
239
100
AcDbEntity
  8
0
100
AcDbLine
 62
7
  6
CONTINUOUS
 10
97.4145509104
 20
209.6525391817
 11
98.0142173611
 21
211.3001092142
  0
LINE
  5
23A
100
AcDbEntity
  8
0
100
AcDbLine
 62
7
  6
CONTINUOUS
 10
96.9648414351
 20
208.4168579398
 11
96.2489883762
 21
206.450067825
  0
LINE
  5
23B
100
AcDbEntity
  8
0
100
AcDbLine
 62
7
  6
CONTINUOUS
 10
96.932119868
 20
206.1909791302
 11
97.6513312239
 21
208.1669960905
  0
LINE
  5
23C
100
AcDbEntity
  8
0
100
AcDbLine
 62
7
  6
CONTINUOUS
 10
97.8512164323
 20
208.716176187
 11
98.1010775352
 21
209.4026639252
  0
LINE
  5
23D
100
AcDbEntity
  8
0
100
AcDbLine
 62
7
  6
CONTINUOUS
 10
98.7007439859
 20
211.0502339577
 11
98.950605007
 21
211.7367214713
  0
LINE
  5
23E
100
AcDbEntity
  8
RUNDUNGEN
100
AcDbLine
 62
7
  6
CONTINUOUS
 10
81.3138099531
 20
191.7651875957
 11
181.3138099531
 21
191.7651875957
  0
LINE
  5
23F
100
AcDbEntity
  8
_30_VOLUMEN
100
AcDbLine
 62
7
  6
CONTINUOUS
 10
108.3473356394
 20
199.1093574638
 11
108.6806691317
 21
198.9494097817
  0
LINE
  5
240
100
AcDbEntity
  8
_30_VOLUMEN
100
AcDbLine
 62
7
  6
CONTINUOUS
 10
108.3473356394
 20
199.3145695498
 11
108.6806691317
 21
199.1546218677
  0
LINE
  5
241
100
AcDbEntity
  8
_30_VOLUMEN
100
AcDbLine
 62
7
  6
CONTINUOUS
 10
108.764002624
 20
199.6344648999
 11
108.514002624
 21
199.794412617
  0
LINE
  5
242
100
AcDbEntity
  8
_30_VOLUMEN
100
AcDbLine
 62
7
  6
CONTINUOUS
 10
106.6806691317
 20
202.5135231912
 11
106.3473358778
 21
202.7534446828
  0
LINE
  5
243
100
AcDbEntity
  8
_30_VOLUMEN
100
AcDbLine
 62
7
  6
CONTINUOUS
 10
102.8336811105
 20
211.3547748726
 11
102.8976363966
 21
211.2003731534
  0
LINE
  5
244
100
AcDbEntity
  8
BEZUGSACHSEN
100
AcDbLine
 62
7
  6
CONTINUOUS
 10
102.9201387129
 20
211.1460477563
 11
102.8976363966
 21
211.2003731534
  0
LINE
  5
245
100
AcDbEntity
  8
_30_VOLUMEN
100
AcDbLine
 62
7
  6
CONTINUOUS
 10
106.4306691317
 20
201.9884157831
 11
106.5140023856
 21
201.7484942915
  0
LINE
  5
246
100
AcDbEntity
  8
_30_VOLUMEN
100
AcDbLine
 62
7
  6
CONTINUOUS
 10
106.4306691317
 20
202.1936278691
 11
106.5140023856
 21
201.9537063775
  0
LINE
  5
247
100
AcDbEntity
  8
_30_VOLUMEN
100
AcDbLine
 62
7
  6
CONTINUOUS
 10
107.0140023856
 20
201.9537063775
 11
106.9306691317
 21
202.1936278691
  0
LINE
  5
248
100
AcDbEntity
  8
_30_VOLUMEN
100
AcDbLine
 62
7
  6
CONTINUOUS
 10
108.3473356394
 20
200.0343341086
 11
108.264002624
 21
200.3542294307
  0
LINE
  5
249
100
AcDbEntity
  8
_30_VOLUMEN
100
AcDbLine
 62
7
  6
CONTINUOUS
 10
107.7640023856
 20
200.1490173447
 11
107.8473358778
 21
199.7491481921
  0
LINE
  5
24A
100
AcDbEntity
  8
_30_VOLUMEN
100
AcDbLine
 62
7
  6
CONTINUOUS
 10
107.7640023856
 20
200.3542294307
 11
107.8473358778
 21
199.9543602781
  0
LINE
  5
24B
100
AcDbEntity
  8
_30_VOLUMEN
100
AcDbLine
 62
7
  6
CONTINUOUS
 10
105.8473357586
 20
200.5488866094
 11
105.8473357586
 21
200.7540986954
  0
LINE
  5
24C
100
AcDbEntity
  8
_30_VOLUMEN
100
AcDbLine
 62
7
  6
CONTINUOUS
 10
106.0140023856
 20
202.2283372747
 11
106.0140023856
 21
202.4335493607
  0
LINE
  5
24D
100
AcDbEntity
  8
_30_VOLUMEN
100
AcDbLine
 62
7
  6
CONTINUOUS
 10
106.2640023856
 20
202.1483634441
 11
106.2640023856
 21
202.3535755301
  0
LINE
  5
24E
100
AcDbEntity
  8
_30_VOLUMEN
100
AcDbLine
 62
7
  6
CONTINUOUS
 10
106.4306691317
 20
201.9884157831
 11
106.4306691317
 21
202.1936278691
  0
LINE
  5
24F
100
AcDbEntity
  8
_30_VOLUMEN
100
AcDbLine
 62
7
  6
CONTINUOUS
 10
106.5140023856
 20
201.9537063775
 11
106.5140023856
 21
201.7137846618
  0
LINE
  5
250
100
AcDbEntity
  8
_30_VOLUMEN
100
AcDbLine
 62
7
  6
CONTINUOUS
 10
106.5140023856
 20
198.8694359442
 11
106.5140023856
 21
199.0746480302
  0
LINE
  5
251
100
AcDbEntity
  8
_30_VOLUMEN
100
AcDbLine
 62
7
  6
CONTINUOUS
 10
106.6806691317
 20
200.8687819316
 11
106.6806691317
 21
201.0739940176
  0
LINE
  5
252
100
AcDbEntity
  8
_30_VOLUMEN
100
AcDbLine
 62
7
  6
CONTINUOUS
 10
106.9306691317
 20
201.1886772537
 11
106.9306691317
 21
201.3938893397
  0
LINE
  5
253
100
AcDbEntity
  8
_30_VOLUMEN
100
AcDbLine
 62
7
  6
CONTINUOUS
 10
107.0140023856
 20
201.4285987453
 11
107.0140023856
 21
201.9537063775
  0
LINE
  5
254
100
AcDbEntity
  8
_30_VOLUMEN
100
AcDbLine
 62
7
  6
CONTINUOUS
 10
107.0973358778
 20
198.8694359442
 11
107.0973358778
 21
199.0746480302
  0
LINE
  5
255
100
AcDbEntity
  8
_30_VOLUMEN
100
AcDbLine
 62
7
  6
CONTINUOUS
 10
107.7640023856
 20
200.1490173447
 11
107.7640023856
 21
202.8334185133
  0
LINE
  5
256
100
AcDbEntity
  8
_30_VOLUMEN
100
AcDbLine
 62
7
  6
CONTINUOUS
 10
107.8473358778
 20
199.7491481921
 11
107.8473358778
 21
199.9543602781
  0
LINE
  5
257
100
AcDbEntity
  8
_30_VOLUMEN
100
AcDbLine
 62
7
  6
CONTINUOUS
 10
108.014002624
 20
199.4292528139
 11
108.014002624
 21
199.6344648999
  0
LINE
  5
258
100
AcDbEntity
  8
_30_VOLUMEN
100
AcDbLine
 62
7
  6
CONTINUOUS
 10
108.264002624
 20
200.3542294307
 11
108.264002624
 21
202.8334185133
  0
LINE
  5
259
100
AcDbEntity
  8
_30_VOLUMEN
100
AcDbLine
 62
7
  6
CONTINUOUS
 10
108.3473356394
 20
199.1093574638
 11
108.3473356394
 21
199.3145695498
  0
LINE
  5
25A
100
AcDbEntity
  8
_30_VOLUMEN
100
AcDbLine
 62
7
  6
CONTINUOUS
 10
108.6806691317
 20
198.9494097817
 11
108.6806691317
 21
199.1546218677
  0
LINE
  5
25B
100
AcDbEntity
  8
_30_VOLUMEN
100
AcDbLine
 62
7
  6
CONTINUOUS
 10
108.6806691317
 20
198.9494097817
 11
109.0973356394
 21
198.8694359442
  0
LINE
  5
25C
100
AcDbEntity
  8
_30_VOLUMEN
100
AcDbLine
 62
7
  6
CONTINUOUS
 10
108.6806691317
 20
199.1546218677
 11
109.0973356394
 21
199.0746480302
  0
LINE
  5
25D
100
AcDbEntity
  8
_30_VOLUMEN
100
AcDbLine
 62
7
  6
CONTINUOUS
 10
109.0973356394
 20
199.5544910694
 11
108.764002624
 21
199.6344648999
  0
LINE
  5
25E
100
AcDbEntity
  8
_30_VOLUMEN
100
AcDbLine
 62
7
  6
CONTINUOUS
 10
106.0140023856
 20
202.2283372747
 11
106.2640023856
 21
202.1483634441
  0
LINE
  5
25F
100
AcDbEntity
  8
_30_VOLUMEN
100
AcDbLine
 62
7
  6
CONTINUOUS
 10
106.0140023856
 20
202.4335493607
 11
106.2640023856
 21
202.3535755301
  0
LINE
  5
260
100
AcDbEntity
  8
0
100
AcDbLine
 62
7
  6
CONTINUOUS
 10
89.9616486608
 20
207.545099452
 11
91.9376551417
 21
206.8258919102
  0
LINE
  5
261
100
AcDbEntity
  8
0
100
AcDbLine
 62
7
  6
CONTINUOUS
 10
94.5993091444
 20
205.8571290793
 11
95.4840094553
 21
205.5351244999
  0
LINE
  5
262
100
AcDbEntity
  8
0
100
AcDbLine
 62
7
  6
CONTINUOUS
 10
95.7338740849
 20
206.2216219278
 11
94.8491737741
 21
206.5436265072
  0
LINE
  5
263
100
AcDbEntity
  8
0
100
AcDbLine
 62
7
  6
CONTINUOUS
 10
92.1782915578
 20
207.5157481332
 11
90.2115132905
 21
208.2315968799
  0
LINE
  5
264
100
AcDbEntity
  8
0
100
AcDbLine
 62
7
  6
CONTINUOUS
 10
90.8111797412
 20
209.8791669124
 11
92.7779580085
 21
209.1633181657
  0
LINE
  5
265
100
AcDbEntity
  8
0
100
AcDbLine
 62
7
  6
CONTINUOUS
 10
97.6513312239
 20
208.1669960905
 11
96.9648414351
 21
208.4168579398
  0
LINE
  5
266
100
AcDbEntity
  8
0
100
AcDbLine
 62
7
  6
CONTINUOUS
 10
95.3172714025
 20
209.0165243905
 11
94.6307816137
 21
209.2663862398
  0
LINE
  5
267
100
AcDbEntity
  8
0
100
AcDbLine
 62
7
  6
CONTINUOUS
 10
93.0370508518
 20
209.8464567986
 11
91.0610443708
 21
210.5656643403
  0
LINE
  5
268
100
AcDbEntity
  8
_30_VOLUMEN
100
AcDbLine
 62
7
  6
CONTINUOUS
 10
114.1806691317
 20
202.5934970217
 11
113.8473361163
 21
202.7534446828
  0
LINE
  5
269
100
AcDbEntity
  8
_30_VOLUMEN
100
AcDbLine
 62
7
  6
CONTINUOUS
 10
113.7640021471
 20
202.0683896136
 11
114.0140021471
 21
201.9084419525
  0
LINE
  5
26A
100
AcDbEntity
  8
_30_VOLUMEN
100
AcDbLine
 62
7
  6
CONTINUOUS
 10
113.7640021471
 20
202.2736016996
 11
114.0140021471
 21
202.1136540385
  0
LINE
  5
26B
100
AcDbEntity
  8
_30_VOLUMEN
100
AcDbLine
 62
7
  6
CONTINUOUS
 10
114.5140021471
 20
202.2736016996
 11
114.1806691317
 21
202.5934970217
  0
LINE
  5
26C
100
AcDbEntity
  8
_30_VOLUMEN
100
AcDbLine
 62
7
  6
CONTINUOUS
 10
114.0140021471
 20
201.9084419525
 11
114.1806691317
 21
201.6685202369
  0
LINE
  5
26D
100
AcDbEntity
  8
_30_VOLUMEN
100
AcDbLine
 62
7
  6
CONTINUOUS
 10
114.0140021471
 20
202.1136540385
 11
114.1806691317
 21
201.8737323229
  0
LINE
  5
26E
100
AcDbEntity
  8
_30_VOLUMEN
100
AcDbLine
 62
7
  6
CONTINUOUS
 10
114.6806691317
 20
201.9537063775
 11
114.5140021471
 21
202.2736016996
  0
LINE
  5
26F
100
AcDbEntity
  8
_30_VOLUMEN
100
AcDbLine
 62
7
  6
CONTINUOUS
 10
109.0973356394
 20
198.8694359442
 11
109.0973356394
 21
199.0746480302
  0
LINE
  5
270
100
AcDbEntity
  8
_30_VOLUMEN
100
AcDbLine
 62
7
  6
CONTINUOUS
 10
109.4306691317
 20
198.8694359442
 11
109.4306691317
 21
199.0746480302
  0
LINE
  5
271
100
AcDbEntity
  8
_30_VOLUMEN
100
AcDbLine
 62
7
  6
CONTINUOUS
 10
109.8473356394
 20
198.9494097817
 11
109.8473356394
 21
199.1546218677
  0
LINE
  5
272
100
AcDbEntity
  8
_30_VOLUMEN
100
AcDbLine
 62
7
  6
CONTINUOUS
 10
110.1806691317
 20
199.1093574638
 11
110.1806691317
 21
199.3145695498
  0
LINE
  5
273
100
AcDbEntity
  8
_30_VOLUMEN
100
AcDbLine
 62
7
  6
CONTINUOUS
 10
110.264002624
 20
202.8334185133
 11
110.264002624
 21
200.3542294307
  0
LINE
  5
274
100
AcDbEntity
  8
_30_VOLUMEN
100
AcDbLine
 62
7
  6
CONTINUOUS
 10
110.514002624
 20
199.4292528139
 11
110.514002624
 21
199.6344648999
  0
LINE
  5
275
100
AcDbEntity
  8
_30_VOLUMEN
100
AcDbLine
 62
7
  6
CONTINUOUS
 10
110.6806691317
 20
199.7491481921
 11
110.6806691317
 21
199.9543602781
  0
LINE
  5
276
100
AcDbEntity
  8
_30_VOLUMEN
100
AcDbLine
 62
7
  6
CONTINUOUS
 10
110.764002624
 20
200.1490173447
 11
110.764002624
 21
202.8334185133
  0
LINE
  5
277
100
AcDbEntity
  8
_30_VOLUMEN
100
AcDbLine
 62
7
  6
CONTINUOUS
 10
111.4306691317
 20
198.8694359442
 11
111.4306691317
 21
202.8334185133
  0
LINE
  5
278
100
AcDbEntity
  8
_30_VOLUMEN
100
AcDbLine
 62
7
  6
CONTINUOUS
 10
111.9306691317
 20
199.5544910694
 11
111.9306691317
 21
202.3535755301
  0
LINE
  5
279
100
AcDbEntity
  8
BEZUGSACHSEN
100
AcDbLine
 62
7
  6
CONTINUOUS
 10
102.1178353898
 20
205.3817662226
 11
102.9201384586
 21
207.3186971723
  0
LINE
  5
27A
100
AcDbEntity
  8
_30_VOLUMEN
100
AcDbLine
 62
7
  6
CONTINUOUS
 10
103.9306691317
 20
198.8694359442
 11
104.4306691317
 21
198.8694359442
  0
LINE
  5
27B
100
AcDbEntity
  8
_30_VOLUMEN
100
AcDbLine
 62
7
  6
CONTINUOUS
 10
106.5140023856
 20
198.8694359442
 11
107.0973358778
 21
198.8694359442
  0
LINE
  5
27C
100
AcDbEntity
  8
_30_VOLUMEN
100
AcDbLine
 62
7
  6
CONTINUOUS
 10
109.0973356394
 20
198.8694359442
 11
109.4306691317
 21
198.8694359442
  0
LINE
  5
27D
100
AcDbEntity
  8
_30_VOLUMEN
100
AcDbLine
 62
7
  6
CONTINUOUS
 10
111.4306691317
 20
198.8694359442
 11
113.4306691317
 21
198.8694359442
  0
LINE
  5
27E
100
AcDbEntity
  8
_30_VOLUMEN
100
AcDbLine
 62
7
  6
CONTINUOUS
 10
103.9306691317
 20
199.0746480302
 11
104.4306691317
 21
199.0746480302
  0
LINE
  5
27F
100
AcDbEntity
  8
_30_VOLUMEN
100
AcDbLine
 62
7
  6
CONTINUOUS
 10
106.5140023856
 20
199.0746480302
 11
107.0973358778
 21
199.0746480302
  0
LINE
  5
280
100
AcDbEntity
  8
_30_VOLUMEN
100
AcDbLine
 62
7
  6
CONTINUOUS
 10
109.0973356394
 20
199.0746480302
 11
109.4306691317
 21
199.0746480302
  0
LINE
  5
281
100
AcDbEntity
  8
_30_VOLUMEN
100
AcDbLine
 62
7
  6
CONTINUOUS
 10
111.4306691317
 20
199.0746480302
 11
113.4306691317
 21
199.0746480302
  0
LINE
  5
282
100
AcDbEntity
  8
_30_VOLUMEN
100
AcDbLine
 62
7
  6
CONTINUOUS
 10
113.4306691317
 20
199.5544910694
 11
111.9306691317
 21
199.5544910694
  0
LINE
  5
283
100
AcDbEntity
  8
_30_VOLUMEN
100
AcDbLine
 62
7
  6
CONTINUOUS
 10
109.4306691317
 20
199.5544910694
 11
109.0973356394
 21
199.5544910694
  0
LINE
  5
284
100
AcDbEntity
  8
_30_VOLUMEN
100
AcDbLine
 62
7
  6
CONTINUOUS
 10
104.4306691317
 20
200.5488866094
 11
105.8473357586
 21
200.5488866094
  0
LINE
  5
285
100
AcDbEntity
  8
_30_VOLUMEN
100
AcDbLine
 62
7
  6
CONTINUOUS
 10
104.4306691317
 20
200.7540986954
 11
105.8473357586
 21
200.7540986954
  0
LINE
  5
286
100
AcDbEntity
  8
_30_VOLUMEN
100
AcDbLine
 62
7
  6
CONTINUOUS
 10
106.0140023856
 20
201.2339416786
 11
104.4306691317
 21
201.2339416786
  0
LINE
  5
287
100
AcDbEntity
  8
_30_VOLUMEN
100
AcDbLine
 62
7
  6
CONTINUOUS
 10
106.3473358778
 20
202.7534446828
 11
105.9306691317
 21
202.8334185133
  0
LINE
  5
288
100
AcDbEntity
  8
_30_VOLUMEN
100
AcDbLine
 62
7
  6
CONTINUOUS
 10
113.8473361163
 20
202.7534446828
 11
113.4306691317
 21
202.8334185133
  0
LINE
  5
289
100
AcDbEntity
  8
_30_VOLUMEN
100
AcDbLine
 62
7
  6
CONTINUOUS
 10
113.4306691317
 20
202.1483634441
 11
113.7640021471
 21
202.0683896136
  0
LINE
  5
28A
100
AcDbEntity
  8
_30_VOLUMEN
100
AcDbLine
 62
7
  6
CONTINUOUS
 10
113.4306691317
 20
202.3535755301
 11
113.7640021471
 21
202.2736016996
  0
LINE
  5
28B
100
AcDbEntity
  8
0
100
AcDbLine
 62
7
  6
CONTINUOUS
 10
91.2609141198
 20
211.1148500636
 11
94.2814835342
 21
210.0154527062
  0
LINE
  5
28C
100
AcDbEntity
  8
0
100
AcDbLine
 62
7
  6
CONTINUOUS
 10
95.8751738799
 20
209.4353968577
 11
97.8512164323
 21
208.716176187
  0
LINE
  5
28D
100
AcDbEntity
  8
0
100
AcDbLine
 62
7
  6
CONTINUOUS
 10
98.1010775352
 20
209.4026639252
 11
97.4145509104
 21
209.6525391817
  0
LINE
  5
28E
100
AcDbEntity
  8
0
100
AcDbLine
 62
7
  6
CONTINUOUS
 10
96.7280633968
 20
209.9024002028
 11
96.1342646043
 21
210.1185252884
  0
LINE
  5
28F
100
AcDbEntity
  8
0
100
AcDbLine
 62
7
  6
CONTINUOUS
 10
94.5313445553
 20
210.7019402198
 11
93.3806332001
 21
211.1207649013
  0
LINE
  5
290
100
AcDbEntity
  8
0
100
AcDbLine
 62
7
  6
CONTINUOUS
 10
92.6539440669
 20
211.3852581153
 11
91.5107751409
 21
211.8013375771
  0
LINE
  5
291
100
AcDbEntity
  8
0
100
AcDbLine
 62
7
  6
CONTINUOUS
 10
96.733931055
 20
211.766095321
 11
97.3277298475
 21
211.5499702353
  0
LINE
  5
292
100
AcDbEntity
  8
0
100
AcDbLine
 62
7
  6
CONTINUOUS
 10
98.0142173611
 20
211.3001092142
 11
98.7007439859
 21
211.0502339577
  0
LINE
  5
293
100
AcDbEntity
  8
0
100
AcDbLine
 62
7
  6
CONTINUOUS
 10
98.950605007
 20
211.7367214713
 11
96.9745624546
 21
212.455942142
  0
LINE
  5
294
100
AcDbEntity
  8
_30_VOLUMEN
100
AcDbLine
 62
7
  6
CONTINUOUS
 10
114.1806691317
 20
201.6685202369
 11
114.2640021471
 21
201.3486249148
  0
LINE
  5
295
100
AcDbEntity
  8
_30_VOLUMEN
100
AcDbLine
 62
7
  6
CONTINUOUS
 10
114.1806691317
 20
201.8737323229
 11
114.2640021471
 21
201.5538370008
  0
LINE
  5
296
100
AcDbEntity
  8
_30_VOLUMEN
100
AcDbLine
 62
7
  6
CONTINUOUS
 10
114.7640021471
 20
201.5538370008
 11
114.6806691317
 21
201.9537063775
  0
LINE
  5
297
100
AcDbEntity
  8
_30_VOLUMEN
100
AcDbLine
 62
7
  6
CONTINUOUS
 10
113.4306691317
 20
198.8694359442
 11
113.4306691317
 21
199.0746480302
  0
LINE
  5
298
100
AcDbEntity
  8
_30_VOLUMEN
100
AcDbLine
 62
7
  6
CONTINUOUS
 10
113.4306691317
 20
202.1483634441
 11
113.4306691317
 21
202.3535755301
  0
LINE
  5
299
100
AcDbEntity
  8
_30_VOLUMEN
100
AcDbLine
 62
7
  6
CONTINUOUS
 10
113.7640021471
 20
202.0683896136
 11
113.7640021471
 21
202.2736016996
  0
LINE
  5
29A
100
AcDbEntity
  8
_30_VOLUMEN
100
AcDbLine
 62
7
  6
CONTINUOUS
 10
113.8473361163
 20
198.9494097817
 11
113.8473361163
 21
199.1546218677
  0
LINE
  5
29B
100
AcDbEntity
  8
_30_VOLUMEN
100
AcDbLine
 62
7
  6
CONTINUOUS
 10
114.0140021471
 20
201.9084419525
 11
114.0140021471
 21
202.1136540385
  0
LINE
  5
29C
100
AcDbEntity
  8
_30_VOLUMEN
100
AcDbLine
 62
7
  6
CONTINUOUS
 10
114.1806691317
 20
199.1093574638
 11
114.1806691317
 21
199.3145695498
  0
LINE
  5
29D
100
AcDbEntity
  8
_30_VOLUMEN
100
AcDbLine
 62
7
  6
CONTINUOUS
 10
114.1806691317
 20
201.6685202369
 11
114.1806691317
 21
201.8737323229
  0
LINE
  5
29E
100
AcDbEntity
  8
_30_VOLUMEN
100
AcDbLine
 62
7
  6
CONTINUOUS
 10
114.2640021471
 20
201.5538370008
 11
114.2640021471
 21
200.3542294307
  0
LINE
  5
29F
100
AcDbEntity
  8
_30_VOLUMEN
100
AcDbLine
 62
7
  6
CONTINUOUS
 10
114.5140021471
 20
199.4292528139
 11
114.5140021471
 21
199.6344648999
  0
LINE
  5
2A0
100
AcDbEntity
  8
_30_VOLUMEN
100
AcDbLine
 62
7
  6
CONTINUOUS
 10
114.6806691317
 20
199.7491481921
 11
114.6806691317
 21
199.9543602781
  0
LINE
  5
2A1
100
AcDbEntity
  8
_30_VOLUMEN
100
AcDbLine
 62
7
  6
CONTINUOUS
 10
114.7640021471
 20
200.1490173447
 11
114.7640021471
 21
201.5538370008
  0
LINE
  5
2A2
100
AcDbEntity
  8
_30_VOLUMEN
100
AcDbLine
 62
7
  6
CONTINUOUS
 10
110.6806691317
 20
199.9543602781
 11
110.764002624
 21
200.3542294307
  0
LINE
  5
2A3
100
AcDbEntity
  8
_30_VOLUMEN
100
AcDbLine
 62
7
  6
CONTINUOUS
 10
110.6806691317
 20
199.7491481921
 11
110.764002624
 21
200.1490173447
  0
LINE
  5
2A4
100
AcDbEntity
  8
_30_VOLUMEN
100
AcDbLine
 62
7
  6
CONTINUOUS
 10
110.264002624
 20
200.3542294307
 11
110.1806691317
 21
200.0343341086
  0
LINE
  5
2A5
100
AcDbEntity
  8
_30_VOLUMEN
100
AcDbLine
 62
7
  6
CONTINUOUS
 10
106.5140023856
 20
201.7137846618
 11
106.4306691317
 21
201.4738631702
  0
LINE
  5
2A6
100
AcDbEntity
  8
_30_VOLUMEN
100
AcDbLine
 62
7
  6
CONTINUOUS
 10
106.9306691317
 20
201.3938893397
 11
107.0140023856
 21
201.6338108313
  0
LINE
  5
2A7
100
AcDbEntity
  8
_30_VOLUMEN
100
AcDbLine
 62
7
  6
CONTINUOUS
 10
106.9306691317
 20
201.1886772537
 11
107.0140023856
 21
201.4285987453
  0
LINE
  5
2A8
100
AcDbEntity
  8
0
100
AcDbLine
 62
7
  6
CONTINUOUS
 10
169.2403642456
 20
211.5582568505
 11
168.5125061116
 21
211.3695172199
  0
LINE
  5
2A9
100
AcDbEntity
  8
_30_VOLUMEN
100
AcDbLine
 62
7
  6
CONTINUOUS
 10
113.7640021471
 20
199.6344648999
 11
113.4306691317
 21
199.5544910694
  0
LINE
  5
2AA
100
AcDbEntity
  8
_30_VOLUMEN
100
AcDbLine
 62
7
  6
CONTINUOUS
 10
109.764002624
 20
199.6344648999
 11
109.4306691317
 21
199.5544910694
  0
LINE
  5
2AB
100
AcDbEntity
  8
0
100
AcDbLine
 62
7
  6
CONTINUOUS
 10
168.7118204373
 20
210.8883298716
 11
169.3413935264
 21
211.0363585036
  0
LINE
  5
2AC
100
AcDbEntity
  8
_30_VOLUMEN
100
AcDbLine
 62
7
  6
CONTINUOUS
 10
113.4306691317
 20
198.8694359442
 11
113.8473361163
 21
198.9494097817
  0
LINE
  5
2AD
100
AcDbEntity
  8
_30_VOLUMEN
100
AcDbLine
 62
7
  6
CONTINUOUS
 10
113.4306691317
 20
199.0746480302
 11
113.8473361163
 21
199.1546218677
  0
LINE
  5
2AE
100
AcDbEntity
  8
_30_VOLUMEN
100
AcDbLine
 62
7
  6
CONTINUOUS
 10
109.4306691317
 20
198.8694359442
 11
109.8473356394
 21
198.9494097817
  0
LINE
  5
2AF
100
AcDbEntity
  8
_30_VOLUMEN
100
AcDbLine
 62
7
  6
CONTINUOUS
 10
109.4306691317
 20
199.0746480302
 11
109.8473356394
 21
199.1546218677
  0
LINE
  5
2B0
100
AcDbEntity
  8
0
100
AcDbLine
 62
7
  6
CONTINUOUS
 10
168.4705490495
 20
207.8569130072
 11
168.1358309811
 21
207.8310176463
  0
LINE
  5
2B1
100
AcDbEntity
  8
_30_VOLUMEN
100
AcDbLine
 62
7
  6
CONTINUOUS
 10
111.9306691317
 20
202.1483634441
 11
113.4306691317
 21
202.1483634441
  0
LINE
  5
2B2
100
AcDbEntity
  8
_30_VOLUMEN
100
AcDbLine
 62
7
  6
CONTINUOUS
 10
104.4306691317
 20
202.2283372747
 11
106.0140023856
 21
202.2283372747
  0
LINE
  5
2B3
100
AcDbEntity
  8
_30_VOLUMEN
100
AcDbLine
 62
7
  6
CONTINUOUS
 10
111.9306691317
 20
202.3535755301
 11
113.4306691317
 21
202.3535755301
  0
LINE
  5
2B4
100
AcDbEntity
  8
_30_VOLUMEN
100
AcDbLine
 62
7
  6
CONTINUOUS
 10
104.4306691317
 20
202.4335493607
 11
106.0140023856
 21
202.4335493607
  0
LINE
  5
2B5
100
AcDbEntity
  8
_30_VOLUMEN
100
AcDbLine
 62
7
  6
CONTINUOUS
 10
113.4306691317
 20
202.8334185133
 11
111.4306691317
 21
202.8334185133
  0
LINE
  5
2B6
100
AcDbEntity
  8
_30_VOLUMEN
100
AcDbLine
 62
7
  6
CONTINUOUS
 10
110.764002624
 20
202.8334185133
 11
110.264002624
 21
202.8334185133
  0
LINE
  5
2B7
100
AcDbEntity
  8
_30_VOLUMEN
100
AcDbLine
 62
7
  6
CONTINUOUS
 10
108.264002624
 20
202.8334185133
 11
107.7640023856
 21
202.8334185133
  0
LINE
  5
2B8
100
AcDbEntity
  8
_30_VOLUMEN
100
AcDbLine
 62
7
  6
CONTINUOUS
 10
105.9306691317
 20
202.8334185133
 11
103.9306691317
 21
202.8334185133
  0
LINE
  5
2B9
100
AcDbEntity
  8
_30_VOLUMEN
100
AcDbLine
 62
7
  6
CONTINUOUS
 10
114.6806691317
 20
199.9543602781
 11
114.7640021471
 21
200.3542294307
  0
LINE
  5
2BA
100
AcDbEntity
  8
_30_VOLUMEN
100
AcDbLine
 62
7
  6
CONTINUOUS
 10
114.6806691317
 20
199.7491481921
 11
114.7640021471
 21
200.1490173447
  0
LINE
  5
2BB
100
AcDbEntity
  8
_30_VOLUMEN
100
AcDbLine
 62
7
  6
CONTINUOUS
 10
114.2640021471
 20
200.3542294307
 11
114.1806691317
 21
200.0343341086
  0
LINE
  5
2BC
100
AcDbEntity
  8
0
100
AcDbLine
 62
7
  6
CONTINUOUS
 10
95.3817702969
 20
213.0384854845
 11
93.1725006391
 21
211.6786324348
  0
LINE
  5
2BD
100
AcDbEntity
  8
0
100
AcDbLine
 62
7
  6
CONTINUOUS
 10
93.3806332001
 20
211.1207649013
 11
95.0600050677
 21
212.1544427829
  0
LINE
  5
2BE
100
AcDbEntity
  8
RUNDUNGEN
100
AcDbLine
 62
7
  6
CONTINUOUS
 10
83.000941023
 20
199.9365062227
 11
98.280497812
 21
202.3565502731
  0
LINE
  5
2BF
100
AcDbEntity
  8
0
100
AcDbLine
 62
7
  6
CONTINUOUS
 10
167.7688326698
 20
210.3849824691
 11
168.1035507618
 21
210.4108781624
  0
LINE
  5
2C0
100
AcDbEntity
  8
0
100
AcDbLine
 62
7
  6
CONTINUOUS
 10
169.3413935264
 20
211.0363585036
 11
169.6761117561
 21
211.0622542539
  0
LINE
  5
2C1
100
AcDbEntity
  8
0
100
AcDbLine
 62
7
  6
CONTINUOUS
 10
168.0004272837
 20
207.3239346332
 11
168.5715782162
 21
207.3350149357
  0
LINE
  5
2C2
100
AcDbEntity
  8
RUNDUNGEN
100
AcDbLine
 62
7
  6
CONTINUOUS
 10
179.6266788832
 20
199.9365062227
 11
164.3471220942
 21
202.3565502731
  0
LINE
  5
2C3
100
AcDbEntity
  8
_30_VOLUMEN
100
AcDbLine
 62
7
  6
CONTINUOUS
 10
110.514002624
 20
199.6344648999
 11
110.6806691317
 21
199.9543602781
  0
LINE
  5
2C4
100
AcDbEntity
  8
_30_VOLUMEN
100
AcDbLine
 62
7
  6
CONTINUOUS
 10
110.514002624
 20
199.4292528139
 11
110.6806691317
 21
199.7491481921
  0
LINE
  5
2C5
100
AcDbEntity
  8
_30_VOLUMEN
100
AcDbLine
 62
7
  6
CONTINUOUS
 10
106.6806691317
 20
201.0739940176
 11
106.9306691317
 21
201.3938893397
  0
LINE
  5
2C6
100
AcDbEntity
  8
_30_VOLUMEN
100
AcDbLine
 62
7
  6
CONTINUOUS
 10
106.6806691317
 20
200.8687819316
 11
106.9306691317
 21
201.1886772537
  0
LINE
  5
2C7
100
AcDbEntity
  8
0
100
AcDbLine
 62
7
  6
CONTINUOUS
 10
169.8115154987
 20
211.5693369631
 11
169.2403642456
 21
211.5582568505
  0
LINE
  5
2C8
100
AcDbEntity
  8
_30_VOLUMEN
100
AcDbLine
 62
7
  6
CONTINUOUS
 10
114.5140021471
 20
199.6344648999
 11
114.6806691317
 21
199.9543602781
  0
LINE
  5
2C9
100
AcDbEntity
  8
_30_VOLUMEN
100
AcDbLine
 62
7
  6
CONTINUOUS
 10
114.5140021471
 20
199.4292528139
 11
114.6806691317
 21
199.7491481921
  0
LINE
  5
2CA
100
AcDbEntity
  8
_30_VOLUMEN
100
AcDbLine
 62
7
  6
CONTINUOUS
 10
110.1806691317
 20
200.0343341086
 11
110.014002624
 21
199.794412617
  0
LINE
  5
2CB
100
AcDbEntity
  8
_30_VOLUMEN
100
AcDbLine
 62
7
  6
CONTINUOUS
 10
106.4306691317
 20
201.4738631702
 11
106.2640023856
 21
201.3139155092
  0
LINE
  5
2CC
100
AcDbEntity
  8
0
100
AcDbLine
 62
7
  6
CONTINUOUS
 10
164.711019241
 20
211.3733785339
 11
166.0313320182
 21
211.2437748675
  0
LINE
  5
2CD
100
AcDbEntity
  8
0
100
AcDbLine
 62
7
  6
CONTINUOUS
 10
165.8320178066
 20
211.7249619405
 11
164.5117049724
 21
211.8545657445
  0
LINE
  5
2CE
100
AcDbEntity
  8
0
100
AcDbLine
 62
7
  6
CONTINUOUS
 10
168.1358309811
 20
207.8310176463
 11
167.7612501384
 21
207.9013593411
  0
LINE
  5
2CF
100
AcDbEntity
  8
0
100
AcDbLine
 62
7
  6
CONTINUOUS
 10
167.4876984969
 20
207.4498029785
 11
168.0004272837
 21
207.3239346332
  0
LINE
  5
2D0
100
AcDbEntity
  8
_30_VOLUMEN
100
AcDbLine
 62
7
  6
CONTINUOUS
 10
114.1806691317
 20
200.0343341086
 11
114.0140021471
 21
199.794412617
  0
LINE
  5
2D1
100
AcDbEntity
  8
0
100
AcDbLine
 62
7
  6
CONTINUOUS
 10
169.6761117561
 20
211.0622542539
 11
170.050692644
 21
210.9919122553
  0
LINE
  5
2D2
100
AcDbEntity
  8
_30_VOLUMEN
100
AcDbLine
 62
7
  6
CONTINUOUS
 10
110.1806691317
 20
199.3145695498
 11
110.514002624
 21
199.6344648999
  0
LINE
  5
2D3
100
AcDbEntity
  8
_30_VOLUMEN
100
AcDbLine
 62
7
  6
CONTINUOUS
 10
110.1806691317
 20
199.1093574638
 11
110.514002624
 21
199.4292528139
  0
LINE
  5
2D4
100
AcDbEntity
  8
_30_VOLUMEN
100
AcDbLine
 62
7
  6
CONTINUOUS
 10
114.1806691317
 20
199.3145695498
 11
114.5140021471
 21
199.6344648999
  0
LINE
  5
2D5
100
AcDbEntity
  8
_30_VOLUMEN
100
AcDbLine
 62
7
  6
CONTINUOUS
 10
114.1806691317
 20
199.1093574638
 11
114.5140021471
 21
199.4292528139
  0
LINE
  5
2D6
100
AcDbEntity
  8
0
100
AcDbLine
 62
7
  6
CONTINUOUS
 10
170.3242442511
 20
211.4434686035
 11
169.8115154987
 21
211.5693369631
  0
LINE
  5
2D7
100
AcDbEntity
  8
_30_VOLUMEN
100
AcDbLine
 62
7
  6
CONTINUOUS
 10
110.014002624
 20
199.794412617
 11
109.764002624
 21
199.6344648999
  0
LINE
  5
2D8
100
AcDbEntity
  8
_30_VOLUMEN
100
AcDbLine
 62
7
  6
CONTINUOUS
 10
114.0140021471
 20
199.794412617
 11
113.7640021471
 21
199.6344648999
  0
LINE
  5
2D9
100
AcDbEntity
  8
_30_VOLUMEN
100
AcDbLine
 62
7
  6
CONTINUOUS
 10
106.3473358778
 20
200.9140463565
 11
106.6806691317
 21
201.0739940176
  0
LINE
  5
2DA
100
AcDbEntity
  8
_30_VOLUMEN
100
AcDbLine
 62
7
  6
CONTINUOUS
 10
106.4273762364
 20
200.7472410841
 11
106.6806691317
 21
200.8687819316
  0
LINE
  5
2DB
100
AcDbEntity
  8
0
100
AcDbLine
 62
7
  6
CONTINUOUS
 10
167.4492798923
 20
215.3263328136
 11
168.3764526274
 21
215.03388521
  0
LINE
  5
2DC
100
AcDbEntity
  8
0
100
AcDbLine
 62
7
  6
CONTINUOUS
 10
169.1627329868
 20
215.3595731987
 11
168.2355605271
 21
215.6520209164
  0
LINE
  5
2DD
100
AcDbEntity
  8
0
100
AcDbLine
 62
7
  6
CONTINUOUS
 10
168.1035507618
 20
210.4108781624
 11
168.3798466047
 21
210.2998251652
  0
LINE
  5
2DE
100
AcDbEntity
  8
_30_VOLUMEN
100
AcDbLine
 62
7
  6
CONTINUOUS
 10
109.8473356394
 20
199.1546218677
 11
110.1806691317
 21
199.3145695498
  0
LINE
  5
2DF
100
AcDbEntity
  8
_30_VOLUMEN
100
AcDbLine
 62
7
  6
CONTINUOUS
 10
109.8473356394
 20
198.9494097817
 11
110.1806691317
 21
199.1093574638
  0
LINE
  5
2E0
100
AcDbEntity
  8
_30_VOLUMEN
100
AcDbLine
 62
7
  6
CONTINUOUS
 10
113.8473361163
 20
199.1546218677
 11
114.1806691317
 21
199.3145695498
  0
LINE
  5
2E1
100
AcDbEntity
  8
_30_VOLUMEN
100
AcDbLine
 62
7
  6
CONTINUOUS
 10
113.8473361163
 20
198.9494097817
 11
114.1806691317
 21
199.1093574638
  0
LINE
  5
2E2
100
AcDbEntity
  8
_30_VOLUMEN
100
AcDbLine
 62
7
  6
CONTINUOUS
 10
106.2640023856
 20
201.3139155092
 11
106.0140023856
 21
201.2339416786
  0
LINE
  5
2E3
100
AcDbEntity
  8
0
100
AcDbLine
 62
7
  6
CONTINUOUS
 10
167.7612501384
 20
207.9013593411
 11
167.4450914759
 21
208.1086496978
  0
LINE
  5
2E4
100
AcDbEntity
  8
0
100
AcDbLine
 62
7
  6
CONTINUOUS
 10
168.3798466047
 20
210.2998251652
 11
168.6960052672
 21
210.0925348084
  0
LINE
  5
2E5
100
AcDbEntity
  8
0
100
AcDbLine
 62
7
  6
CONTINUOUS
 10
166.9935288965
 20
207.8088575957
 11
167.4876984969
 21
207.4498029785
  0
LINE
  5
2E6
100
AcDbEntity
  8
0
100
AcDbLine
 62
7
  6
CONTINUOUS
 10
169.1475675583
 20
210.3923274363
 11
168.5152503474
 21
210.8069078744
  0
LINE
  5
2E7
100
AcDbEntity
  8
0
100
AcDbLine
 62
7
  6
CONTINUOUS
 10
170.050692644
 20
210.9919122553
 11
170.3668513064
 21
210.7846218985
  0
LINE
  5
2E8
100
AcDbEntity
  8
0
100
AcDbLine
 62
7
  6
CONTINUOUS
 10
170.8184135975
 20
211.0844145263
 11
170.3242442511
 21
211.4434686035
  0
LINE
  5
2E9
100
AcDbEntity
  8
0
100
AcDbLine
 62
7
  6
CONTINUOUS
 10
168.2355605271
 20
215.6520209164
 11
167.4492798923
 21
215.3263328136
  0
LINE
  5
2EA
100
AcDbEntity
  8
0
100
AcDbLine
 62
7
  6
CONTINUOUS
 10
168.3764526274
 20
215.03388521
 11
164.5433353243
 21
213.4461560369
  0
LINE
  5
2EB
100
AcDbEntity
  8
0
100
AcDbLine
 62
7
  6
CONTINUOUS
 10
167.4450914759
 20
208.1086496978
 11
167.2272178584
 21
208.3566510531
  0
LINE
  5
2EC
100
AcDbEntity
  8
0
100
AcDbLine
 62
7
  6
CONTINUOUS
 10
164.7825124695
 20
212.8687313291
 11
169.4019101321
 21
214.7821484909
  0
LINE
  5
2ED
100
AcDbEntity
  8
0
100
AcDbLine
 62
7
  6
CONTINUOUS
 10
168.5125061116
 20
211.3695172199
 11
167.824510797
 21
211.0845402297
  0
LINE
  5
2EE
100
AcDbEntity
  8
0
100
AcDbLine
 62
7
  6
CONTINUOUS
 10
168.5152503474
 20
210.8069078744
 11
168.7118204373
 21
210.8883298716
  0
LINE
  5
2EF
100
AcDbEntity
  8
0
100
AcDbLine
 62
7
  6
CONTINUOUS
 10
167.473977535
 20
210.2628494733
 11
167.7688326698
 21
210.3849824691
  0
LINE
  5
2F0
100
AcDbEntity
  8
0
100
AcDbLine
 62
7
  6
CONTINUOUS
 10
168.6960052672
 20
210.0925348084
 11
168.9138788848
 21
209.8445334531
  0
LINE
  5
2F1
100
AcDbEntity
  8
0
100
AcDbLine
 62
7
  6
CONTINUOUS
 10
170.3668513064
 20
210.7846218985
 11
170.584724924
 21
210.5366205432
  0
LINE
  5
2F2
100
AcDbEntity
  8
0
100
AcDbLine
 62
7
  6
CONTINUOUS
 10
166.6959296313
 20
208.2493336665
 11
166.9935288965
 21
207.8088575957
  0
LINE
  5
2F3
100
AcDbEntity
  8
RUNDUNGEN
100
AcDbLine
 62
7
  6
CONTINUOUS
 10
160.5097845164
 20
205.3817662226
 11
159.7074814476
 21
207.3186971723
  0
LINE
  5
2F4
100
AcDbEntity
  8
0
100
AcDbLine
 62
7
  6
CONTINUOUS
 10
167.824510797
 20
211.0845402297
 11
167.1763781644
 21
210.703325823
  0
LINE
  5
2F5
100
AcDbEntity
  8
0
100
AcDbLine
 62
7
  6
CONTINUOUS
 10
168.7654041843
 20
207.979046003
 11
168.4705490495
 21
207.8569130072
  0
LINE
  5
2F6
100
AcDbEntity
  8
0
100
AcDbLine
 62
7
  6
CONTINUOUS
 10
168.5715782162
 20
207.3350149357
 11
169.0630035785
 21
207.5385699856
  0
LINE
  5
2F7
100
AcDbEntity
  8
0
100
AcDbLine
 62
7
  6
CONTINUOUS
 10
170.7578969919
 20
207.338624539
 11
170.3647568122
 21
207.1757805447
  0
LINE
  5
2F8
100
AcDbEntity
  8
0
100
AcDbLine
 62
7
  6
CONTINUOUS
 10
169.445167043
 20
209.9518508112
 11
169.1475675583
 21
210.3923274363
  0
LINE
  5
2F9
100
AcDbEntity
  8
_30_VOLUMEN
100
AcDbLine
 62
7
  6
CONTINUOUS
 10
159.7299835096
 20
211.2003731534
 11
159.7939387962
 21
211.3547748739
  0
LINE
  5
2FA
100
AcDbEntity
  8
RUNDUNGEN
100
AcDbLine
 62
7
  6
CONTINUOUS
 10
159.7074811933
 20
211.1460477563
 11
159.7299835096
 21
211.2003731534
  0
LINE
  5
2FB
100
AcDbEntity
  8
0
100
AcDbLine
 62
7
  6
CONTINUOUS
 10
167.2189852197
 20
210.044479118
 11
167.473977535
 21
210.2628494733
  0
LINE
  5
2FC
100
AcDbEntity
  8
0
100
AcDbLine
 62
7
  6
CONTINUOUS
 10
171.8630806391
 20
206.8944126642
 11
171.0768000043
 21
206.5687245615
  0
LINE
  5
2FD
100
AcDbEntity
  8
0
100
AcDbLine
 62
7
  6
CONTINUOUS
 10
170.6836598245
 20
206.4058805671
 11
168.7179587193
 21
205.5916605098
  0
LINE
  5
2FE
100
AcDbEntity
  8
0
100
AcDbLine
 62
7
  6
CONTINUOUS
 10
169.1138430897
 20
205.1918954625
 11
170.8829740362
 21
205.9246934942
  0
LINE
  5
2FF
100
AcDbEntity
  8
0
100
AcDbLine
 62
7
  6
CONTINUOUS
 10
171.2761142159
 20
206.0875374885
 11
172.0623948507
 21
206.4132255913
  0
LINE
  5
300
100
AcDbEntity
  8
0
100
AcDbLine
 62
7
  6
CONTINUOUS
 10
168.4897582205
 20
203.9186483579
 11
168.8828984347
 21
204.0814923665
  0
LINE
  5
301
100
AcDbEntity
  8
0
100
AcDbLine
 62
7
  6
CONTINUOUS
 10
171.3214656212
 20
204.8660811627
 11
171.7146058009
 21
205.0289251571
  0
LINE
  5
302
100
AcDbEntity
  8
0
100
AcDbLine
 62
7
  6
CONTINUOUS
 10
171.1160130822
 20
210.6439379013
 11
170.8184135975
 21
211.0844145263
  0
LINE
  5
303
100
AcDbEntity
  8
0
100
AcDbLine
 62
7
  6
CONTINUOUS
 10
164.5117049724
 20
211.8545657445
 11
164.711019241
 21
211.3733785339
  0
LINE
  5
304
100
AcDbEntity
  8
0
100
AcDbLine
 62
7
  6
CONTINUOUS
 10
164.5433353243
 20
213.4461560369
 11
164.7825124695
 21
212.8687313291
  0
LINE
  5
305
100
AcDbEntity
  8
0
100
AcDbLine
 62
7
  6
CONTINUOUS
 10
166.4966154197
 20
208.7305207395
 11
166.6959296313
 21
208.2493336665
  0
LINE
  5
306
100
AcDbEntity
  8
0
100
AcDbLine
 62
7
  6
CONTINUOUS
 10
167.2272178584
 20
208.3566510531
 11
166.9481777796
 21
209.0303133958
  0
LINE
  5
307
100
AcDbEntity
  8
0
100
AcDbLine
 62
7
  6
CONTINUOUS
 10
166.0313320182
 20
211.2437748675
 11
165.8320178066
 21
211.7249619405
  0
LINE
  5
308
100
AcDbEntity
  8
0
100
AcDbLine
 62
7
  6
CONTINUOUS
 10
168.9138788848
 20
209.8445334531
 11
169.1929189636
 21
209.1708711104
  0
LINE
  5
309
100
AcDbEntity
  8
0
100
AcDbLine
 62
7
  6
CONTINUOUS
 10
170.3647568122
 20
207.1757805447
 11
170.6836598245
 21
206.4058805671
  0
LINE
  5
30A
100
AcDbEntity
  8
0
100
AcDbLine
 62
7
  6
CONTINUOUS
 10
170.8829740362
 20
205.9246934942
 11
171.3214656212
 21
204.8660811627
  0
LINE
  5
30B
100
AcDbEntity
  8
0
100
AcDbLine
 62
7
  6
CONTINUOUS
 10
169.6444812547
 20
209.4706637383
 11
169.445167043
 21
209.9518508112
  0
LINE
  5
30C
100
AcDbEntity
  8
0
100
AcDbLine
 62
7
  6
CONTINUOUS
 10
166.9481777796
 20
209.0303133958
 11
166.9268742519
 21
209.3597367483
  0
LINE
  5
30D
100
AcDbEntity
  8
0
100
AcDbLine
 62
7
  6
CONTINUOUS
 10
167.1763781644
 20
210.703325823
 11
166.7646786239
 21
210.3072958072
  0
LINE
  5
30E
100
AcDbEntity
  8
0
100
AcDbLine
 62
7
  6
CONTINUOUS
 10
169.0203965232
 20
208.1974166906
 11
168.7654041843
 21
207.979046003
  0
LINE
  5
30F
100
AcDbEntity
  8
0
100
AcDbLine
 62
7
  6
CONTINUOUS
 10
170.7524090236
 20
208.4638427933
 11
171.0074012249
 21
208.682213424
  0
LINE
  5
310
100
AcDbEntity
  8
0
100
AcDbLine
 62
7
  6
CONTINUOUS
 10
171.7146058009
 20
205.0289251571
 11
171.2761142159
 21
206.0875374885
  0
LINE
  5
311
100
AcDbEntity
  8
0
100
AcDbLine
 62
7
  6
CONTINUOUS
 10
171.0768000043
 20
206.5687245615
 11
170.7578969919
 21
207.338624539
  0
LINE
  5
312
100
AcDbEntity
  8
0
100
AcDbLine
 62
7
  6
CONTINUOUS
 10
170.5530945839
 20
208.945030417
 11
170.7524090236
 21
208.4638427933
  0
LINE
  5
313
100
AcDbEntity
  8
0
100
AcDbLine
 62
7
  6
CONTINUOUS
 10
172.0623948507
 20
206.4132255913
 11
171.8630806391
 21
206.8944126642
  0
LINE
  5
314
100
AcDbEntity
  8
0
100
AcDbLine
 62
7
  6
CONTINUOUS
 10
170.584724924
 20
210.5366205432
 11
170.8239020692
 21
209.9591958354
  0
LINE
  5
315
100
AcDbEntity
  8
0
100
AcDbLine
 62
7
  6
CONTINUOUS
 10
171.2754643603
 20
210.2589884632
 11
171.1160130822
 21
210.6439379013
  0
LINE
  5
316
100
AcDbEntity
  8
0
100
AcDbLine
 62
7
  6
CONTINUOUS
 10
169.4019101321
 20
214.7821484909
 11
169.1627329868
 21
215.3595731987
  0
LINE
  5
317
100
AcDbEntity
  8
0
100
AcDbLine
 62
7
  6
CONTINUOUS
 10
168.3488661288
 20
204.5367840678
 11
168.4897582205
 21
203.9186483579
  0
LINE
  5
318
100
AcDbEntity
  8
0
100
AcDbLine
 62
7
  6
CONTINUOUS
 10
166.3955860335
 20
209.2524193653
 11
166.4966154197
 21
208.7305207395
  0
LINE
  5
319
100
AcDbEntity
  8
0
100
AcDbLine
 62
7
  6
CONTINUOUS
 10
168.8828984347
 20
204.0814923665
 11
168.7818690743
 21
204.603391003
  0
LINE
  5
31A
100
AcDbEntity
  8
0
100
AcDbLine
 62
7
  6
CONTINUOUS
 10
168.3275626098
 20
204.8662074239
 11
168.3488661288
 21
204.5367840678
  0
LINE
  5
31B
100
AcDbEntity
  8
0
100
AcDbLine
 62
7
  6
CONTINUOUS
 10
169.1929189636
 20
209.1708711104
 11
169.2142224913
 21
208.8414477579
  0
LINE
  5
31C
100
AcDbEntity
  8
0
100
AcDbLine
 62
7
  6
CONTINUOUS
 10
170.8239020692
 20
209.9591958354
 11
170.8452055969
 21
209.6297724829
  0
LINE
  5
31D
100
AcDbEntity
  8
0
100
AcDbLine
 62
7
  6
CONTINUOUS
 10
166.4911269824
 20
209.8557394447
 11
166.3955860335
 21
209.2524193653
  0
LINE
  5
31E
100
AcDbEntity
  8
0
100
AcDbLine
 62
7
  6
CONTINUOUS
 10
166.9268742519
 20
209.3597367483
 11
167.0038557692
 21
209.7298710994
  0
LINE
  5
31F
100
AcDbEntity
  8
0
100
AcDbLine
 62
7
  6
CONTINUOUS
 10
166.7646786239
 20
210.3072958072
 11
166.4911269824
 21
209.8557394447
  0
LINE
  5
320
100
AcDbEntity
  8
0
100
AcDbLine
 62
7
  6
CONTINUOUS
 10
167.0038557692
 20
209.7298710994
 11
167.2189852197
 21
210.044479118
  0
LINE
  5
321
100
AcDbEntity
  8
0
100
AcDbLine
 62
7
  6
CONTINUOUS
 10
170.7682240796
 20
209.2596381318
 11
170.5530945839
 21
208.945030417
  0
LINE
  5
322
100
AcDbEntity
  8
0
100
AcDbLine
 62
7
  6
CONTINUOUS
 10
168.7179587193
 20
205.5916605098
 11
168.4045441442
 21
205.2363417821
  0
LINE
  5
323
100
AcDbEntity
  8
0
100
AcDbLine
 62
7
  6
CONTINUOUS
 10
169.0630035785
 20
207.5385699856
 11
169.4747031642
 21
207.9345996976
  0
LINE
  5
324
100
AcDbEntity
  8
0
100
AcDbLine
 62
7
  6
CONTINUOUS
 10
168.8588505915
 20
204.973525354
 11
169.1138430897
 21
205.1918954625
  0
LINE
  5
325
100
AcDbEntity
  8
0
100
AcDbLine
 62
7
  6
CONTINUOUS
 10
169.7455104214
 20
208.9487656667
 11
169.6444812547
 21
209.4706637383
  0
LINE
  5
326
100
AcDbEntity
  8
0
100
AcDbLine
 62
7
  6
CONTINUOUS
 10
171.3764937551
 20
209.737089841
 11
171.2754643603
 21
210.2589884632
  0
LINE
  5
327
100
AcDbEntity
  8
0
100
AcDbLine
 62
7
  6
CONTINUOUS
 10
169.6499697264
 20
208.3454450473
 11
169.7455104214
 21
208.9487656667
  0
LINE
  5
328
100
AcDbEntity
  8
0
100
AcDbLine
 62
7
  6
CONTINUOUS
 10
171.280952832
 20
209.1337697722
 11
171.3764937551
 21
209.737089841
  0
LINE
  5
329
100
AcDbEntity
  8
0
100
AcDbLine
 62
7
  6
CONTINUOUS
 10
168.4045441442
 20
205.2363417821
 11
168.3275626098
 21
204.8662074239
  0
LINE
  5
32A
100
AcDbEntity
  8
0
100
AcDbLine
 62
7
  6
CONTINUOUS
 10
169.2142224913
 20
208.8414477579
 11
169.137240974
 21
208.4713134069
  0
LINE
  5
32B
100
AcDbEntity
  8
0
100
AcDbLine
 62
7
  6
CONTINUOUS
 10
168.7818690743
 20
204.603391003
 11
168.8588505915
 21
204.973525354
  0
LINE
  5
32C
100
AcDbEntity
  8
0
100
AcDbLine
 62
7
  6
CONTINUOUS
 10
170.8452055969
 20
209.6297724829
 11
170.7682240796
 21
209.2596381318
  0
LINE
  5
32D
100
AcDbEntity
  8
0
100
AcDbLine
 62
7
  6
CONTINUOUS
 10
169.137240974
 20
208.4713134069
 11
169.0203965232
 21
208.1974166906
  0
LINE
  5
32E
100
AcDbEntity
  8
0
100
AcDbLine
 62
7
  6
CONTINUOUS
 10
169.4747031642
 20
207.9345996976
 11
169.6499697264
 21
208.3454450473
  0
LINE
  5
32F
100
AcDbEntity
  8
0
100
AcDbLine
 62
7
  6
CONTINUOUS
 10
171.0074012249
 20
208.682213424
 11
171.280952832
 21
209.1337697722
  0
LINE
  5
330
100
AcDbEntity
  8
RUNDUNGEN
100
AcDbLine
 62
7
  6
CONTINUOUS
 10
180.1720029408
 20
205.345524517
 11
173.8584624252
 21
220.5877596561
  0
LINE
  5
331
100
AcDbEntity
  8
RUNDUNGEN
100
AcDbLine
 62
7
  6
CONTINUOUS
 10
181.3138099531
 20
191.7651875957
 11
181.3138099531
 21
197.9611295415
  0
LINE
  5
332
100
AcDbEntity
  8
_30_VOLUMEN
100
AcDbLine
 62
7
  6
CONTINUOUS
 10
181.3138099531
 20
197.9611295415
 11
181.3138099531
 21
199.6052730315
  0
LINE
  5
333
100
AcDbEntity
  8
RUNDUNGEN
100
AcDbLine
 62
7
  6
CONTINUOUS
 10
288.4125389004
 20
191.7651875957
 11
258.4125389004
 21
191.7651875957
  0
LINE
  5
334
100
AcDbEntity
  8
_30_VOLUMEN
100
AcDbLine
 62
7
  6
CONTINUOUS
 10
259.3604077819
 20
198.8694359442
 11
258.7965922094
 21
199.0746480302
  0
LINE
  5
335
100
AcDbEntity
  8
_30_VOLUMEN
100
AcDbLine
 62
7
  6
CONTINUOUS
 10
260.7284883552
 20
202.6282064273
 11
260.1646727827
 21
202.8334185133
  0
LINE
  5
336
100
AcDbEntity
  8
RUNDUNGEN
100
AcDbLine
 62
7
  6
CONTINUOUS
 10
258.4125389004
 20
191.7651875957
 11
258.4125389004
 21
196.088860615
  0
LINE
  5
337
100
AcDbEntity
  8
0
100
AcDbLine
 62
7
  6
CONTINUOUS
 10
268.9125389004
 20
204.5636761803
 11
268.3125389004
 21
204.5636761803
  0
LINE
  5
338
100
AcDbEntity
  8
0
100
AcDbLine
 62
7
  6
CONTINUOUS
 10
268.9125389004
 20
204.9019367651
 11
268.3125389004
 21
204.9019367651
  0
LINE
  5
339
100
AcDbEntity
  8
0
100
AcDbLine
 62
7
  6
CONTINUOUS
 10
277.9125389004
 20
205.4593996229
 11
278.5125389004
 21
205.4593996229
  0
LINE
  5
33A
100
AcDbEntity
  8
0
100
AcDbLine
 62
7
  6
CONTINUOUS
 10
277.9125389004
 20
205.5351244999
 11
278.5125389004
 21
205.5351244999
  0
LWPOLYLINE
  5
33B
100
AcDbEntity
  8
_30_VOLUMEN
100
AcDbPolyline
 62
7
  6
CONTINUOUS
 90
14
 70
0
 10
268.9776182369
 20
247.1025637706
 10
268.9192198371
 20
246.9517737216
 10
268.8488303816
 20
246.8061935852
 10
268.7669101528
 20
246.6667757762
 10
268.6739941916
 20
246.5344311707
 10
268.5706885467
 20
246.4100236545
 10
268.4576675981
 20
246.2943664676
 10
268.3356702681
 20
246.1882167705
 10
268.2054941841
 20
246.0922692987
 10
268.0679902794
 20
246.0071518179
 10
267.9240572125
 20
245.9334211612
 10
267.7746359123
 20
245.8715598574
 10
267.6207032123
 20
245.8219728214
 10
267.4495907381
 20
245.7823997043
  0
LINE
  5
33C
100
AcDbEntity
  8
0
100
AcDbLine
 62
7
  6
CONTINUOUS
 10
277.9125389004
 20
205.8571290793
 11
278.5125389004
 21
205.8571290793
  0
LINE
  5
33D
100
AcDbEntity
  8
0
100
AcDbLine
 62
7
  6
CONTINUOUS
 10
268.9125389004
 20
206.1340439869
 11
268.3125389004
 21
206.1340439869
  0
LINE
  5
33E
100
AcDbEntity
  8
0
100
AcDbLine
 62
7
  6
CONTINUOUS
 10
268.9125389004
 20
206.4618749385
 11
268.3125389004
 21
206.4618749385
  0
LINE
  5
33F
100
AcDbEntity
  8
0
100
AcDbLine
 62
7
  6
CONTINUOUS
 10
277.9125389004
 20
206.761033486
 11
278.5125389004
 21
206.761033486
  0
LINE
  5
340
100
AcDbEntity
  8
0
100
AcDbLine
 62
7
  6
CONTINUOUS
 10
268.9125389004
 20
206.8001355234
 11
268.3125389004
 21
206.8001355234
  0
LINE
  5
341
100
AcDbEntity
  8
0
100
AcDbLine
 62
7
  6
CONTINUOUS
 10
277.9125389004
 20
206.8258919102
 11
278.5125389004
 21
206.8258919102
  0
LINE
  5
342
100
AcDbEntity
  8
0
100
AcDbLine
 62
7
  6
CONTINUOUS
 10
277.9125389004
 20
207.545099452
 11
278.5125389004
 21
207.545099452
  0
LINE
  5
343
100
AcDbEntity
  8
_30_VOLUMEN
100
AcDbLine
 62
7
  6
CONTINUOUS
 10
269.0082986857
 20
247.2005698586
 11
268.9776182369
 21
247.1025637706
  0
LINE
  5
344
100
AcDbEntity
  8
0
100
AcDbLine
 62
7
  6
CONTINUOUS
 10
277.9125389004
 20
208.2315968799
 11
278.5125389004
 21
208.2315968799
  0
LINE
  5
345
100
AcDbEntity
  8
0
100
AcDbLine
 62
7
  6
CONTINUOUS
 10
277.9125389004
 20
209.1633181657
 11
278.5125389004
 21
209.1633181657
  0
LINE
  5
346
100
AcDbEntity
  8
0
100
AcDbLine
 62
7
  6
CONTINUOUS
 10
268.9125389004
 20
209.2719271978
 11
268.3125389004
 21
209.2719271978
  0
LINE
  5
347
100
AcDbEntity
  8
0
100
AcDbLine
 62
7
  6
CONTINUOUS
 10
268.9125389004
 20
209.800218551
 11
268.3125389004
 21
209.800218551
  0
LINE
  5
348
100
AcDbEntity
  8
0
100
AcDbLine
 62
7
  6
CONTINUOUS
 10
277.9125389004
 20
209.8791669124
 11
278.5125389004
 21
209.8791669124
  0
LINE
  5
349
100
AcDbEntity
  8
0
100
AcDbLine
 62
7
  6
CONTINUOUS
 10
268.9125389004
 20
210.1384791358
 11
268.3125389004
 21
210.1384791358
  0
LINE
  5
34A
100
AcDbEntity
  8
0
100
AcDbLine
 62
7
  6
CONTINUOUS
 10
277.9125389004
 20
210.5656643403
 11
278.5125389004
 21
210.5656643403
  0
LINE
  5
34B
100
AcDbEntity
  8
0
100
AcDbLine
 62
7
  6
CONTINUOUS
 10
277.9125389004
 20
211.1148500636
 11
278.5125389004
 21
211.1148500636
  0
LINE
  5
34C
100
AcDbEntity
  8
0
100
AcDbLine
 62
7
  6
CONTINUOUS
 10
268.9125389004
 20
211.6984173092
 11
268.3125389004
 21
211.6984173092
  0
LINE
  5
34D
100
AcDbEntity
  8
0
100
AcDbLine
 62
7
  6
CONTINUOUS
 10
277.9125389004
 20
211.8013375771
 11
278.5125389004
 21
211.8013375771
  0
LINE
  5
34E
100
AcDbEntity
  8
0
100
AcDbLine
 62
7
  6
CONTINUOUS
 10
268.9125389004
 20
212.0366778941
 11
268.3125389004
 21
212.0366778941
  0
LINE
  5
34F
100
AcDbEntity
  8
BEZUGSACHSEN
100
AcDbLine
 62
7
  6
CONTINUOUS
 10
265.4125389004
 20
218.1424439324
 11
265.4125389004
 21
243.3661887032
  0
LINE
  5
350
100
AcDbEntity
  8
_30_VOLUMEN
100
AcDbLine
 62
7
  6
CONTINUOUS
 10
265.4125391535
 20
243.3671922248
 11
265.4125389004
 21
243.3661887032
  0
LINE
  5
351
100
AcDbEntity
  8
_30_VOLUMEN
100
AcDbLine
 62
7
  6
CONTINUOUS
 10
258.7965922094
 20
199.0746480302
 11
260.1646727827
 21
202.8334185133
  0
LINE
  5
352
100
AcDbEntity
  8
0
100
AcDbLine
 62
7
  6
CONTINUOUS
 10
277.9125389004
 20
213.2539281747
 11
278.5125389004
 21
213.2539281747
  0
LINE
  5
353
100
AcDbEntity
  8
0
100
AcDbLine
 62
7
  6
CONTINUOUS
 10
277.9125389004
 20
214.1416605918
 11
278.5125389004
 21
214.1416605918
  0
LINE
  5
354
100
AcDbEntity
  8
0
100
AcDbLine
 62
7
  6
CONTINUOUS
 10
268.3125389004
 20
204.5636761803
 11
268.3125389004
 21
209.2718497794
  0
LINE
  5
355
100
AcDbEntity
  8
0
100
AcDbLine
 62
7
  6
CONTINUOUS
 10
268.3125389004
 20
209.800218551
 11
268.3125389004
 21
214.50839215
  0
LINE
  5
356
100
AcDbEntity
  8
_30_VOLUMEN
100
AcDbLine
 62
7
  6
CONTINUOUS
 10
268.9125389004
 20
202.131019304
 11
268.9125389004
 21
204.388815936
  0
LINE
  5
357
100
AcDbEntity
  8
RUNDUNGEN
100
AcDbLine
 62
7
  6
CONTINUOUS
 10
268.9125389004
 20
204.388815936
 11
268.9125389004
 21
219.6310510752
  0
LINE
  5
358
100
AcDbEntity
  8
_30_VOLUMEN
100
AcDbLine
 62
7
  6
CONTINUOUS
 10
268.9125389004
 20
219.6310510752
 11
268.9125389004
 21
246.2922528148
  0
LINE
  5
359
100
AcDbEntity
  8
RUNDUNGEN
100
AcDbLine
 62
7
  6
CONTINUOUS
 10
258.4728462796
 20
196.4308807583
 11
260.0421056218
 21
200.7423853663
  0
LINE
  5
35A
100
AcDbEntity
  8
BEZUGSACHSEN
100
AcDbLine
 62
7
  6
CONTINUOUS
 10
260.0421056218
 20
200.7423853663
 11
264.5079282122
 21
213.0121320926
  0
LINE
  5
35B
100
AcDbEntity
  8
0
100
AcDbLine
 62
7
  6
CONTINUOUS
 10
268.9125389004
 20
214.5084695685
 11
268.3125389004
 21
214.5084695685
  0
LINE
  5
35C
100
AcDbEntity
  8
_30_VOLUMEN
100
AcDbLine
 62
7
  6
CONTINUOUS
 10
277.9125389004
 20
246.2922528195
 11
277.9125389004
 21
219.6310510752
  0
LINE
  5
35D
100
AcDbEntity
  8
RUNDUNGEN
100
AcDbLine
 62
7
  6
CONTINUOUS
 10
277.9125389004
 20
219.6310510752
 11
277.9125389004
 21
204.388815936
  0
LINE
  5
35E
100
AcDbEntity
  8
_30_VOLUMEN
100
AcDbLine
 62
7
  6
CONTINUOUS
 10
277.9125389004
 20
204.388815936
 11
277.9125389004
 21
202.1310193057
  0
LINE
  5
35F
100
AcDbEntity
  8
0
100
AcDbLine
 62
7
  6
CONTINUOUS
 10
278.5125389004
 20
214.1416605918
 11
278.5125389004
 21
205.4594804111
  0
LINE
  5
360
100
AcDbEntity
  8
RUNDUNGEN
100
AcDbLine
 62
7
  6
CONTINUOUS
 10
288.3522315212
 20
196.4308807583
 11
286.782972179
 21
200.7423853663
  0
LINE
  5
361
100
AcDbEntity
  8
BEZUGSACHSEN
100
AcDbLine
 62
7
  6
CONTINUOUS
 10
286.782972179
 20
200.7423853663
 11
282.3171495886
 21
213.0121320926
  0
LINE
  5
362
100
AcDbEntity
  8
_30_VOLUMEN
100
AcDbLine
 62
7
  6
CONTINUOUS
 10
286.6604050181
 20
202.8334185133
 11
288.0284855914
 21
199.0746480302
  0
LWPOLYLINE
  5
363
100
AcDbEntity
  8
RUNDUNGEN
100
AcDbPolyline
 62
7
  6
CONTINUOUS
 90
17
 70
0
 10
281.4125373696
 20
243.3672249482
 10
281.4111293415
 20
243.4467676474
 10
281.3953843282
 20
243.653119215
 10
281.362367211
 20
243.8559275299
 10
281.3120894634
 20
244.0555100709
 10
281.2449281318
 20
244.2506126787
 10
281.1617470424
 20
244.4388564763
 10
281.0634372878
 20
244.618647038
 10
280.9505091342
 20
244.7895540476
 10
280.8234141455
 20
244.9508645153
 10
280.6830312438
 20
245.1014162543
 10
280.5303293538
 20
245.2401394959
 10
280.3658637869
 20
245.3662890143
 10
280.1909805572
 20
245.4787196103
 10
280.0070757915
 20
245.5764859455
 10
279.8148017356
 20
245.6590386818
 10
279.6154909329
 20
245.7256425769
  0
LINE
  5
364
100
AcDbEntity
  8
_30_VOLUMEN
100
AcDbLine
 62
7
  6
CONTINUOUS
 10
281.4125386335
 20
243.3672191432
 11
281.4125389004
 21
243.3661887032
  0
LINE
  5
365
100
AcDbEntity
  8
BEZUGSACHSEN
100
AcDbLine
 62
7
  6
CONTINUOUS
 10
281.4125389004
 20
218.1424439324
 11
281.4125389004
 21
235.3612989802
  0
LINE
  5
366
100
AcDbEntity
  8
RUNDUNGEN
100
AcDbLine
 62
7
  6
CONTINUOUS
 10
281.4125389004
 20
235.3612989802
 11
281.4125389004
 21
243.3661887032
  0
LINE
  5
367
100
AcDbEntity
  8
_30_VOLUMEN
100
AcDbLine
 62
7
  6
CONTINUOUS
 10
277.8460322907
 20
247.1067766392
 11
277.8167861127
 21
247.2005675848
  0
LINE
  5
368
100
AcDbEntity
  8
RUNDUNGEN
100
AcDbLine
 62
7
  6
CONTINUOUS
 10
288.4125389004
 20
196.0888631931
 11
288.4125389004
 21
191.7651875957
  0
LINE
  5
369
100
AcDbEntity
  8
_30_VOLUMEN
100
AcDbLine
 62
7
  6
CONTINUOUS
 10
286.0965894456
 20
202.6282064273
 11
286.6604050181
 21
202.8334185133
  0
LINE
  5
36A
100
AcDbEntity
  8
_30_VOLUMEN
100
AcDbLine
 62
7
  6
CONTINUOUS
 10
287.4646700189
 20
198.8694359442
 11
288.0284855914
 21
199.0746480302
  0
LWPOLYLINE
  5
36B
100
AcDbEntity
  8
BEZUGSACHSEN
100
AcDbPolyline
 62
7
  6
CONTINUOUS
 90
18
 70
0
 10
267.4137342466
 20
245.7754845029
 10
267.209735415
 20
245.7256854497
 10
267.0105478052
 20
245.6591422012
 10
266.8182623325
 20
245.576610774
 10
266.6342329052
 20
245.4787990935
 10
266.4591437527
 20
245.3662396148
 10
266.2943328096
 20
245.2397921736
 10
266.1412689415
 20
245.1006483058
 10
266.0007447671
 20
244.9497925992
 10
265.8737433522
 20
244.7884107954
 10
265.7610195429
 20
244.6176157249
 10
265.6629814943
 20
244.4381484496
 10
265.5801693634
 20
244.2506628842
 10
265.5132981164
 20
244.0565502381
 10
265.463044323
 20
243.8575370478
 10
265.4298759056
 20
243.6546441845
 10
265.4139821932
 20
243.4477591659
 10
265.4125403845
 20
243.3671978787
  0
LINE
  5
36C
100
AcDbEntity
  8
BEZUGSACHSEN
100
AcDbLine
 62
7
  6
CONTINUOUS
 10
267.4495901922
 20
245.782402705
 11
267.4137342466
 21
245.7754845029
  0
LWPOLYLINE
  5
36D
100
AcDbEntity
  8
_30_VOLUMEN
100
AcDbPolyline
 62
7
  6
CONTINUOUS
 90
14
 70
0
 10
279.375489141
 20
245.7823989954
 10
279.2037866271
 20
245.822136452
 10
279.0495789985
 20
245.8718775636
 10
278.8999040592
 20
245.9339386021
 10
278.7557442312
 20
246.0079121974
 10
278.6180457587
 20
246.093312768
 10
278.4877124202
 20
246.1895797545
 10
278.3655996645
 20
246.2960812658
 10
278.2525090239
 20
246.412118185
 10
278.1491827992
 20
246.5369287835
 10
278.0562990794
 20
246.6696938801
 10
277.9744673753
 20
246.8095422142
 10
277.9042247551
 20
246.9555559486
 10
277.8460322907
 20
247.1067766392
  0
LWPOLYLINE
  5
36E
100
AcDbEntity
  8
RUNDUNGEN
100
AcDbPolyline
 62
7
  6
CONTINUOUS
 90
3
 70
0
 10
279.6154909329
 20
245.7256425769
 10
279.411226986
 20
245.7755078677
 10
279.3754897442
 20
245.7824023081
  0
LINE
  5
36F
100
AcDbEntity
  8
0
100
AcDbLine
 62
7
  6
CONTINUOUS
 10
271.4125389004
 20
249.0151875957
 11
275.4125389004
 21
249.0151875957
  0
LINE
  5
370
100
AcDbEntity
  8
BEZUGSACHSEN
100
AcDbLine
 62
7
  6
CONTINUOUS
 10
81.3138099531
 20
113.7391078838
 11
81.3138099531
 21
109.7391078838
  0
LINE
  5
371
100
AcDbEntity
  8
_30_VOLUMEN
100
AcDbLine
 62
7
  6
CONTINUOUS
 10
81.3138099531
 20
99.837080124
 11
81.3138099531
 21
109.7391078838
  0
LINE
  5
372
100
AcDbEntity
  8
RUNDUNGEN
100
AcDbLine
 62
7
  6
CONTINUOUS
 10
81.3138099531
 20
98.7391078838
 11
81.3138099531
 21
113.7391078838
  0
LINE
  5
373
100
AcDbEntity
  8
_30_VOLUMEN
100
AcDbLine
 62
7
  6
CONTINUOUS
 10
81.3138099531
 20
113.7391078838
 11
81.3138099531
 21
123.6411356437
  0
LINE
  5
374
100
AcDbEntity
  8
RUNDUNGEN
100
AcDbLine
 62
7
  6
CONTINUOUS
 10
81.3138099531
 20
123.6411356437
 11
81.3138099531
 21
124.7391078838
  0
LINE
  5
375
100
AcDbEntity
  8
0
100
AcDbLine
 62
7
  6
CONTINUOUS
 10
88.4233023456
 20
116.2391078838
 11
88.4233023456
 21
116.8391078838
  0
LINE
  5
376
100
AcDbEntity
  8
0
100
AcDbLine
 62
7
  6
CONTINUOUS
 10
89.9616486608
 20
107.2391078838
 11
89.9616486608
 21
106.6391078838
  0
LINE
  5
377
100
AcDbEntity
  8
0
100
AcDbLine
 62
7
  6
CONTINUOUS
 10
90.2115132905
 20
107.2391078838
 11
90.2115132905
 21
106.6391078838
  0
LINE
  5
378
100
AcDbEntity
  8
0
100
AcDbLine
 62
7
  6
CONTINUOUS
 10
90.3333023456
 20
116.2391078838
 11
90.3333023456
 21
116.8391078838
  0
LINE
  5
379
100
AcDbEntity
  8
0
100
AcDbLine
 62
7
  6
CONTINUOUS
 10
90.8111797412
 20
107.2391078838
 11
90.8111797412
 21
106.6391078838
  0
LINE
  5
37A
100
AcDbEntity
  8
0
100
AcDbLine
 62
7
  6
CONTINUOUS
 10
91.0610443708
 20
107.2391078838
 11
91.0610443708
 21
106.6391078838
  0
LINE
  5
37B
100
AcDbEntity
  8
0
100
AcDbLine
 62
7
  6
CONTINUOUS
 10
91.2609141198
 20
107.2391078838
 11
91.2609141198
 21
106.6391078838
  0
LINE
  5
37C
100
AcDbEntity
  8
0
100
AcDbLine
 62
7
  6
CONTINUOUS
 10
91.5107751409
 20
107.2391078838
 11
91.5107751409
 21
106.6391078838
  0
LINE
  5
37D
100
AcDbEntity
  8
0
100
AcDbLine
 62
7
  6
CONTINUOUS
 10
92.0394923884
 20
107.2391078838
 11
92.0394923884
 21
106.6391078838
  0
LINE
  5
37E
100
AcDbEntity
  8
0
100
AcDbLine
 62
7
  6
CONTINUOUS
 10
92.3626005642
 20
107.2391078838
 11
92.3626005642
 21
106.6391078838
  0
LINE
  5
37F
100
AcDbEntity
  8
0
100
AcDbLine
 62
7
  6
CONTINUOUS
 10
93.1725006391
 20
107.2391078838
 11
93.1725006391
 21
106.6391078838
  0
LINE
  5
380
100
AcDbEntity
  8
0
100
AcDbLine
 62
7
  6
CONTINUOUS
 10
95.3817702969
 20
107.2391078838
 11
95.3817702969
 21
106.6391078838
  0
LINE
  5
381
100
AcDbEntity
  8
0
100
AcDbLine
 62
7
  6
CONTINUOUS
 10
96.7921699588
 20
116.2391078838
 11
96.7921699588
 21
116.8391078838
  0
LINE
  5
382
100
AcDbEntity
  8
0
100
AcDbLine
 62
7
  6
CONTINUOUS
 10
96.9745624546
 20
107.2391078838
 11
96.9745624546
 21
106.6391078838
  0
LINE
  5
383
100
AcDbEntity
  8
0
100
AcDbLine
 62
7
  6
CONTINUOUS
 10
98.950605007
 20
107.2391078838
 11
98.950605007
 21
106.6391078838
  0
LINE
  5
384
100
AcDbEntity
  8
_30_VOLUMEN
100
AcDbLine
 62
7
  6
CONTINUOUS
 10
103.5040414292
 20
125.7912390023
 11
103.5040414292
 21
126.3550545748
  0
LINE
  5
385
100
AcDbEntity
  8
_30_VOLUMEN
100
AcDbLine
 62
7
  6
CONTINUOUS
 10
103.9306691317
 20
99.0550573386
 11
103.9306691317
 21
97.1231611928
  0
LINE
  5
386
100
AcDbEntity
  8
_30_VOLUMEN
100
AcDbLine
 62
7
  6
CONTINUOUS
 10
106.337373491
 20
126.3550545748
 11
106.0040414292
 21
126.005757408
  0
LINE
  5
387
100
AcDbEntity
  8
_30_VOLUMEN
100
AcDbLine
 62
7
  6
CONTINUOUS
 10
105.9207093675
 20
125.8893250327
 11
105.1707093675
 21
125.1034063768
  0
LINE
  5
388
100
AcDbEntity
  8
_30_VOLUMEN
100
AcDbLine
 62
7
  6
CONTINUOUS
 10
105.5040414292
 20
124.9869740015
 11
106.837373491
 21
126.3550545748
  0
LINE
  5
389
100
AcDbEntity
  8
_30_VOLUMEN
100
AcDbLine
 62
7
  6
CONTINUOUS
 10
105.8473357586
 20
97.7344312449
 11
106.5140023856
 21
97.1231611928
  0
LINE
  5
38A
100
AcDbEntity
  8
_30_VOLUMEN
100
AcDbLine
 62
7
  6
CONTINUOUS
 10
107.7640023856
 20
97.588890735
 11
107.8473358778
 21
97.4433502658
  0
LWPOLYLINE
  5
38B
100
AcDbEntity
  8
BEZUGSACHSEN
100
AcDbPolyline
 62
7
  6
CONTINUOUS
 90
20
 70
0
 10
101.2976948185
 20
105.6106731812
 10
101.3094336489
 20
105.5523772408
 10
101.3533417032
 20
105.3778097677
 10
101.4083968042
 20
105.2102178229
 10
101.4735748588
 20
105.0502530612
 10
101.5477800349
 20
104.8985397346
 10
101.629973821
 20
104.7554233693
 10
101.7191267236
 20
104.6211570147
 10
101.8141253528
 20
104.4960251813
 10
101.9139701624
 20
104.3800667892
 10
102.0177204733
 20
104.2732151335
 10
102.1243845207
 20
104.1754151946
 10
102.2330602159
 20
104.0864790749
 10
102.3429928778
 20
104.006080716
 10
102.4535399065
 20
103.9338229675
 10
102.5641959636
 20
103.8692440482
 10
102.6742482655
 20
103.8120096449
 10
102.7829751974
 20
103.7617521892
 10
102.8899836166
 20
103.7179357221
 10
102.9458786956
 20
103.6971421881
  0
LINE
  5
38C
100
AcDbEntity
  8
_30_VOLUMEN
100
AcDbLine
 62
7
  6
CONTINUOUS
 10
104.4306691317
 20
97.1231611928
 11
104.4306691317
 21
97.7344312449
  0
LINE
  5
38D
100
AcDbEntity
  8
_30_VOLUMEN
100
AcDbLine
 62
7
  6
CONTINUOUS
 10
104.4306691317
 20
97.9090798079
 11
104.4306691317
 21
98.345701297
  0
LINE
  5
38E
100
AcDbEntity
  8
_30_VOLUMEN
100
AcDbLine
 62
7
  6
CONTINUOUS
 10
104.837373491
 20
124.423158429
 11
104.837373491
 21
124.9869740015
  0
LINE
  5
38F
100
AcDbEntity
  8
_30_VOLUMEN
100
AcDbLine
 62
7
  6
CONTINUOUS
 10
105.5040414292
 20
124.423158429
 11
105.5040414292
 21
124.9869740015
  0
LINE
  5
390
100
AcDbEntity
  8
_30_VOLUMEN
100
AcDbLine
 62
7
  6
CONTINUOUS
 10
105.9306691317
 20
99.0550573386
 11
105.9306691317
 21
98.4912417661
  0
LINE
  5
391
100
AcDbEntity
  8
_30_VOLUMEN
100
AcDbLine
 62
7
  6
CONTINUOUS
 10
106.0140023856
 20
98.345701297
 11
106.0140023856
 21
97.9090798079
  0
LINE
  5
392
100
AcDbEntity
  8
_30_VOLUMEN
100
AcDbLine
 62
7
  6
CONTINUOUS
 10
106.2640023856
 20
98.3165932031
 11
106.2640023856
 21
97.9381879017
  0
LINE
  5
393
100
AcDbEntity
  8
_30_VOLUMEN
100
AcDbLine
 62
7
  6
CONTINUOUS
 10
106.3473358778
 20
99.0259492448
 11
106.3473358778
 21
98.4621336723
  0
LINE
  5
394
100
AcDbEntity
  8
_30_VOLUMEN
100
AcDbLine
 62
7
  6
CONTINUOUS
 10
106.4306691317
 20
98.2583770155
 11
106.4306691317
 21
97.9964040894
  0
LINE
  5
395
100
AcDbEntity
  8
_30_VOLUMEN
100
AcDbLine
 62
7
  6
CONTINUOUS
 10
106.5140023856
 20
98.171052734
 11
106.5140023856
 21
98.0837283709
  0
LINE
  5
396
100
AcDbEntity
  8
_30_VOLUMEN
100
AcDbLine
 62
7
  6
CONTINUOUS
 10
106.6806691317
 20
98.9386249633
 11
106.6806691317
 21
98.3748093908
  0
LINE
  5
397
100
AcDbEntity
  8
_30_VOLUMEN
100
AcDbLine
 62
7
  6
CONTINUOUS
 10
106.837373491
 20
125.7912390023
 11
106.837373491
 21
126.3550545748
  0
LINE
  5
398
100
AcDbEntity
  8
_30_VOLUMEN
100
AcDbLine
 62
7
  6
CONTINUOUS
 10
106.9306691317
 20
98.8221925879
 11
106.9306691317
 21
98.2583770155
  0
LINE
  5
399
100
AcDbEntity
  8
_30_VOLUMEN
100
AcDbLine
 62
7
  6
CONTINUOUS
 10
107.0140023856
 20
98.0546202771
 11
107.0140023856
 21
98.7348683064
  0
LINE
  5
39A
100
AcDbEntity
  8
_30_VOLUMEN
100
AcDbLine
 62
7
  6
CONTINUOUS
 10
107.0973358778
 20
97.6869767653
 11
107.0973358778
 21
97.1231611928
  0
LINE
  5
39B
100
AcDbEntity
  8
_30_VOLUMEN
100
AcDbLine
 62
7
  6
CONTINUOUS
 10
107.587373491
 20
126.1221898037
 11
107.5040414292
 21
126.0348655019
  0
LINE
  5
39C
100
AcDbEntity
  8
_30_VOLUMEN
100
AcDbLine
 62
7
  6
CONTINUOUS
 10
108.0040414292
 20
126.005757408
 11
108.087373491
 21
126.0930816895
  0
LINE
  5
39D
100
AcDbEntity
  8
_30_VOLUMEN
100
AcDbLine
 62
7
  6
CONTINUOUS
 10
107.587373491
 20
125.5109197721
 11
107.5040414292
 21
125.4235954906
  0
LINE
  5
39E
100
AcDbEntity
  8
_30_VOLUMEN
100
AcDbLine
 62
7
  6
CONTINUOUS
 10
108.0040414292
 20
125.3944873967
 11
108.087373491
 21
125.4818116782
  0
LINE
  5
39F
100
AcDbEntity
  8
_30_VOLUMEN
100
AcDbLine
 62
7
  6
CONTINUOUS
 10
105.5040414292
 20
124.423158429
 11
106.837373491
 21
125.7912390023
  0
LINE
  5
3A0
100
AcDbEntity
  8
BEZUGSACHSEN
100
AcDbLine
 62
7
  6
CONTINUOUS
 10
103.579748954
 20
120.1923460183
 11
103.5571398437
 21
120.1724793507
  0
LINE
  5
3A1
100
AcDbEntity
  8
BEZUGSACHSEN
100
AcDbLine
 62
7
  6
CONTINUOUS
 10
103.5569652311
 20
120.1723260972
 11
103.5075934858
 21
120.1298046922
  0
LWPOLYLINE
  5
3A2
100
AcDbEntity
  8
BEZUGSACHSEN
100
AcDbPolyline
 62
7
  6
CONTINUOUS
 90
9
 70
0
 10
103.5075934858
 20
120.1298046922
 10
103.4237444481
 20
120.0615687642
 10
103.3431490379
 20
120.0008403118
 10
103.2668149327
 20
119.9478986879
 10
103.1943215287
 20
119.9019538925
 10
103.1241813337
 20
119.8617705063
 10
103.0564265121
 20
119.8272465577
 10
102.9922076965
 20
119.7987830002
 10
102.949308476
 20
119.7823083774
  0
LINE
  5
3A3
100
AcDbEntity
  8
_30_VOLUMEN
100
AcDbLine
 62
7
  6
CONTINUOUS
 10
107.8473358778
 20
97.4433502658
 11
108.014002624
 21
97.3269178701
  0
LINE
  5
3A4
100
AcDbEntity
  8
BEZUGSACHSEN
100
AcDbLine
 62
7
  6
CONTINUOUS
 10
103.5569633983
 20
103.305891479
 11
103.579748954
 21
103.2858697493
  0
LINE
  5
3A5
100
AcDbEntity
  8
_30_VOLUMEN
100
AcDbLine
 62
7
  6
CONTINUOUS
 10
107.0973358778
 20
97.1231611928
 11
106.3473358778
 21
97.7926474326
  0
LINE
  5
3A6
100
AcDbEntity
  8
_30_VOLUMEN
100
AcDbLine
 62
7
  6
CONTINUOUS
 10
107.0973358778
 20
97.6869767653
 11
106.8338297713
 21
97.9221950485
  0
LINE
  5
3A7
100
AcDbEntity
  8
_30_VOLUMEN
100
AcDbLine
 62
7
  6
CONTINUOUS
 10
106.4306691317
 20
98.2583770155
 11
106.5140023856
 21
98.171052734
  0
LINE
  5
3A8
100
AcDbEntity
  8
_30_VOLUMEN
100
AcDbLine
 62
7
  6
CONTINUOUS
 10
107.0140023856
 20
98.171052734
 11
106.9306691317
 21
98.2583770155
  0
LINE
  5
3A9
100
AcDbEntity
  8
_30_VOLUMEN
100
AcDbLine
 62
7
  6
CONTINUOUS
 10
107.0140023856
 20
98.7348683064
 11
106.9306691317
 21
98.8221925879
  0
LINE
  5
3AA
100
AcDbEntity
  8
_30_VOLUMEN
100
AcDbLine
 62
7
  6
CONTINUOUS
 10
108.3473356394
 20
97.4724583596
 11
108.264002624
 21
97.588890735
  0
LINE
  5
3AB
100
AcDbEntity
  8
_30_VOLUMEN
100
AcDbLine
 62
7
  6
CONTINUOUS
 10
108.3473356394
 20
98.0362739321
 11
108.264002624
 21
98.1527063074
  0
LINE
  5
3AC
100
AcDbEntity
  8
_30_VOLUMEN
100
AcDbLine
 62
7
  6
CONTINUOUS
 10
107.5040414292
 20
124.7433474612
 11
107.5040414292
 21
126.0348655019
  0
LINE
  5
3AD
100
AcDbEntity
  8
_30_VOLUMEN
100
AcDbLine
 62
7
  6
CONTINUOUS
 10
107.587373491
 20
124.6560231797
 11
107.587373491
 21
125.2198387522
  0
LINE
  5
3AE
100
AcDbEntity
  8
_30_VOLUMEN
100
AcDbLine
 62
7
  6
CONTINUOUS
 10
107.587373491
 20
125.5109197721
 11
107.587373491
 21
125.8020007104
  0
LINE
  5
3AF
100
AcDbEntity
  8
_30_VOLUMEN
100
AcDbLine
 62
7
  6
CONTINUOUS
 10
107.7640023856
 20
99.0550573386
 11
107.7640023856
 21
97.588890735
  0
LINE
  5
3B0
100
AcDbEntity
  8
_30_VOLUMEN
100
AcDbLine
 62
7
  6
CONTINUOUS
 10
107.837373491
 20
124.5395908044
 11
107.837373491
 21
125.1034063768
  0
LINE
  5
3B1
100
AcDbEntity
  8
_30_VOLUMEN
100
AcDbLine
 62
7
  6
CONTINUOUS
 10
107.837373491
 20
125.6273521474
 11
107.837373491
 21
125.6855683351
  0
LINE
  5
3B2
100
AcDbEntity
  8
_30_VOLUMEN
100
AcDbLine
 62
7
  6
CONTINUOUS
 10
108.0040414292
 20
125.3362712091
 11
108.0040414292
 21
125.3944873967
  0
LINE
  5
3B3
100
AcDbEntity
  8
_30_VOLUMEN
100
AcDbLine
 62
7
  6
CONTINUOUS
 10
108.0040414292
 20
125.9184331265
 11
108.0040414292
 21
126.005757408
  0
LINE
  5
3B4
100
AcDbEntity
  8
_30_VOLUMEN
100
AcDbLine
 62
7
  6
CONTINUOUS
 10
108.087373491
 20
125.248946846
 11
108.087373491
 21
125.4818116782
  0
LINE
  5
3B5
100
AcDbEntity
  8
_30_VOLUMEN
100
AcDbLine
 62
7
  6
CONTINUOUS
 10
108.087373491
 20
125.8311088042
 11
108.087373491
 21
126.0930816895
  0
LINE
  5
3B6
100
AcDbEntity
  8
_30_VOLUMEN
100
AcDbLine
 62
7
  6
CONTINUOUS
 10
108.1707093675
 20
124.4522665229
 11
108.1707093675
 21
125.0160820953
  0
LINE
  5
3B7
100
AcDbEntity
  8
_30_VOLUMEN
100
AcDbLine
 62
7
  6
CONTINUOUS
 10
108.2540414292
 20
125.1907306583
 11
108.2540414292
 21
125.5400278659
  0
LINE
  5
3B8
100
AcDbEntity
  8
_30_VOLUMEN
100
AcDbLine
 62
7
  6
CONTINUOUS
 10
108.2540414292
 20
125.7728926166
 11
108.2540414292
 21
126.1512978976
  0
LINE
  5
3B9
100
AcDbEntity
  8
_30_VOLUMEN
100
AcDbLine
 62
7
  6
CONTINUOUS
 10
108.264002624
 20
97.588890735
 11
108.264002624
 21
99.0550573386
  0
LINE
  5
3BA
100
AcDbEntity
  8
_30_VOLUMEN
100
AcDbLine
 62
7
  6
CONTINUOUS
 10
108.3473356394
 20
98.0362739321
 11
108.3473356394
 21
97.4724583596
  0
LINE
  5
3BB
100
AcDbEntity
  8
_30_VOLUMEN
100
AcDbLine
 62
7
  6
CONTINUOUS
 10
108.5040414292
 20
125.1616225645
 11
108.5040414292
 21
125.5691359597
  0
LINE
  5
3BC
100
AcDbEntity
  8
_30_VOLUMEN
100
AcDbLine
 62
7
  6
CONTINUOUS
 10
108.5040414292
 20
125.7437845227
 11
108.5040414292
 21
126.1804059914
  0
LINE
  5
3BD
100
AcDbEntity
  8
_30_VOLUMEN
100
AcDbLine
 62
7
  6
CONTINUOUS
 10
108.514002624
 20
97.9489496506
 11
108.514002624
 21
97.3851340781
  0
LINE
  5
3BE
100
AcDbEntity
  8
_30_VOLUMEN
100
AcDbLine
 62
7
  6
CONTINUOUS
 10
108.587373491
 20
124.423158429
 11
108.587373491
 21
124.9869740015
  0
LINE
  5
3BF
100
AcDbEntity
  8
_30_VOLUMEN
100
AcDbLine
 62
7
  6
CONTINUOUS
 10
108.764002624
 20
97.8907334425
 11
108.764002624
 21
97.3269178701
  0
LINE
  5
3C0
100
AcDbEntity
  8
_30_VOLUMEN
100
AcDbLine
 62
7
  6
CONTINUOUS
 10
109.0973356394
 20
97.8616253487
 11
109.0973356394
 21
97.2978097762
  0
LINE
  5
3C1
100
AcDbEntity
  8
_30_VOLUMEN
100
AcDbLine
 62
7
  6
CONTINUOUS
 10
109.4306691317
 20
97.8616253487
 11
109.4306691317
 21
97.2978097762
  0
LINE
  5
3C2
100
AcDbEntity
  8
_30_VOLUMEN
100
AcDbLine
 62
7
  6
CONTINUOUS
 10
109.764002624
 20
97.8907334425
 11
109.764002624
 21
97.3269178701
  0
LINE
  5
3C3
100
AcDbEntity
  8
_30_VOLUMEN
100
AcDbLine
 62
7
  6
CONTINUOUS
 10
110.014002624
 20
97.9489496506
 11
110.014002624
 21
97.3851340781
  0
LINE
  5
3C4
100
AcDbEntity
  8
_30_VOLUMEN
100
AcDbLine
 62
7
  6
CONTINUOUS
 10
110.087373491
 20
126.1804059914
 11
110.087373491
 21
125.7437845227
  0
LINE
  5
3C5
100
AcDbEntity
  8
_30_VOLUMEN
100
AcDbLine
 62
7
  6
CONTINUOUS
 10
110.087373491
 20
125.5691359597
 11
110.087373491
 21
125.1616225645
  0
LINE
  5
3C6
100
AcDbEntity
  8
_30_VOLUMEN
100
AcDbLine
 62
7
  6
CONTINUOUS
 10
110.1806691317
 20
98.0362739321
 11
110.1806691317
 21
97.4724583596
  0
LINE
  5
3C7
100
AcDbEntity
  8
_30_VOLUMEN
100
AcDbLine
 62
7
  6
CONTINUOUS
 10
110.264002624
 20
99.0550573386
 11
110.264002624
 21
97.588890735
  0
LINE
  5
3C8
100
AcDbEntity
  8
_30_VOLUMEN
100
AcDbLine
 62
7
  6
CONTINUOUS
 10
110.587373491
 20
124.423158429
 11
110.587373491
 21
126.3550545748
  0
LINE
  5
3C9
100
AcDbEntity
  8
_30_VOLUMEN
100
AcDbLine
 62
7
  6
CONTINUOUS
 10
110.764002624
 20
97.588890735
 11
110.764002624
 21
99.0550573386
  0
LINE
  5
3CA
100
AcDbEntity
  8
_30_VOLUMEN
100
AcDbLine
 62
7
  6
CONTINUOUS
 10
114.087373491
 20
126.3550545748
 11
113.7540414292
 21
126.005757408
  0
LINE
  5
3CB
100
AcDbEntity
  8
_30_VOLUMEN
100
AcDbLine
 62
7
  6
CONTINUOUS
 10
113.6707093675
 20
125.8893250327
 11
112.9207093675
 21
125.1034063768
  0
LINE
  5
3CC
100
AcDbEntity
  8
_30_VOLUMEN
100
AcDbLine
 62
7
  6
CONTINUOUS
 10
113.2540414292
 20
124.9869740015
 11
114.587373491
 21
126.3550545748
  0
LINE
  5
3CD
100
AcDbEntity
  8
_30_VOLUMEN
100
AcDbLine
 62
7
  6
CONTINUOUS
 10
113.2540414292
 20
124.423158429
 11
114.587373491
 21
125.7912390023
  0
LINE
  5
3CE
100
AcDbEntity
  8
_30_VOLUMEN
100
AcDbLine
 62
7
  6
CONTINUOUS
 10
107.837373491
 20
126.2386221893
 11
107.587373491
 21
126.1221898037
  0
LINE
  5
3CF
100
AcDbEntity
  8
_30_VOLUMEN
100
AcDbLine
 62
7
  6
CONTINUOUS
 10
107.837373491
 20
125.6273521474
 11
107.587373491
 21
125.5109197721
  0
LINE
  5
3D0
100
AcDbEntity
  8
_30_VOLUMEN
100
AcDbLine
 62
7
  6
CONTINUOUS
 10
108.087373491
 20
126.0930816895
 11
108.2540414292
 21
126.1512978976
  0
LINE
  5
3D1
100
AcDbEntity
  8
_30_VOLUMEN
100
AcDbLine
 62
7
  6
CONTINUOUS
 10
108.087373491
 20
125.4818116782
 11
108.2540414292
 21
125.5400278659
  0
LINE
  5
3D2
100
AcDbEntity
  8
_30_VOLUMEN
100
AcDbLine
 62
7
  6
CONTINUOUS
 10
108.014002624
 20
97.3269178701
 11
108.3473356394
 21
97.2104854845
  0
LINE
  5
3D3
100
AcDbEntity
  8
_30_VOLUMEN
100
AcDbLine
 62
7
  6
CONTINUOUS
 10
106.2640023856
 20
98.3165932031
 11
106.4306691317
 21
98.2583770155
  0
LINE
  5
3D4
100
AcDbEntity
  8
_30_VOLUMEN
100
AcDbLine
 62
7
  6
CONTINUOUS
 10
106.9306691317
 20
98.2583770155
 11
106.6806691317
 21
98.3748093908
  0
LINE
  5
3D5
100
AcDbEntity
  8
_30_VOLUMEN
100
AcDbLine
 62
7
  6
CONTINUOUS
 10
106.9306691317
 20
98.8221925879
 11
106.6806691317
 21
98.9386249633
  0
LINE
  5
3D6
100
AcDbEntity
  8
_30_VOLUMEN
100
AcDbLine
 62
7
  6
CONTINUOUS
 10
108.514002624
 20
97.3851340781
 11
108.3473356394
 21
97.4724583596
  0
LINE
  5
3D7
100
AcDbEntity
  8
_30_VOLUMEN
100
AcDbLine
 62
7
  6
CONTINUOUS
 10
108.514002624
 20
97.9489496506
 11
108.3473356394
 21
98.0362739321
  0
LINE
  5
3D8
100
AcDbEntity
  8
_30_VOLUMEN
100
AcDbLine
 62
7
  6
CONTINUOUS
 10
114.6806691317
 20
98.171052734
 11
114.5140021471
 21
98.2874851093
  0
LINE
  5
3D9
100
AcDbEntity
  8
_30_VOLUMEN
100
AcDbLine
 62
7
  6
CONTINUOUS
 10
114.1806691317
 20
98.1419445586
 11
114.2640021471
 21
98.0255121832
  0
LINE
  5
3DA
100
AcDbEntity
  8
_30_VOLUMEN
100
AcDbLine
 62
7
  6
CONTINUOUS
 10
114.7640021471
 20
98.0255121832
 11
114.6806691317
 21
98.171052734
  0
LINE
  5
3DB
100
AcDbEntity
  8
_30_VOLUMEN
100
AcDbLine
 62
7
  6
CONTINUOUS
 10
114.7640021471
 20
98.5893277557
 11
114.6806691317
 21
98.7348683064
  0
LINE
  5
3DC
100
AcDbEntity
  8
_30_VOLUMEN
100
AcDbLine
 62
7
  6
CONTINUOUS
 10
111.2540414292
 20
125.7912390023
 11
111.2540414292
 21
126.3550545748
  0
LINE
  5
3DD
100
AcDbEntity
  8
_30_VOLUMEN
100
AcDbLine
 62
7
  6
CONTINUOUS
 10
111.4306691317
 20
99.0550573386
 11
111.4306691317
 21
97.1231611928
  0
LINE
  5
3DE
100
AcDbEntity
  8
_30_VOLUMEN
100
AcDbLine
 62
7
  6
CONTINUOUS
 10
111.9306691317
 20
97.2978097762
 11
111.9306691317
 21
98.3165932031
  0
LINE
  5
3DF
100
AcDbEntity
  8
_30_VOLUMEN
100
AcDbLine
 62
7
  6
CONTINUOUS
 10
112.587373491
 20
124.423158429
 11
112.587373491
 21
124.9869740015
  0
LINE
  5
3E0
100
AcDbEntity
  8
_30_VOLUMEN
100
AcDbLine
 62
7
  6
CONTINUOUS
 10
113.2540414292
 20
124.423158429
 11
113.2540414292
 21
124.9869740015
  0
LINE
  5
3E1
100
AcDbEntity
  8
_30_VOLUMEN
100
AcDbLine
 62
7
  6
CONTINUOUS
 10
113.4306691317
 20
99.0550573386
 11
113.4306691317
 21
98.4912417661
  0
LINE
  5
3E2
100
AcDbEntity
  8
_30_VOLUMEN
100
AcDbLine
 62
7
  6
CONTINUOUS
 10
113.4306691317
 20
97.8616253487
 11
113.4306691317
 21
97.2978097762
  0
LINE
  5
3E3
100
AcDbEntity
  8
_30_VOLUMEN
100
AcDbLine
 62
7
  6
CONTINUOUS
 10
113.7640021471
 20
97.8907334425
 11
113.7640021471
 21
97.3269178701
  0
LINE
  5
3E4
100
AcDbEntity
  8
_30_VOLUMEN
100
AcDbLine
 62
7
  6
CONTINUOUS
 10
113.8473361163
 20
99.0259492448
 11
113.8473361163
 21
98.4621336723
  0
LINE
  5
3E5
100
AcDbEntity
  8
_30_VOLUMEN
100
AcDbLine
 62
7
  6
CONTINUOUS
 10
114.0140021471
 20
97.9489496506
 11
114.0140021471
 21
97.3851340781
  0
LINE
  5
3E6
100
AcDbEntity
  8
_30_VOLUMEN
100
AcDbLine
 62
7
  6
CONTINUOUS
 10
114.1806691317
 20
98.9677330571
 11
114.1806691317
 21
98.4039174846
  0
LINE
  5
3E7
100
AcDbEntity
  8
_30_VOLUMEN
100
AcDbLine
 62
7
  6
CONTINUOUS
 10
114.1806691317
 20
98.0362739321
 11
114.1806691317
 21
97.4724583596
  0
LINE
  5
3E8
100
AcDbEntity
  8
_30_VOLUMEN
100
AcDbLine
 62
7
  6
CONTINUOUS
 10
114.2640021471
 20
98.0255121832
 11
114.2640021471
 21
97.588890735
  0
LWPOLYLINE
  5
3E9
100
AcDbEntity
  8
BEZUGSACHSEN
100
AcDbPolyline
 62
7
  6
CONTINUOUS
 90
20
 70
0
 10
102.9459102032
 20
119.7810849219
 10
102.8906544372
 20
119.7605379222
 10
102.7839909731
 20
119.7169051762
 10
102.6756050687
 20
119.6668707365
 10
102.5658922051
 20
119.6099051755
 10
102.4555856348
 20
119.5456546345
 10
102.3453925869
 20
119.47379153
 10
102.2358070886
 20
119.3938576373
 10
102.1274700652
 20
119.3054672211
 10
102.0211308762
 20
119.2083057515
 10
101.9176699604
 20
119.1021824617
 10
101.8180523433
 20
118.9870292411
 10
101.7232071579
 20
118.8627796444
 10
101.6341181904
 20
118.7294664975
 10
101.5518720799
 20
118.5873436122
 10
101.4774892853
 20
118.4366535594
 10
101.4120000451
 20
118.2777300529
 10
101.356485689
 20
118.1111571446
 10
101.3119683006
 20
117.9375610142
 10
101.297694808
 20
117.8675425252
  0
LINE
  5
3EA
100
AcDbEntity
  8
_30_VOLUMEN
100
AcDbLine
 62
7
  6
CONTINUOUS
 10
102.9493095738
 20
119.7823053196
 11
102.9459102032
 21
119.7810849219
  0
LINE
  5
3EB
100
AcDbEntity
  8
_30_VOLUMEN
100
AcDbLine
 62
7
  6
CONTINUOUS
 10
108.3473356394
 20
97.2104854845
 11
108.6806691317
 21
97.1522692892
  0
LINE
  5
3EC
100
AcDbEntity
  8
_30_VOLUMEN
100
AcDbLine
 62
7
  6
CONTINUOUS
 10
108.764002624
 20
97.3269178701
 11
108.514002624
 21
97.3851340781
  0
LINE
  5
3ED
100
AcDbEntity
  8
_30_VOLUMEN
100
AcDbLine
 62
7
  6
CONTINUOUS
 10
108.764002624
 20
97.8907334425
 11
108.514002624
 21
97.9489496506
  0
LINE
  5
3EE
100
AcDbEntity
  8
_30_VOLUMEN
100
AcDbLine
 62
7
  6
CONTINUOUS
 10
113.7640021471
 20
98.2874851093
 11
114.0140021471
 21
98.2292689216
  0
LINE
  5
3EF
100
AcDbEntity
  8
_30_VOLUMEN
100
AcDbLine
 62
7
  6
CONTINUOUS
 10
106.6806691317
 20
98.3748093908
 11
106.3473358778
 21
98.4621336723
  0
LINE
  5
3F0
100
AcDbEntity
  8
_30_VOLUMEN
100
AcDbLine
 62
7
  6
CONTINUOUS
 10
106.6806691317
 20
98.9386249633
 11
106.3473358778
 21
99.0259492448
  0
LINE
  5
3F1
100
AcDbEntity
  8
_30_VOLUMEN
100
AcDbLine
 62
7
  6
CONTINUOUS
 10
114.5140021471
 20
98.2874851093
 11
114.1806691317
 21
98.4039174846
  0
LINE
  5
3F2
100
AcDbEntity
  8
_30_VOLUMEN
100
AcDbLine
 62
7
  6
CONTINUOUS
 10
114.5140021471
 20
98.8513006818
 11
114.1806691317
 21
98.9677330571
  0
LINE
  5
3F3
100
AcDbEntity
  8
_30_VOLUMEN
100
AcDbLine
 62
7
  6
CONTINUOUS
 10
102.9493086078
 20
103.6959107939
 11
102.9458786956
 21
103.6971421881
  0
LWPOLYLINE
  5
3F4
100
AcDbEntity
  8
BEZUGSACHSEN
100
AcDbPolyline
 62
7
  6
CONTINUOUS
 90
10
 70
0
 10
102.9493075099
 20
103.6959077361
 10
102.9921998944
 20
103.679435953
 10
103.0564184119
 20
103.6509730684
 10
103.1241810443
 20
103.6164454181
 10
103.1943460305
 20
103.5762470864
 10
103.2668738143
 20
103.5302780133
 10
103.3432264692
 20
103.4773194581
 10
103.4238147047
 20
103.4165919621
 10
103.5076382312
 20
103.3483733188
 10
103.5569633003
 20
103.3058913675
  0
LINE
  5
3F5
100
AcDbEntity
  8
_30_VOLUMEN
100
AcDbLine
 62
7
  6
CONTINUOUS
 10
114.0140021471
 20
98.2292689216
 11
114.1806691317
 21
98.1419445586
  0
LINE
  5
3F6
100
AcDbEntity
  8
_30_VOLUMEN
100
AcDbLine
 62
7
  6
CONTINUOUS
 10
114.6806691317
 20
98.7348683064
 11
114.5140021471
 21
98.8513006818
  0
LINE
  5
3F7
100
AcDbEntity
  8
_30_VOLUMEN
100
AcDbLine
 62
7
  6
CONTINUOUS
 10
114.5140021471
 20
98.8513006818
 11
114.5140021471
 21
98.2874851093
  0
LINE
  5
3F8
100
AcDbEntity
  8
_30_VOLUMEN
100
AcDbLine
 62
7
  6
CONTINUOUS
 10
114.587373491
 20
125.7912390023
 11
114.587373491
 21
126.3550545748
  0
LINE
  5
3F9
100
AcDbEntity
  8
_30_VOLUMEN
100
AcDbLine
 62
7
  6
CONTINUOUS
 10
114.6806691317
 20
98.7348683064
 11
114.6806691317
 21
98.171052734
  0
LINE
  5
3FA
100
AcDbEntity
  8
_30_VOLUMEN
100
AcDbLine
 62
7
  6
CONTINUOUS
 10
114.7640021471
 20
97.588890735
 11
114.7640021471
 21
98.5893277557
  0
LINE
  5
3FB
100
AcDbEntity
  8
RUNDUNGEN
100
AcDbLine
 62
7
  6
CONTINUOUS
 10
179.3138099531
 20
96.7391078838
 11
83.3138099531
 21
96.7391078838
  0
LINE
  5
3FC
100
AcDbEntity
  8
_30_VOLUMEN
100
AcDbLine
 62
7
  6
CONTINUOUS
 10
103.9306691317
 20
97.1231611928
 11
104.4306691317
 21
97.1231611928
  0
LINE
  5
3FD
100
AcDbEntity
  8
_30_VOLUMEN
100
AcDbLine
 62
7
  6
CONTINUOUS
 10
106.5140023856
 20
97.1231611928
 11
107.0973358778
 21
97.1231611928
  0
LINE
  5
3FE
100
AcDbEntity
  8
_30_VOLUMEN
100
AcDbLine
 62
7
  6
CONTINUOUS
 10
109.0973356394
 20
97.1231611928
 11
109.4306691317
 21
97.1231611928
  0
LINE
  5
3FF
100
AcDbEntity
  8
_30_VOLUMEN
100
AcDbLine
 62
7
  6
CONTINUOUS
 10
111.4306691317
 20
97.1231611928
 11
113.4306691317
 21
97.1231611928
  0
LINE
  5
400
100
AcDbEntity
  8
_30_VOLUMEN
100
AcDbLine
 62
7
  6
CONTINUOUS
 10
113.4306691317
 20
97.2978097762
 11
111.9306691317
 21
97.2978097762
  0
LINE
  5
401
100
AcDbEntity
  8
_30_VOLUMEN
100
AcDbLine
 62
7
  6
CONTINUOUS
 10
109.4306691317
 20
97.2978097762
 11
109.0973356394
 21
97.2978097762
  0
LINE
  5
402
100
AcDbEntity
  8
_30_VOLUMEN
100
AcDbLine
 62
7
  6
CONTINUOUS
 10
104.4306691317
 20
97.7344312449
 11
105.8473357586
 21
97.7344312449
  0
LINE
  5
403
100
AcDbEntity
  8
_30_VOLUMEN
100
AcDbLine
 62
7
  6
CONTINUOUS
 10
113.4306691317
 20
97.8616253487
 11
111.9306691317
 21
97.8616253487
  0
LINE
  5
404
100
AcDbEntity
  8
_30_VOLUMEN
100
AcDbLine
 62
7
  6
CONTINUOUS
 10
109.4306691317
 20
97.8616253487
 11
109.0973356394
 21
97.8616253487
  0
LINE
  5
405
100
AcDbEntity
  8
_30_VOLUMEN
100
AcDbLine
 62
7
  6
CONTINUOUS
 10
106.0140023856
 20
97.9090798079
 11
104.4306691317
 21
97.9090798079
  0
LINE
  5
406
100
AcDbEntity
  8
_30_VOLUMEN
100
AcDbLine
 62
7
  6
CONTINUOUS
 10
108.6806691317
 20
97.1522692892
 11
109.0973356394
 21
97.1231611928
  0
LINE
  5
407
100
AcDbEntity
  8
_30_VOLUMEN
100
AcDbLine
 62
7
  6
CONTINUOUS
 10
106.3473358778
 20
98.4621336723
 11
105.9306691317
 21
98.4912417661
  0
LINE
  5
408
100
AcDbEntity
  8
_30_VOLUMEN
100
AcDbLine
 62
7
  6
CONTINUOUS
 10
113.8473361163
 20
98.4621336723
 11
113.4306691317
 21
98.4912417661
  0
LINE
  5
409
100
AcDbEntity
  8
_30_VOLUMEN
100
AcDbLine
 62
7
  6
CONTINUOUS
 10
106.3473358778
 20
99.0259492448
 11
105.9306691317
 21
99.0550573386
  0
LINE
  5
40A
100
AcDbEntity
  8
_30_VOLUMEN
100
AcDbLine
 62
7
  6
CONTINUOUS
 10
113.8473361163
 20
99.0259492448
 11
113.4306691317
 21
99.0550573386
  0
LINE
  5
40B
100
AcDbEntity
  8
_30_VOLUMEN
100
AcDbLine
 62
7
  6
CONTINUOUS
 10
109.0973356394
 20
97.2978097762
 11
108.764002624
 21
97.3269178701
  0
LINE
  5
40C
100
AcDbEntity
  8
_30_VOLUMEN
100
AcDbLine
 62
7
  6
CONTINUOUS
 10
109.0973356394
 20
97.8616253487
 11
108.764002624
 21
97.8907334425
  0
LINE
  5
40D
100
AcDbEntity
  8
_30_VOLUMEN
100
AcDbLine
 62
7
  6
CONTINUOUS
 10
113.4306691317
 20
98.3165932031
 11
113.7640021471
 21
98.2874851093
  0
LINE
  5
40E
100
AcDbEntity
  8
_30_VOLUMEN
100
AcDbLine
 62
7
  6
CONTINUOUS
 10
106.0140023856
 20
98.345701297
 11
106.2640023856
 21
98.3165932031
  0
LINE
  5
40F
100
AcDbEntity
  8
_30_VOLUMEN
100
AcDbLine
 62
7
  6
CONTINUOUS
 10
114.1806691317
 20
98.4039174846
 11
113.8473361163
 21
98.4621336723
  0
LINE
  5
410
100
AcDbEntity
  8
_30_VOLUMEN
100
AcDbLine
 62
7
  6
CONTINUOUS
 10
114.1806691317
 20
98.9677330571
 11
113.8473361163
 21
99.0259492448
  0
LINE
  5
411
100
AcDbEntity
  8
_30_VOLUMEN
100
AcDbLine
 62
7
  6
CONTINUOUS
 10
110.6806691317
 20
97.4433502658
 11
110.764002624
 21
97.588890735
  0
LINE
  5
412
100
AcDbEntity
  8
_30_VOLUMEN
100
AcDbLine
 62
7
  6
CONTINUOUS
 10
114.0140021471
 20
97.3851340781
 11
113.7640021471
 21
97.3269178701
  0
LINE
  5
413
100
AcDbEntity
  8
_30_VOLUMEN
100
AcDbLine
 62
7
  6
CONTINUOUS
 10
113.8473361163
 20
97.1522692892
 11
114.1806691317
 21
97.2104854845
  0
LINE
  5
414
100
AcDbEntity
  8
_30_VOLUMEN
100
AcDbLine
 62
7
  6
CONTINUOUS
 10
109.8473356394
 20
97.1522692892
 11
110.1806691317
 21
97.2104854845
  0
LINE
  5
415
100
AcDbEntity
  8
_30_VOLUMEN
100
AcDbLine
 62
7
  6
CONTINUOUS
 10
106.2640023856
 20
97.9381879017
 11
106.0140023856
 21
97.9090798079
  0
LINE
  5
416
100
AcDbEntity
  8
_30_VOLUMEN
100
AcDbLine
 62
7
  6
CONTINUOUS
 10
113.7640021471
 20
97.3269178701
 11
113.4306691317
 21
97.2978097762
  0
LINE
  5
417
100
AcDbEntity
  8
_30_VOLUMEN
100
AcDbLine
 62
7
  6
CONTINUOUS
 10
109.764002624
 20
97.3269178701
 11
109.4306691317
 21
97.2978097762
  0
LINE
  5
418
100
AcDbEntity
  8
_30_VOLUMEN
100
AcDbLine
 62
7
  6
CONTINUOUS
 10
113.7640021471
 20
97.8907334425
 11
113.4306691317
 21
97.8616253487
  0
LINE
  5
419
100
AcDbEntity
  8
_30_VOLUMEN
100
AcDbLine
 62
7
  6
CONTINUOUS
 10
109.764002624
 20
97.8907334425
 11
109.4306691317
 21
97.8616253487
  0
LINE
  5
41A
100
AcDbEntity
  8
_30_VOLUMEN
100
AcDbLine
 62
7
  6
CONTINUOUS
 10
113.4306691317
 20
97.1231611928
 11
113.8473361163
 21
97.1522692892
  0
LINE
  5
41B
100
AcDbEntity
  8
_30_VOLUMEN
100
AcDbLine
 62
7
  6
CONTINUOUS
 10
109.4306691317
 20
97.1231611928
 11
109.8473356394
 21
97.1522692892
  0
LINE
  5
41C
100
AcDbEntity
  8
_30_VOLUMEN
100
AcDbLine
 62
7
  6
CONTINUOUS
 10
111.9306691317
 20
98.3165932031
 11
113.4306691317
 21
98.3165932031
  0
LINE
  5
41D
100
AcDbEntity
  8
_30_VOLUMEN
100
AcDbLine
 62
7
  6
CONTINUOUS
 10
104.4306691317
 20
98.345701297
 11
106.0140023856
 21
98.345701297
  0
LINE
  5
41E
100
AcDbEntity
  8
_30_VOLUMEN
100
AcDbLine
 62
7
  6
CONTINUOUS
 10
113.4306691317
 20
98.4912417661
 11
111.4306691317
 21
98.4912417661
  0
LINE
  5
41F
100
AcDbEntity
  8
_30_VOLUMEN
100
AcDbLine
 62
7
  6
CONTINUOUS
 10
110.764002624
 20
98.4912417661
 11
110.264002624
 21
98.4912417661
  0
LINE
  5
420
100
AcDbEntity
  8
_30_VOLUMEN
100
AcDbLine
 62
7
  6
CONTINUOUS
 10
108.264002624
 20
98.4912417661
 11
107.7640023856
 21
98.4912417661
  0
LINE
  5
421
100
AcDbEntity
  8
_30_VOLUMEN
100
AcDbLine
 62
7
  6
CONTINUOUS
 10
105.9306691317
 20
98.4912417661
 11
103.9306691317
 21
98.4912417661
  0
LINE
  5
422
100
AcDbEntity
  8
_30_VOLUMEN
100
AcDbLine
 62
7
  6
CONTINUOUS
 10
113.4306691317
 20
99.0550573386
 11
111.4306691317
 21
99.0550573386
  0
LINE
  5
423
100
AcDbEntity
  8
_30_VOLUMEN
100
AcDbLine
 62
7
  6
CONTINUOUS
 10
110.764002624
 20
99.0550573386
 11
110.264002624
 21
99.0550573386
  0
LINE
  5
424
100
AcDbEntity
  8
_30_VOLUMEN
100
AcDbLine
 62
7
  6
CONTINUOUS
 10
108.264002624
 20
99.0550573386
 11
107.7640023856
 21
99.0550573386
  0
LINE
  5
425
100
AcDbEntity
  8
_30_VOLUMEN
100
AcDbLine
 62
7
  6
CONTINUOUS
 10
105.9306691317
 20
99.0550573386
 11
103.9306691317
 21
99.0550573386
  0
LINE
  5
426
100
AcDbEntity
  8
_30_VOLUMEN
100
AcDbLine
 62
7
  6
CONTINUOUS
 10
99.6540772341
 20
107.2130855326
 11
99.8127824912
 21
107.1805848919
  0
LWPOLYLINE
  5
427
100
AcDbEntity
  8
_30_VOLUMEN
100
AcDbPolyline
 62
7
  6
CONTINUOUS
 90
15
 70
0
 10
99.8127824912
 20
107.1805848919
 10
99.9683373283
 20
107.1353461769
 10
100.1197211771
 20
107.0776660249
 10
100.2659409343
 20
107.007922621
 10
100.4060373648
 20
106.9265732196
 10
100.5390909164
 20
106.8341514845
 10
100.6642280328
 20
106.7312640247
 10
100.7806275552
 20
106.6185859037
 10
100.8875257495
 20
106.4968563403
 10
100.9842209509
 20
106.3668742995
 10
101.0700787199
 20
106.2294926425
 10
101.1445357235
 20
106.085612784
 10
101.2071033031
 20
105.9361791274
 10
101.2573709955
 20
105.7821723125
 10
101.2976951276
 20
105.6106675179
  0
LINE
  5
428
100
AcDbEntity
  8
_30_VOLUMEN
100
AcDbLine
 62
7
  6
CONTINUOUS
 10
103.5040414292
 20
125.7912390023
 11
104.837373491
 21
124.423158429
  0
LINE
  5
429
100
AcDbEntity
  8
_30_VOLUMEN
100
AcDbLine
 62
7
  6
CONTINUOUS
 10
114.6806691317
 20
97.4433502658
 11
114.7640021471
 21
97.588890735
  0
LINE
  5
42A
100
AcDbEntity
  8
_30_VOLUMEN
100
AcDbLine
 62
7
  6
CONTINUOUS
 10
110.264002624
 20
98.1527063074
 11
110.1806691317
 21
98.0362739321
  0
LINE
  5
42B
100
AcDbEntity
  8
_30_VOLUMEN
100
AcDbLine
 62
7
  6
CONTINUOUS
 10
110.264002624
 20
97.588890735
 11
110.1806691317
 21
97.4724583596
  0
LINE
  5
42C
100
AcDbEntity
  8
_30_VOLUMEN
100
AcDbLine
 62
7
  6
CONTINUOUS
 10
106.5140023856
 20
98.0837283709
 11
106.4306691317
 21
97.9964040894
  0
LINE
  5
42D
100
AcDbEntity
  8
_30_VOLUMEN
100
AcDbLine
 62
7
  6
CONTINUOUS
 10
106.9306691317
 20
97.9672959956
 11
107.0140023856
 21
98.0546202771
  0
LINE
  5
42E
100
AcDbEntity
  8
_30_VOLUMEN
100
AcDbLine
 62
7
  6
CONTINUOUS
 10
151.8373749215
 20
126.2677302831
 11
151.5040414292
 21
126.1512978976
  0
LINE
  5
42F
100
AcDbEntity
  8
_30_VOLUMEN
100
AcDbLine
 62
7
  6
CONTINUOUS
 10
114.0140021471
 20
97.9489496506
 11
113.7640021471
 21
97.8907334425
  0
LINE
  5
430
100
AcDbEntity
  8
_30_VOLUMEN
100
AcDbLine
 62
7
  6
CONTINUOUS
 10
110.014002624
 20
97.3851340781
 11
109.764002624
 21
97.3269178701
  0
LINE
  5
431
100
AcDbEntity
  8
_30_VOLUMEN
100
AcDbLine
 62
7
  6
CONTINUOUS
 10
110.014002624
 20
97.9489496506
 11
109.764002624
 21
97.8907334425
  0
LINE
  5
432
100
AcDbEntity
  8
_30_VOLUMEN
100
AcDbLine
 62
7
  6
CONTINUOUS
 10
106.3473358778
 20
97.7926474326
 11
106.6806691317
 21
97.8508636202
  0
LINE
  5
433
100
AcDbEntity
  8
BEZUGSACHSEN
100
AcDbLine
 62
7
  6
CONTINUOUS
 10
104.6975006615
 20
103.7391078838
 11
111.9882966187
 21
103.7391078838
  0
LINE
  5
434
100
AcDbEntity
  8
RUNDUNGEN
100
AcDbLine
 62
7
  6
CONTINUOUS
 10
111.9882966187
 20
103.7391078838
 11
157.9301192447
 21
103.7391078838
  0
LINE
  5
435
100
AcDbEntity
  8
_30_VOLUMEN
100
AcDbLine
 62
7
  6
CONTINUOUS
 10
103.5040414292
 20
126.3550545748
 11
104.837373491
 21
124.9869740015
  0
LINE
  5
436
100
AcDbEntity
  8
_30_VOLUMEN
100
AcDbLine
 62
7
  6
CONTINUOUS
 10
105.1707093675
 20
125.1034063768
 11
104.4207093675
 21
125.8893250327
  0
LINE
  5
437
100
AcDbEntity
  8
_30_VOLUMEN
100
AcDbLine
 62
7
  6
CONTINUOUS
 10
104.337373491
 20
126.005757408
 11
104.0040414292
 21
126.3550545748
  0
LINE
  5
438
100
AcDbEntity
  8
_30_VOLUMEN
100
AcDbLine
 62
7
  6
CONTINUOUS
 10
107.5040414292
 20
124.7433474612
 11
107.587373491
 21
124.6560231797
  0
LINE
  5
439
100
AcDbEntity
  8
_30_VOLUMEN
100
AcDbLine
 62
7
  6
CONTINUOUS
 10
107.5040414292
 20
125.3071630337
 11
107.587373491
 21
125.2198387522
  0
LINE
  5
43A
100
AcDbEntity
  8
_30_VOLUMEN
100
AcDbLine
 62
7
  6
CONTINUOUS
 10
108.087373491
 20
125.248946846
 11
108.0040414292
 21
125.3362712091
  0
LINE
  5
43B
100
AcDbEntity
  8
_30_VOLUMEN
100
AcDbLine
 62
7
  6
CONTINUOUS
 10
107.5040414292
 20
125.8893250327
 11
107.587373491
 21
125.8020007104
  0
LINE
  5
43C
100
AcDbEntity
  8
_30_VOLUMEN
100
AcDbLine
 62
7
  6
CONTINUOUS
 10
108.087373491
 20
125.8311088042
 11
108.0040414292
 21
125.9184331265
  0
LINE
  5
43D
100
AcDbEntity
  8
_30_VOLUMEN
100
AcDbLine
 62
7
  6
CONTINUOUS
 10
114.2184844383
 20
98.0891092453
 11
114.1806691317
 21
98.0362739321
  0
LINE
  5
43E
100
AcDbEntity
  8
_30_VOLUMEN
100
AcDbLine
 62
7
  6
CONTINUOUS
 10
114.2640021471
 20
97.588890735
 11
114.1806691317
 21
97.4724583596
  0
LINE
  5
43F
100
AcDbEntity
  8
_30_VOLUMEN
100
AcDbLine
 62
7
  6
CONTINUOUS
 10
151.8373749215
 20
126.005757408
 11
152.0040414292
 21
126.0930816895
  0
LINE
  5
440
100
AcDbEntity
  8
_30_VOLUMEN
100
AcDbLine
 62
7
  6
CONTINUOUS
 10
149.1707084138
 20
125.6564602412
 11
150.5873744447
 21
126.3550545748
  0
LINE
  5
441
100
AcDbEntity
  8
_30_VOLUMEN
100
AcDbLine
 62
7
  6
CONTINUOUS
 10
149.7545471034
 20
125.3805504923
 11
150.5873744447
 21
125.7912390023
  0
LINE
  5
442
100
AcDbEntity
  8
_30_VOLUMEN
100
AcDbLine
 62
7
  6
CONTINUOUS
 10
150.0873744447
 20
126.3550545748
 11
148.9207084138
 21
125.8020007104
  0
LINE
  5
443
100
AcDbEntity
  8
_30_VOLUMEN
100
AcDbLine
 62
7
  6
CONTINUOUS
 10
147.7540414292
 20
124.9869740015
 11
148.9207084138
 21
125.5400278659
  0
LINE
  5
444
100
AcDbEntity
  8
_30_VOLUMEN
100
AcDbLine
 62
7
  6
CONTINUOUS
 10
147.7540414292
 20
124.423158429
 11
148.9207084138
 21
124.9762122934
  0
LINE
  5
445
100
AcDbEntity
  8
_30_VOLUMEN
100
AcDbLine
 62
7
  6
CONTINUOUS
 10
148.6707084138
 20
125.6564602412
 11
147.2540414292
 21
124.9869740015
  0
LINE
  5
446
100
AcDbEntity
  8
_30_VOLUMEN
100
AcDbLine
 62
7
  6
CONTINUOUS
 10
154.0040414292
 20
125.074298283
 11
154.3373749215
 21
125.1907306583
  0
LINE
  5
447
100
AcDbEntity
  8
_30_VOLUMEN
100
AcDbLine
 62
7
  6
CONTINUOUS
 10
154.0040414292
 20
124.5104827105
 11
154.3373749215
 21
124.6269150859
  0
LINE
  5
448
100
AcDbEntity
  8
0
100
AcDbLine
 62
7
  6
CONTINUOUS
 10
172.0623948507
 20
106.6391078838
 11
164.5117049724
 21
106.6391078838
  0
LINE
  5
449
100
AcDbEntity
  8
0
100
AcDbLine
 62
7
  6
CONTINUOUS
 10
98.950605007
 20
106.6391078838
 11
89.9616486608
 21
106.6391078838
  0
LINE
  5
44A
100
AcDbEntity
  8
_30_VOLUMEN
100
AcDbLine
 62
7
  6
CONTINUOUS
 10
178.5559750352
 20
107.2391078838
 11
177.8623041095
 21
107.2391078838
  0
LINE
  5
44B
100
AcDbEntity
  8
RUNDUNGEN
100
AcDbLine
 62
7
  6
CONTINUOUS
 10
177.8623041095
 20
107.2391078838
 11
171.548763594
 21
107.2391078838
  0
LINE
  5
44C
100
AcDbEntity
  8
_30_VOLUMEN
100
AcDbLine
 62
7
  6
CONTINUOUS
 10
171.548763594
 20
107.2391078838
 11
135.7147097782
 21
107.2391078838
  0
LINE
  5
44D
100
AcDbEntity
  8
_30_VOLUMEN
100
AcDbLine
 62
7
  6
CONTINUOUS
 10
126.9129101405
 20
107.2391078838
 11
91.0788563122
 21
107.2391078838
  0
LINE
  5
44E
100
AcDbEntity
  8
RUNDUNGEN
100
AcDbLine
 62
7
  6
CONTINUOUS
 10
91.0788563122
 20
107.2391078838
 11
84.7653157967
 21
107.2391078838
  0
LINE
  5
44F
100
AcDbEntity
  8
_30_VOLUMEN
100
AcDbLine
 62
7
  6
CONTINUOUS
 10
84.7653157967
 20
107.2391078838
 11
84.0716448819
 21
107.2391078838
  0
LWPOLYLINE
  5
450
100
AcDbEntity
  8
_30_VOLUMEN
100
AcDbPolyline
 62
7
  6
CONTINUOUS
 90
3
 70
0
 10
99.3325139495
 20
107.2391055323
 10
99.4932629163
 20
107.2326350066
 10
99.6540772341
 20
107.2130855326
  0
LINE
  5
451
100
AcDbEntity
  8
_30_VOLUMEN
100
AcDbLine
 62
7
  6
CONTINUOUS
 10
111.2540414292
 20
125.7912390023
 11
112.587373491
 21
124.423158429
  0
LINE
  5
452
100
AcDbEntity
  8
_30_VOLUMEN
100
AcDbLine
 62
7
  6
CONTINUOUS
 10
111.2540414292
 20
126.3550545748
 11
112.587373491
 21
124.9869740015
  0
LINE
  5
453
100
AcDbEntity
  8
_30_VOLUMEN
100
AcDbLine
 62
7
  6
CONTINUOUS
 10
112.9207093675
 20
125.1034063768
 11
112.1707093675
 21
125.8893250327
  0
LINE
  5
454
100
AcDbEntity
  8
_30_VOLUMEN
100
AcDbLine
 62
7
  6
CONTINUOUS
 10
112.087373491
 20
126.005757408
 11
111.7540414292
 21
126.3550545748
  0
LINE
  5
455
100
AcDbEntity
  8
_30_VOLUMEN
100
AcDbLine
 62
7
  6
CONTINUOUS
 10
151.5040414292
 20
126.1512978976
 11
151.3373744447
 21
126.0348655019
  0
LINE
  5
456
100
AcDbEntity
  8
_30_VOLUMEN
100
AcDbLine
 62
7
  6
CONTINUOUS
 10
110.514002624
 20
97.3269178701
 11
110.6806691317
 21
97.4433502658
  0
LINE
  5
457
100
AcDbEntity
  8
_30_VOLUMEN
100
AcDbLine
 62
7
  6
CONTINUOUS
 10
151.8373749215
 20
125.4419418355
 11
152.0040414292
 21
125.5292661171
  0
LINE
  5
458
100
AcDbEntity
  8
_30_VOLUMEN
100
AcDbLine
 62
7
  6
CONTINUOUS
 10
154.0040414292
 20
125.3362712091
 11
153.8373749215
 21
125.248946846
  0
LINE
  5
459
100
AcDbEntity
  8
_30_VOLUMEN
100
AcDbLine
 62
7
  6
CONTINUOUS
 10
154.3373749215
 20
125.1907306583
 11
154.5040414292
 21
125.3071630337
  0
LINE
  5
45A
100
AcDbEntity
  8
_30_VOLUMEN
100
AcDbLine
 62
7
  6
CONTINUOUS
 10
114.5140021471
 20
97.3269178701
 11
114.6806691317
 21
97.4433502658
  0
LINE
  5
45B
100
AcDbEntity
  8
_30_VOLUMEN
100
AcDbLine
 62
7
  6
CONTINUOUS
 10
154.3373749215
 20
124.6269150859
 11
154.5040414292
 21
124.7433474612
  0
LINE
  5
45C
100
AcDbEntity
  8
_30_VOLUMEN
100
AcDbLine
 62
7
  6
CONTINUOUS
 10
110.1806691317
 20
98.0362739321
 11
110.014002624
 21
97.9489496506
  0
LINE
  5
45D
100
AcDbEntity
  8
_30_VOLUMEN
100
AcDbLine
 62
7
  6
CONTINUOUS
 10
110.1806691317
 20
97.4724583596
 11
110.014002624
 21
97.3851340781
  0
LINE
  5
45E
100
AcDbEntity
  8
_30_VOLUMEN
100
AcDbLine
 62
7
  6
CONTINUOUS
 10
106.6806691317
 20
97.8508636202
 11
106.9306691317
 21
97.9672959956
  0
LINE
  5
45F
100
AcDbEntity
  8
_30_VOLUMEN
100
AcDbLine
 62
7
  6
CONTINUOUS
 10
107.587373491
 20
124.6560231797
 11
107.837373491
 21
124.5395908044
  0
LINE
  5
460
100
AcDbEntity
  8
_30_VOLUMEN
100
AcDbLine
 62
7
  6
CONTINUOUS
 10
107.587373491
 20
125.2198387522
 11
107.837373491
 21
125.1034063768
  0
LINE
  5
461
100
AcDbEntity
  8
_30_VOLUMEN
100
AcDbLine
 62
7
  6
CONTINUOUS
 10
107.587373491
 20
125.8020007104
 11
107.837373491
 21
125.6855683351
  0
LINE
  5
462
100
AcDbEntity
  8
_30_VOLUMEN
100
AcDbLine
 62
7
  6
CONTINUOUS
 10
114.1806691317
 20
98.0362739321
 11
114.0140021471
 21
97.9489496506
  0
LINE
  5
463
100
AcDbEntity
  8
_30_VOLUMEN
100
AcDbLine
 62
7
  6
CONTINUOUS
 10
114.1806691317
 20
97.4724583596
 11
114.0140021471
 21
97.3851340781
  0
LINE
  5
464
100
AcDbEntity
  8
_30_VOLUMEN
100
AcDbLine
 62
7
  6
CONTINUOUS
 10
106.4306691317
 20
97.9964040894
 11
106.2640023856
 21
97.9381879017
  0
LINE
  5
465
100
AcDbEntity
  8
_30_VOLUMEN
100
AcDbLine
 62
7
  6
CONTINUOUS
 10
110.1806691317
 20
97.2104854845
 11
110.514002624
 21
97.3269178701
  0
LINE
  5
466
100
AcDbEntity
  8
_30_VOLUMEN
100
AcDbLine
 62
7
  6
CONTINUOUS
 10
84.071644871
 20
116.2391078838
 11
84.7653157967
 21
116.2391078838
  0
LINE
  5
467
100
AcDbEntity
  8
RUNDUNGEN
100
AcDbLine
 62
7
  6
CONTINUOUS
 10
84.7653157967
 20
116.2391078838
 11
91.0788563122
 21
116.2391078838
  0
LINE
  5
468
100
AcDbEntity
  8
_30_VOLUMEN
100
AcDbLine
 62
7
  6
CONTINUOUS
 10
91.0788563122
 20
116.2391078838
 11
126.9129101291
 21
116.2391078838
  0
LINE
  5
469
100
AcDbEntity
  8
_30_VOLUMEN
100
AcDbLine
 62
7
  6
CONTINUOUS
 10
135.7147097663
 20
116.2391078838
 11
171.548763594
 21
116.2391078838
  0
LINE
  5
46A
100
AcDbEntity
  8
RUNDUNGEN
100
AcDbLine
 62
7
  6
CONTINUOUS
 10
171.548763594
 20
116.2391078838
 11
177.8623041095
 21
116.2391078838
  0
LINE
  5
46B
100
AcDbEntity
  8
_30_VOLUMEN
100
AcDbLine
 62
7
  6
CONTINUOUS
 10
177.8623041095
 20
116.2391078838
 11
178.5559750243
 21
116.2391078838
  0
LINE
  5
46C
100
AcDbEntity
  8
0
100
AcDbLine
 62
7
  6
CONTINUOUS
 10
88.4233023456
 20
116.8391078838
 11
96.7919839262
 21
116.8391078838
  0
LWPOLYLINE
  5
46D
100
AcDbEntity
  8
_30_VOLUMEN
100
AcDbPolyline
 62
7
  6
CONTINUOUS
 90
3
 70
0
 10
163.2951059567
 20
116.2391102353
 10
163.1343569899
 20
116.245580761
 10
162.9735426721
 20
116.2651302351
  0
LINE
  5
46E
100
AcDbEntity
  8
_30_VOLUMEN
100
AcDbLine
 62
7
  6
CONTINUOUS
 10
107.837373491
 20
124.5395908044
 11
108.1707093675
 21
124.4522665229
  0
LINE
  5
46F
100
AcDbEntity
  8
_30_VOLUMEN
100
AcDbLine
 62
7
  6
CONTINUOUS
 10
107.837373491
 20
125.1034063768
 11
108.1707093675
 21
125.0160820953
  0
LINE
  5
470
100
AcDbEntity
  8
_30_VOLUMEN
100
AcDbLine
 62
7
  6
CONTINUOUS
 10
108.2540414292
 20
125.1907306583
 11
108.087373491
 21
125.248946846
  0
LINE
  5
471
100
AcDbEntity
  8
_30_VOLUMEN
100
AcDbLine
 62
7
  6
CONTINUOUS
 10
108.2540414292
 20
125.7728926166
 11
108.087373491
 21
125.8311088042
  0
LINE
  5
472
100
AcDbEntity
  8
_30_VOLUMEN
100
AcDbLine
 62
7
  6
CONTINUOUS
 10
151.3373744447
 20
126.0348655019
 11
151.2540414292
 21
125.8893250327
  0
LINE
  5
473
100
AcDbEntity
  8
_30_VOLUMEN
100
AcDbLine
 62
7
  6
CONTINUOUS
 10
151.7540414292
 20
125.8893250327
 11
151.8373749215
 21
126.005757408
  0
LINE
  5
474
100
AcDbEntity
  8
_30_VOLUMEN
100
AcDbLine
 62
7
  6
CONTINUOUS
 10
151.7995593985
 20
125.3891065223
 11
151.8373749215
 21
125.4419418355
  0
LINE
  5
475
100
AcDbEntity
  8
_30_VOLUMEN
100
AcDbLine
 62
7
  6
CONTINUOUS
 10
154.0873749215
 20
125.4527035844
 11
154.0040414292
 21
125.3362712091
  0
LINE
  5
476
100
AcDbEntity
  8
_30_VOLUMEN
100
AcDbLine
 62
7
  6
CONTINUOUS
 10
114.1806691317
 20
97.2104854845
 11
114.5140021471
 21
97.3269178701
  0
LINE
  5
477
100
AcDbEntity
  8
_30_VOLUMEN
100
AcDbLine
 62
7
  6
CONTINUOUS
 10
153.8373749215
 20
125.248946846
 11
153.5873749215
 21
125.1907306583
  0
LINE
  5
478
100
AcDbEntity
  8
_30_VOLUMEN
100
AcDbLine
 62
7
  6
CONTINUOUS
 10
152.0040414292
 20
125.5292661171
 11
152.2540414292
 21
125.5874823251
  0
LINE
  5
479
100
AcDbEntity
  8
_30_VOLUMEN
100
AcDbLine
 62
7
  6
CONTINUOUS
 10
152.0040414292
 20
126.0930816895
 11
152.2540414292
 21
126.1512978976
  0
LINE
  5
47A
100
AcDbEntity
  8
_30_VOLUMEN
100
AcDbLine
 62
7
  6
CONTINUOUS
 10
153.670707937
 20
124.4522665229
 11
154.0040414292
 21
124.5104827105
  0
LINE
  5
47B
100
AcDbEntity
  8
_30_VOLUMEN
100
AcDbLine
 62
7
  6
CONTINUOUS
 10
153.670707937
 20
125.0160820953
 11
154.0040414292
 21
125.074298283
  0
LINE
  5
47C
100
AcDbEntity
  8
_30_VOLUMEN
100
AcDbLine
 62
7
  6
CONTINUOUS
 10
152.170707937
 20
126.3259464784
 11
151.8373749215
 21
126.2677302831
  0
LINE
  5
47D
100
AcDbEntity
  8
BEZUGSACHSEN
100
AcDbLine
 62
7
  6
CONTINUOUS
 10
104.6975006615
 20
119.7391078838
 11
157.9301192447
 21
119.7391078838
  0
LINE
  5
47E
100
AcDbEntity
  8
_30_VOLUMEN
100
AcDbLine
 62
7
  6
CONTINUOUS
 10
108.5040414292
 20
125.1616225645
 11
108.2540414292
 21
125.1907306583
  0
LINE
  5
47F
100
AcDbEntity
  8
_30_VOLUMEN
100
AcDbLine
 62
7
  6
CONTINUOUS
 10
107.837373491
 20
125.6855683351
 11
108.0040414292
 21
125.6564602412
  0
LINE
  5
480
100
AcDbEntity
  8
_30_VOLUMEN
100
AcDbLine
 62
7
  6
CONTINUOUS
 10
162.9735426721
 20
116.2651302351
 11
162.814837415
 21
116.2976308758
  0
LINE
  5
481
100
AcDbEntity
  8
_30_VOLUMEN
100
AcDbLine
 62
7
  6
CONTINUOUS
 10
154.5040414292
 20
125.3071630337
 11
154.5873749215
 21
125.4527035844
  0
LINE
  5
482
100
AcDbEntity
  8
_30_VOLUMEN
100
AcDbLine
 62
7
  6
CONTINUOUS
 10
154.5040414292
 20
124.7433474612
 11
154.5873749215
 21
124.8888880119
  0
LINE
  5
483
100
AcDbEntity
  8
_30_VOLUMEN
100
AcDbLine
 62
7
  6
CONTINUOUS
 10
153.5873749215
 20
125.1907306583
 11
153.2540414292
 21
125.1616225645
  0
LINE
  5
484
100
AcDbEntity
  8
_30_VOLUMEN
100
AcDbLine
 62
7
  6
CONTINUOUS
 10
152.2540414292
 20
125.5874823251
 11
152.5873749215
 21
125.6165904189
  0
LINE
  5
485
100
AcDbEntity
  8
_30_VOLUMEN
100
AcDbLine
 62
7
  6
CONTINUOUS
 10
152.2540414292
 20
126.1512978976
 11
152.5873749215
 21
126.1804059914
  0
LINE
  5
486
100
AcDbEntity
  8
_30_VOLUMEN
100
AcDbLine
 62
7
  6
CONTINUOUS
 10
153.2540414292
 20
124.423158429
 11
153.670707937
 21
124.4522665229
  0
LINE
  5
487
100
AcDbEntity
  8
_30_VOLUMEN
100
AcDbLine
 62
7
  6
CONTINUOUS
 10
153.2540414292
 20
124.9869740015
 11
153.670707937
 21
125.0160820953
  0
LINE
  5
488
100
AcDbEntity
  8
_30_VOLUMEN
100
AcDbLine
 62
7
  6
CONTINUOUS
 10
152.5873749215
 20
126.3550545748
 11
152.170707937
 21
126.3259464784
  0
LINE
  5
489
100
AcDbEntity
  8
_30_VOLUMEN
100
AcDbLine
 62
7
  6
CONTINUOUS
 10
104.837373491
 20
124.423158429
 11
105.5040414292
 21
124.423158429
  0
LINE
  5
48A
100
AcDbEntity
  8
_30_VOLUMEN
100
AcDbLine
 62
7
  6
CONTINUOUS
 10
108.587373491
 20
124.423158429
 11
110.587373491
 21
124.423158429
  0
LINE
  5
48B
100
AcDbEntity
  8
_30_VOLUMEN
100
AcDbLine
 62
7
  6
CONTINUOUS
 10
112.587373491
 20
124.423158429
 11
113.2540414292
 21
124.423158429
  0
LINE
  5
48C
100
AcDbEntity
  8
_30_VOLUMEN
100
AcDbLine
 62
7
  6
CONTINUOUS
 10
147.2540414292
 20
124.423158429
 11
147.7540414292
 21
124.423158429
  0
LINE
  5
48D
100
AcDbEntity
  8
_30_VOLUMEN
100
AcDbLine
 62
7
  6
CONTINUOUS
 10
150.0873744447
 20
124.423158429
 11
150.5873744447
 21
124.423158429
  0
LINE
  5
48E
100
AcDbEntity
  8
_30_VOLUMEN
100
AcDbLine
 62
7
  6
CONTINUOUS
 10
152.5873749215
 20
124.423158429
 11
153.2540414292
 21
124.423158429
  0
LINE
  5
48F
100
AcDbEntity
  8
_30_VOLUMEN
100
AcDbLine
 62
7
  6
CONTINUOUS
 10
155.2540414292
 20
124.423158429
 11
155.7540414292
 21
124.423158429
  0
LINE
  5
490
100
AcDbEntity
  8
_30_VOLUMEN
100
AcDbLine
 62
7
  6
CONTINUOUS
 10
157.8373748023
 20
124.423158429
 11
158.5873748023
 21
124.423158429
  0
LINE
  5
491
100
AcDbEntity
  8
_30_VOLUMEN
100
AcDbLine
 62
7
  6
CONTINUOUS
 10
159.2540414292
 20
124.423158429
 11
159.7540414292
 21
124.423158429
  0
LINE
  5
492
100
AcDbEntity
  8
_30_VOLUMEN
100
AcDbLine
 62
7
  6
CONTINUOUS
 10
104.837373491
 20
124.9869740015
 11
105.5040414292
 21
124.9869740015
  0
LINE
  5
493
100
AcDbEntity
  8
_30_VOLUMEN
100
AcDbLine
 62
7
  6
CONTINUOUS
 10
108.587373491
 20
124.9869740015
 11
110.587373491
 21
124.9869740015
  0
LINE
  5
494
100
AcDbEntity
  8
_30_VOLUMEN
100
AcDbLine
 62
7
  6
CONTINUOUS
 10
112.587373491
 20
124.9869740015
 11
113.2540414292
 21
124.9869740015
  0
LINE
  5
495
100
AcDbEntity
  8
_30_VOLUMEN
100
AcDbLine
 62
7
  6
CONTINUOUS
 10
147.2540414292
 20
124.9869740015
 11
147.7540414292
 21
124.9869740015
  0
LINE
  5
496
100
AcDbEntity
  8
_30_VOLUMEN
100
AcDbLine
 62
7
  6
CONTINUOUS
 10
150.0873744447
 20
124.9869740015
 11
150.5873744447
 21
124.9869740015
  0
LINE
  5
497
100
AcDbEntity
  8
_30_VOLUMEN
100
AcDbLine
 62
7
  6
CONTINUOUS
 10
152.5873749215
 20
124.9869740015
 11
153.2540414292
 21
124.9869740015
  0
LINE
  5
498
100
AcDbEntity
  8
_30_VOLUMEN
100
AcDbLine
 62
7
  6
CONTINUOUS
 10
155.2540414292
 20
124.9869740015
 11
155.7540414292
 21
124.9869740015
  0
LINE
  5
499
100
AcDbEntity
  8
_30_VOLUMEN
100
AcDbLine
 62
7
  6
CONTINUOUS
 10
157.8373748023
 20
124.9869740015
 11
158.5873748023
 21
124.9869740015
  0
LINE
  5
49A
100
AcDbEntity
  8
_30_VOLUMEN
100
AcDbLine
 62
7
  6
CONTINUOUS
 10
159.2540414292
 20
124.9869740015
 11
159.7540414292
 21
124.9869740015
  0
LINE
  5
49B
100
AcDbEntity
  8
_30_VOLUMEN
100
AcDbLine
 62
7
  6
CONTINUOUS
 10
153.2540414292
 20
125.1616225645
 11
152.5873749215
 21
125.1616225645
  0
LINE
  5
49C
100
AcDbEntity
  8
_30_VOLUMEN
100
AcDbLine
 62
7
  6
CONTINUOUS
 10
110.087373491
 20
125.1616225645
 11
108.5040414292
 21
125.1616225645
  0
LINE
  5
49D
100
AcDbEntity
  8
_30_VOLUMEN
100
AcDbLine
 62
7
  6
CONTINUOUS
 10
104.9587570092
 20
125.3255094602
 11
105.3826617258
 21
125.3255094602
  0
LINE
  5
49E
100
AcDbEntity
  8
_30_VOLUMEN
100
AcDbLine
 62
7
  6
CONTINUOUS
 10
112.7087570092
 20
125.3255094602
 11
113.1326617258
 21
125.3255094602
  0
LINE
  5
49F
100
AcDbEntity
  8
_30_VOLUMEN
100
AcDbLine
 62
7
  6
CONTINUOUS
 10
108.5040414292
 20
125.5691359597
 11
110.087373491
 21
125.5691359597
  0
LINE
  5
4A0
100
AcDbEntity
  8
_30_VOLUMEN
100
AcDbLine
 62
7
  6
CONTINUOUS
 10
152.5873749215
 20
125.6165904189
 11
153.2540414292
 21
125.6165904189
  0
LINE
  5
4A1
100
AcDbEntity
  8
_30_VOLUMEN
100
AcDbLine
 62
7
  6
CONTINUOUS
 10
110.087373491
 20
125.7437845227
 11
108.5040414292
 21
125.7437845227
  0
LINE
  5
4A2
100
AcDbEntity
  8
_30_VOLUMEN
100
AcDbLine
 62
7
  6
CONTINUOUS
 10
104.4207093675
 20
125.8893250327
 11
105.9207093675
 21
125.8893250327
  0
LINE
  5
4A3
100
AcDbEntity
  8
_30_VOLUMEN
100
AcDbLine
 62
7
  6
CONTINUOUS
 10
112.1707093675
 20
125.8893250327
 11
113.6707093675
 21
125.8893250327
  0
LINE
  5
4A4
100
AcDbEntity
  8
_30_VOLUMEN
100
AcDbLine
 62
7
  6
CONTINUOUS
 10
113.7540414292
 20
126.005757408
 11
112.087373491
 21
126.005757408
  0
LINE
  5
4A5
100
AcDbEntity
  8
_30_VOLUMEN
100
AcDbLine
 62
7
  6
CONTINUOUS
 10
106.0040414292
 20
126.005757408
 11
104.337373491
 21
126.005757408
  0
LINE
  5
4A6
100
AcDbEntity
  8
_30_VOLUMEN
100
AcDbLine
 62
7
  6
CONTINUOUS
 10
108.1707093675
 20
124.4522665229
 11
108.587373491
 21
124.423158429
  0
LINE
  5
4A7
100
AcDbEntity
  8
_30_VOLUMEN
100
AcDbLine
 62
7
  6
CONTINUOUS
 10
108.1707093675
 20
125.0160820953
 11
108.587373491
 21
124.9869740015
  0
LINE
  5
4A8
100
AcDbEntity
  8
_30_VOLUMEN
100
AcDbLine
 62
7
  6
CONTINUOUS
 10
152.170707937
 20
124.4522665229
 11
152.5873749215
 21
124.423158429
  0
LINE
  5
4A9
100
AcDbEntity
  8
_30_VOLUMEN
100
AcDbLine
 62
7
  6
CONTINUOUS
 10
108.5040414292
 20
125.7437845227
 11
108.2540414292
 21
125.7728926166
  0
LWPOLYLINE
  5
4AA
100
AcDbEntity
  8
_30_VOLUMEN
100
AcDbPolyline
 62
7
  6
CONTINUOUS
 90
15
 70
0
 10
162.814837415
 20
116.2976308758
 10
162.6592825779
 20
116.3428695908
 10
162.507898729
 20
116.4005497428
 10
162.3616789719
 20
116.4702931467
 10
162.2215825413
 20
116.5516425481
 10
162.0885289897
 20
116.6440642831
 10
161.9633918734
 20
116.746951743
 10
161.846992351
 20
116.859629864
 10
161.7400941567
 20
116.9813594274
 10
161.6433989552
 20
117.1113414682
 10
161.5575411863
 20
117.2487231251
 10
161.4830841827
 20
117.3926029836
 10
161.4205166031
 20
117.5420366402
 10
161.3702489107
 20
117.6960434551
 10
161.3299247786
 20
117.8675482498
  0
LINE
  5
4AB
100
AcDbEntity
  8
_30_VOLUMEN
100
AcDbLine
 62
7
  6
CONTINUOUS
 10
147.2540414292
 20
124.423158429
 11
147.2540414292
 21
124.9869740015
  0
LINE
  5
4AC
100
AcDbEntity
  8
_30_VOLUMEN
100
AcDbLine
 62
7
  6
CONTINUOUS
 10
147.2540414292
 20
125.7912390023
 11
147.2540414292
 21
126.3550545748
  0
LINE
  5
4AD
100
AcDbEntity
  8
_30_VOLUMEN
100
AcDbLine
 62
7
  6
CONTINUOUS
 10
147.7540414292
 20
124.423158429
 11
147.7540414292
 21
124.9869740015
  0
LINE
  5
4AE
100
AcDbEntity
  8
_30_VOLUMEN
100
AcDbLine
 62
7
  6
CONTINUOUS
 10
148.9207084138
 20
124.9762122934
 11
148.9207084138
 21
125.5400278659
  0
LWPOLYLINE
  5
4AF
100
AcDbEntity
  8
RUNDUNGEN
100
AcDbPolyline
 62
7
  6
CONTINUOUS
 90
20
 70
0
 10
159.681709703
 20
103.6971308457
 10
159.736965469
 20
103.7176778454
 10
159.8436289331
 20
103.7613105915
 10
159.9520148376
 20
103.8113450311
 10
160.0617277011
 20
103.8683105922
 10
160.1720342714
 20
103.9325611331
 10
160.2822273193
 20
104.0044242377
 10
160.3918128176
 20
104.0843581303
 10
160.500149841
 20
104.1727485465
 10
160.60648903
 20
104.2699100161
 10
160.7099499458
 20
104.376033306
 10
160.8095675629
 20
104.4911865265
 10
160.9044127483
 20
104.6154361233
 10
160.9935017158
 20
104.7487492701
 10
161.0757478263
 20
104.8908721554
 10
161.1501306209
 20
105.0415622083
 10
161.2156198611
 20
105.2004857148
 10
161.2711342172
 20
105.3670586231
 10
161.3156516056
 20
105.5406547534
 10
161.3299250982
 20
105.6106732425
  0
LINE
  5
4B0
100
AcDbEntity
  8
_30_VOLUMEN
100
AcDbLine
 62
7
  6
CONTINUOUS
 10
159.6783103324
 20
103.695910448
 11
159.681709703
 21
103.6971308457
  0
LINE
  5
4B1
100
AcDbEntity
  8
_30_VOLUMEN
100
AcDbLine
 62
7
  6
CONTINUOUS
 10
108.0040414292
 20
125.6564602412
 11
107.837373491
 21
125.6273521474
  0
LINE
  5
4B2
100
AcDbEntity
  8
_30_VOLUMEN
100
AcDbLine
 62
7
  6
CONTINUOUS
 10
108.2540414292
 20
125.5400278659
 11
108.5040414292
 21
125.5691359597
  0
LINE
  5
4B3
100
AcDbEntity
  8
_30_VOLUMEN
100
AcDbLine
 62
7
  6
CONTINUOUS
 10
108.2540414292
 20
126.1512978976
 11
108.5040414292
 21
126.1804059914
  0
LINE
  5
4B4
100
AcDbEntity
  8
_30_VOLUMEN
100
AcDbLine
 62
7
  6
CONTINUOUS
 10
108.587373491
 20
126.3550545748
 11
108.1707093675
 21
126.3259464784
  0
LINE
  5
4B5
100
AcDbEntity
  8
_30_VOLUMEN
100
AcDbLine
 62
7
  6
CONTINUOUS
 10
108.5040414292
 20
126.1804059914
 11
110.087373491
 21
126.1804059914
  0
LINE
  5
4B6
100
AcDbEntity
  8
_30_VOLUMEN
100
AcDbLine
 62
7
  6
CONTINUOUS
 10
152.5873749215
 20
126.1804059914
 11
153.2540414292
 21
126.1804059914
  0
LINE
  5
4B7
100
AcDbEntity
  8
_30_VOLUMEN
100
AcDbLine
 62
7
  6
CONTINUOUS
 10
159.7540414292
 20
126.3550545748
 11
159.2540414292
 21
126.3550545748
  0
LINE
  5
4B8
100
AcDbEntity
  8
_30_VOLUMEN
100
AcDbLine
 62
7
  6
CONTINUOUS
 10
158.5873748023
 20
126.3550545748
 11
158.0873748023
 21
126.3550545748
  0
LINE
  5
4B9
100
AcDbEntity
  8
_30_VOLUMEN
100
AcDbLine
 62
7
  6
CONTINUOUS
 10
156.0040414292
 20
126.3550545748
 11
155.2540414292
 21
126.3550545748
  0
LINE
  5
4BA
100
AcDbEntity
  8
_30_VOLUMEN
100
AcDbLine
 62
7
  6
CONTINUOUS
 10
153.2540414292
 20
126.3550545748
 11
152.5873749215
 21
126.3550545748
  0
LINE
  5
4BB
100
AcDbEntity
  8
_30_VOLUMEN
100
AcDbLine
 62
7
  6
CONTINUOUS
 10
150.5873744447
 20
126.3550545748
 11
150.0873744447
 21
126.3550545748
  0
LINE
  5
4BC
100
AcDbEntity
  8
_30_VOLUMEN
100
AcDbLine
 62
7
  6
CONTINUOUS
 10
147.7540414292
 20
126.3550545748
 11
147.2540414292
 21
126.3550545748
  0
LINE
  5
4BD
100
AcDbEntity
  8
_30_VOLUMEN
100
AcDbLine
 62
7
  6
CONTINUOUS
 10
114.587373491
 20
126.3550545748
 11
114.087373491
 21
126.3550545748
  0
LINE
  5
4BE
100
AcDbEntity
  8
_30_VOLUMEN
100
AcDbLine
 62
7
  6
CONTINUOUS
 10
111.7540414292
 20
126.3550545748
 11
111.2540414292
 21
126.3550545748
  0
LINE
  5
4BF
100
AcDbEntity
  8
_30_VOLUMEN
100
AcDbLine
 62
7
  6
CONTINUOUS
 10
110.587373491
 20
126.3550545748
 11
108.587373491
 21
126.3550545748
  0
LINE
  5
4C0
100
AcDbEntity
  8
_30_VOLUMEN
100
AcDbLine
 62
7
  6
CONTINUOUS
 10
106.837373491
 20
126.3550545748
 11
106.337373491
 21
126.3550545748
  0
LINE
  5
4C1
100
AcDbEntity
  8
_30_VOLUMEN
100
AcDbLine
 62
7
  6
CONTINUOUS
 10
104.0040414292
 20
126.3550545748
 11
103.5040414292
 21
126.3550545748
  0
LINE
  5
4C2
100
AcDbEntity
  8
RUNDUNGEN
100
AcDbLine
 62
7
  6
CONTINUOUS
 10
179.3138099531
 20
126.7391078838
 11
83.3138099531
 21
126.7391078838
  0
LINE
  5
4C3
100
AcDbEntity
  8
_30_VOLUMEN
100
AcDbLine
 62
7
  6
CONTINUOUS
 10
152.170707937
 20
125.0160820953
 11
152.5873749215
 21
124.9869740015
  0
LINE
  5
4C4
100
AcDbEntity
  8
_30_VOLUMEN
100
AcDbLine
 62
7
  6
CONTINUOUS
 10
153.670707937
 20
126.3259464784
 11
153.2540414292
 21
126.3550545748
  0
LINE
  5
4C5
100
AcDbEntity
  8
_30_VOLUMEN
100
AcDbLine
 62
7
  6
CONTINUOUS
 10
152.5873749215
 20
125.1616225645
 11
152.2540414292
 21
125.1907306583
  0
LINE
  5
4C6
100
AcDbEntity
  8
_30_VOLUMEN
100
AcDbLine
 62
7
  6
CONTINUOUS
 10
153.2540414292
 20
125.6165904189
 11
153.5873749215
 21
125.5874823251
  0
LINE
  5
4C7
100
AcDbEntity
  8
_30_VOLUMEN
100
AcDbLine
 62
7
  6
CONTINUOUS
 10
153.2540414292
 20
126.1804059914
 11
153.5873749215
 21
126.1512978976
  0
LINE
  5
4C8
100
AcDbEntity
  8
_30_VOLUMEN
100
AcDbLine
 62
7
  6
CONTINUOUS
 10
151.8373749215
 20
124.5104827105
 11
152.170707937
 21
124.4522665229
  0
LINE
  5
4C9
100
AcDbEntity
  8
_30_VOLUMEN
100
AcDbLine
 62
7
  6
CONTINUOUS
 10
151.8373749215
 20
125.074298283
 11
152.170707937
 21
125.0160820953
  0
LINE
  5
4CA
100
AcDbEntity
  8
_30_VOLUMEN
100
AcDbLine
 62
7
  6
CONTINUOUS
 10
152.2540414292
 20
125.1907306583
 11
152.0040414292
 21
125.248946846
  0
LINE
  5
4CB
100
AcDbEntity
  8
_30_VOLUMEN
100
AcDbLine
 62
7
  6
CONTINUOUS
 10
159.6783112984
 20
119.7823049737
 11
159.6817412106
 21
119.7810735795
  0
LWPOLYLINE
  5
4CC
100
AcDbEntity
  8
BEZUGSACHSEN
100
AcDbPolyline
 62
7
  6
CONTINUOUS
 90
10
 70
0
 10
159.6783123963
 20
119.7823080315
 10
159.6354200118
 20
119.7987798147
 10
159.5712014943
 20
119.8272426993
 10
159.5034388619
 20
119.8617703495
 10
159.4332738757
 20
119.9019686812
 10
159.3607460919
 20
119.9479377543
 10
159.284393437
 20
120.0008963095
 10
159.2038052015
 20
120.0616238056
 10
159.119981675
 20
120.1298424488
 10
159.0706566059
 20
120.1723244002
  0
LINE
  5
4CD
100
AcDbEntity
  8
_30_VOLUMEN
100
AcDbLine
 62
7
  6
CONTINUOUS
 10
150.0873744447
 20
124.423158429
 11
150.0873744447
 21
124.9869740015
  0
LINE
  5
4CE
100
AcDbEntity
  8
_30_VOLUMEN
100
AcDbLine
 62
7
  6
CONTINUOUS
 10
150.5873744447
 20
124.423158429
 11
150.5873744447
 21
124.9869740015
  0
LINE
  5
4CF
100
AcDbEntity
  8
_30_VOLUMEN
100
AcDbLine
 62
7
  6
CONTINUOUS
 10
150.5873744447
 20
125.7912390023
 11
150.5873744447
 21
126.3550545748
  0
LINE
  5
4D0
100
AcDbEntity
  8
_30_VOLUMEN
100
AcDbLine
 62
7
  6
CONTINUOUS
 10
151.2540414292
 20
124.8888880119
 11
151.2540414292
 21
125.8893250327
  0
LINE
  5
4D1
100
AcDbEntity
  8
_30_VOLUMEN
100
AcDbLine
 62
7
  6
CONTINUOUS
 10
151.3373744447
 20
124.7433474612
 11
151.3373744447
 21
125.3071630337
  0
LINE
  5
4D2
100
AcDbEntity
  8
_30_VOLUMEN
100
AcDbLine
 62
7
  6
CONTINUOUS
 10
151.5040414292
 20
124.6269150859
 11
151.5040414292
 21
125.1907306583
  0
LINE
  5
4D3
100
AcDbEntity
  8
_30_VOLUMEN
100
AcDbLine
 62
7
  6
CONTINUOUS
 10
151.7540414292
 20
125.4527035844
 11
151.7540414292
 21
125.8893250327
  0
LINE
  5
4D4
100
AcDbEntity
  8
_30_VOLUMEN
100
AcDbLine
 62
7
  6
CONTINUOUS
 10
151.8373749215
 20
124.5104827105
 11
151.8373749215
 21
125.074298283
  0
LINE
  5
4D5
100
AcDbEntity
  8
_30_VOLUMEN
100
AcDbLine
 62
7
  6
CONTINUOUS
 10
151.8373749215
 20
125.4419418355
 11
151.8373749215
 21
126.005757408
  0
LINE
  5
4D6
100
AcDbEntity
  8
_30_VOLUMEN
100
AcDbLine
 62
7
  6
CONTINUOUS
 10
152.0040414292
 20
125.5292661171
 11
152.0040414292
 21
126.0930816895
  0
LINE
  5
4D7
100
AcDbEntity
  8
_30_VOLUMEN
100
AcDbLine
 62
7
  6
CONTINUOUS
 10
152.170707937
 20
124.4522665229
 11
152.170707937
 21
125.0160820953
  0
LINE
  5
4D8
100
AcDbEntity
  8
_30_VOLUMEN
100
AcDbLine
 62
7
  6
CONTINUOUS
 10
152.2540414292
 20
125.5874823251
 11
152.2540414292
 21
126.1512978976
  0
LINE
  5
4D9
100
AcDbEntity
  8
_30_VOLUMEN
100
AcDbLine
 62
7
  6
CONTINUOUS
 10
152.5873749215
 20
124.423158429
 11
152.5873749215
 21
124.9869740015
  0
LINE
  5
4DA
100
AcDbEntity
  8
_30_VOLUMEN
100
AcDbLine
 62
7
  6
CONTINUOUS
 10
152.5873749215
 20
125.6165904189
 11
152.5873749215
 21
126.1804059914
  0
LINE
  5
4DB
100
AcDbEntity
  8
_30_VOLUMEN
100
AcDbLine
 62
7
  6
CONTINUOUS
 10
108.1707093675
 20
126.3259464784
 11
107.837373491
 21
126.2386221893
  0
LINE
  5
4DC
100
AcDbEntity
  8
_30_VOLUMEN
100
AcDbLine
 62
7
  6
CONTINUOUS
 10
154.0040414292
 20
126.2677302831
 11
153.670707937
 21
126.3259464784
  0
LINE
  5
4DD
100
AcDbEntity
  8
_30_VOLUMEN
100
AcDbLine
 62
7
  6
CONTINUOUS
 10
153.5873749215
 20
125.5874823251
 11
153.8373749215
 21
125.5292661171
  0
LINE
  5
4DE
100
AcDbEntity
  8
_30_VOLUMEN
100
AcDbLine
 62
7
  6
CONTINUOUS
 10
153.5873749215
 20
126.1512978976
 11
153.8373749215
 21
126.0930816895
  0
LINE
  5
4DF
100
AcDbEntity
  8
_30_VOLUMEN
100
AcDbLine
 62
7
  6
CONTINUOUS
 10
151.5040414292
 20
124.6269150859
 11
151.8373749215
 21
124.5104827105
  0
LINE
  5
4E0
100
AcDbEntity
  8
_30_VOLUMEN
100
AcDbLine
 62
7
  6
CONTINUOUS
 10
151.5040414292
 20
125.1907306583
 11
151.8373749215
 21
125.074298283
  0
LINE
  5
4E1
100
AcDbEntity
  8
_30_VOLUMEN
100
AcDbLine
 62
7
  6
CONTINUOUS
 10
154.3373749215
 20
126.1512978976
 11
154.0040414292
 21
126.2677302831
  0
LINE
  5
4E2
100
AcDbEntity
  8
_30_VOLUMEN
100
AcDbLine
 62
7
  6
CONTINUOUS
 10
150.5873744447
 20
124.9869740015
 11
149.1707084138
 21
125.6564602412
  0
LINE
  5
4E3
100
AcDbEntity
  8
_30_VOLUMEN
100
AcDbLine
 62
7
  6
CONTINUOUS
 10
148.9207084138
 20
124.9762122934
 11
150.0873744447
 21
124.423158429
  0
LINE
  5
4E4
100
AcDbEntity
  8
_30_VOLUMEN
100
AcDbLine
 62
7
  6
CONTINUOUS
 10
148.9207084138
 20
125.5400278659
 11
150.0873744447
 21
124.9869740015
  0
LINE
  5
4E5
100
AcDbEntity
  8
_30_VOLUMEN
100
AcDbLine
 62
7
  6
CONTINUOUS
 10
148.9207084138
 20
125.8020007104
 11
147.7540414292
 21
126.3550545748
  0
LINE
  5
4E6
100
AcDbEntity
  8
_30_VOLUMEN
100
AcDbLine
 62
7
  6
CONTINUOUS
 10
147.2540414292
 20
125.7912390023
 11
148.0868693311
 21
125.3805504923
  0
LINE
  5
4E7
100
AcDbEntity
  8
_30_VOLUMEN
100
AcDbLine
 62
7
  6
CONTINUOUS
 10
147.2540414292
 20
126.3550545748
 11
148.6707084138
 21
125.6564602412
  0
LINE
  5
4E8
100
AcDbEntity
  8
_30_VOLUMEN
100
AcDbLine
 62
7
  6
CONTINUOUS
 10
153.2540414292
 20
124.423158429
 11
153.2540414292
 21
124.9869740015
  0
LINE
  5
4E9
100
AcDbEntity
  8
_30_VOLUMEN
100
AcDbLine
 62
7
  6
CONTINUOUS
 10
153.2540414292
 20
125.6165904189
 11
153.2540414292
 21
126.1804059914
  0
LINE
  5
4EA
100
AcDbEntity
  8
_30_VOLUMEN
100
AcDbLine
 62
7
  6
CONTINUOUS
 10
153.5873749215
 20
125.5874823251
 11
153.5873749215
 21
126.1512978976
  0
LINE
  5
4EB
100
AcDbEntity
  8
_30_VOLUMEN
100
AcDbLine
 62
7
  6
CONTINUOUS
 10
153.670707937
 20
124.4522665229
 11
153.670707937
 21
125.0160820953
  0
LINE
  5
4EC
100
AcDbEntity
  8
_30_VOLUMEN
100
AcDbLine
 62
7
  6
CONTINUOUS
 10
153.8373749215
 20
125.5292661171
 11
153.8373749215
 21
126.0930816895
  0
LINE
  5
4ED
100
AcDbEntity
  8
_30_VOLUMEN
100
AcDbLine
 62
7
  6
CONTINUOUS
 10
154.0040414292
 20
124.5104827105
 11
154.0040414292
 21
125.074298283
  0
LINE
  5
4EE
100
AcDbEntity
  8
_30_VOLUMEN
100
AcDbLine
 62
7
  6
CONTINUOUS
 10
154.0040414292
 20
125.4419418355
 11
154.0040414292
 21
126.005757408
  0
LINE
  5
4EF
100
AcDbEntity
  8
_30_VOLUMEN
100
AcDbLine
 62
7
  6
CONTINUOUS
 10
154.0873749215
 20
125.8893250327
 11
154.0873749215
 21
125.4527035844
  0
LINE
  5
4F0
100
AcDbEntity
  8
_30_VOLUMEN
100
AcDbLine
 62
7
  6
CONTINUOUS
 10
154.3373749215
 20
124.6269150859
 11
154.3373749215
 21
125.1907306583
  0
LINE
  5
4F1
100
AcDbEntity
  8
_30_VOLUMEN
100
AcDbLine
 62
7
  6
CONTINUOUS
 10
154.5040414292
 20
124.7433474612
 11
154.5040414292
 21
125.3071630337
  0
LINE
  5
4F2
100
AcDbEntity
  8
_30_VOLUMEN
100
AcDbLine
 62
7
  6
CONTINUOUS
 10
154.5873749215
 20
124.8888880119
 11
154.5873749215
 21
125.8893250327
  0
LINE
  5
4F3
100
AcDbEntity
  8
_30_VOLUMEN
100
AcDbLine
 62
7
  6
CONTINUOUS
 10
155.2540414292
 20
124.423158429
 11
155.2540414292
 21
126.3550545748
  0
LINE
  5
4F4
100
AcDbEntity
  8
_30_VOLUMEN
100
AcDbLine
 62
7
  6
CONTINUOUS
 10
155.7540414292
 20
124.423158429
 11
155.7540414292
 21
126.1512978976
  0
LINE
  5
4F5
100
AcDbEntity
  8
RUNDUNGEN
100
AcDbLine
 62
7
  6
CONTINUOUS
 10
159.047680428
 20
103.2857023577
 11
159.0704800625
 21
103.3057364169
  0
LINE
  5
4F6
100
AcDbEntity
  8
RUNDUNGEN
100
AcDbLine
 62
7
  6
CONTINUOUS
 10
159.0706546751
 20
103.3058896704
 11
159.1200264204
 21
103.3484110755
  0
LWPOLYLINE
  5
4F7
100
AcDbEntity
  8
RUNDUNGEN
100
AcDbPolyline
 62
7
  6
CONTINUOUS
 90
9
 70
0
 10
159.1200264204
 20
103.3484110755
 10
159.2038754581
 20
103.4166470034
 10
159.2844708683
 20
103.4773754558
 10
159.3608049735
 20
103.5303170797
 10
159.4332983775
 20
103.5762618751
 10
159.5034385725
 20
103.6164452614
 10
159.5711933941
 20
103.6509692099
 10
159.6354122097
 20
103.6794327674
 10
159.6783114302
 20
103.6959073903
  0
LINE
  5
4F8
100
AcDbEntity
  8
_30_VOLUMEN
100
AcDbLine
 62
7
  6
CONTINUOUS
 10
152.0040414292
 20
125.248946846
 11
151.8373749215
 21
125.3362712091
  0
LINE
  5
4F9
100
AcDbEntity
  8
_30_VOLUMEN
100
AcDbLine
 62
7
  6
CONTINUOUS
 10
153.8373749215
 20
125.5292661171
 11
154.0040414292
 21
125.4419418355
  0
LINE
  5
4FA
100
AcDbEntity
  8
_30_VOLUMEN
100
AcDbLine
 62
7
  6
CONTINUOUS
 10
153.8373749215
 20
126.0930816895
 11
154.0040414292
 21
126.005757408
  0
LINE
  5
4FB
100
AcDbEntity
  8
_30_VOLUMEN
100
AcDbLine
 62
7
  6
CONTINUOUS
 10
155.7540414292
 20
125.5874823251
 11
157.8373748023
 21
124.423158429
  0
LINE
  5
4FC
100
AcDbEntity
  8
_30_VOLUMEN
100
AcDbLine
 62
7
  6
CONTINUOUS
 10
155.7540414292
 20
126.1512978976
 11
157.8373748023
 21
124.9869740015
  0
LINE
  5
4FD
100
AcDbEntity
  8
_30_VOLUMEN
100
AcDbLine
 62
7
  6
CONTINUOUS
 10
151.3373744447
 20
124.7433474612
 11
151.5040414292
 21
124.6269150859
  0
LINE
  5
4FE
100
AcDbEntity
  8
_30_VOLUMEN
100
AcDbLine
 62
7
  6
CONTINUOUS
 10
151.3373744447
 20
125.3071630337
 11
151.5040414292
 21
125.1907306583
  0
LINE
  5
4FF
100
AcDbEntity
  8
BEZUGSACHSEN
100
AcDbLine
 62
7
  6
CONTINUOUS
 10
159.0704800625
 20
120.1724793507
 11
159.0478709522
 21
120.1923460183
  0
LINE
  5
500
100
AcDbEntity
  8
_30_VOLUMEN
100
AcDbLine
 62
7
  6
CONTINUOUS
 10
151.8373749215
 20
125.3362712091
 11
151.7540414292
 21
125.4527035844
  0
LINE
  5
501
100
AcDbEntity
  8
_30_VOLUMEN
100
AcDbLine
 62
7
  6
CONTINUOUS
 10
151.2540414292
 20
124.8888880119
 11
151.3373744447
 21
124.7433474612
  0
LINE
  5
502
100
AcDbEntity
  8
_30_VOLUMEN
100
AcDbLine
 62
7
  6
CONTINUOUS
 10
151.2540414292
 20
125.4527035844
 11
151.3373744447
 21
125.3071630337
  0
LINE
  5
503
100
AcDbEntity
  8
_30_VOLUMEN
100
AcDbLine
 62
7
  6
CONTINUOUS
 10
157.8373748023
 20
124.423158429
 11
157.8373748023
 21
124.9869740015
  0
LINE
  5
504
100
AcDbEntity
  8
_30_VOLUMEN
100
AcDbLine
 62
7
  6
CONTINUOUS
 10
158.0873748023
 20
126.3550545748
 11
158.0873748023
 21
125.1616225645
  0
LINE
  5
505
100
AcDbEntity
  8
_30_VOLUMEN
100
AcDbLine
 62
7
  6
CONTINUOUS
 10
158.5873748023
 20
124.423158429
 11
158.5873748023
 21
126.3550545748
  0
LINE
  5
506
100
AcDbEntity
  8
_30_VOLUMEN
100
AcDbLine
 62
7
  6
CONTINUOUS
 10
159.2540414292
 20
124.423158429
 11
159.2540414292
 21
126.3550545748
  0
LINE
  5
507
100
AcDbEntity
  8
_30_VOLUMEN
100
AcDbLine
 62
7
  6
CONTINUOUS
 10
158.0873748023
 20
125.1616225645
 11
156.0040414292
 21
126.3550545748
  0
LINE
  5
508
100
AcDbEntity
  8
_30_VOLUMEN
100
AcDbLine
 62
7
  6
CONTINUOUS
 10
154.5040414292
 20
126.0348655019
 11
154.3373749215
 21
126.1512978976
  0
LINE
  5
509
100
AcDbEntity
  8
_30_VOLUMEN
100
AcDbLine
 62
7
  6
CONTINUOUS
 10
154.0040414292
 20
125.4419418355
 11
154.0418569522
 21
125.3891065223
  0
LINE
  5
50A
100
AcDbEntity
  8
_30_VOLUMEN
100
AcDbLine
 62
7
  6
CONTINUOUS
 10
154.0040414292
 20
126.005757408
 11
154.0873749215
 21
125.8893250327
  0
LINE
  5
50B
100
AcDbEntity
  8
_30_VOLUMEN
100
AcDbLine
 62
7
  6
CONTINUOUS
 10
154.5873749215
 20
125.8893250327
 11
154.5040414292
 21
126.0348655019
  0
LINE
  5
50C
100
AcDbEntity
  8
_30_VOLUMEN
100
AcDbLine
 62
7
  6
CONTINUOUS
 10
159.7540414292
 20
124.423158429
 11
159.7540414292
 21
126.3550545748
  0
LWPOLYLINE
  5
50D
100
AcDbEntity
  8
BEZUGSACHSEN
100
AcDbPolyline
 62
7
  6
CONTINUOUS
 90
20
 70
0
 10
161.3299250877
 20
117.8675425865
 10
161.3181862573
 20
117.9258385268
 10
161.2742782031
 20
118.1004059999
 10
161.219223102
 20
118.2679979447
 10
161.1540450474
 20
118.4279627064
 10
161.0798398713
 20
118.579676033
 10
160.9976460852
 20
118.7227923984
 10
160.9084931826
 20
118.8570587529
 10
160.8134945535
 20
118.9821905863
 10
160.7136497438
 20
119.0981489785
 10
160.6098994329
 20
119.2050006342
 10
160.5032353855
 20
119.302800573
 10
160.3945596904
 20
119.3917366928
 10
160.2846270284
 20
119.4721350516
 10
160.1740799997
 20
119.5443928001
 10
160.0634239426
 20
119.6089717195
 10
159.9533716408
 20
119.6662061228
 10
159.8446447088
 20
119.7164635784
 10
159.7376362896
 20
119.7602800456
 10
159.6817412106
 20
119.7810735795
  0
LINE
  5
50E
100
AcDbEntity
  8
0
100
AcDbLine
 62
7
  6
CONTINUOUS
 10
164.5117049724
 20
107.2391078838
 11
164.5117049724
 21
106.6391078838
  0
LINE
  5
50F
100
AcDbEntity
  8
0
100
AcDbLine
 62
7
  6
CONTINUOUS
 10
164.5433353243
 20
107.2391078838
 11
164.5433353243
 21
106.6391078838
  0
LINE
  5
510
100
AcDbEntity
  8
0
100
AcDbLine
 62
7
  6
CONTINUOUS
 10
167.4492798923
 20
107.2391078838
 11
167.4492798923
 21
106.6391078838
  0
LINE
  5
511
100
AcDbEntity
  8
0
100
AcDbLine
 62
7
  6
CONTINUOUS
 10
168.2355605271
 20
107.2391078838
 11
168.2355605271
 21
106.6391078838
  0
LINE
  5
512
100
AcDbEntity
  8
0
100
AcDbLine
 62
7
  6
CONTINUOUS
 10
169.1627329868
 20
107.2391078838
 11
169.1627329868
 21
106.6391078838
  0
LINE
  5
513
100
AcDbEntity
  8
0
100
AcDbLine
 62
7
  6
CONTINUOUS
 10
169.4019101321
 20
107.2391078838
 11
169.4019101321
 21
106.6391078838
  0
LINE
  5
514
100
AcDbEntity
  8
0
100
AcDbLine
 62
7
  6
CONTINUOUS
 10
169.8115154987
 20
107.2391078838
 11
169.8115154987
 21
106.6391078838
  0
LINE
  5
515
100
AcDbEntity
  8
0
100
AcDbLine
 62
7
  6
CONTINUOUS
 10
170.3242442511
 20
107.2391078838
 11
170.3242442511
 21
106.6391078838
  0
LINE
  5
516
100
AcDbEntity
  8
0
100
AcDbLine
 62
7
  6
CONTINUOUS
 10
170.8184135975
 20
107.2391078838
 11
170.8184135975
 21
106.6391078838
  0
LINE
  5
517
100
AcDbEntity
  8
0
100
AcDbLine
 62
7
  6
CONTINUOUS
 10
171.1160130822
 20
107.2391078838
 11
171.1160130822
 21
106.6391078838
  0
LINE
  5
518
100
AcDbEntity
  8
0
100
AcDbLine
 62
7
  6
CONTINUOUS
 10
171.2754643603
 20
107.2391078838
 11
171.2754643603
 21
106.6391078838
  0
LINE
  5
519
100
AcDbEntity
  8
0
100
AcDbLine
 62
7
  6
CONTINUOUS
 10
171.3764937551
 20
107.2391078838
 11
171.3764937551
 21
106.6391078838
  0
LINE
  5
51A
100
AcDbEntity
  8
0
100
AcDbLine
 62
7
  6
CONTINUOUS
 10
171.8630806391
 20
107.2391078838
 11
171.8630806391
 21
106.6391078838
  0
LINE
  5
51B
100
AcDbEntity
  8
0
100
AcDbLine
 62
7
  6
CONTINUOUS
 10
172.0623948507
 20
107.2391078838
 11
172.0623948507
 21
106.6391078838
  0
LINE
  5
51C
100
AcDbEntity
  8
RUNDUNGEN
100
AcDbLine
 62
7
  6
CONTINUOUS
 10
181.3138099531
 20
124.7391078838
 11
181.3138099531
 21
123.6411356437
  0
LINE
  5
51D
100
AcDbEntity
  8
_30_VOLUMEN
100
AcDbLine
 62
7
  6
CONTINUOUS
 10
181.3138099531
 20
123.6411356437
 11
181.3138099531
 21
113.7391078838
  0
LINE
  5
51E
100
AcDbEntity
  8
RUNDUNGEN
100
AcDbLine
 62
7
  6
CONTINUOUS
 10
181.3138099531
 20
113.7391078838
 11
181.3138099531
 21
109.7391078838
  0
LINE
  5
51F
100
AcDbEntity
  8
_30_VOLUMEN
100
AcDbLine
 62
7
  6
CONTINUOUS
 10
181.3138099531
 20
109.7391078838
 11
181.3138099531
 21
99.837080124
  0
LINE
  5
520
100
AcDbEntity
  8
RUNDUNGEN
100
AcDbLine
 62
7
  6
CONTINUOUS
 10
181.3138099531
 20
99.837080124
 11
181.3138099531
 21
98.7391078838
  0
LINE
  5
521
100
AcDbEntity
  8
BEZUGSACHSEN
100
AcDbLine
 62
7
  6
CONTINUOUS
 10
181.3138099531
 20
109.7391078838
 11
181.3138099531
 21
113.7391078838
  0
ARC
  5
522
100
AcDbEntity
  8
RUNDUNGEN
100
AcDbCircle
 62
7
  6
CONTINUOUS
 10
83.3138099531
 20
197.9611295415
 40
2.0
100
AcDbArc
 50
99.0
 51
180.0
  0
ARC
  5
523
100
AcDbEntity
  8
_30_VOLUMEN
100
AcDbCircle
 62
7
  6
CONTINUOUS
 10
83.3138099531
 20
197.9611295415
 40
2.0
100
AcDbArc
 50
99.0
 51
180.0
  0
ARC
  5
524
100
AcDbEntity
  8
RUNDUNGEN
100
AcDbCircle
 62
7
  6
CONTINUOUS
 10
96.3138099531
 20
199.6052730315
 40
15.0
100
AcDbArc
 50
157.5
 51
180.0
  0
ARC
  5
525
100
AcDbEntity
  8
0
100
AcDbCircle
 62
7
  6
CONTINUOUS
 10
95.8873160528
 20
206.5712566195
 40
1.1118569966
100
AcDbArc
 50
248.7319005613
 51
340.0
  0
ARC
  5
526
100
AcDbEntity
  8
0
100
AcDbCircle
 62
7
  6
CONTINUOUS
 10
95.8814482408
 20
206.5838414942
 40
0.3911280426
100
AcDbArc
 50
247.8332171541
 51
340.0
  0
ARC
  5
527
100
AcDbEntity
  8
BEZUGSACHSEN
100
AcDbCircle
 62
7
  6
CONTINUOUS
 10
97.4983607572
 20
207.2949975624
 40
5.0
100
AcDbArc
 50
278.9995907923
 51
337.502304799
  0
ARC
  5
528
100
AcDbEntity
  8
BEZUGSACHSEN
100
AcDbCircle
 62
7
  6
CONTINUOUS
 10
98.3008478442
 20
209.2323727713
 40
5.0
100
AcDbArc
 50
337.4967945069
 51
22.5031978334
  0
ARC
  5
529
100
AcDbEntity
  8
_30_VOLUMEN
100
AcDbCircle
 62
7
  6
CONTINUOUS
 10
98.3008478442
 20
209.2323727713
 40
5.0
100
AcDbArc
 50
337.6828049934
 51
22.3058755468
  0
ARC
  5
52A
100
AcDbEntity
  8
0
100
AcDbCircle
 62
7
  6
CONTINUOUS
 10
96.6034758822
 20
211.3920658368
 40
1.1267377854
100
AcDbArc
 50
70.7709153813
 51
160.0
  0
ARC
  5
52B
100
AcDbEntity
  8
0
100
AcDbCircle
 62
7
  6
CONTINUOUS
 10
96.2747515804
 20
210.4889032404
 40
1.1267377854
100
AcDbArc
 50
160.0
 51
249.2290846187
  0
ARC
  5
52C
100
AcDbEntity
  8
0
100
AcDbCircle
 62
7
  6
CONTINUOUS
 10
92.3131576814
 20
207.880462259
 40
1.119428773
100
AcDbArc
 50
250.4006302106
 51
340.3709718983
  0
ARC
  5
52D
100
AcDbEntity
  8
0
100
AcDbCircle
 62
7
  6
CONTINUOUS
 10
94.9563740118
 20
206.9100918123
 40
1.1118569317
100
AcDbArc
 50
160.0
 51
251.2679482936
  0
ARC
  5
52E
100
AcDbEntity
  8
0
100
AcDbCircle
 62
7
  6
CONTINUOUS
 10
92.6568343262
 20
208.8018204801
 40
1.1116787504
100
AcDbArc
 50
339.2285047389
 51
70.0
  0
ARC
  5
52F
100
AcDbEntity
  8
0
100
AcDbCircle
 62
7
  6
CONTINUOUS
 10
92.6247013467
 20
208.7871322442
 40
0.4062061692
100
AcDbArc
 50
340.0
 51
67.834211849
  0
ARC
  5
530
100
AcDbEntity
  8
0
100
AcDbCircle
 62
7
  6
CONTINUOUS
 10
96.287517314
 20
210.4947094572
 40
0.406203055
100
AcDbArc
 50
160.0
 51
247.8346348199
  0
ARC
  5
531
100
AcDbEntity
  8
0
100
AcDbCircle
 62
7
  6
CONTINUOUS
 10
92.3076644329
 20
207.8922888169
 40
0.3981459874
100
AcDbArc
 50
251.0381638334
 51
341.1272013467
  0
ARC
  5
532
100
AcDbEntity
  8
0
100
AcDbCircle
 62
7
  6
CONTINUOUS
 10
96.6001551869
 20
211.3985491441
 40
0.3911344717
100
AcDbArc
 50
70.0
 51
162.1653651801
  0
ARC
  5
533
100
AcDbEntity
  8
0
100
AcDbCircle
 62
7
  6
CONTINUOUS
 10
94.9689583765
 20
206.9159606438
 40
0.3911279334
100
AcDbArc
 50
160.0
 51
252.1663598754
  0
ARC
  5
534
100
AcDbEntity
  8
RUNDUNGEN
100
AcDbCircle
 62
7
  6
CONTINUOUS
 10
131.3138099531
 20
202.9651875957
 40
46.05
100
AcDbArc
 50
22.5
 51
157.5
  0
ARC
  5
535
100
AcDbEntity
  8
RUNDUNGEN
100
AcDbCircle
 62
7
  6
CONTINUOUS
 10
166.3138099531
 20
199.6052730315
 40
15.0
100
AcDbArc
 50
0.0
 51
22.5
  0
ARC
  5
536
100
AcDbEntity
  8
RUNDUNGEN
100
AcDbCircle
 62
7
  6
CONTINUOUS
 10
179.3138099531
 20
197.9611295415
 40
2.0
100
AcDbArc
 50
0.0
 51
81.000034136
  0
ARC
  5
537
100
AcDbEntity
  8
_30_VOLUMEN
100
AcDbCircle
 62
7
  6
CONTINUOUS
 10
179.3138099531
 20
197.9611295415
 40
2.0
100
AcDbArc
 50
0.0
 51
81.0
  0
ARC
  5
538
100
AcDbEntity
  8
RUNDUNGEN
100
AcDbCircle
 62
7
  6
CONTINUOUS
 10
131.3138099531
 20
215.7651875957
 40
17.5
100
AcDbArc
 50
349.1580046681
 51
6.4999427665
  0
ARC
  5
539
100
AcDbEntity
  8
BEZUGSACHSEN
100
AcDbCircle
 62
7
  6
CONTINUOUS
 10
131.3138099531
 20
215.7651875957
 40
17.5
100
AcDbArc
 50
6.4999427665
 51
349.1580046681
  0
ARC
  5
53A
100
AcDbEntity
  8
RUNDUNGEN
100
AcDbCircle
 62
7
  6
CONTINUOUS
 10
165.129259149
 20
207.2949975624
 40
5.0
100
AcDbArc
 50
202.497695201
 51
261.0004092077
  0
ARC
  5
53B
100
AcDbEntity
  8
RUNDUNGEN
100
AcDbCircle
 62
7
  6
CONTINUOUS
 10
164.326772062
 20
209.2323727713
 40
5.0
100
AcDbArc
 50
157.4968021666
 51
202.5032054931
  0
ARC
  5
53C
100
AcDbEntity
  8
BEZUGSACHSEN
100
AcDbCircle
 62
7
  6
CONTINUOUS
 10
164.326772062
 20
209.2323727713
 40
5.0
100
AcDbArc
 50
157.6935560652
 51
202.3177497473
  0
ARC
  5
53D
100
AcDbEntity
  8
BEZUGSACHSEN
100
AcDbCircle
 62
7
  6
CONTINUOUS
 10
296.4125389004
 20
218.1424342425
 40
15.0
100
AcDbArc
 50
179.9999629874
 51
200.0000353717
  0
ARC
  5
53E
100
AcDbEntity
  8
BEZUGSACHSEN
100
AcDbCircle
 62
7
  6
CONTINUOUS
 10
250.4125389004
 20
218.1424342425
 40
15.0
100
AcDbArc
 50
339.9999646283
 51
0.0000370126
  0
ARC
  5
53F
100
AcDbEntity
  8
RUNDUNGEN
100
AcDbCircle
 62
7
  6
CONTINUOUS
 10
271.4125389004
 20
246.5151875957
 40
2.5
100
AcDbArc
 50
90.0
 51
164.2281446976
  0
ARC
  5
540
100
AcDbEntity
  8
RUNDUNGEN
100
AcDbCircle
 62
7
  6
CONTINUOUS
 10
275.4125389004
 20
246.5151875957
 40
2.5
100
AcDbArc
 50
15.7534448401
 51
90.0
  0
ARC
  5
541
100
AcDbEntity
  8
RUNDUNGEN
100
AcDbCircle
 62
7
  6
CONTINUOUS
 10
287.4125389004
 20
196.088860615
 40
1.0
100
AcDbArc
 50
0.0001477148
 51
20.0
  0
ARC
  5
542
100
AcDbEntity
  8
RUNDUNGEN
100
AcDbCircle
 62
7
  6
CONTINUOUS
 10
259.4125389004
 20
196.088860615
 40
1.0
100
AcDbArc
 50
159.999999999
 51
179.9998522526
  0
ARC
  5
543
100
AcDbEntity
  8
RUNDUNGEN
100
AcDbCircle
 62
7
  6
CONTINUOUS
 10
83.8138099531
 20
113.7391078838
 40
2.5
100
AcDbArc
 50
157.1374075579
 51
162.8537344678
  0
ARC
  5
544
100
AcDbEntity
  8
RUNDUNGEN
100
AcDbCircle
 62
7
  6
CONTINUOUS
 10
178.8138099531
 20
109.7391078838
 40
2.5
100
AcDbArc
 50
337.1374075579
 51
342.8537344633
  0
ARC
  5
545
100
AcDbEntity
  8
_30_VOLUMEN
100
AcDbCircle
 62
7
  6
CONTINUOUS
 10
83.8138099531
 20
113.7391078838
 40
2.5
100
AcDbArc
 50
157.1374075579
 51
180.0
  0
ARC
  5
546
100
AcDbEntity
  8
_30_VOLUMEN
100
AcDbCircle
 62
7
  6
CONTINUOUS
 10
178.8138099531
 20
113.7391078838
 40
2.5
100
AcDbArc
 50
0.0
 51
22.8625924421
  0
ARC
  5
547
100
AcDbEntity
  8
_30_VOLUMEN
100
AcDbCircle
 62
7
  6
CONTINUOUS
 10
178.8138099531
 20
109.7391078838
 40
2.5
100
AcDbArc
 50
337.1374075579
 51
360.0
  0
ARC
  5
548
100
AcDbEntity
  8
_30_VOLUMEN
100
AcDbCircle
 62
7
  6
CONTINUOUS
 10
83.8138099531
 20
109.7391078838
 40
2.5
100
AcDbArc
 50
180.0
 51
202.8625924421
  0
ARC
  5
549
100
AcDbEntity
  8
_30_VOLUMEN
100
AcDbCircle
 62
7
  6
CONTINUOUS
 10
163.2951074003
 20
105.2391078838
 40
2.0000004283
100
AcDbArc
 50
90.0776919118
 51
169.2933922433
  0
ARC
  5
54A
100
AcDbEntity
  8
_30_VOLUMEN
100
AcDbCircle
 62
7
  6
CONTINUOUS
 10
99.3325125059
 20
118.2391078838
 40
2.0000004283
100
AcDbArc
 50
270.0776919118
 51
349.2933922433
  0
ARC
  5
54B
100
AcDbEntity
  8
RUNDUNGEN
100
AcDbCircle
 62
7
  6
CONTINUOUS
 10
83.3138099531
 20
124.7391078838
 40
2.0
100
AcDbArc
 50
89.9888674658
 51
180.0
  0
ARC
  5
54C
100
AcDbEntity
  8
RUNDUNGEN
100
AcDbCircle
 62
7
  6
CONTINUOUS
 10
83.3138099531
 20
98.7391078838
 40
2.0
100
AcDbArc
 50
180.0
 51
270.0111316663
  0
ARC
  5
54D
100
AcDbEntity
  8
RUNDUNGEN
100
AcDbCircle
 62
7
  6
CONTINUOUS
 10
179.3138099531
 20
124.7391078838
 40
2.0
100
AcDbArc
 50
0.0
 51
90.0094410936
  0
ARC
  5
54E
100
AcDbEntity
  8
RUNDUNGEN
100
AcDbCircle
 62
7
  6
CONTINUOUS
 10
179.3138099531
 20
98.7391078838
 40
2.0
100
AcDbArc
 50
269.9888674658
 51
360.0
  0
ENDSEC
  0
SECTION
  2
OBJECTS
  0
DICTIONARY
  5
C
100
AcDbDictionary
280
0
281
1
  3
ACAD_GROUP
350
D
  3
ACAD_MLINESTYLE
350
17
  3
ACAD_LAYOUT
350
1A
  3
ACAD_PLOTSETTINGS
350
19
  3
ACAD_PLOTSTYLENAME
350
E
  0
DICTIONARY
  5
D
102
{ACAD_REACTORS
330
C
102
}
100
AcDbDictionary
280
0
281
1
  0
ACDBDICTIONARYWDFLT
  5
E
102
{ACAD_REACTORS
330
C
102
}
100
AcDbDictionary
281
1
  3
Normal
350
F
100
AcDbDictionaryWithDefault
340
F
  0
DICTIONARY
  5
17
102
{ACAD_REACTORS
330
C
102
}
100
AcDbDictionary
280
0
281
1
  3
Standard
350
18
  0
DICTIONARY
  5
19
102
{ACAD_REACTORS
330
C
102
}
100
AcDbDictionary
281
1
  0
DICTIONARY
  5
1A
102
{ACAD_REACTORS
330
C
102
}
100
AcDbDictionary
281
1
  3
Model
350
54F
  3
Layout1
350
550
  0
ACDBPLACEHOLDER
  5
F
102
{ACAD_REACTORS
330
E
102
}
  0
MLINESTYLE
  5
18
102
{ACAD_REACTORS
330
17
102
}
100
AcDbMlineStyle
  2
STANDARD
 70
0
  3

 62
256
 51
90.0
 52
90.0
 71
2
 49
0.5
 62
256
  6
BYLAYER
 49
-0.5
 62
256
  6
BYLAYER
  0
LAYOUT
  5
54F
102
{ACAD_REACTORS
330
1A
102
}
100
AcDbPlotSettings
  1

  2
none_device
  4
ISO_A3_(420.00_x_297.00_MM)
  6

 40
0.0
 41
0.0
 42
0.0
 43
0.0
 44
420.0
 45
297.0
 46
0.0
 47
0.0
 48
0.0
 49
0.0
140
0.0
141
0.0
142
1.0
143
1.0
 70
1024
 72
1
 73
0
 74
0
  7

 75
0
147
1.0
148
0.0
149
0.0
100
AcDbLayout
  1
Model
 70
0
 71
0
 10
0.0
 20
0.0
 11
420.0
 21
297.0
 12
0.0
 22
0.0
 32
0.0
 14
0.0
 24
0.0
 34
0.0
 15
0.0
 25
0.0
 35
0.0
146
0.0
 13
0.0
 23
0.0
 33
0.0
 16
1.0
 26
0.0
 36
0.0
 17
0.0
 27
1.0
 37
0.0
 76
0
330
20B
345
0
346
0
  0
LAYOUT
  5
550
102
{ACAD_REACTORS
330
1A
102
}
100
AcDbPlotSettings
  1

  2
none_device
  4
ISO_A3_(420.00_x_297.00_MM)
  6

 40
0.0
 41
0.0
 42
0.0
 43
0.0
 44
420.0
 45
297.0
 46
0.0
 47
0.0
 48
0.0
 49
0.0
140
0.0
141
0.0
142
1.0
143
1.0
 70
0
 72
1
 73
0
 74
0
  7

 75
0
147
1.0
148
0.0
149
0.0
100
AcDbLayout
  1
Layout1
 70
0
 71
1
 10
0.0
 20
0.0
 11
420.0
 21
297.0
 12
0.0
 22
0.0
 32
0.0
 14
0.0
 24
0.0
 34
0.0
 15
0.0
 25
0.0
 35
0.0
146
0.0
 13
0.0
 23
0.0
 33
0.0
 16
1.0
 26
0.0
 36
0.0
 17
0.0
 27
1.0
 37
0.0
 76
0
330
20C
345
0
346
0
  0
ENDSEC
  0
EOF
