999
DXF file: 001-m36281-p-1.dxf
999
Pro/ENGINEER 2022162 by Parametric Technology Corporation
  0
SECTION
  2
HEADER
  9
$ACADVER
  1
AC1015
  9
$DWGCODEPAGE
  3
ANSI_1252
  9
$EXTMAX
 10
297.0
 20
210.0
 30
0.0
  9
$EXTMIN
 10
0.0
 20
0.0
 30
0.0
  9
$LIMMIN
 10
0.0
 20
0.0
  9
$LIMMAX
 10
297.0
 20
210.0
  9
$VIEWCTR
 10
148.5
 20
105.0
  9
$VIEWSIZE
 40
210.0
  9
$CLAYER
  8
0
  9
$LTSCALE
 40
16.335
  9
$CELTYPE
  6
BYLAYER
  9
$DIMSCALE
 40
1.0
  9
$DIMASZ
 40
3.5
  9
$DIMEXO
 40
1.5
  9
$DIMDLI
 40
11.286
  9
$DIMEXE
 40
1.5
  9
$DIMCEN
 40
2.673
  9
$DIMLFAC
 40
1.0
  9
$DIMBLK
  1
_FILLED
  9
$DIMALT
 70
0
  9
$DIMALTF
 40
0.0393700787
  9
$DIMTXT
 40
3.5
  9
$DIMTOL
 70
1
  9
$DIMLIM
 70
0
  9
$DIMTFAC
 40
1.0
  9
$DIMTP
 40
0.05
  9
$DIMTM
 40
0.05
  9
$DIMGAP
 40
0.625
  9
$DIMDSEP
 70
46
  9
$AUNITS
 70
0
  9
$PDMODE
 70
3
  9
$PDSIZE
 40
0.3125
  9
$HANDSEED
  5
593
  9
$TILEMODE
 70
1
  9
$MEASUREMENT
 70
1
  9
$INSUNITS
 70
4
  0
ENDSEC
  0
SECTION
  2
CLASSES
  0
CLASS
  1
ACDBDICTIONARYWDFLT
  2
AcDbDictionaryWithDefault
  3
AutoCAD 2000
 90
0
280
0
281
0
  0
CLASS
  1
ACDBPLACEHOLDER
  2
AcDbPlaceHolder
  3
AutoCAD 2000
 90
0
280
0
281
0
  0
CLASS
  1
LAYOUT
  2
AcDbLayout
  3
AutoCAD 2000
 90
0
280
0
281
0
  0
ENDSEC
  0
SECTION
  2
TABLES
  0
TABLE
  2
VPORT
  5
8
100
AcDbSymbolTable
 70
2
  0
VPORT
  5
1F4
100
AcDbSymbolTableRecord
100
AcDbViewportTableRecord
  2
*ACTIVE
 70
0
 10
0.0
 20
0.0
 11
1.0
 21
1.0
 12
148.5
 22
105.0
 13
0.0
 23
0.0
 14
1.0
 24
1.0
 15
0.0
 25
0.0
 16
0.0
 26
0.0
 36
1.0
 17
0.0
 27
0.0
 37
0.0
 40
210.0
 41
1.4142857143
 42
50.0
 43
0.0
 44
0.0
 50
0.0
 51
0.0
 71
0
 72
100
 73
1
 74
1
 75
0
 76
0
 77
0
 78
0
  0
ENDTAB
  0
TABLE
  2
LTYPE
  5
5
100
AcDbSymbolTable
 70
6
  0
LTYPE
  5
14
100
AcDbSymbolTableRecord
100
AcDbLinetypeTableRecord
  2
BYBLOCK
 70
0
  3

 72
65
 73
0
 40
0.0
  0
LTYPE
  5
15
100
AcDbSymbolTableRecord
100
AcDbLinetypeTableRecord
  2
BYLAYER
 70
0
  3

 72
65
 73
0
 40
0.0
  0
LTYPE
  5
16
100
AcDbSymbolTableRecord
100
AcDbLinetypeTableRecord
  2
CONTINUOUS
 70
64
  3
Solid line
 72
65
 73
0
 40
0.0
  0
LTYPE
  5
1F5
100
AcDbSymbolTableRecord
100
AcDbLinetypeTableRecord
  2
CENTER
 70
64
  3
____ _ ____ _ ____ _ ____ _ ____ _ ____ _ ____
 72
65
 73
4
 40
0.6
 49
0.375
 74
0
 49
-0.075
 74
0
 49
0.075
 74
0
 49
-0.075
 74
0
  0
LTYPE
  5
1F6
100
AcDbSymbolTableRecord
100
AcDbLinetypeTableRecord
  2
HIDDEN
 70
64
  3
- - - - - - - - - - - - - - - - - - - -
 72
65
 73
2
 40
0.2
 49
0.1
 74
0
 49
-0.1
 74
0
  0
LTYPE
  5
1F7
100
AcDbSymbolTableRecord
100
AcDbLinetypeTableRecord
  2
PHANTOM
 70
64
  3
_____ _ _ _____ _ _ _____ _ _ _____
 72
65
 73
6
 40
0.8
 49
0.45
 74
0
 49
-0.05
 74
0
 49
0.1
 74
0
 49
-0.05
 74
0
 49
0.1
 74
0
 49
-0.05
 74
0
  0
LTYPE
  5
1F8
100
AcDbSymbolTableRecord
100
AcDbLinetypeTableRecord
  2
DOT
 70
64
  3
. . . . . . . . . . . . . . . . . . . .
 72
65
 73
2
 40
0.2
 49
0.1
 74
0
 49
-0.1
 74
0
  0
LTYPE
  5
1F9
100
AcDbSymbolTableRecord
100
AcDbLinetypeTableRecord
  2
DASHED
 70
64
  3
- - - - - - - - - - - - - - - - - - - -
 72
65
 73
2
 40
0.2
 49
0.1
 74
0
 49
-0.1
 74
0
  0
ENDTAB
  0
TABLE
  2
LAYER
  5
2
100
AcDbSymbolTable
 70
36
  0
LAYER
  5
10
100
AcDbSymbolTableRecord
100
AcDbLayerTableRecord
  2
0
 70
0
 62
7
  6
CONTINUOUS
370
-3
390
F
  0
LAYER
  5
1FA
100
AcDbSymbolTableRecord
100
AcDbLayerTableRecord
  2
DEFAULT_1
 70
0
 62
7
  6
CENTER
370
-3
390
F
  0
LAYER
  5
1FB
100
AcDbSymbolTableRecord
100
AcDbLayerTableRecord
  2
DEFAULT_2
 70
0
 62
8
  6
HIDDEN
370
-3
390
F
  0
LAYER
  5
1FC
100
AcDbSymbolTableRecord
100
AcDbLayerTableRecord
  2
DEFAULT_3
 70
0
 62
7
  6
PHANTOM
370
-3
390
F
  0
LAYER
  5
1FD
100
AcDbSymbolTableRecord
100
AcDbLayerTableRecord
  2
AUSFORMSCHRAEGEN
 70
0
 62
7
  6
CONTINUOUS
370
-3
390
F
  0
LAYER
  5
1FE
100
AcDbSymbolTableRecord
100
AcDbLayerTableRecord
  2
BEZUGSACHSEN
 70
0
 62
7
  6
CONTINUOUS
370
-3
390
F
  0
LAYER
  5
1FF
100
AcDbSymbolTableRecord
100
AcDbLayerTableRecord
  2
BEZUGSEBENEN
 70
0
 62
7
  6
CONTINUOUS
370
-3
390
F
  0
LAYER
  5
200
100
AcDbSymbolTableRecord
100
AcDbLayerTableRecord
  2
FLAECHEN
 70
0
 62
7
  6
CONTINUOUS
370
-3
390
F
  0
LAYER
  5
201
100
AcDbSymbolTableRecord
100
AcDbLayerTableRecord
  2
HILFEN
 70
0
 62
7
  6
CONTINUOUS
370
-3
390
F
  0
LAYER
  5
202
100
AcDbSymbolTableRecord
100
AcDbLayerTableRecord
  2
KURVEN
 70
0
 62
7
  6
CONTINUOUS
370
-3
390
F
  0
LAYER
  5
203
100
AcDbSymbolTableRecord
100
AcDbLayerTableRecord
  2
PLATZIERUNG
 70
0
 62
7
  6
CONTINUOUS
370
-3
390
F
  0
LAYER
  5
204
100
AcDbSymbolTableRecord
100
AcDbLayerTableRecord
  2
RUNDUNGEN
 70
0
 62
7
  6
CONTINUOUS
370
-3
390
F
  0
LAYER
  5
205
100
AcDbSymbolTableRecord
100
AcDbLayerTableRecord
  2
TEIL_STARTBEZUEGE
 70
0
 62
7
  6
CONTINUOUS
370
-3
390
F
  0
LAYER
  5
206
100
AcDbSymbolTableRecord
100
AcDbLayerTableRecord
  2
ZEICHNUNGSBEMASSUNGEN
 70
0
 62
7
  6
CONTINUOUS
370
-3
390
F
  0
LAYER
  5
207
100
AcDbSymbolTableRecord
100
AcDbLayerTableRecord
  2
_04_NOTIZEN
 70
0
 62
7
  6
CONTINUOUS
370
-3
390
F
  0
LAYER
  5
208
100
AcDbSymbolTableRecord
100
AcDbLayerTableRecord
  2
_30_VOLUMEN
 70
0
 62
7
  6
CONTINUOUS
370
-3
390
F
  0
ENDTAB
  0
TABLE
  2
STYLE
  5
3
100
AcDbSymbolTable
 70
1
  0
STYLE
  5
11
100
AcDbSymbolTableRecord
100
AcDbTextStyleTableRecord
  2
STANDARD
 70
0
 40
0.0
 41
0.7
 50
0.0
 71
0
 42
0.2
  3
txt
  4

  0
STYLE
  5
209
100
AcDbSymbolTableRecord
100
AcDbTextStyleTableRecord
  2
TEXTSTYLE_1
 70
0
 40
0.0
 41
0.8
 50
0.0
 71
0
 42
0.2
  3
gdt
  4

  0
ENDTAB
  0
TABLE
  2
VIEW
  5
6
100
AcDbSymbolTable
 70
0
  0
ENDTAB
  0
TABLE
  2
UCS
  5
7
100
AcDbSymbolTable
 70
0
  0
ENDTAB
  0
TABLE
  2
APPID
  5
9
100
AcDbSymbolTable
 70
1
  0
APPID
  5
20A
100
AcDbSymbolTableRecord
100
AcDbRegAppTableRecord
  2
ACAD
 70
0
  0
ENDTAB
  0
TABLE
  2
BLOCK_RECORD
  5
1
100
AcDbSymbolTable
 70
0
  0
BLOCK_RECORD
  5
20B
100
AcDbSymbolTableRecord
100
AcDbBlockTableRecord
  2
*Model_Space
  0
BLOCK_RECORD
  5
20C
100
AcDbSymbolTableRecord
100
AcDbBlockTableRecord
  2
*Paper_Space
  0
BLOCK_RECORD
  5
20D
100
AcDbSymbolTableRecord
100
AcDbBlockTableRecord
  2
_FILLED
  0
ENDTAB
  0
TABLE
  2
DIMSTYLE
  5
A
100
AcDbSymbolTable
 70
1
100
AcDbDimStyleTable
 71
0
  0
DIMSTYLE
105
20E
100
AcDbSymbolTableRecord
100
AcDbDimStyleTableRecord
  2
STANDARD
 70
0
  3

  4

 40
1.0
 41
3.5
 42
1.5
 43
0.38
 44
1.5
 45
0.0
 46
0.0
 47
0.05
 48
0.05
140
3.5
141
0.09
142
0.0
143
25.4
144
1.0
145
0.0
146
1.0
147
0.625
 71
1
 72
0
 73
0
 74
0
 75
0
 76
0
 77
1
 78
8
 79
2
170
0
171
1
172
0
173
0
174
0
175
0
176
0
177
0
178
5
270
2
179
2
271
2
272
2
273
2
274
2
275
0
280
0
281
0
282
0
283
1
284
8
285
0
286
0
287
3
288
0
340
11
278
46
341
20D
342
20D
343
20D
344
20D
  0
ENDTAB
  0
ENDSEC
  0
SECTION
  2
BLOCKS
  0
BLOCK
  5
20
100
AcDbEntity
  8
0
100
AcDbBlockBegin
  2
*Model_Space
 70
0
 10
0.0
 20
0.0
 30
0.0
  3
*Model_Space
  1

  0
ENDBLK
  5
21
100
AcDbEntity
  8
0
100
AcDbBlockEnd
  0
BLOCK
  5
1C
100
AcDbEntity
  8
0
100
AcDbBlockBegin
  2
*Paper_Space
 70
0
 10
0.0
 20
0.0
 30
0.0
  3
*Paper_Space
  1

  0
ENDBLK
  5
1D
100
AcDbEntity
  8
0
100
AcDbBlockEnd
  0
BLOCK
  5
20F
100
AcDbEntity
  8
0
100
AcDbBlockBegin
  2
_FILLED
 70
64
 10
0.0
 20
0.0
  3
_FILLED
  1

  0
SOLID
  5
210
100
AcDbEntity
  8
0
  6
BYBLOCK
 62
0
100
AcDbTrace
 10
0.0
 20
0.0
 11
-1.0
 21
0.125
 12
-1.0
 22
-0.125
 13
-1.0
 23
-0.125
  0
ENDBLK
  5
211
100
AcDbEntity
  8
0
  6
BYBLOCK
 62
0
100
AcDbBlockEnd
  0
ENDSEC
  0
SECTION
  2
ENTITIES
  0
MTEXT
  5
212
100
AcDbEntity
  8
0
100
AcDbMText
 62
5
  6
CONTINUOUS
  7
STANDARD
 71
1
 72
1
 10
91.1663002943
 20
118.0548308917
 30
0.0
 11
1.0
 21
0.0
 31
0.0
 73
2
 44
0.9
  1
RUD INOX-ABA 0,8t
 40
3.5
 41
69.5
  0
MTEXT
  5
213
100
AcDbEntity
  8
0
100
AcDbMText
 62
5
  6
CONTINUOUS
  7
STANDARD
 71
1
 72
1
 10
200.1240251886
 20
114.7637664042
 30
0.0
 11
0.0
 21
1.0
 31
0.0
 73
2
 44
0.9
  1
RUD INOX-ABA 0,8t
 40
3.5
 41
69.5
  0
MTEXT
  5
214
100
AcDbEntity
  8
_04_NOTIZEN
100
AcDbMText
 62
5
  6
CONTINUOUS
  7
STANDARD
 71
1
 72
1
 10
90.1211009475
 20
58.4713294892
 30
0.0
 11
1.0
 21
0.0
 31
0.0
 73
2
 44
0.9
  1
RUD INOX-ABA 0,8t
 40
3.5
 41
69.5
  0
LINE
  5
215
100
AcDbEntity
  8
0
100
AcDbLine
 62
7
  6
CONTINUOUS
 10
0.0
 20
0.0
 11
0.0
 21
210.0
  0
LINE
  5
216
100
AcDbEntity
  8
0
100
AcDbLine
 62
7
  6
CONTINUOUS
 10
0.0
 20
0.0
 11
297.0
 21
0.0
  0
LINE
  5
217
100
AcDbEntity
  8
0
100
AcDbLine
 62
7
  6
CONTINUOUS
 10
0.0
 20
210.0
 11
297.0
 21
210.0
  0
LINE
  5
218
100
AcDbEntity
  8
0
100
AcDbLine
 62
7
  6
CONTINUOUS
 10
297.0
 20
0.0
 11
297.0
 21
210.0
  0
LINE
  5
219
100
AcDbEntity
  8
_30_VOLUMEN
100
AcDbLine
 62
7
  6
CONTINUOUS
 10
78.6576762543
 20
124.3667250256
 11
78.6576762543
 21
118.9272029152
  0
LINE
  5
21A
100
AcDbEntity
  8
BEZUGSACHSEN
100
AcDbLine
 62
7
  6
CONTINUOUS
 10
78.6576762543
 20
113.3391488517
 11
78.6576762543
 21
118.9206782794
  0
LINE
  5
21B
100
AcDbEntity
  8
RUNDUNGEN
100
AcDbLine
 62
7
  6
CONTINUOUS
 10
78.8039583043
 20
126.3005070884
 11
78.6576762543
 21
124.3667250256
  0
LINE
  5
21C
100
AcDbEntity
  8
RUNDUNGEN
100
AcDbLine
 62
7
  6
CONTINUOUS
 10
80.0445754918
 20
134.4537805231
 11
78.8039583043
 21
126.3005070884
  0
LINE
  5
21D
100
AcDbEntity
  8
0
100
AcDbLine
 62
7
  6
CONTINUOUS
 10
82.1714504304
 20
130.8997507785
 11
82.080837741
 21
130.3858606809
  0
LINE
  5
21E
100
AcDbEntity
  8
0
100
AcDbLine
 62
7
  6
CONTINUOUS
 10
82.4803728978
 20
132.6516694798
 11
82.3631969549
 21
131.9871316849
  0
LINE
  5
21F
100
AcDbEntity
  8
0
100
AcDbLine
 62
7
  6
CONTINUOUS
 10
82.0083604708
 20
129.9747539839
 11
81.9177464729
 21
129.4608564646
  0
LINE
  5
220
100
AcDbEntity
  8
0
100
AcDbLine
 62
7
  6
CONTINUOUS
 10
81.7002760185
 20
128.2275202303
 11
81.6096620205
 21
127.7136227109
  0
LINE
  5
221
100
AcDbEntity
  8
0
100
AcDbLine
 62
7
  6
CONTINUOUS
 10
82.3631969549
 20
131.9871316849
 11
83.0272026172
 21
130.7488585792
  0
LINE
  5
222
100
AcDbEntity
  8
0
100
AcDbLine
 62
7
  6
CONTINUOUS
 10
83.3555844863
 20
131.0195469421
 11
82.4803728978
 21
132.6516694798
  0
LINE
  5
223
100
AcDbEntity
  8
0
100
AcDbLine
 62
7
  6
CONTINUOUS
 10
83.6146285816
 20
128.8672375739
 11
83.4978528605
 21
128.2049695499
  0
LINE
  5
224
100
AcDbEntity
  8
0
100
AcDbLine
 62
7
  6
CONTINUOUS
 10
84.0105240098
 20
128.1074500241
 11
84.1297361523
 21
128.7835356802
  0
LINE
  5
225
100
AcDbEntity
  8
0
100
AcDbLine
 62
7
  6
CONTINUOUS
 10
84.6243026258
 20
131.5883636736
 11
84.740991546
 21
132.2501394252
  0
LINE
  5
226
100
AcDbEntity
  8
0
100
AcDbLine
 62
7
  6
CONTINUOUS
 10
84.3419724021
 20
129.9871616331
 11
84.4325850914
 21
130.5010517308
  0
LINE
  5
227
100
AcDbEntity
  8
0
100
AcDbLine
 62
7
  6
CONTINUOUS
 10
85.0120078296
 20
131.3832794808
 11
84.8927951853
 21
130.7071909786
  0
LINE
  5
228
100
AcDbEntity
  8
0
100
AcDbLine
 62
7
  6
CONTINUOUS
 10
84.6805906047
 20
129.5035677126
 11
84.4197669081
 21
128.0243630241
  0
LINE
  5
229
100
AcDbEntity
  8
0
100
AcDbLine
 62
7
  6
CONTINUOUS
 10
85.4079035734
 20
130.6234875578
 11
85.5246796665
 21
131.2857576912
  0
LINE
  5
22A
100
AcDbEntity
  8
0
100
AcDbLine
 62
7
  6
CONTINUOUS
 10
84.9348766034
 20
127.9406570567
 11
85.1944824056
 21
129.412954723
  0
LINE
  5
22B
100
AcDbEntity
  8
0
100
AcDbLine
 62
7
  6
CONTINUOUS
 10
86.2944729838
 20
131.4444329766
 11
86.0770025294
 21
130.2110967423
  0
LINE
  5
22C
100
AcDbEntity
  8
_30_VOLUMEN
100
AcDbLine
 62
7
  6
CONTINUOUS
 10
93.2393141134
 20
119.8116301065
 11
93.5309809192
 21
119.6677688115
  0
LINE
  5
22D
100
AcDbEntity
  8
_30_VOLUMEN
100
AcDbLine
 62
7
  6
CONTINUOUS
 10
93.2393141134
 20
119.9410396291
 11
93.5309809192
 21
119.797178334
  0
LINE
  5
22E
100
AcDbEntity
  8
_30_VOLUMEN
100
AcDbLine
 62
7
  6
CONTINUOUS
 10
93.6038977249
 20
120.2287622065
 11
93.3851477249
 21
120.372623533
  0
LINE
  5
22F
100
AcDbEntity
  8
_30_VOLUMEN
100
AcDbLine
 62
7
  6
CONTINUOUS
 10
91.7809809192
 20
122.8182655294
 11
91.489314322
 21
123.0340574436
  0
LINE
  5
230
100
AcDbEntity
  8
_30_VOLUMEN
100
AcDbLine
 62
7
  6
CONTINUOUS
 10
92.9476477249
 20
120.0993526839
 11
93.2393141134
 21
119.8116301065
  0
LINE
  5
231
100
AcDbEntity
  8
_30_VOLUMEN
100
AcDbLine
 62
7
  6
CONTINUOUS
 10
92.9476477249
 20
120.2287622065
 11
93.2393141134
 21
119.9410396291
  0
LINE
  5
232
100
AcDbEntity
  8
_30_VOLUMEN
100
AcDbLine
 62
7
  6
CONTINUOUS
 10
91.4163975163
 20
122.5449947308
 11
91.5622309192
 21
122.4011334546
  0
LINE
  5
233
100
AcDbEntity
  8
_30_VOLUMEN
100
AcDbLine
 62
7
  6
CONTINUOUS
 10
91.4163975163
 20
122.6744042533
 11
91.5622309192
 21
122.5305429772
  0
LINE
  5
234
100
AcDbEntity
  8
_30_VOLUMEN
100
AcDbLine
 62
7
  6
CONTINUOUS
 10
91.9997309192
 20
122.5305429772
 11
91.7809809192
 21
122.8182655294
  0
LINE
  5
235
100
AcDbEntity
  8
_30_VOLUMEN
100
AcDbLine
 62
7
  6
CONTINUOUS
 10
93.3851477249
 20
120.372623533
 11
93.2393141134
 21
120.5884154472
  0
LINE
  5
236
100
AcDbEntity
  8
_30_VOLUMEN
100
AcDbLine
 62
7
  6
CONTINUOUS
 10
92.801814322
 20
120.3870752866
 11
92.9476477249
 21
120.0993526839
  0
LINE
  5
237
100
AcDbEntity
  8
_30_VOLUMEN
100
AcDbLine
 62
7
  6
CONTINUOUS
 10
92.801814322
 20
120.5164848091
 11
92.9476477249
 21
120.2287622065
  0
LINE
  5
238
100
AcDbEntity
  8
_30_VOLUMEN
100
AcDbLine
 62
7
  6
CONTINUOUS
 10
92.145564322
 20
119.7252476897
 11
91.489314322
 21
121.3796525666
  0
LINE
  5
239
100
AcDbEntity
  8
_30_VOLUMEN
100
AcDbLine
 62
7
  6
CONTINUOUS
 10
91.0518142177
 20
121.106381768
 11
91.6351475163
 21
119.5958381671
  0
LINE
  5
23A
100
AcDbEntity
  8
_30_VOLUMEN
100
AcDbLine
 62
7
  6
CONTINUOUS
 10
91.0518142177
 20
121.2357912905
 11
91.6351475163
 21
119.7252476897
  0
LINE
  5
23B
100
AcDbEntity
  8
_30_VOLUMEN
100
AcDbLine
 62
7
  6
CONTINUOUS
 10
91.5622309192
 20
122.4011334546
 11
91.6351475163
 21
122.1853415404
  0
LINE
  5
23C
100
AcDbEntity
  8
_30_VOLUMEN
100
AcDbLine
 62
7
  6
CONTINUOUS
 10
91.5622309192
 20
122.5305429772
 11
91.6351475163
 21
122.314751063
  0
LINE
  5
23D
100
AcDbEntity
  8
_30_VOLUMEN
100
AcDbLine
 62
7
  6
CONTINUOUS
 10
92.0726475163
 20
122.314751063
 11
91.9997309192
 21
122.5305429772
  0
LINE
  5
23E
100
AcDbEntity
  8
_30_VOLUMEN
100
AcDbLine
 62
7
  6
CONTINUOUS
 10
89.3747309192
 20
119.5958381671
 11
89.3747309192
 21
123.1059880817
  0
LINE
  5
23F
100
AcDbEntity
  8
_30_VOLUMEN
100
AcDbLine
 62
7
  6
CONTINUOUS
 10
89.8122309192
 20
119.5958381671
 11
89.8122309192
 21
121.2357912905
  0
LINE
  5
240
100
AcDbEntity
  8
_30_VOLUMEN
100
AcDbLine
 62
7
  6
CONTINUOUS
 10
89.8122309192
 20
121.6673751189
 11
89.8122309192
 21
122.7463348914
  0
LINE
  5
241
100
AcDbEntity
  8
_30_VOLUMEN
100
AcDbLine
 62
7
  6
CONTINUOUS
 10
91.0518142177
 20
121.106381768
 11
91.0518142177
 21
121.2357912905
  0
LINE
  5
242
100
AcDbEntity
  8
0
100
AcDbLine
 62
7
  6
CONTINUOUS
 10
86.5908926271
 20
130.1204840529
 11
86.8083630815
 21
131.3538202873
  0
LINE
  5
243
100
AcDbEntity
  8
0
100
AcDbLine
 62
7
  6
CONTINUOUS
 10
86.4278186399
 20
129.1954842686
 11
86.1682128377
 21
127.7231866023
  0
LINE
  5
244
100
AcDbEntity
  8
0
100
AcDbLine
 62
7
  6
CONTINUOUS
 10
86.6808867442
 20
127.6256665904
 11
86.9417104407
 21
129.1048712789
  0
LINE
  5
245
100
AcDbEntity
  8
0
100
AcDbLine
 62
7
  6
CONTINUOUS
 10
87.0141992836
 20
129.5159759353
 11
87.1048120026
 21
130.0298662011
  0
LINE
  5
246
100
AcDbEntity
  8
0
100
AcDbLine
 62
7
  6
CONTINUOUS
 10
87.322282457
 20
131.2632024354
 11
87.4128951463
 21
131.7770925331
  0
LINE
  5
247
100
AcDbEntity
  8
BEZUGSACHSEN
100
AcDbLine
 62
7
  6
CONTINUOUS
 10
88.4728268118
 20
137.2525660755
 11
94.4963081619
 21
151.7945364434
  0
LINE
  5
248
100
AcDbEntity
  8
RUNDUNGEN
100
AcDbLine
 62
7
  6
CONTINUOUS
 10
148.6576762543
 20
113.3391488517
 11
147.1576762543
 21
113.3391488517
  0
LINE
  5
249
100
AcDbEntity
  8
BEZUGSACHSEN
100
AcDbLine
 62
7
  6
CONTINUOUS
 10
78.6576762543
 20
113.3391488517
 11
147.1576762543
 21
113.3391488517
  0
LINE
  5
24A
100
AcDbEntity
  8
BEZUGSACHSEN
100
AcDbLine
 62
7
  6
CONTINUOUS
 10
89.0524845089
 20
132.026314154
 11
88.4728267862
 21
133.4257316899
  0
LINE
  5
24B
100
AcDbEntity
  8
_30_VOLUMEN
100
AcDbLine
 62
7
  6
CONTINUOUS
 10
93.2393141134
 20
120.5884154472
 11
93.1663977249
 21
120.8761379994
  0
LINE
  5
24C
100
AcDbEntity
  8
_30_VOLUMEN
100
AcDbLine
 62
7
  6
CONTINUOUS
 10
92.7288975163
 20
120.7467284769
 11
92.801814322
 21
120.3870752866
  0
LINE
  5
24D
100
AcDbEntity
  8
_30_VOLUMEN
100
AcDbLine
 62
7
  6
CONTINUOUS
 10
92.7288975163
 20
120.8761379994
 11
92.801814322
 21
120.5164848091
  0
LINE
  5
24E
100
AcDbEntity
  8
_30_VOLUMEN
100
AcDbLine
 62
7
  6
CONTINUOUS
 10
91.1976475163
 20
122.6169253688
 11
91.1976475163
 21
122.7463348914
  0
LINE
  5
24F
100
AcDbEntity
  8
_30_VOLUMEN
100
AcDbLine
 62
7
  6
CONTINUOUS
 10
91.4163975163
 20
122.5449947308
 11
91.4163975163
 21
122.6744042533
  0
LINE
  5
250
100
AcDbEntity
  8
_30_VOLUMEN
100
AcDbLine
 62
7
  6
CONTINUOUS
 10
91.5622309192
 20
122.4011334546
 11
91.5622309192
 21
122.5305429772
  0
LINE
  5
251
100
AcDbEntity
  8
_30_VOLUMEN
100
AcDbLine
 62
7
  6
CONTINUOUS
 10
91.6351475163
 20
122.314751063
 11
91.6351475163
 21
122.0989589473
  0
LINE
  5
252
100
AcDbEntity
  8
_30_VOLUMEN
100
AcDbLine
 62
7
  6
CONTINUOUS
 10
91.6351475163
 20
119.5958381671
 11
91.6351475163
 21
119.7252476897
  0
LINE
  5
253
100
AcDbEntity
  8
_30_VOLUMEN
100
AcDbLine
 62
7
  6
CONTINUOUS
 10
91.7809809192
 20
121.3941043202
 11
91.7809809192
 21
121.5235138428
  0
LINE
  5
254
100
AcDbEntity
  8
_30_VOLUMEN
100
AcDbLine
 62
7
  6
CONTINUOUS
 10
91.9997309192
 20
121.6818268725
 11
91.9997309192
 21
121.811236395
  0
LINE
  5
255
100
AcDbEntity
  8
_30_VOLUMEN
100
AcDbLine
 62
7
  6
CONTINUOUS
 10
92.0726475163
 20
121.8976187867
 11
92.0726475163
 21
122.314751063
  0
LINE
  5
256
100
AcDbEntity
  8
_30_VOLUMEN
100
AcDbLine
 62
7
  6
CONTINUOUS
 10
92.145564322
 20
119.5958381671
 11
92.145564322
 21
119.7252476897
  0
LINE
  5
257
100
AcDbEntity
  8
_30_VOLUMEN
100
AcDbLine
 62
7
  6
CONTINUOUS
 10
92.7288975163
 20
120.7467284769
 11
92.7288975163
 21
123.1059880817
  0
LINE
  5
258
100
AcDbEntity
  8
_30_VOLUMEN
100
AcDbLine
 62
7
  6
CONTINUOUS
 10
92.801814322
 20
120.3870752866
 11
92.801814322
 21
120.5164848091
  0
LINE
  5
259
100
AcDbEntity
  8
_30_VOLUMEN
100
AcDbLine
 62
7
  6
CONTINUOUS
 10
92.9476477249
 20
120.0993526839
 11
92.9476477249
 21
120.2287622065
  0
LINE
  5
25A
100
AcDbEntity
  8
_30_VOLUMEN
100
AcDbLine
 62
7
  6
CONTINUOUS
 10
93.1663977249
 20
120.8761379994
 11
93.1663977249
 21
123.1059880817
  0
LINE
  5
25B
100
AcDbEntity
  8
_30_VOLUMEN
100
AcDbLine
 62
7
  6
CONTINUOUS
 10
93.2393141134
 20
119.8116301065
 11
93.2393141134
 21
119.9410396291
  0
LINE
  5
25C
100
AcDbEntity
  8
_30_VOLUMEN
100
AcDbLine
 62
7
  6
CONTINUOUS
 10
93.5309809192
 20
119.6677688115
 11
93.5309809192
 21
119.797178334
  0
LINE
  5
25D
100
AcDbEntity
  8
_30_VOLUMEN
100
AcDbLine
 62
7
  6
CONTINUOUS
 10
93.8955641134
 20
119.5958381671
 11
93.8955641134
 21
119.7252476897
  0
LINE
  5
25E
100
AcDbEntity
  8
RUNDUNGEN
100
AcDbLine
 62
7
  6
CONTINUOUS
 10
97.2022886626
 20
154.5005169441
 11
111.7442590925
 21
160.5239983198
  0
LINE
  5
25F
100
AcDbEntity
  8
_30_VOLUMEN
100
AcDbLine
 62
7
  6
CONTINUOUS
 10
93.5309809192
 20
119.6677688115
 11
93.8955641134
 21
119.5958381671
  0
LINE
  5
260
100
AcDbEntity
  8
_30_VOLUMEN
100
AcDbLine
 62
7
  6
CONTINUOUS
 10
93.5309809192
 20
119.797178334
 11
93.8955641134
 21
119.7252476897
  0
LINE
  5
261
100
AcDbEntity
  8
_30_VOLUMEN
100
AcDbLine
 62
7
  6
CONTINUOUS
 10
93.8955641134
 20
120.1568315684
 11
93.6038977249
 21
120.2287622065
  0
LINE
  5
262
100
AcDbEntity
  8
_30_VOLUMEN
100
AcDbLine
 62
7
  6
CONTINUOUS
 10
91.1976475163
 20
122.6169253688
 11
91.4163975163
 21
122.5449947308
  0
LINE
  5
263
100
AcDbEntity
  8
_30_VOLUMEN
100
AcDbLine
 62
7
  6
CONTINUOUS
 10
91.1976475163
 20
122.7463348914
 11
91.4163975163
 21
122.6744042533
  0
LINE
  5
264
100
AcDbEntity
  8
_30_VOLUMEN
100
AcDbLine
 62
7
  6
CONTINUOUS
 10
98.3434809192
 20
122.8901961675
 11
98.0518145307
 21
123.0340574436
  0
LINE
  5
265
100
AcDbEntity
  8
_30_VOLUMEN
100
AcDbLine
 62
7
  6
CONTINUOUS
 10
97.9788973077
 20
122.4730640927
 11
98.1976473077
 21
122.3292028166
  0
LINE
  5
266
100
AcDbEntity
  8
_30_VOLUMEN
100
AcDbLine
 62
7
  6
CONTINUOUS
 10
97.9788973077
 20
122.6024736152
 11
98.1976473077
 21
122.4586123391
  0
LINE
  5
267
100
AcDbEntity
  8
_30_VOLUMEN
100
AcDbLine
 62
7
  6
CONTINUOUS
 10
98.6351473077
 20
122.6024736152
 11
98.3434809192
 21
122.8901961675
  0
LINE
  5
268
100
AcDbEntity
  8
_30_VOLUMEN
100
AcDbLine
 62
7
  6
CONTINUOUS
 10
98.1976473077
 20
122.3292028166
 11
98.3434809192
 21
122.1134107009
  0
LINE
  5
269
100
AcDbEntity
  8
_30_VOLUMEN
100
AcDbLine
 62
7
  6
CONTINUOUS
 10
98.1976473077
 20
122.4586123391
 11
98.3434809192
 21
122.2428202234
  0
LINE
  5
26A
100
AcDbEntity
  8
_30_VOLUMEN
100
AcDbLine
 62
7
  6
CONTINUOUS
 10
98.7809809192
 20
122.314751063
 11
98.6351473077
 21
122.6024736152
  0
LINE
  5
26B
100
AcDbEntity
  8
_30_VOLUMEN
100
AcDbLine
 62
7
  6
CONTINUOUS
 10
94.1872309192
 20
119.5958381671
 11
94.1872309192
 21
119.7252476897
  0
LINE
  5
26C
100
AcDbEntity
  8
_30_VOLUMEN
100
AcDbLine
 62
7
  6
CONTINUOUS
 10
94.5518141134
 20
119.6677688115
 11
94.5518141134
 21
119.797178334
  0
LINE
  5
26D
100
AcDbEntity
  8
_30_VOLUMEN
100
AcDbLine
 62
7
  6
CONTINUOUS
 10
94.8434809192
 20
119.8116301065
 11
94.8434809192
 21
119.9410396291
  0
LINE
  5
26E
100
AcDbEntity
  8
_30_VOLUMEN
100
AcDbLine
 62
7
  6
CONTINUOUS
 10
94.9163977249
 20
123.1059880817
 11
94.9163977249
 21
120.8761379994
  0
LINE
  5
26F
100
AcDbEntity
  8
_30_VOLUMEN
100
AcDbLine
 62
7
  6
CONTINUOUS
 10
95.1351477249
 20
120.0993526839
 11
95.1351477249
 21
120.2287622065
  0
LINE
  5
270
100
AcDbEntity
  8
_30_VOLUMEN
100
AcDbLine
 62
7
  6
CONTINUOUS
 10
95.2809809192
 20
120.3870752866
 11
95.2809809192
 21
120.5164848091
  0
LINE
  5
271
100
AcDbEntity
  8
_30_VOLUMEN
100
AcDbLine
 62
7
  6
CONTINUOUS
 10
95.3538977249
 20
120.7467284769
 11
95.3538977249
 21
123.1059880817
  0
LINE
  5
272
100
AcDbEntity
  8
_30_VOLUMEN
100
AcDbLine
 62
7
  6
CONTINUOUS
 10
95.9372309192
 20
119.5958381671
 11
95.9372309192
 21
123.1059880817
  0
LINE
  5
273
100
AcDbEntity
  8
_30_VOLUMEN
100
AcDbLine
 62
7
  6
CONTINUOUS
 10
96.3747309192
 20
120.1568315684
 11
96.3747309192
 21
122.6744042533
  0
LINE
  5
274
100
AcDbEntity
  8
BEZUGSACHSEN
100
AcDbLine
 62
7
  6
CONTINUOUS
 10
87.3081686122
 20
123.9883287354
 11
89.0523608345
 21
128.1991812538
  0
LINE
  5
275
100
AcDbEntity
  8
_30_VOLUMEN
100
AcDbLine
 62
7
  6
CONTINUOUS
 10
89.3747309192
 20
119.5958381671
 11
89.8122309192
 21
119.5958381671
  0
LINE
  5
276
100
AcDbEntity
  8
_30_VOLUMEN
100
AcDbLine
 62
7
  6
CONTINUOUS
 10
91.6351475163
 20
119.5958381671
 11
92.145564322
 21
119.5958381671
  0
LINE
  5
277
100
AcDbEntity
  8
_30_VOLUMEN
100
AcDbLine
 62
7
  6
CONTINUOUS
 10
93.8955641134
 20
119.5958381671
 11
94.1872309192
 21
119.5958381671
  0
LINE
  5
278
100
AcDbEntity
  8
_30_VOLUMEN
100
AcDbLine
 62
7
  6
CONTINUOUS
 10
95.9372309192
 20
119.5958381671
 11
97.6872309192
 21
119.5958381671
  0
LINE
  5
279
100
AcDbEntity
  8
_30_VOLUMEN
100
AcDbLine
 62
7
  6
CONTINUOUS
 10
89.3747309192
 20
119.7252476897
 11
89.8122309192
 21
119.7252476897
  0
LINE
  5
27A
100
AcDbEntity
  8
_30_VOLUMEN
100
AcDbLine
 62
7
  6
CONTINUOUS
 10
91.6351475163
 20
119.7252476897
 11
92.145564322
 21
119.7252476897
  0
LINE
  5
27B
100
AcDbEntity
  8
_30_VOLUMEN
100
AcDbLine
 62
7
  6
CONTINUOUS
 10
93.8955641134
 20
119.7252476897
 11
94.1872309192
 21
119.7252476897
  0
LINE
  5
27C
100
AcDbEntity
  8
_30_VOLUMEN
100
AcDbLine
 62
7
  6
CONTINUOUS
 10
95.9372309192
 20
119.7252476897
 11
97.6872309192
 21
119.7252476897
  0
LINE
  5
27D
100
AcDbEntity
  8
_30_VOLUMEN
100
AcDbLine
 62
7
  6
CONTINUOUS
 10
97.6872309192
 20
120.1568315684
 11
96.3747309192
 21
120.1568315684
  0
LINE
  5
27E
100
AcDbEntity
  8
_30_VOLUMEN
100
AcDbLine
 62
7
  6
CONTINUOUS
 10
94.1872309192
 20
120.1568315684
 11
93.8955641134
 21
120.1568315684
  0
LINE
  5
27F
100
AcDbEntity
  8
_30_VOLUMEN
100
AcDbLine
 62
7
  6
CONTINUOUS
 10
89.8122309192
 20
121.106381768
 11
91.0518142177
 21
121.106381768
  0
LINE
  5
280
100
AcDbEntity
  8
_30_VOLUMEN
100
AcDbLine
 62
7
  6
CONTINUOUS
 10
89.8122309192
 20
121.2357912905
 11
91.0518142177
 21
121.2357912905
  0
LINE
  5
281
100
AcDbEntity
  8
_30_VOLUMEN
100
AcDbLine
 62
7
  6
CONTINUOUS
 10
91.489314322
 20
123.0340574436
 11
91.1247309192
 21
123.1059880817
  0
LINE
  5
282
100
AcDbEntity
  8
_30_VOLUMEN
100
AcDbLine
 62
7
  6
CONTINUOUS
 10
98.0518145307
 20
123.0340574436
 11
97.6872309192
 21
123.1059880817
  0
LINE
  5
283
100
AcDbEntity
  8
_30_VOLUMEN
100
AcDbLine
 62
7
  6
CONTINUOUS
 10
97.6872309192
 20
122.5449947308
 11
97.9788973077
 21
122.4730640927
  0
LINE
  5
284
100
AcDbEntity
  8
_30_VOLUMEN
100
AcDbLine
 62
7
  6
CONTINUOUS
 10
97.6872309192
 20
122.6744042533
 11
97.9788973077
 21
122.6024736152
  0
LINE
  5
285
100
AcDbEntity
  8
_30_VOLUMEN
100
AcDbLine
 62
7
  6
CONTINUOUS
 10
98.3434809192
 20
122.1134107009
 11
98.4163973077
 21
121.8256881486
  0
LINE
  5
286
100
AcDbEntity
  8
_30_VOLUMEN
100
AcDbLine
 62
7
  6
CONTINUOUS
 10
98.3434809192
 20
122.2428202234
 11
98.4163973077
 21
121.9550976712
  0
LINE
  5
287
100
AcDbEntity
  8
_30_VOLUMEN
100
AcDbLine
 62
7
  6
CONTINUOUS
 10
98.8538973077
 20
121.9550976712
 11
98.7809809192
 21
122.314751063
  0
LINE
  5
288
100
AcDbEntity
  8
_30_VOLUMEN
100
AcDbLine
 62
7
  6
CONTINUOUS
 10
97.6872309192
 20
119.5958381671
 11
97.6872309192
 21
119.7252476897
  0
LINE
  5
289
100
AcDbEntity
  8
_30_VOLUMEN
100
AcDbLine
 62
7
  6
CONTINUOUS
 10
97.6872309192
 20
122.5449947308
 11
97.6872309192
 21
122.6744042533
  0
LINE
  5
28A
100
AcDbEntity
  8
_30_VOLUMEN
100
AcDbLine
 62
7
  6
CONTINUOUS
 10
97.9788973077
 20
122.4730640927
 11
97.9788973077
 21
122.6024736152
  0
LINE
  5
28B
100
AcDbEntity
  8
_30_VOLUMEN
100
AcDbLine
 62
7
  6
CONTINUOUS
 10
98.0518145307
 20
119.6677688115
 11
98.0518145307
 21
119.797178334
  0
LINE
  5
28C
100
AcDbEntity
  8
_30_VOLUMEN
100
AcDbLine
 62
7
  6
CONTINUOUS
 10
98.1976473077
 20
122.3292028166
 11
98.1976473077
 21
122.4586123391
  0
LINE
  5
28D
100
AcDbEntity
  8
_30_VOLUMEN
100
AcDbLine
 62
7
  6
CONTINUOUS
 10
98.3434809192
 20
119.8116301065
 11
98.3434809192
 21
119.9410396291
  0
LINE
  5
28E
100
AcDbEntity
  8
_30_VOLUMEN
100
AcDbLine
 62
7
  6
CONTINUOUS
 10
98.3434809192
 20
122.1134107009
 11
98.3434809192
 21
122.2428202234
  0
LINE
  5
28F
100
AcDbEntity
  8
_30_VOLUMEN
100
AcDbLine
 62
7
  6
CONTINUOUS
 10
98.4163973077
 20
121.9550976712
 11
98.4163973077
 21
120.8761379994
  0
LINE
  5
290
100
AcDbEntity
  8
_30_VOLUMEN
100
AcDbLine
 62
7
  6
CONTINUOUS
 10
98.6351473077
 20
120.0993526839
 11
98.6351473077
 21
120.2287622065
  0
LINE
  5
291
100
AcDbEntity
  8
_30_VOLUMEN
100
AcDbLine
 62
7
  6
CONTINUOUS
 10
98.7809809192
 20
120.3870752866
 11
98.7809809192
 21
120.5164848091
  0
LINE
  5
292
100
AcDbEntity
  8
_30_VOLUMEN
100
AcDbLine
 62
7
  6
CONTINUOUS
 10
98.8538973077
 20
120.7467284769
 11
98.8538973077
 21
121.9550976712
  0
LINE
  5
293
100
AcDbEntity
  8
_30_VOLUMEN
100
AcDbLine
 62
7
  6
CONTINUOUS
 10
95.2809809192
 20
120.5164848091
 11
95.3538977249
 21
120.8761379994
  0
LINE
  5
294
100
AcDbEntity
  8
_30_VOLUMEN
100
AcDbLine
 62
7
  6
CONTINUOUS
 10
95.2809809192
 20
120.3870752866
 11
95.3538977249
 21
120.7467284769
  0
LINE
  5
295
100
AcDbEntity
  8
_30_VOLUMEN
100
AcDbLine
 62
7
  6
CONTINUOUS
 10
91.6351475163
 20
122.0989589473
 11
91.5622309192
 21
121.8831670331
  0
LINE
  5
296
100
AcDbEntity
  8
_30_VOLUMEN
100
AcDbLine
 62
7
  6
CONTINUOUS
 10
91.9997309192
 20
121.811236395
 11
92.0726475163
 21
122.0270283092
  0
LINE
  5
297
100
AcDbEntity
  8
_30_VOLUMEN
100
AcDbLine
 62
7
  6
CONTINUOUS
 10
91.9997309192
 20
121.6818268725
 11
92.0726475163
 21
121.8976187867
  0
LINE
  5
298
100
AcDbEntity
  8
0
100
AcDbLine
 62
7
  6
CONTINUOUS
 10
84.740991546
 20
132.2501394252
 11
83.3555844863
 21
131.0195469421
  0
LINE
  5
299
100
AcDbEntity
  8
0
100
AcDbLine
 62
7
  6
CONTINUOUS
 10
83.5711868008
 20
130.6529394905
 11
84.6243026258
 21
131.5883636736
  0
LINE
  5
29A
100
AcDbEntity
  8
0
100
AcDbLine
 62
7
  6
CONTINUOUS
 10
142.3370260286
 20
129.970694846
 11
141.8963247699
 21
129.8670747637
  0
LINE
  5
29B
100
AcDbEntity
  8
0
100
AcDbLine
 62
7
  6
CONTINUOUS
 10
142.0358447979
 20
129.5302436199
 11
142.4077465252
 21
129.6053660032
  0
LINE
  5
29C
100
AcDbEntity
  8
_30_VOLUMEN
100
AcDbLine
 62
7
  6
CONTINUOUS
 10
97.6872309192
 20
119.5958381671
 11
98.0518145307
 21
119.6677688115
  0
LINE
  5
29D
100
AcDbEntity
  8
_30_VOLUMEN
100
AcDbLine
 62
7
  6
CONTINUOUS
 10
97.6872309192
 20
119.7252476897
 11
98.0518145307
 21
119.797178334
  0
LINE
  5
29E
100
AcDbEntity
  8
_30_VOLUMEN
100
AcDbLine
 62
7
  6
CONTINUOUS
 10
94.1872309192
 20
119.5958381671
 11
94.5518141134
 21
119.6677688115
  0
LINE
  5
29F
100
AcDbEntity
  8
_30_VOLUMEN
100
AcDbLine
 62
7
  6
CONTINUOUS
 10
94.1872309192
 20
119.7252476897
 11
94.5518141134
 21
119.797178334
  0
LINE
  5
2A0
100
AcDbEntity
  8
_30_VOLUMEN
100
AcDbLine
 62
7
  6
CONTINUOUS
 10
91.1976475163
 20
121.6673751189
 11
89.8122309192
 21
121.6673751189
  0
LINE
  5
2A1
100
AcDbEntity
  8
_30_VOLUMEN
100
AcDbLine
 62
7
  6
CONTINUOUS
 10
96.3747309192
 20
122.5449947308
 11
97.6872309192
 21
122.5449947308
  0
LINE
  5
2A2
100
AcDbEntity
  8
_30_VOLUMEN
100
AcDbLine
 62
7
  6
CONTINUOUS
 10
89.8122309192
 20
122.6169253688
 11
91.1976475163
 21
122.6169253688
  0
LINE
  5
2A3
100
AcDbEntity
  8
_30_VOLUMEN
100
AcDbLine
 62
7
  6
CONTINUOUS
 10
96.3747309192
 20
122.6744042533
 11
97.6872309192
 21
122.6744042533
  0
LINE
  5
2A4
100
AcDbEntity
  8
_30_VOLUMEN
100
AcDbLine
 62
7
  6
CONTINUOUS
 10
89.8122309192
 20
122.7463348914
 11
91.1976475163
 21
122.7463348914
  0
LINE
  5
2A5
100
AcDbEntity
  8
_30_VOLUMEN
100
AcDbLine
 62
7
  6
CONTINUOUS
 10
97.6872309192
 20
123.1059880817
 11
95.9372309192
 21
123.1059880817
  0
LINE
  5
2A6
100
AcDbEntity
  8
_30_VOLUMEN
100
AcDbLine
 62
7
  6
CONTINUOUS
 10
95.3538977249
 20
123.1059880817
 11
94.9163977249
 21
123.1059880817
  0
LINE
  5
2A7
100
AcDbEntity
  8
_30_VOLUMEN
100
AcDbLine
 62
7
  6
CONTINUOUS
 10
93.1663977249
 20
123.1059880817
 11
92.7288975163
 21
123.1059880817
  0
LINE
  5
2A8
100
AcDbEntity
  8
_30_VOLUMEN
100
AcDbLine
 62
7
  6
CONTINUOUS
 10
91.1247309192
 20
123.1059880817
 11
89.3747309192
 21
123.1059880817
  0
LINE
  5
2A9
100
AcDbEntity
  8
0
100
AcDbLine
 62
7
  6
CONTINUOUS
 10
81.6096620205
 20
127.7136227109
 11
83.0888588643
 21
127.4528003976
  0
LINE
  5
2AA
100
AcDbEntity
  8
0
100
AcDbLine
 62
7
  6
CONTINUOUS
 10
85.0813170057
 20
127.1014762693
 11
85.7435850297
 21
126.9847005482
  0
LINE
  5
2AB
100
AcDbEntity
  8
0
100
AcDbLine
 62
7
  6
CONTINUOUS
 10
85.8341990277
 20
127.4985980676
 11
85.1719310036
 21
127.6153737887
  0
LINE
  5
2AC
100
AcDbEntity
  8
0
100
AcDbLine
 62
7
  6
CONTINUOUS
 10
83.1725648159
 20
127.9679159919
 11
81.7002760185
 21
128.2275202303
  0
LINE
  5
2AD
100
AcDbEntity
  8
0
100
AcDbLine
 62
7
  6
CONTINUOUS
 10
81.9177464729
 20
129.4608564646
 11
83.3900352703
 21
129.2012522262
  0
LINE
  5
2AE
100
AcDbEntity
  8
_30_VOLUMEN
100
AcDbLine
 62
7
  6
CONTINUOUS
 10
94.9163977249
 20
120.8761379994
 11
94.8434809192
 21
120.5884154472
  0
LINE
  5
2AF
100
AcDbEntity
  8
_30_VOLUMEN
100
AcDbLine
 62
7
  6
CONTINUOUS
 10
97.9788973077
 20
120.2287622065
 11
97.6872309192
 21
120.1568315684
  0
LINE
  5
2B0
100
AcDbEntity
  8
_30_VOLUMEN
100
AcDbLine
 62
7
  6
CONTINUOUS
 10
94.4788977249
 20
120.2287622065
 11
94.1872309192
 21
120.1568315684
  0
LINE
  5
2B1
100
AcDbEntity
  8
0
100
AcDbLine
 62
7
  6
CONTINUOUS
 10
142.0931187649
 20
131.9217002966
 11
142.5338199572
 21
132.0253202668
  0
LINE
  5
2B2
100
AcDbEntity
  8
0
100
AcDbLine
 62
7
  6
CONTINUOUS
 10
142.3942999567
 20
132.3621513443
 11
142.0223982983
 21
132.2870290672
  0
LINE
  5
2B3
100
AcDbEntity
  8
BEZUGSACHSEN
100
AcDbLine
 62
7
  6
CONTINUOUS
 10
79.9233772385
 20
120.4022666065
 11
83.4697430883
 21
120.9630904286
  0
LINE
  5
2B4
100
AcDbEntity
  8
0
100
AcDbLine
 62
7
  6
CONTINUOUS
 10
143.2842959136
 20
125.1540546415
 11
143.684101726
 21
125.1618104677
  0
LINE
  5
2B5
100
AcDbEntity
  8
0
100
AcDbLine
 62
7
  6
CONTINUOUS
 10
143.2857620114
 20
127.6802435693
 11
142.8859563104
 21
127.6724873376
  0
LINE
  5
2B6
100
AcDbEntity
  8
RUNDUNGEN
100
AcDbLine
 62
7
  6
CONTINUOUS
 10
147.3919752701
 20
120.4022666065
 11
143.8456094203
 21
120.9630904286
  0
LINE
  5
2B7
100
AcDbEntity
  8
0
100
AcDbLine
 62
7
  6
CONTINUOUS
 10
86.9417104407
 20
129.1048712789
 11
86.4278186399
 21
129.1954842686
  0
LINE
  5
2B8
100
AcDbEntity
  8
0
100
AcDbLine
 62
7
  6
CONTINUOUS
 10
85.1944824056
 20
129.412954723
 11
84.6805906047
 21
129.5035677126
  0
LINE
  5
2B9
100
AcDbEntity
  8
0
100
AcDbLine
 62
7
  6
CONTINUOUS
 10
83.4875573147
 20
129.7139316705
 11
82.0083604708
 21
129.9747539839
  0
LINE
  5
2BA
100
AcDbEntity
  8
0
100
AcDbLine
 62
7
  6
CONTINUOUS
 10
82.080837741
 20
130.3858606809
 11
84.3419724021
 21
129.9871616331
  0
LINE
  5
2BB
100
AcDbEntity
  8
0
100
AcDbLine
 62
7
  6
CONTINUOUS
 10
85.5349754373
 20
129.7768030099
 11
87.0141992836
 21
129.5159759353
  0
LINE
  5
2BC
100
AcDbEntity
  8
0
100
AcDbLine
 62
7
  6
CONTINUOUS
 10
87.1048120026
 20
130.0298662011
 11
86.5908926271
 21
130.1204840529
  0
LINE
  5
2BD
100
AcDbEntity
  8
0
100
AcDbLine
 62
7
  6
CONTINUOUS
 10
86.0770025294
 20
130.2110967423
 11
85.6324972566
 21
130.2894750149
  0
LINE
  5
2BE
100
AcDbEntity
  8
0
100
AcDbLine
 62
7
  6
CONTINUOUS
 10
84.4325850914
 20
130.5010517308
 11
83.5711868008
 21
130.6529394905
  0
LINE
  5
2BF
100
AcDbEntity
  8
0
100
AcDbLine
 62
7
  6
CONTINUOUS
 10
83.0272026172
 20
130.7488585792
 11
82.1714504304
 21
130.8997507785
  0
LINE
  5
2C0
100
AcDbEntity
  8
0
100
AcDbLine
 62
7
  6
CONTINUOUS
 10
85.849967711
 20
131.5228112492
 11
86.2944729838
 21
131.4444329766
  0
LINE
  5
2C1
100
AcDbEntity
  8
0
100
AcDbLine
 62
7
  6
CONTINUOUS
 10
86.8083630815
 20
131.3538202873
 11
87.322282457
 21
131.2632024354
  0
LINE
  5
2C2
100
AcDbEntity
  8
_30_VOLUMEN
100
AcDbLine
 62
7
  6
CONTINUOUS
 10
98.7809809192
 20
120.5164848091
 11
98.8538973077
 21
120.8761379994
  0
LINE
  5
2C3
100
AcDbEntity
  8
_30_VOLUMEN
100
AcDbLine
 62
7
  6
CONTINUOUS
 10
98.7809809192
 20
120.3870752866
 11
98.8538973077
 21
120.7467284769
  0
LINE
  5
2C4
100
AcDbEntity
  8
_30_VOLUMEN
100
AcDbLine
 62
7
  6
CONTINUOUS
 10
98.4163973077
 20
120.8761379994
 11
98.3434809192
 21
120.5884154472
  0
LINE
  5
2C5
100
AcDbEntity
  8
_30_VOLUMEN
100
AcDbLine
 62
7
  6
CONTINUOUS
 10
95.1351477249
 20
120.2287622065
 11
95.2809809192
 21
120.5164848091
  0
LINE
  5
2C6
100
AcDbEntity
  8
_30_VOLUMEN
100
AcDbLine
 62
7
  6
CONTINUOUS
 10
95.1351477249
 20
120.0993526839
 11
95.2809809192
 21
120.3870752866
  0
LINE
  5
2C7
100
AcDbEntity
  8
0
100
AcDbLine
 62
7
  6
CONTINUOUS
 10
141.80154215
 20
129.5121168673
 11
142.0358447979
 21
129.5302436199
  0
LINE
  5
2C8
100
AcDbEntity
  8
0
100
AcDbLine
 62
7
  6
CONTINUOUS
 10
144.6896568867
 20
128.1828312849
 11
144.2898510894
 21
128.1750750134
  0
LINE
  5
2C9
100
AcDbEntity
  8
0
100
AcDbLine
 62
7
  6
CONTINUOUS
 10
144.7011823248
 20
125.8198723396
 11
145.0321885576
 21
125.7991304468
  0
LINE
  5
2CA
100
AcDbEntity
  8
0
100
AcDbLine
 62
7
  6
CONTINUOUS
 10
87.4128951463
 20
131.7770925331
 11
85.9336713001
 21
132.0379196077
  0
LINE
  5
2CB
100
AcDbEntity
  8
_30_VOLUMEN
100
AcDbLine
 62
7
  6
CONTINUOUS
 10
94.8434809192
 20
120.5884154472
 11
94.6976477249
 21
120.372623533
  0
LINE
  5
2CC
100
AcDbEntity
  8
_30_VOLUMEN
100
AcDbLine
 62
7
  6
CONTINUOUS
 10
91.7809809192
 20
121.5235138428
 11
91.9997309192
 21
121.811236395
  0
LINE
  5
2CD
100
AcDbEntity
  8
_30_VOLUMEN
100
AcDbLine
 62
7
  6
CONTINUOUS
 10
91.7809809192
 20
121.3941043202
 11
91.9997309192
 21
121.6818268725
  0
LINE
  5
2CE
100
AcDbEntity
  8
0
100
AcDbLine
 62
7
  6
CONTINUOUS
 10
142.6286027449
 20
132.3802783033
 11
142.3942999567
 21
132.3621513443
  0
LINE
  5
2CF
100
AcDbEntity
  8
0
100
AcDbLine
 62
7
  6
CONTINUOUS
 10
141.4705360287
 20
129.5328583546
 11
141.80154215
 21
129.5121168673
  0
LINE
  5
2D0
100
AcDbEntity
  8
0
100
AcDbLine
 62
7
  6
CONTINUOUS
 10
141.0505100547
 20
128.0171624927
 11
141.9747289987
 21
127.9264399263
  0
LINE
  5
2D1
100
AcDbEntity
  8
0
100
AcDbLine
 62
7
  6
CONTINUOUS
 10
141.8352088909
 20
128.2632712629
 11
140.9109900267
 21
128.3539936366
  0
LINE
  5
2D2
100
AcDbEntity
  8
0
100
AcDbLine
 62
7
  6
CONTINUOUS
 10
144.9614679813
 20
126.1644594824
 11
144.6992614396
 21
126.2136986887
  0
LINE
  5
2D3
100
AcDbEntity
  8
_30_VOLUMEN
100
AcDbLine
 62
7
  6
CONTINUOUS
 10
98.6351473077
 20
120.2287622065
 11
98.7809809192
 21
120.5164848091
  0
LINE
  5
2D4
100
AcDbEntity
  8
_30_VOLUMEN
100
AcDbLine
 62
7
  6
CONTINUOUS
 10
98.6351473077
 20
120.0993526839
 11
98.7809809192
 21
120.3870752866
  0
LINE
  5
2D5
100
AcDbEntity
  8
_30_VOLUMEN
100
AcDbLine
 62
7
  6
CONTINUOUS
 10
98.3434809192
 20
120.5884154472
 11
98.1976473077
 21
120.372623533
  0
LINE
  5
2D6
100
AcDbEntity
  8
_30_VOLUMEN
100
AcDbLine
 62
7
  6
CONTINUOUS
 10
91.5622309192
 20
121.8831670331
 11
91.4163975163
 21
121.739305757
  0
LINE
  5
2D7
100
AcDbEntity
  8
0
100
AcDbLine
 62
7
  6
CONTINUOUS
 10
142.9596088729
 20
132.3595366635
 11
142.6286027449
 21
132.3802783033
  0
LINE
  5
2D8
100
AcDbEntity
  8
0
100
AcDbLine
 62
7
  6
CONTINUOUS
 10
144.4293710375
 20
127.8382440623
 11
144.691577772
 21
127.7890049359
  0
LINE
  5
2D9
100
AcDbEntity
  8
0
100
AcDbLine
 62
7
  6
CONTINUOUS
 10
141.8963247699
 20
129.8670747637
 11
141.3719115585
 21
129.9655533491
  0
LINE
  5
2DA
100
AcDbEntity
  8
0
100
AcDbLine
 62
7
  6
CONTINUOUS
 10
143.5445817779
 20
125.4986414188
 11
143.185671603
 21
125.5867492505
  0
LINE
  5
2DB
100
AcDbEntity
  8
0
100
AcDbLine
 62
7
  6
CONTINUOUS
 10
143.0254762586
 20
127.3356563865
 11
143.3843864816
 21
127.2475485748
  0
LINE
  5
2DC
100
AcDbEntity
  8
_30_VOLUMEN
100
AcDbLine
 62
7
  6
CONTINUOUS
 10
94.8434809192
 20
119.9410396291
 11
95.1351477249
 21
120.2287622065
  0
LINE
  5
2DD
100
AcDbEntity
  8
_30_VOLUMEN
100
AcDbLine
 62
7
  6
CONTINUOUS
 10
94.8434809192
 20
119.8116301065
 11
95.1351477249
 21
120.0993526839
  0
LINE
  5
2DE
100
AcDbEntity
  8
0
100
AcDbLine
 62
7
  6
CONTINUOUS
 10
142.5338199572
 20
132.0253202668
 11
143.0582333331
 21
131.9268416931
  0
LINE
  5
2DF
100
AcDbEntity
  8
0
100
AcDbLine
 62
7
  6
CONTINUOUS
 10
142.994185454
 20
125.2706597968
 11
143.2842959136
 21
125.1540546415
  0
LINE
  5
2E0
100
AcDbEntity
  8
0
100
AcDbLine
 62
7
  6
CONTINUOUS
 10
144.4110717296
 20
125.9364778903
 11
144.7011823248
 21
125.8198723396
  0
LINE
  5
2E1
100
AcDbEntity
  8
_30_VOLUMEN
100
AcDbLine
 62
7
  6
CONTINUOUS
 10
98.3434809192
 20
119.9410396291
 11
98.6351473077
 21
120.2287622065
  0
LINE
  5
2E2
100
AcDbEntity
  8
_30_VOLUMEN
100
AcDbLine
 62
7
  6
CONTINUOUS
 10
98.3434809192
 20
119.8116301065
 11
98.6351473077
 21
120.0993526839
  0
LINE
  5
2E3
100
AcDbEntity
  8
0
100
AcDbLine
 62
7
  6
CONTINUOUS
 10
144.9797674819
 20
128.0662257343
 11
144.6896568867
 21
128.1828312849
  0
LINE
  5
2E4
100
AcDbEntity
  8
0
100
AcDbLine
 62
7
  6
CONTINUOUS
 10
141.1804254094
 20
129.6494638953
 11
141.4705360287
 21
129.5328583546
  0
LINE
  5
2E5
100
AcDbEntity
  8
_30_VOLUMEN
100
AcDbLine
 62
7
  6
CONTINUOUS
 10
94.6976477249
 20
120.372623533
 11
94.4788977249
 21
120.2287622065
  0
LINE
  5
2E6
100
AcDbEntity
  8
_30_VOLUMEN
100
AcDbLine
 62
7
  6
CONTINUOUS
 10
91.489314322
 20
121.3796525666
 11
91.7809809192
 21
121.5235138428
  0
LINE
  5
2E7
100
AcDbEntity
  8
_30_VOLUMEN
100
AcDbLine
 62
7
  6
CONTINUOUS
 10
91.5406539754
 20
121.275565752
 11
91.7809809192
 21
121.3941043202
  0
LINE
  5
2E8
100
AcDbEntity
  8
0
100
AcDbLine
 62
7
  6
CONTINUOUS
 10
143.2497194581
 20
132.2429311369
 11
142.9596088729
 21
132.3595366635
  0
LINE
  5
2E9
100
AcDbEntity
  8
0
100
AcDbLine
 62
7
  6
CONTINUOUS
 10
144.6992614396
 20
126.2136986887
 11
144.3812467909
 21
126.3976705838
  0
LINE
  5
2EA
100
AcDbEntity
  8
0
100
AcDbLine
 62
7
  6
CONTINUOUS
 10
143.6037766601
 20
127.4962716742
 11
143.2857620114
 21
127.6802435693
  0
LINE
  5
2EB
100
AcDbEntity
  8
_30_VOLUMEN
100
AcDbLine
 62
7
  6
CONTINUOUS
 10
98.1976473077
 20
120.372623533
 11
97.9788973077
 21
120.2287622065
  0
LINE
  5
2EC
100
AcDbEntity
  8
_30_VOLUMEN
100
AcDbLine
 62
7
  6
CONTINUOUS
 10
94.5518141134
 20
119.797178334
 11
94.8434809192
 21
119.9410396291
  0
LINE
  5
2ED
100
AcDbEntity
  8
_30_VOLUMEN
100
AcDbLine
 62
7
  6
CONTINUOUS
 10
94.5518141134
 20
119.6677688115
 11
94.8434809192
 21
119.8116301065
  0
LINE
  5
2EE
100
AcDbEntity
  8
_30_VOLUMEN
100
AcDbLine
 62
7
  6
CONTINUOUS
 10
91.4163975163
 20
121.739305757
 11
91.1976475163
 21
121.6673751189
  0
LINE
  5
2EF
100
AcDbEntity
  8
0
100
AcDbLine
 62
7
  6
CONTINUOUS
 10
144.691577772
 20
127.7890049359
 11
145.0095924207
 21
127.6050330408
  0
LINE
  5
2F0
100
AcDbEntity
  8
0
100
AcDbLine
 62
7
  6
CONTINUOUS
 10
141.3719115585
 20
129.9655533491
 11
141.1506004548
 21
130.1106566951
  0
LINE
  5
2F1
100
AcDbEntity
  8
0
100
AcDbLine
 62
7
  6
CONTINUOUS
 10
142.6482667337
 20
125.5219980288
 11
142.994185454
 21
125.2706597968
  0
LINE
  5
2F2
100
AcDbEntity
  8
_30_VOLUMEN
100
AcDbLine
 62
7
  6
CONTINUOUS
 10
98.0518145307
 20
119.797178334
 11
98.3434809192
 21
119.9410396291
  0
LINE
  5
2F3
100
AcDbEntity
  8
_30_VOLUMEN
100
AcDbLine
 62
7
  6
CONTINUOUS
 10
98.0518145307
 20
119.6677688115
 11
98.3434809192
 21
119.8116301065
  0
LINE
  5
2F4
100
AcDbEntity
  8
0
100
AcDbLine
 62
7
  6
CONTINUOUS
 10
143.0582333331
 20
131.9268416931
 11
143.2795444168
 21
131.7817383952
  0
LINE
  5
2F5
100
AcDbEntity
  8
0
100
AcDbLine
 62
7
  6
CONTINUOUS
 10
140.834506769
 20
129.9008019346
 11
141.1804254094
 21
129.6494638953
  0
LINE
  5
2F6
100
AcDbEntity
  8
0
100
AcDbLine
 62
7
  6
CONTINUOUS
 10
145.3256860244
 20
127.8148878802
 11
144.9797674819
 21
128.0662257343
  0
LINE
  5
2F7
100
AcDbEntity
  8
0
100
AcDbLine
 62
7
  6
CONTINUOUS
 10
143.185671603
 20
125.5867492505
 11
142.9364564858
 21
125.7992188446
  0
LINE
  5
2F8
100
AcDbEntity
  8
0
100
AcDbLine
 62
7
  6
CONTINUOUS
 10
144.2864642509
 20
126.0427124946
 11
144.4110717296
 21
125.9364778903
  0
LINE
  5
2F9
100
AcDbEntity
  8
0
100
AcDbLine
 62
7
  6
CONTINUOUS
 10
143.3843864816
 20
127.2475485748
 11
143.6336015988
 21
127.0350789807
  0
LINE
  5
2FA
100
AcDbEntity
  8
0
100
AcDbLine
 62
7
  6
CONTINUOUS
 10
143.7283841389
 20
127.3900370698
 11
143.6037766601
 21
127.4962716742
  0
LINE
  5
2FB
100
AcDbEntity
  8
0
100
AcDbLine
 62
7
  6
CONTINUOUS
 10
143.5956380605
 20
131.9915931383
 11
143.2497194581
 21
132.2429311369
  0
LINE
  5
2FC
100
AcDbEntity
  8
0
100
AcDbLine
 62
7
  6
CONTINUOUS
 10
142.0223982983
 20
132.2870290672
 11
141.4032025152
 21
132.0305497761
  0
LINE
  5
2FD
100
AcDbEntity
  8
0
100
AcDbLine
 62
7
  6
CONTINUOUS
 10
141.6115220447
 20
131.7222164035
 11
142.0931187649
 21
131.9217002966
  0
LINE
  5
2FE
100
AcDbEntity
  8
0
100
AcDbLine
 62
7
  6
CONTINUOUS
 10
142.9364564858
 20
125.7992188446
 11
142.7560409
 21
126.0401861378
  0
LINE
  5
2FF
100
AcDbEntity
  8
0
100
AcDbLine
 62
7
  6
CONTINUOUS
 10
143.6336015988
 20
127.0350789807
 11
143.8140171846
 21
126.7941116875
  0
LINE
  5
300
100
AcDbEntity
  8
0
100
AcDbLine
 62
7
  6
CONTINUOUS
 10
144.3812467909
 20
126.3976705838
 11
144.2008312051
 21
126.6386378769
  0
LINE
  5
301
100
AcDbEntity
  8
0
100
AcDbLine
 62
7
  6
CONTINUOUS
 10
142.4399472481
 20
125.8303312783
 11
142.6482667337
 21
125.5219980288
  0
LINE
  5
302
100
AcDbEntity
  8
0
100
AcDbLine
 62
7
  6
CONTINUOUS
 10
141.2266287632
 20
131.4838639456
 11
141.6115220447
 21
131.7222164035
  0
LINE
  5
303
100
AcDbEntity
  8
0
100
AcDbLine
 62
7
  6
CONTINUOUS
 10
142.8186227488
 20
130.1701787391
 11
142.3370260286
 21
129.970694846
  0
LINE
  5
304
100
AcDbEntity
  8
0
100
AcDbLine
 62
7
  6
CONTINUOUS
 10
142.4077465252
 20
129.6053660032
 11
143.0269423082
 21
129.8618452943
  0
LINE
  5
305
100
AcDbEntity
  8
0
100
AcDbLine
 62
7
  6
CONTINUOUS
 10
145.0095924207
 20
127.6050330408
 11
145.1900080064
 21
127.3640657476
  0
LINE
  5
306
100
AcDbEntity
  8
0
100
AcDbLine
 62
7
  6
CONTINUOUS
 10
141.1506004548
 20
130.1106566951
 11
140.9422809353
 21
130.4189900436
  0
LINE
  5
307
100
AcDbEntity
  8
0
100
AcDbLine
 62
7
  6
CONTINUOUS
 10
145.5340056637
 20
127.5065542427
 11
145.3256860244
 21
127.8148878802
  0
LINE
  5
308
100
AcDbEntity
  8
0
100
AcDbLine
 62
7
  6
CONTINUOUS
 10
140.5982832298
 20
130.2765015286
 11
140.834506769
 21
129.9008019346
  0
LINE
  5
309
100
AcDbEntity
  8
RUNDUNGEN
100
AcDbLine
 62
7
  6
CONTINUOUS
 10
140.0071838963
 20
123.9883287354
 11
138.2629916741
 21
128.1991812538
  0
LINE
  5
30A
100
AcDbEntity
  8
0
100
AcDbLine
 62
7
  6
CONTINUOUS
 10
141.0871087627
 20
131.8206950232
 11
140.9086141694
 21
131.6678357082
  0
LINE
  5
30B
100
AcDbEntity
  8
0
100
AcDbLine
 62
7
  6
CONTINUOUS
 10
141.4032025152
 20
132.0305497761
 11
141.0871087627
 21
131.8206950232
  0
LINE
  5
30C
100
AcDbEntity
  8
0
100
AcDbLine
 62
7
  6
CONTINUOUS
 10
143.0269423082
 20
129.8618452943
 11
143.3430359918
 21
130.0716999411
  0
LINE
  5
30D
100
AcDbEntity
  8
0
100
AcDbLine
 62
7
  6
CONTINUOUS
 10
143.2035159638
 20
130.4085310849
 11
142.8186227488
 21
130.1701787391
  0
LINE
  5
30E
100
AcDbEntity
  8
0
100
AcDbLine
 62
7
  6
CONTINUOUS
 10
142.8859563104
 20
127.6724873376
 11
142.6795577161
 21
127.5869942406
  0
LINE
  5
30F
100
AcDbEntity
  8
0
100
AcDbLine
 62
7
  6
CONTINUOUS
 10
144.2898510894
 20
128.1750750134
 11
144.083452495
 21
128.0895819163
  0
LINE
  5
310
100
AcDbEntity
  8
0
100
AcDbLine
 62
7
  6
CONTINUOUS
 10
142.8190776642
 20
127.2501632895
 11
143.0254762586
 21
127.3356563865
  0
LINE
  5
311
100
AcDbEntity
  8
0
100
AcDbLine
 62
7
  6
CONTINUOUS
 10
144.2917719746
 20
127.7812486643
 11
144.4293710375
 21
127.8382440623
  0
LINE
  5
312
100
AcDbEntity
  8
0
100
AcDbLine
 62
7
  6
CONTINUOUS
 10
145.0990670442
 20
126.2214548804
 11
144.9614679813
 21
126.1644594824
  0
LINE
  5
313
100
AcDbEntity
  8
0
100
AcDbLine
 62
7
  6
CONTINUOUS
 10
143.7509803722
 20
125.5841345158
 11
143.5445817779
 21
125.4986414188
  0
LINE
  5
314
100
AcDbEntity
  8
RUNDUNGEN
100
AcDbLine
 62
7
  6
CONTINUOUS
 10
130.113063846
 20
154.5005169441
 11
115.5710934161
 21
160.5239983198
  0
LINE
  5
315
100
AcDbEntity
  8
0
100
AcDbLine
 62
7
  6
CONTINUOUS
 10
143.2795444168
 20
131.7817383952
 11
143.4878639363
 21
131.4734050468
  0
LINE
  5
316
100
AcDbEntity
  8
0
100
AcDbLine
 62
7
  6
CONTINUOUS
 10
143.8318615936
 20
131.6158935418
 11
143.5956380605
 21
131.9915931383
  0
LINE
  5
317
100
AcDbEntity
  8
0
100
AcDbLine
 62
7
  6
CONTINUOUS
 10
140.9109900267
 20
128.3539936366
 11
141.0505100547
 21
128.0171624927
  0
LINE
  5
318
100
AcDbEntity
  8
0
100
AcDbLine
 62
7
  6
CONTINUOUS
 10
142.2725232464
 20
126.2345285738
 11
142.4399472481
 21
125.8303312783
  0
LINE
  5
319
100
AcDbEntity
  8
0
100
AcDbLine
 62
7
  6
CONTINUOUS
 10
142.7560409
 20
126.0401861378
 11
142.6444250054
 21
126.3096507444
  0
LINE
  5
31A
100
AcDbEntity
  8
0
100
AcDbLine
 62
7
  6
CONTINUOUS
 10
141.9747289987
 20
127.9264399263
 11
141.8352088909
 21
128.2632712629
  0
LINE
  5
31B
100
AcDbEntity
  8
RUNDUNGEN
100
AcDbLine
 62
7
  6
CONTINUOUS
 10
138.8425256967
 20
137.2525660755
 11
132.8190443467
 21
151.7945364434
  0
LINE
  5
31C
100
AcDbEntity
  8
RUNDUNGEN
100
AcDbLine
 62
7
  6
CONTINUOUS
 10
138.2629956169
 20
132.0266222493
 11
138.8425257224
 21
133.4257316899
  0
LINE
  5
31D
100
AcDbEntity
  8
0
100
AcDbLine
 62
7
  6
CONTINUOUS
 10
140.9086141694
 20
131.6678357082
 11
140.6892239976
 21
131.4191124563
  0
LINE
  5
31E
100
AcDbEntity
  8
0
100
AcDbLine
 62
7
  6
CONTINUOUS
 10
143.3430359918
 20
130.0716999411
 11
143.5215307254
 21
130.2245594623
  0
LINE
  5
31F
100
AcDbEntity
  8
0
100
AcDbLine
 62
7
  6
CONTINUOUS
 10
145.0321885576
 20
125.7991304468
 11
145.238587152
 21
125.8846235439
  0
LINE
  5
320
100
AcDbEntity
  8
0
100
AcDbLine
 62
7
  6
CONTINUOUS
 10
143.684101726
 20
125.1618104677
 11
143.8905003204
 21
125.2473035648
  0
LINE
  5
321
100
AcDbEntity
  8
0
100
AcDbLine
 62
7
  6
CONTINUOUS
 10
145.2833245601
 20
125.1928345036
 11
145.0081264343
 21
125.0788437076
  0
LINE
  5
322
100
AcDbEntity
  8
0
100
AcDbLine
 62
7
  6
CONTINUOUS
 10
146.0569527938
 20
124.8818869622
 11
145.5065563495
 21
124.6539052903
  0
LINE
  5
323
100
AcDbEntity
  8
0
100
AcDbLine
 62
7
  6
CONTINUOUS
 10
145.2313582236
 20
124.5399144942
 11
143.85536745
 21
123.9699604541
  0
LINE
  5
324
100
AcDbEntity
  8
0
100
AcDbLine
 62
7
  6
CONTINUOUS
 10
144.1324866689
 20
123.6901245355
 11
145.3708783315
 21
124.2030831577
  0
LINE
  5
325
100
AcDbEntity
  8
0
100
AcDbLine
 62
7
  6
CONTINUOUS
 10
145.6460764573
 20
124.3170739537
 11
146.1964729017
 21
124.5450556257
  0
LINE
  5
326
100
AcDbEntity
  8
0
100
AcDbLine
 62
7
  6
CONTINUOUS
 10
143.6956272605
 20
122.7988515623
 11
143.9708254104
 21
122.9128423683
  0
LINE
  5
327
100
AcDbEntity
  8
0
100
AcDbLine
 62
7
  6
CONTINUOUS
 10
145.677822441
 20
123.4620545257
 11
145.9530205668
 21
123.5760453217
  0
LINE
  5
328
100
AcDbEntity
  8
0
100
AcDbLine
 62
7
  6
CONTINUOUS
 10
143.8140171846
 20
126.7941116875
 11
143.9256330793
 21
126.5246470809
  0
LINE
  5
329
100
AcDbEntity
  8
0
100
AcDbLine
 62
7
  6
CONTINUOUS
 10
144.2008312051
 20
126.6386378769
 11
144.0892153104
 21
126.9081024836
  0
LINE
  5
32A
100
AcDbEntity
  8
0
100
AcDbLine
 62
7
  6
CONTINUOUS
 10
145.0081264343
 20
125.0788437076
 11
145.2313582236
 21
124.5399144942
  0
LINE
  5
32B
100
AcDbEntity
  8
0
100
AcDbLine
 62
7
  6
CONTINUOUS
 10
145.3708783315
 20
124.2030831577
 11
145.677822441
 21
123.4620545257
  0
LINE
  5
32C
100
AcDbEntity
  8
0
100
AcDbLine
 62
7
  6
CONTINUOUS
 10
145.9530205668
 20
123.5760453217
 11
145.6460764573
 21
124.3170739537
  0
LINE
  5
32D
100
AcDbEntity
  8
0
100
AcDbLine
 62
7
  6
CONTINUOUS
 10
145.5065563495
 20
124.6539052903
 11
145.2833245601
 21
125.1928345036
  0
LINE
  5
32E
100
AcDbEntity
  8
0
100
AcDbLine
 62
7
  6
CONTINUOUS
 10
146.1964729017
 20
124.5450556257
 11
146.0569527938
 21
124.8818869622
  0
LINE
  5
32F
100
AcDbEntity
  8
0
100
AcDbLine
 62
7
  6
CONTINUOUS
 10
145.1900080064
 20
127.3640657476
 11
145.3016239011
 21
127.094601141
  0
LINE
  5
330
100
AcDbEntity
  8
0
100
AcDbLine
 62
7
  6
CONTINUOUS
 10
145.6456215584
 20
127.237089636
 11
145.5340056637
 21
127.5065542427
  0
LINE
  5
331
100
AcDbEntity
  8
0
100
AcDbLine
 62
7
  6
CONTINUOUS
 10
140.4996587656
 20
130.7091965255
 11
140.5982832298
 21
130.2765015286
  0
LINE
  5
332
100
AcDbEntity
  8
0
100
AcDbLine
 62
7
  6
CONTINUOUS
 10
143.5970027963
 20
123.2315465593
 11
143.6956272605
 21
122.7988515623
  0
LINE
  5
333
100
AcDbEntity
  8
0
100
AcDbLine
 62
7
  6
CONTINUOUS
 10
140.9422809353
 20
130.4189900436
 11
140.8715604786
 21
130.78431879
  0
LINE
  5
334
100
AcDbEntity
  8
0
100
AcDbLine
 62
7
  6
CONTINUOUS
 10
142.2018028357
 20
126.5998572264
 11
142.2725232464
 21
126.2345285738
  0
LINE
  5
335
100
AcDbEntity
  8
0
100
AcDbLine
 62
7
  6
CONTINUOUS
 10
143.582090333
 20
123.4621429085
 11
143.5970027963
 21
123.2315465593
  0
LINE
  5
336
100
AcDbEntity
  8
0
100
AcDbLine
 62
7
  6
CONTINUOUS
 10
140.56653737
 20
131.1315207257
 11
140.4996587656
 21
130.7091965255
  0
LINE
  5
337
100
AcDbEntity
  8
0
100
AcDbLine
 62
7
  6
CONTINUOUS
 10
140.8715604786
 20
130.78431879
 11
140.9254475208
 21
131.043412884
  0
LINE
  5
338
100
AcDbEntity
  8
0
100
AcDbLine
 62
7
  6
CONTINUOUS
 10
140.6892239976
 20
131.4191124563
 11
140.56653737
 21
131.1315207257
  0
LINE
  5
339
100
AcDbEntity
  8
0
100
AcDbLine
 62
7
  6
CONTINUOUS
 10
140.9254475208
 20
131.043412884
 11
141.2266287632
 21
131.4838639456
  0
LINE
  5
33A
100
AcDbEntity
  8
0
100
AcDbLine
 62
7
  6
CONTINUOUS
 10
143.5046973708
 20
130.8489821582
 11
143.2035159638
 21
130.4085310849
  0
LINE
  5
33B
100
AcDbEntity
  8
0
100
AcDbLine
 62
7
  6
CONTINUOUS
 10
143.5215307254
 20
130.2245594623
 11
143.7409209039
 21
130.4732825617
  0
LINE
  5
33C
100
AcDbEntity
  8
0
100
AcDbLine
 62
7
  6
CONTINUOUS
 10
142.6795577161
 20
127.5869942406
 11
142.391367958
 21
127.3097734222
  0
LINE
  5
33D
100
AcDbEntity
  8
0
100
AcDbLine
 62
7
  6
CONTINUOUS
 10
143.9304860638
 20
131.1831985473
 11
143.8318615936
 21
131.6158935418
  0
LINE
  5
33E
100
AcDbEntity
  8
0
100
AcDbLine
 62
7
  6
CONTINUOUS
 10
143.9708254104
 20
122.9128423683
 11
143.9001048581
 21
123.2781714139
  0
LINE
  5
33F
100
AcDbEntity
  8
0
100
AcDbLine
 62
7
  6
CONTINUOUS
 10
143.4878639363
 20
131.4734050468
 11
143.558584393
 21
131.1080763003
  0
LINE
  5
340
100
AcDbEntity
  8
0
100
AcDbLine
 62
7
  6
CONTINUOUS
 10
142.6444250054
 20
126.3096507444
 11
142.6016084825
 21
126.6076134356
  0
LINE
  5
341
100
AcDbEntity
  8
0
100
AcDbLine
 62
7
  6
CONTINUOUS
 10
143.9256330793
 20
126.5246470809
 11
143.9684496022
 21
126.2266843897
  0
LINE
  5
342
100
AcDbEntity
  8
0
100
AcDbLine
 62
7
  6
CONTINUOUS
 10
144.0892153104
 20
126.9081024836
 11
144.0463987876
 21
127.2060651747
  0
LINE
  5
343
100
AcDbEntity
  8
0
100
AcDbLine
 62
7
  6
CONTINUOUS
 10
142.6016084825
 20
126.6076134356
 11
142.6275914911
 21
126.9340738258
  0
LINE
  5
344
100
AcDbEntity
  8
0
100
AcDbLine
 62
7
  6
CONTINUOUS
 10
143.741375723
 20
127.5532670722
 11
143.7283841389
 21
127.3900370698
  0
LINE
  5
345
100
AcDbEntity
  8
0
100
AcDbLine
 62
7
  6
CONTINUOUS
 10
143.9684496022
 20
126.2266843897
 11
143.9424665936
 21
125.9002239995
  0
LINE
  5
346
100
AcDbEntity
  8
0
100
AcDbLine
 62
7
  6
CONTINUOUS
 10
144.2734726667
 20
125.8794824923
 11
144.2864642509
 21
126.0427124946
  0
LINE
  5
347
100
AcDbEntity
  8
0
100
AcDbLine
 62
7
  6
CONTINUOUS
 10
142.2686813403
 20
127.0221816675
 11
142.2018028357
 21
126.5998572264
  0
LINE
  5
348
100
AcDbEntity
  8
0
100
AcDbLine
 62
7
  6
CONTINUOUS
 10
143.8636074974
 20
130.7608743065
 11
143.9304860638
 21
131.1831985473
  0
LINE
  5
349
100
AcDbEntity
  8
0
100
AcDbLine
 62
7
  6
CONTINUOUS
 10
143.558584393
 20
131.1080763003
 11
143.5046973708
 21
130.8489821582
  0
LINE
  5
34A
100
AcDbEntity
  8
0
100
AcDbLine
 62
7
  6
CONTINUOUS
 10
142.391367958
 20
127.3097734222
 11
142.2686813403
 21
127.0221816675
  0
LINE
  5
34B
100
AcDbEntity
  8
0
100
AcDbLine
 62
7
  6
CONTINUOUS
 10
143.7409209039
 20
130.4732825617
 11
143.8636074974
 21
130.7608743065
  0
LINE
  5
34C
100
AcDbEntity
  8
0
100
AcDbLine
 62
7
  6
CONTINUOUS
 10
143.8640623165
 20
127.840858817
 11
143.741375723
 21
127.5532670722
  0
LINE
  5
34D
100
AcDbEntity
  8
0
100
AcDbLine
 62
7
  6
CONTINUOUS
 10
142.6275914911
 20
126.9340738258
 11
142.8190776642
 21
127.2501632895
  0
LINE
  5
34E
100
AcDbEntity
  8
0
100
AcDbLine
 62
7
  6
CONTINUOUS
 10
144.1411813276
 20
127.5610232639
 11
144.2917719746
 21
127.7812486643
  0
LINE
  5
34F
100
AcDbEntity
  8
0
100
AcDbLine
 62
7
  6
CONTINUOUS
 10
144.083452495
 20
128.0895819163
 11
143.8640623165
 21
127.840858817
  0
LINE
  5
350
100
AcDbEntity
  8
0
100
AcDbLine
 62
7
  6
CONTINUOUS
 10
143.8905003204
 20
125.2473035648
 11
144.178689967
 21
125.5245247886
  0
LINE
  5
351
100
AcDbEntity
  8
0
100
AcDbLine
 62
7
  6
CONTINUOUS
 10
145.238587152
 20
125.8846235439
 11
145.526776895
 21
126.1618448076
  0
LINE
  5
352
100
AcDbEntity
  8
0
100
AcDbLine
 62
7
  6
CONTINUOUS
 10
143.9539919202
 20
123.5372654596
 11
144.1324866689
 21
123.6901245355
  0
LINE
  5
353
100
AcDbEntity
  8
0
100
AcDbLine
 62
7
  6
CONTINUOUS
 10
145.7163421347
 20
126.8717606005
 11
145.6456215584
 21
127.237089636
  0
LINE
  5
354
100
AcDbEntity
  8
0
100
AcDbLine
 62
7
  6
CONTINUOUS
 10
145.3016239011
 20
127.094601141
 11
145.344440424
 21
126.7966384498
  0
LINE
  5
355
100
AcDbEntity
  8
0
100
AcDbLine
 62
7
  6
CONTINUOUS
 10
145.6494634885
 20
126.4494365524
 11
145.7163421347
 21
126.8717606005
  0
LINE
  5
356
100
AcDbEntity
  8
0
100
AcDbLine
 62
7
  6
CONTINUOUS
 10
143.6359774071
 20
123.7212369593
 11
143.582090333
 21
123.4621429085
  0
LINE
  5
357
100
AcDbEntity
  8
0
100
AcDbLine
 62
7
  6
CONTINUOUS
 10
143.9001048581
 20
123.2781714139
 11
143.9539919202
 21
123.5372654596
  0
LINE
  5
358
100
AcDbEntity
  8
0
100
AcDbLine
 62
7
  6
CONTINUOUS
 10
144.0463987876
 20
127.2060651747
 11
144.1411813276
 21
127.5610232639
  0
LINE
  5
359
100
AcDbEntity
  8
0
100
AcDbLine
 62
7
  6
CONTINUOUS
 10
144.178689967
 20
125.5245247886
 11
144.2734726667
 21
125.8794824923
  0
LINE
  5
35A
100
AcDbEntity
  8
0
100
AcDbLine
 62
7
  6
CONTINUOUS
 10
145.344440424
 20
126.7966384498
 11
145.2496578839
 21
126.4416803606
  0
LINE
  5
35B
100
AcDbEntity
  8
0
100
AcDbLine
 62
7
  6
CONTINUOUS
 10
145.526776895
 20
126.1618448076
 11
145.6494634885
 21
126.4494365524
  0
LINE
  5
35C
100
AcDbEntity
  8
0
100
AcDbLine
 62
7
  6
CONTINUOUS
 10
143.9424665936
 20
125.9002239995
 11
143.7509803722
 21
125.5841345158
  0
LINE
  5
35D
100
AcDbEntity
  8
0
100
AcDbLine
 62
7
  6
CONTINUOUS
 10
145.2496578839
 20
126.4416803606
 11
145.0990670442
 21
126.2214548804
  0
LINE
  5
35E
100
AcDbEntity
  8
0
100
AcDbLine
 62
7
  6
CONTINUOUS
 10
143.85536745
 20
123.9699604541
 11
143.6359774071
 21
123.7212369593
  0
LINE
  5
35F
100
AcDbEntity
  8
RUNDUNGEN
100
AcDbLine
 62
7
  6
CONTINUOUS
 10
148.5113942043
 20
126.3005070884
 11
147.2707770167
 21
134.4537805231
  0
LINE
  5
360
100
AcDbEntity
  8
RUNDUNGEN
100
AcDbLine
 62
7
  6
CONTINUOUS
 10
148.6576762543
 20
113.3391488517
 11
148.6576762543
 21
118.9206782794
  0
LINE
  5
361
100
AcDbEntity
  8
_30_VOLUMEN
100
AcDbLine
 62
7
  6
CONTINUOUS
 10
148.6576762543
 20
118.9272029152
 11
148.6576762543
 21
124.3667250256
  0
LINE
  5
362
100
AcDbEntity
  8
BEZUGSACHSEN
100
AcDbLine
 62
7
  6
CONTINUOUS
 10
190.9875799327
 20
113.3391488517
 11
212.9875799327
 21
113.3391488517
  0
LINE
  5
363
100
AcDbEntity
  8
_30_VOLUMEN
100
AcDbLine
 62
7
  6
CONTINUOUS
 10
212.3829018531
 20
119.5958381671
 11
212.8658647662
 21
119.7252476897
  0
LINE
  5
364
100
AcDbEntity
  8
_30_VOLUMEN
100
AcDbLine
 62
7
  6
CONTINUOUS
 10
191.5922580123
 20
119.5958381671
 11
191.1092950992
 21
119.7252476897
  0
LINE
  5
365
100
AcDbEntity
  8
_30_VOLUMEN
100
AcDbLine
 62
7
  6
CONTINUOUS
 10
211.4770351952
 20
122.9765785591
 11
211.9599981084
 21
123.1059880817
  0
LINE
  5
366
100
AcDbEntity
  8
_30_VOLUMEN
100
AcDbLine
 62
7
  6
CONTINUOUS
 10
192.4981246702
 20
122.9765785591
 11
192.0151617571
 21
123.1059880817
  0
LWPOLYLINE
  5
367
100
AcDbEntity
  8
_30_VOLUMEN
100
AcDbPolyline
 62
7
  6
CONTINUOUS
 90
14
 70
0
 10
198.9121253219
 20
161.5214584437
 10
198.8724764024
 20
161.4371901913
 10
198.8251597652
 20
161.3569754435
 10
198.770585674
 20
161.2815099915
 10
198.7092273582
 20
161.2114484642
 10
198.6416171153
 20
161.1473988167
 10
198.5683413221
 20
161.0899166307
 10
198.490035499
 20
161.0395005282
 10
198.4073790556
 20
160.996587966
 10
198.3210889254
 20
160.9615511369
 10
198.2319135573
 20
160.9346939217
 10
198.1406266962
 20
160.9162492964
 10
198.0480202287
 20
160.9063771562
 10
197.9884359445
 20
160.9046004341
  0
LINE
  5
368
100
AcDbEntity
  8
0
100
AcDbLine
 62
7
  6
CONTINUOUS
 10
198.9875799327
 20
125.3489930601
 11
198.4875799327
 21
125.3489930601
  0
LINE
  5
369
100
AcDbEntity
  8
0
100
AcDbLine
 62
7
  6
CONTINUOUS
 10
198.9875799327
 20
125.5956275097
 11
198.4875799327
 21
125.5956275097
  0
LINE
  5
36A
100
AcDbEntity
  8
BEZUGSACHSEN
100
AcDbLine
 62
7
  6
CONTINUOUS
 10
190.9875799327
 20
113.3391488517
 11
190.9875799327
 21
117.1811658546
  0
LINE
  5
36B
100
AcDbEntity
  8
_30_VOLUMEN
100
AcDbLine
 62
7
  6
CONTINUOUS
 10
198.9437626921
 20
161.6090490153
 11
198.9121253219
 21
161.5214584437
  0
LINE
  5
36C
100
AcDbEntity
  8
0
100
AcDbLine
 62
7
  6
CONTINUOUS
 10
198.9875799327
 20
126.3978682698
 11
198.4875799327
 21
126.3978682698
  0
LINE
  5
36D
100
AcDbEntity
  8
0
100
AcDbLine
 62
7
  6
CONTINUOUS
 10
198.9875799327
 20
126.6445027193
 11
198.4875799327
 21
126.6445027193
  0
LINE
  5
36E
100
AcDbEntity
  8
0
100
AcDbLine
 62
7
  6
CONTINUOUS
 10
198.9875799327
 20
126.7163210228
 11
198.4875799327
 21
126.7163210228
  0
LINE
  5
36F
100
AcDbEntity
  8
0
100
AcDbLine
 62
7
  6
CONTINUOUS
 10
198.9875799327
 20
126.9629554724
 11
198.4875799327
 21
126.9629554724
  0
LINE
  5
370
100
AcDbEntity
  8
0
100
AcDbLine
 62
7
  6
CONTINUOUS
 10
204.9875799327
 20
126.9693915508
 11
205.4875799327
 21
126.9693915508
  0
LINE
  5
371
100
AcDbEntity
  8
0
100
AcDbLine
 62
7
  6
CONTINUOUS
 10
204.9875799327
 20
126.9847005482
 11
205.4875799327
 21
126.9847005482
  0
LINE
  5
372
100
AcDbEntity
  8
0
100
AcDbLine
 62
7
  6
CONTINUOUS
 10
204.9875799327
 20
127.1014762693
 11
205.4875799327
 21
127.1014762693
  0
LINE
  5
373
100
AcDbEntity
  8
0
100
AcDbLine
 62
7
  6
CONTINUOUS
 10
204.9875799327
 20
127.4416044078
 11
205.4875799327
 21
127.4416044078
  0
LINE
  5
374
100
AcDbEntity
  8
0
100
AcDbLine
 62
7
  6
CONTINUOUS
 10
204.9875799327
 20
127.4528003976
 11
205.4875799327
 21
127.4528003976
  0
LINE
  5
375
100
AcDbEntity
  8
0
100
AcDbLine
 62
7
  6
CONTINUOUS
 10
204.9875799327
 20
127.7136227109
 11
205.4875799327
 21
127.7136227109
  0
LINE
  5
376
100
AcDbEntity
  8
0
100
AcDbLine
 62
7
  6
CONTINUOUS
 10
204.9875799327
 20
128.2275202303
 11
205.4875799327
 21
128.2275202303
  0
LINE
  5
377
100
AcDbEntity
  8
0
100
AcDbLine
 62
7
  6
CONTINUOUS
 10
198.9875799327
 20
128.3591488517
 11
198.4875799327
 21
128.3591488517
  0
LINE
  5
378
100
AcDbEntity
  8
0
100
AcDbLine
 62
7
  6
CONTINUOUS
 10
198.9875799327
 20
128.4971985272
 11
198.4875799327
 21
128.4971985272
  0
LINE
  5
379
100
AcDbEntity
  8
0
100
AcDbLine
 62
7
  6
CONTINUOUS
 10
198.9875799327
 20
128.7438329768
 11
198.4875799327
 21
128.7438329768
  0
LINE
  5
37A
100
AcDbEntity
  8
0
100
AcDbLine
 62
7
  6
CONTINUOUS
 10
204.9875799327
 20
129.2012522262
 11
205.4875799327
 21
129.2012522262
  0
LINE
  5
37B
100
AcDbEntity
  8
0
100
AcDbLine
 62
7
  6
CONTINUOUS
 10
204.9875799327
 20
129.4608564646
 11
205.4875799327
 21
129.4608564646
  0
LINE
  5
37C
100
AcDbEntity
  8
_30_VOLUMEN
100
AcDbLine
 62
7
  6
CONTINUOUS
 10
198.967114306
 20
161.6992020709
 11
198.9437626921
 21
161.6090490153
  0
LINE
  5
37D
100
AcDbEntity
  8
0
100
AcDbLine
 62
7
  6
CONTINUOUS
 10
198.9875799327
 20
129.8645264899
 11
198.4875799327
 21
129.8645264899
  0
LINE
  5
37E
100
AcDbEntity
  8
0
100
AcDbLine
 62
7
  6
CONTINUOUS
 10
204.9875799327
 20
129.9747539839
 11
205.4875799327
 21
129.9747539839
  0
LINE
  5
37F
100
AcDbEntity
  8
0
100
AcDbLine
 62
7
  6
CONTINUOUS
 10
204.9875799327
 20
129.9871616331
 11
205.4875799327
 21
129.9871616331
  0
LINE
  5
380
100
AcDbEntity
  8
0
100
AcDbLine
 62
7
  6
CONTINUOUS
 10
198.9875799327
 20
130.1111609394
 11
198.4875799327
 21
130.1111609394
  0
LINE
  5
381
100
AcDbEntity
  8
0
100
AcDbLine
 62
7
  6
CONTINUOUS
 10
204.9875799327
 20
130.3858606809
 11
205.4875799327
 21
130.3858606809
  0
LINE
  5
382
100
AcDbEntity
  8
0
100
AcDbLine
 62
7
  6
CONTINUOUS
 10
204.9875799327
 20
130.8997507785
 11
205.4875799327
 21
130.8997507785
  0
LINE
  5
383
100
AcDbEntity
  8
BEZUGSACHSEN
100
AcDbLine
 62
7
  6
CONTINUOUS
 10
195.9875799327
 20
137.7108871819
 11
195.9875799327
 21
159.4046006573
  0
LINE
  5
384
100
AcDbEntity
  8
_30_VOLUMEN
100
AcDbLine
 62
7
  6
CONTINUOUS
 10
198.9819778804
 20
161.7911357501
 11
198.967114306
 21
161.6992020709
  0
LINE
  5
385
100
AcDbEntity
  8
_30_VOLUMEN
100
AcDbLine
 62
7
  6
CONTINUOUS
 10
191.1092950992
 20
119.7252476897
 11
192.0151617571
 21
123.1059880817
  0
LINE
  5
386
100
AcDbEntity
  8
0
100
AcDbLine
 62
7
  6
CONTINUOUS
 10
198.9875799327
 20
131.5073543187
 11
198.4875799327
 21
131.5073543187
  0
LINE
  5
387
100
AcDbEntity
  8
0
100
AcDbLine
 62
7
  6
CONTINUOUS
 10
204.9875799327
 20
131.9871316849
 11
205.4875799327
 21
131.9871316849
  0
LINE
  5
388
100
AcDbEntity
  8
0
100
AcDbLine
 62
7
  6
CONTINUOUS
 10
204.9875799327
 20
132.6516694798
 11
205.4875799327
 21
132.6516694798
  0
LINE
  5
389
100
AcDbEntity
  8
0
100
AcDbLine
 62
7
  6
CONTINUOUS
 10
198.4875799327
 20
125.3489930601
 11
198.4875799327
 21
128.3588671252
  0
LINE
  5
38A
100
AcDbEntity
  8
0
100
AcDbLine
 62
7
  6
CONTINUOUS
 10
198.4875799327
 20
128.4971985272
 11
198.4875799327
 21
131.5070725923
  0
LINE
  5
38B
100
AcDbEntity
  8
_30_VOLUMEN
100
AcDbLine
 62
7
  6
CONTINUOUS
 10
198.9880930758
 20
161.8784197922
 11
198.9819778804
 21
161.7911357501
  0
LINE
  5
38C
100
AcDbEntity
  8
BEZUGSACHSEN
100
AcDbLine
 62
7
  6
CONTINUOUS
 10
191.0284677396
 20
117.4917442244
 11
195.5446156745
 21
134.3462377718
  0
LINE
  5
38D
100
AcDbEntity
  8
_30_VOLUMEN
100
AcDbLine
 62
7
  6
CONTINUOUS
 10
198.9875799327
 20
121.4517457367
 11
198.9875799327
 21
124.3667250256
  0
LINE
  5
38E
100
AcDbEntity
  8
RUNDUNGEN
100
AcDbLine
 62
7
  6
CONTINUOUS
 10
198.9875799327
 20
121.4517457367
 11
198.9875799327
 21
134.2281350082
  0
LINE
  5
38F
100
AcDbEntity
  8
_30_VOLUMEN
100
AcDbLine
 62
7
  6
CONTINUOUS
 10
198.9875799327
 20
134.2281350082
 11
198.9875799327
 21
161.8244467205
  0
LINE
  5
390
100
AcDbEntity
  8
_30_VOLUMEN
100
AcDbLine
 62
7
  6
CONTINUOUS
 10
204.9875799327
 20
161.8244467247
 11
204.9875799327
 21
134.2281350082
  0
LINE
  5
391
100
AcDbEntity
  8
_30_VOLUMEN
100
AcDbLine
 62
7
  6
CONTINUOUS
 10
204.9875799327
 20
124.3667250256
 11
204.9875799327
 21
121.4517457367
  0
LINE
  5
392
100
AcDbEntity
  8
RUNDUNGEN
100
AcDbLine
 62
7
  6
CONTINUOUS
 10
204.9875799327
 20
134.2281350082
 11
204.9875799327
 21
121.4517457367
  0
LINE
  5
393
100
AcDbEntity
  8
0
100
AcDbLine
 62
7
  6
CONTINUOUS
 10
205.4875799327
 20
132.6516694798
 11
205.4875799327
 21
129.9871616331
  0
LINE
  5
394
100
AcDbEntity
  8
0
100
AcDbLine
 62
7
  6
CONTINUOUS
 10
205.4875799327
 20
129.9747539839
 11
205.4875799327
 21
126.9698610282
  0
LINE
  5
395
100
AcDbEntity
  8
_30_VOLUMEN
100
AcDbLine
 62
7
  6
CONTINUOUS
 10
204.993180935
 20
161.7911450205
 11
204.9870667984
 21
161.8784197915
  0
LINE
  5
396
100
AcDbEntity
  8
RUNDUNGEN
100
AcDbLine
 62
7
  6
CONTINUOUS
 10
211.4438805443
 20
123.100313401
 11
211.2557284275
 21
123.8025066603
  0
LINE
  5
397
100
AcDbEntity
  8
RUNDUNGEN
100
AcDbLine
 62
7
  6
CONTINUOUS
 10
208.8306586117
 20
132.8529904248
 11
208.7509837393
 21
133.1503410965
  0
LINE
  5
398
100
AcDbEntity
  8
BEZUGSACHSEN
100
AcDbLine
 62
7
  6
CONTINUOUS
 10
212.9466921258
 20
117.4917442244
 11
208.4305441909
 21
134.3462377718
  0
LINE
  5
399
100
AcDbEntity
  8
_30_VOLUMEN
100
AcDbLine
 62
7
  6
CONTINUOUS
 10
211.9599981084
 20
123.1059880817
 11
212.8658647662
 21
119.7252476897
  0
LINE
  5
39A
100
AcDbEntity
  8
BEZUGSACHSEN
100
AcDbLine
 62
7
  6
CONTINUOUS
 10
207.9875799327
 20
137.7108871819
 11
207.9875799327
 21
153.1146976454
  0
LINE
  5
39B
100
AcDbEntity
  8
RUNDUNGEN
100
AcDbLine
 62
7
  6
CONTINUOUS
 10
207.9875799327
 20
153.1146976454
 11
207.9875799327
 21
159.4046006573
  0
LINE
  5
39C
100
AcDbEntity
  8
_30_VOLUMEN
100
AcDbLine
 62
7
  6
CONTINUOUS
 10
205.0080437852
 20
161.6992105655
 11
204.993180935
 21
161.7911450205
  0
LINE
  5
39D
100
AcDbEntity
  8
_30_VOLUMEN
100
AcDbLine
 62
7
  6
CONTINUOUS
 10
205.0313948018
 20
161.6090567082
 11
205.0080437852
 21
161.6992105655
  0
LINE
  5
39E
100
AcDbEntity
  8
BEZUGSACHSEN
100
AcDbLine
 62
7
  6
CONTINUOUS
 10
212.9875799327
 20
117.1811658546
 11
212.9875799327
 21
113.3391488517
  0
LINE
  5
39F
100
AcDbEntity
  8
_30_VOLUMEN
100
AcDbLine
 62
7
  6
CONTINUOUS
 10
205.0630316967
 20
161.5214653272
 11
205.0313948018
 21
161.6090567082
  0
LINE
  5
3A0
100
AcDbEntity
  8
BEZUGSACHSEN
100
AcDbLine
 62
7
  6
CONTINUOUS
 10
197.4875799327
 20
160.9046006573
 11
197.9883809061
 21
160.9046006573
  0
LINE
  5
3A1
100
AcDbEntity
  8
RUNDUNGEN
100
AcDbLine
 62
7
  6
CONTINUOUS
 10
205.9867791935
 20
160.9046006573
 11
206.4875799327
 21
160.9046006573
  0
LWPOLYLINE
  5
3A2
100
AcDbEntity
  8
_30_VOLUMEN
100
AcDbPolyline
 62
7
  6
CONTINUOUS
 90
14
 70
0
 10
205.9867239291
 20
160.9046004333
 10
205.9271385443
 20
160.9063772211
 10
205.8345315579
 20
160.9162495449
 10
205.7432442197
 20
160.9346944472
 10
205.6540684258
 20
160.9615520259
 10
205.567777925
 20
160.9965893001
 10
205.4851211772
 20
161.0395023814
 10
205.4068151264
 20
161.0899190682
 10
205.3335391848
 20
161.1474018987
 10
205.2659288824
 20
161.2114522417
 10
205.2045706042
 20
161.2815145045
 10
205.1499966502
 20
161.3569807272
 10
205.1026802576
 20
161.4371962696
 10
205.0630316967
 20
161.5214653272
  0
LINE
  5
3A3
100
AcDbEntity
  8
0
100
AcDbLine
 62
7
  6
CONTINUOUS
 10
200.4875799327
 20
163.3391488517
 11
203.4875799327
 21
163.3391488517
  0
LINE
  5
3A4
100
AcDbEntity
  8
BEZUGSACHSEN
100
AcDbLine
 62
7
  6
CONTINUOUS
 10
78.6576762543
 20
47.1004193886
 11
78.6576762543
 21
52.6004193886
  0
LINE
  5
3A5
100
AcDbEntity
  8
_30_VOLUMEN
100
AcDbLine
 62
7
  6
CONTINUOUS
 10
78.6576762543
 20
47.5771031922
 11
78.6576762543
 21
55.0934973345
  0
LINE
  5
3A6
100
AcDbEntity
  8
RUNDUNGEN
100
AcDbLine
 62
7
  6
CONTINUOUS
 10
78.6576762543
 20
55.1004193886
 11
78.6576762543
 21
58.1004193886
  0
LINE
  5
3A7
100
AcDbEntity
  8
_30_VOLUMEN
100
AcDbLine
 62
7
  6
CONTINUOUS
 10
78.6577089929
 20
58.1103297267
 11
78.6576762543
 21
65.623735585
  0
LINE
  5
3A8
100
AcDbEntity
  8
BEZUGSACHSEN
100
AcDbLine
 62
7
  6
CONTINUOUS
 10
78.6576762543
 20
60.6004193886
 11
78.6576762543
 21
66.1004193886
  0
LINE
  5
3A9
100
AcDbEntity
  8
0
100
AcDbLine
 62
7
  6
CONTINUOUS
 10
81.3564096669
 20
59.6004193886
 11
81.3564096669
 21
60.1004193886
  0
LINE
  5
3AA
100
AcDbEntity
  8
0
100
AcDbLine
 62
7
  6
CONTINUOUS
 10
81.6096620205
 20
53.6004193886
 11
81.6096620205
 21
53.1004193886
  0
LINE
  5
3AB
100
AcDbEntity
  8
0
100
AcDbLine
 62
7
  6
CONTINUOUS
 10
81.7002760185
 20
53.6004193886
 11
81.7002760185
 21
53.1004193886
  0
LINE
  5
3AC
100
AcDbEntity
  8
0
100
AcDbLine
 62
7
  6
CONTINUOUS
 10
81.9177464729
 20
53.6004193886
 11
81.9177464729
 21
53.1004193886
  0
LINE
  5
3AD
100
AcDbEntity
  8
0
100
AcDbLine
 62
7
  6
CONTINUOUS
 10
82.0083604708
 20
53.6004193886
 11
82.0083604708
 21
53.1004193886
  0
LINE
  5
3AE
100
AcDbEntity
  8
0
100
AcDbLine
 62
7
  6
CONTINUOUS
 10
82.080837741
 20
53.6004193886
 11
82.080837741
 21
53.1004193886
  0
LINE
  5
3AF
100
AcDbEntity
  8
0
100
AcDbLine
 62
7
  6
CONTINUOUS
 10
82.1714504304
 20
53.6004193886
 11
82.1714504304
 21
53.1004193886
  0
LINE
  5
3B0
100
AcDbEntity
  8
0
100
AcDbLine
 62
7
  6
CONTINUOUS
 10
82.3631969549
 20
53.6004193886
 11
82.3631969549
 21
53.1004193886
  0
LINE
  5
3B1
100
AcDbEntity
  8
0
100
AcDbLine
 62
7
  6
CONTINUOUS
 10
82.4803728978
 20
53.6004193886
 11
82.4803728978
 21
53.1004193886
  0
LINE
  5
3B2
100
AcDbEntity
  8
0
100
AcDbLine
 62
7
  6
CONTINUOUS
 10
82.7364096669
 20
59.6004193886
 11
82.7364096669
 21
60.1004193886
  0
LINE
  5
3B3
100
AcDbEntity
  8
0
100
AcDbLine
 62
7
  6
CONTINUOUS
 10
83.3555844863
 20
53.6004193886
 11
83.3555844863
 21
53.1004193886
  0
LINE
  5
3B4
100
AcDbEntity
  8
0
100
AcDbLine
 62
7
  6
CONTINUOUS
 10
84.740991546
 20
53.6004193886
 11
84.740991546
 21
53.1004193886
  0
LINE
  5
3B5
100
AcDbEntity
  8
0
100
AcDbLine
 62
7
  6
CONTINUOUS
 10
84.880568272
 20
53.6004193886
 11
84.880568272
 21
53.1004193886
  0
LINE
  5
3B6
100
AcDbEntity
  8
0
100
AcDbLine
 62
7
  6
CONTINUOUS
 10
85.9336713001
 20
53.6004193886
 11
85.9336713001
 21
53.1004193886
  0
LINE
  5
3B7
100
AcDbEntity
  8
0
100
AcDbLine
 62
7
  6
CONTINUOUS
 10
86.6776762543
 20
59.6004193886
 11
86.6776762543
 21
60.1004193886
  0
LWPOLYLINE
  5
3B8
100
AcDbEntity
  8
BEZUGSACHSEN
100
AcDbPolyline
 62
7
  6
CONTINUOUS
 90
17
 70
0
 10
88.092224307
 20
51.9053168592
 10
88.0958418432
 20
51.7976919113
 10
88.110976485
 20
51.6608770012
 10
88.1376693254
 20
51.5260851076
 10
88.1751777432
 20
51.3954208689
 10
88.2229721152
 20
51.2691542472
 10
88.2803041125
 20
51.1480831145
 10
88.3453438859
 20
51.034429369
 10
88.4171488294
 20
50.9280079058
 10
88.4949562311
 20
50.8284598909
 10
88.5767139759
 20
50.7368474115
 10
88.6612658294
 20
50.6527850883
 10
88.7487344827
 20
50.5747727726
 10
88.8389475298
 20
50.5019235009
 10
88.931795541
 20
50.4334828706
 10
89.0273714591
 20
50.3687079426
 10
89.0518920989
 20
50.3528939144
  0
LINE
  5
3B9
100
AcDbEntity
  8
0
100
AcDbLine
 62
7
  6
CONTINUOUS
 10
87.4128951463
 20
53.5470024674
 11
87.4128951463
 21
53.1004193886
  0
LINE
  5
3BA
100
AcDbEntity
  8
BEZUGSACHSEN
100
AcDbLine
 62
7
  6
CONTINUOUS
 10
88.0922244487
 20
51.9049740074
 11
88.0922244487
 21
52.6004193886
  0
LINE
  5
3BB
100
AcDbEntity
  8
BEZUGSACHSEN
100
AcDbLine
 62
7
  6
CONTINUOUS
 10
88.0922244487
 20
60.6004193886
 11
88.0922244487
 21
61.2958647698
  0
LINE
  5
3BC
100
AcDbEntity
  8
_30_VOLUMEN
100
AcDbLine
 62
7
  6
CONTINUOUS
 10
89.3747309192
 20
47.1109641261
 11
89.3747309192
 21
45.7221345551
  0
LINE
  5
3BD
100
AcDbEntity
  8
_30_VOLUMEN
100
AcDbLine
 62
7
  6
CONTINUOUS
 10
89.6691700711
 20
66.995741309
 11
89.6691700711
 21
67.4787042221
  0
LINE
  5
3BE
100
AcDbEntity
  8
_30_VOLUMEN
100
AcDbLine
 62
7
  6
CONTINUOUS
 10
89.8122309192
 20
45.7221345551
 11
89.8122309192
 21
46.1268834931
  0
LINE
  5
3BF
100
AcDbEntity
  8
_30_VOLUMEN
100
AcDbLine
 62
7
  6
CONTINUOUS
 10
89.8122309192
 20
46.2425260314
 11
89.8122309192
 21
46.5316324311
  0
LINE
  5
3C0
100
AcDbEntity
  8
_30_VOLUMEN
100
AcDbLine
 62
7
  6
CONTINUOUS
 10
90.8358356251
 20
66.0898746511
 11
90.8358356251
 21
66.5728375643
  0
LINE
  5
3C1
100
AcDbEntity
  8
_30_VOLUMEN
100
AcDbLine
 62
7
  6
CONTINUOUS
 10
91.1247309192
 20
47.1109641261
 11
91.1247309192
 21
46.628001213
  0
LINE
  5
3C2
100
AcDbEntity
  8
_30_VOLUMEN
100
AcDbLine
 62
7
  6
CONTINUOUS
 10
91.1976475163
 20
46.5316324311
 11
91.1976475163
 21
46.2425260314
  0
LINE
  5
3C3
100
AcDbEntity
  8
_30_VOLUMEN
100
AcDbLine
 62
7
  6
CONTINUOUS
 10
91.4163975163
 20
46.5123586747
 11
91.4163975163
 21
46.2617997877
  0
LINE
  5
3C4
100
AcDbEntity
  8
_30_VOLUMEN
100
AcDbLine
 62
7
  6
CONTINUOUS
 10
91.4191700711
 20
66.0898746511
 11
91.4191700711
 21
66.5728375643
  0
LINE
  5
3C5
100
AcDbEntity
  8
_30_VOLUMEN
100
AcDbLine
 62
7
  6
CONTINUOUS
 10
91.489314322
 20
47.0916903697
 11
91.489314322
 21
46.6087274566
  0
LINE
  5
3C6
100
AcDbEntity
  8
_30_VOLUMEN
100
AcDbLine
 62
7
  6
CONTINUOUS
 10
91.5622309192
 20
46.4738111619
 11
91.5622309192
 21
46.3003473005
  0
LINE
  5
3C7
100
AcDbEntity
  8
_30_VOLUMEN
100
AcDbLine
 62
7
  6
CONTINUOUS
 10
91.6351475163
 20
46.4159898928
 11
91.6351475163
 21
46.3581685696
  0
LINE
  5
3C8
100
AcDbEntity
  8
_30_VOLUMEN
100
AcDbLine
 62
7
  6
CONTINUOUS
 10
91.7809809192
 20
47.0338691006
 11
91.7809809192
 21
46.5509061874
  0
LWPOLYLINE
  5
3C9
100
AcDbEntity
  8
BEZUGSACHSEN
100
AcDbPolyline
 62
7
  6
CONTINUOUS
 90
6
 70
0
 10
89.6341384202
 20
63.2167214698
 10
89.6503767727
 20
63.2341222164
 10
89.6604863485
 20
63.2437474041
 10
89.6573524657
 20
63.2412729271
 10
89.6384769322
 20
63.2276498495
 10
89.6240704389
 20
63.2180634386
  0
LINE
  5
3CA
100
AcDbEntity
  8
_30_VOLUMEN
100
AcDbLine
 62
7
  6
CONTINUOUS
 10
92.1483356251
 20
67.4787042221
 11
91.8566700711
 21
67.2474191186
  0
LINE
  5
3CB
100
AcDbEntity
  8
_30_VOLUMEN
100
AcDbLine
 62
7
  6
CONTINUOUS
 10
91.783754517
 20
67.170324093
 11
91.127504517
 21
66.6499325898
  0
LINE
  5
3CC
100
AcDbEntity
  8
_30_VOLUMEN
100
AcDbLine
 62
7
  6
CONTINUOUS
 10
93.2393141134
 20
45.9534196587
 11
93.1663977249
 21
46.0305146842
  0
LINE
  5
3CD
100
AcDbEntity
  8
_30_VOLUMEN
100
AcDbLine
 62
7
  6
CONTINUOUS
 10
93.2393141134
 20
46.4363825718
 11
93.1663977249
 21
46.5134775973
  0
LINE
  5
3CE
100
AcDbEntity
  8
_30_VOLUMEN
100
AcDbLine
 62
7
  6
CONTINUOUS
 10
92.7288975163
 20
46.0305146842
 11
92.801814322
 21
45.9341459023
  0
LINE
  5
3CF
100
AcDbEntity
  8
_30_VOLUMEN
100
AcDbLine
 62
7
  6
CONTINUOUS
 10
91.9997309192
 20
46.9567740751
 11
91.9997309192
 21
46.4738111619
  0
LINE
  5
3D0
100
AcDbEntity
  8
_30_VOLUMEN
100
AcDbLine
 62
7
  6
CONTINUOUS
 10
92.0726475163
 20
46.3388948133
 11
92.0726475163
 21
46.8989528059
  0
LINE
  5
3D1
100
AcDbEntity
  8
_30_VOLUMEN
100
AcDbLine
 62
7
  6
CONTINUOUS
 10
92.145564322
 20
46.2050974682
 11
92.145564322
 21
45.7221345551
  0
LINE
  5
3D2
100
AcDbEntity
  8
_30_VOLUMEN
100
AcDbLine
 62
7
  6
CONTINUOUS
 10
92.5858356251
 20
66.995741309
 11
92.5858356251
 21
67.4787042221
  0
LINE
  5
3D3
100
AcDbEntity
  8
_30_VOLUMEN
100
AcDbLine
 62
7
  6
CONTINUOUS
 10
92.7288975163
 20
47.1109641261
 11
92.7288975163
 21
46.0305146842
  0
LINE
  5
3D4
100
AcDbEntity
  8
_30_VOLUMEN
100
AcDbLine
 62
7
  6
CONTINUOUS
 10
93.1663977249
 20
46.0305146842
 11
93.1663977249
 21
47.1109641261
  0
LINE
  5
3D5
100
AcDbEntity
  8
_30_VOLUMEN
100
AcDbLine
 62
7
  6
CONTINUOUS
 10
93.1691700711
 20
66.3018859713
 11
93.1691700711
 21
67.2666928749
  0
LINE
  5
3D6
100
AcDbEntity
  8
_30_VOLUMEN
100
AcDbLine
 62
7
  6
CONTINUOUS
 10
93.2393141134
 20
46.4363825718
 11
93.2393141134
 21
45.9534196587
  0
LINE
  5
3D7
100
AcDbEntity
  8
_30_VOLUMEN
100
AcDbLine
 62
7
  6
CONTINUOUS
 10
93.2420856251
 20
66.2440647022
 11
93.2420856251
 21
66.7270276153
  0
LINE
  5
3D8
100
AcDbEntity
  8
_30_VOLUMEN
100
AcDbLine
 62
7
  6
CONTINUOUS
 10
93.2420856251
 20
66.9197652331
 11
93.2420856251
 21
67.1125027969
  0
LINE
  5
3D9
100
AcDbEntity
  8
_30_VOLUMEN
100
AcDbLine
 62
7
  6
CONTINUOUS
 10
93.3851477249
 20
46.3785613027
 11
93.3851477249
 21
45.8955983895
  0
LINE
  5
3DA
100
AcDbEntity
  8
_30_VOLUMEN
100
AcDbLine
 62
7
  6
CONTINUOUS
 10
93.4608356251
 20
66.1669696766
 11
93.4608356251
 21
66.6499325898
  0
LINE
  5
3DB
100
AcDbEntity
  8
_30_VOLUMEN
100
AcDbLine
 62
7
  6
CONTINUOUS
 10
93.4608356251
 20
66.9968602586
 11
93.4608356251
 21
67.0354077714
  0
LINE
  5
3DC
100
AcDbEntity
  8
_30_VOLUMEN
100
AcDbLine
 62
7
  6
CONTINUOUS
 10
93.6038977249
 20
46.3400137764
 11
93.6038977249
 21
45.8570508633
  0
LINE
  5
3DD
100
AcDbEntity
  8
_30_VOLUMEN
100
AcDbLine
 62
7
  6
CONTINUOUS
 10
93.6066700711
 20
66.8041226948
 11
93.6066700711
 21
66.8426702076
  0
LINE
  5
3DE
100
AcDbEntity
  8
_30_VOLUMEN
100
AcDbLine
 62
7
  6
CONTINUOUS
 10
93.6066700711
 20
67.1895978494
 11
93.6066700711
 21
67.2474191186
  0
LINE
  5
3DF
100
AcDbEntity
  8
_30_VOLUMEN
100
AcDbLine
 62
7
  6
CONTINUOUS
 10
93.6795856251
 20
66.7463013717
 11
93.6795856251
 21
66.9004914767
  0
LINE
  5
3E0
100
AcDbEntity
  8
_30_VOLUMEN
100
AcDbLine
 62
7
  6
CONTINUOUS
 10
93.6795856251
 20
67.1317765533
 11
93.6795856251
 21
67.3052403877
  0
LINE
  5
3E1
100
AcDbEntity
  8
_30_VOLUMEN
100
AcDbLine
 62
7
  6
CONTINUOUS
 10
93.752504517
 20
66.1091484075
 11
93.752504517
 21
66.5921113206
  0
LINE
  5
3E2
100
AcDbEntity
  8
_30_VOLUMEN
100
AcDbLine
 62
7
  6
CONTINUOUS
 10
93.8254200711
 20
66.7077538589
 11
93.8254200711
 21
66.9390389895
  0
LINE
  5
3E3
100
AcDbEntity
  8
_30_VOLUMEN
100
AcDbLine
 62
7
  6
CONTINUOUS
 10
93.8254200711
 20
67.0932290405
 11
93.8254200711
 21
67.343787914
  0
LINE
  5
3E4
100
AcDbEntity
  8
_30_VOLUMEN
100
AcDbLine
 62
7
  6
CONTINUOUS
 10
93.8955641134
 20
46.32074002
 11
93.8955641134
 21
45.8377771069
  0
LINE
  5
3E5
100
AcDbEntity
  8
_30_VOLUMEN
100
AcDbLine
 62
7
  6
CONTINUOUS
 10
94.0441700711
 20
66.6884801025
 11
94.0441700711
 21
66.9583127459
  0
LINE
  5
3E6
100
AcDbEntity
  8
_30_VOLUMEN
100
AcDbLine
 62
7
  6
CONTINUOUS
 10
94.0441700711
 20
67.0739552841
 11
94.0441700711
 21
67.3630616703
  0
LINE
  5
3E7
100
AcDbEntity
  8
_30_VOLUMEN
100
AcDbLine
 62
7
  6
CONTINUOUS
 10
94.1170856251
 20
66.0898746511
 11
94.1170856251
 21
66.5728375643
  0
LINE
  5
3E8
100
AcDbEntity
  8
_30_VOLUMEN
100
AcDbLine
 62
7
  6
CONTINUOUS
 10
94.1872309192
 20
46.32074002
 11
94.1872309192
 21
45.8377771069
  0
LINE
  5
3E9
100
AcDbEntity
  8
_30_VOLUMEN
100
AcDbLine
 62
7
  6
CONTINUOUS
 10
93.2420856251
 20
67.3245141576
 11
93.1691700711
 21
67.2666928749
  0
LINE
  5
3EA
100
AcDbEntity
  8
_30_VOLUMEN
100
AcDbLine
 62
7
  6
CONTINUOUS
 10
93.6066700711
 20
67.2474191186
 11
93.6795856251
 21
67.3052403877
  0
LINE
  5
3EB
100
AcDbEntity
  8
_30_VOLUMEN
100
AcDbLine
 62
7
  6
CONTINUOUS
 10
93.2420856251
 20
66.9197652331
 11
93.1691700711
 21
66.861943964
  0
LINE
  5
3EC
100
AcDbEntity
  8
_30_VOLUMEN
100
AcDbLine
 62
7
  6
CONTINUOUS
 10
93.6066700711
 20
66.8426702076
 11
93.6795856251
 21
66.9004914767
  0
LINE
  5
3ED
100
AcDbEntity
  8
_30_VOLUMEN
100
AcDbLine
 62
7
  6
CONTINUOUS
 10
91.4191700711
 20
66.5728375643
 11
92.5858356251
 21
67.4787042221
  0
LINE
  5
3EE
100
AcDbEntity
  8
_30_VOLUMEN
100
AcDbLine
 62
7
  6
CONTINUOUS
 10
91.4191700711
 20
66.0898746511
 11
92.5858356251
 21
66.995741309
  0
LINE
  5
3EF
100
AcDbEntity
  8
_30_VOLUMEN
100
AcDbLine
 62
7
  6
CONTINUOUS
 10
92.145564322
 20
45.7221345551
 11
91.489314322
 21
46.1654310058
  0
LINE
  5
3F0
100
AcDbEntity
  8
_30_VOLUMEN
100
AcDbLine
 62
7
  6
CONTINUOUS
 10
92.145564322
 20
46.2050974682
 11
92.0150762638
 21
46.2932420673
  0
LINE
  5
3F1
100
AcDbEntity
  8
_30_VOLUMEN
100
AcDbLine
 62
7
  6
CONTINUOUS
 10
91.0518142177
 20
46.1268834931
 11
91.6351475163
 21
45.7221345551
  0
LINE
  5
3F2
100
AcDbEntity
  8
_30_VOLUMEN
100
AcDbLine
 62
7
  6
CONTINUOUS
 10
91.5622309192
 20
46.4738111619
 11
91.6351475163
 21
46.4159898928
  0
LINE
  5
3F3
100
AcDbEntity
  8
_30_VOLUMEN
100
AcDbLine
 62
7
  6
CONTINUOUS
 10
92.0726475163
 20
46.4159898928
 11
91.9997309192
 21
46.4738111619
  0
LINE
  5
3F4
100
AcDbEntity
  8
_30_VOLUMEN
100
AcDbLine
 62
7
  6
CONTINUOUS
 10
92.0726475163
 20
46.8989528059
 11
91.9997309192
 21
46.9567740751
  0
LINE
  5
3F5
100
AcDbEntity
  8
_30_VOLUMEN
100
AcDbLine
 62
7
  6
CONTINUOUS
 10
94.4788977249
 20
46.3400137764
 11
94.4788977249
 21
45.8570508633
  0
LINE
  5
3F6
100
AcDbEntity
  8
_30_VOLUMEN
100
AcDbLine
 62
7
  6
CONTINUOUS
 10
94.6976477249
 20
46.3785613027
 11
94.6976477249
 21
45.8955983895
  0
LINE
  5
3F7
100
AcDbEntity
  8
_30_VOLUMEN
100
AcDbLine
 62
7
  6
CONTINUOUS
 10
94.8434809192
 20
46.4363825718
 11
94.8434809192
 21
45.9534196587
  0
LINE
  5
3F8
100
AcDbEntity
  8
_30_VOLUMEN
100
AcDbLine
 62
7
  6
CONTINUOUS
 10
94.9163977249
 20
47.1109641261
 11
94.9163977249
 21
46.0305146842
  0
LINE
  5
3F9
100
AcDbEntity
  8
_30_VOLUMEN
100
AcDbLine
 62
7
  6
CONTINUOUS
 10
95.3538977249
 20
46.0305146842
 11
95.3538977249
 21
47.1109641261
  0
LINE
  5
3FA
100
AcDbEntity
  8
_30_VOLUMEN
100
AcDbLine
 62
7
  6
CONTINUOUS
 10
95.4295856251
 20
67.3630616703
 11
95.4295856251
 21
67.0739552841
  0
LINE
  5
3FB
100
AcDbEntity
  8
_30_VOLUMEN
100
AcDbLine
 62
7
  6
CONTINUOUS
 10
95.4295856251
 20
66.9583127459
 11
95.4295856251
 21
66.6884801025
  0
LINE
  5
3FC
100
AcDbEntity
  8
_30_VOLUMEN
100
AcDbLine
 62
7
  6
CONTINUOUS
 10
95.8670856251
 20
66.0898746511
 11
95.8670856251
 21
67.4787042221
  0
LINE
  5
3FD
100
AcDbEntity
  8
_30_VOLUMEN
100
AcDbLine
 62
7
  6
CONTINUOUS
 10
95.9372309192
 20
47.1109641261
 11
95.9372309192
 21
45.7221345551
  0
LINE
  5
3FE
100
AcDbEntity
  8
_30_VOLUMEN
100
AcDbLine
 62
7
  6
CONTINUOUS
 10
96.3747309192
 20
45.8377771069
 11
96.3747309192
 21
46.5123586747
  0
LINE
  5
3FF
100
AcDbEntity
  8
_30_VOLUMEN
100
AcDbLine
 62
7
  6
CONTINUOUS
 10
96.4504200711
 20
66.995741309
 11
96.4504200711
 21
67.4787042221
  0
LINE
  5
400
100
AcDbEntity
  8
_30_VOLUMEN
100
AcDbLine
 62
7
  6
CONTINUOUS
 10
98.9295856251
 20
67.4787042221
 11
98.6379200711
 21
67.2474191186
  0
LINE
  5
401
100
AcDbEntity
  8
_30_VOLUMEN
100
AcDbLine
 62
7
  6
CONTINUOUS
 10
98.565004517
 20
67.170324093
 11
97.908754517
 21
66.6499325898
  0
LINE
  5
402
100
AcDbEntity
  8
_30_VOLUMEN
100
AcDbLine
 62
7
  6
CONTINUOUS
 10
98.2004200711
 20
66.5728375643
 11
99.3670856251
 21
67.4787042221
  0
LINE
  5
403
100
AcDbEntity
  8
_30_VOLUMEN
100
AcDbLine
 62
7
  6
CONTINUOUS
 10
98.2004200711
 20
66.0898746511
 11
99.3670856251
 21
66.995741309
  0
LWPOLYLINE
  5
404
100
AcDbEntity
  8
BEZUGSACHSEN
100
AcDbPolyline
 62
7
  6
CONTINUOUS
 90
16
 70
0
 10
89.0276203293
 20
62.8322929165
 10
88.9323213309
 20
62.7677270231
 10
88.8397751719
 20
62.6995526596
 10
88.7498843633
 20
62.6270396862
 10
88.6627456793
 20
62.5494433686
 10
88.57851496
 20
62.4658854751
 10
88.4970663576
 20
62.3748947129
 10
88.4195235553
 20
62.2760854199
 10
88.347886096
 20
62.170475227
 10
88.2828937134
 20
62.0576887754
 10
88.2254806272
 20
61.9375462572
 10
88.1774627816
 20
61.8122397261
 10
88.1395797728
 20
61.6825483219
 10
88.1123522488
 20
61.5487243482
 10
88.096524286
 20
61.4128378526
 10
88.0922243365
 20
61.295510815
  0
LINE
  5
405
100
AcDbEntity
  8
BEZUGSACHSEN
100
AcDbLine
 62
7
  6
CONTINUOUS
 10
89.6235798127
 20
63.2177356333
 11
89.0276203293
 21
62.8322929165
  0
LINE
  5
406
100
AcDbEntity
  8
BEZUGSACHSEN
100
AcDbLine
 62
7
  6
CONTINUOUS
 10
89.0518716882
 20
62.8479318468
 11
89.0508000724
 21
62.8472476667
  0
LINE
  5
407
100
AcDbEntity
  8
_30_VOLUMEN
100
AcDbLine
 62
7
  6
CONTINUOUS
 10
93.4608356251
 20
67.4016091898
 11
93.2420856251
 21
67.3245141576
  0
LINE
  5
408
100
AcDbEntity
  8
_30_VOLUMEN
100
AcDbLine
 62
7
  6
CONTINUOUS
 10
93.3851477249
 20
45.8955983895
 11
93.2393141134
 21
45.9534196587
  0
LINE
  5
409
100
AcDbEntity
  8
_30_VOLUMEN
100
AcDbLine
 62
7
  6
CONTINUOUS
 10
93.3851477249
 20
46.3785613027
 11
93.2393141134
 21
46.4363825718
  0
LINE
  5
40A
100
AcDbEntity
  8
_30_VOLUMEN
100
AcDbLine
 62
7
  6
CONTINUOUS
 10
92.801814322
 20
45.9341459023
 11
92.9476477249
 21
45.8570508633
  0
LINE
  5
40B
100
AcDbEntity
  8
BEZUGSACHSEN
100
AcDbLine
 62
7
  6
CONTINUOUS
 10
89.0508000724
 20
50.3535911105
 11
89.0612145253
 21
50.3468896983
  0
LINE
  5
40C
100
AcDbEntity
  8
BEZUGSACHSEN
100
AcDbLine
 62
7
  6
CONTINUOUS
 10
89.0612145262
 20
50.3468896976
 11
89.6235798127
 21
49.9831031439
  0
LWPOLYLINE
  5
40D
100
AcDbEntity
  8
BEZUGSACHSEN
100
AcDbPolyline
 62
7
  6
CONTINUOUS
 90
4
 70
0
 10
89.6241415909
 20
49.9827293661
 10
89.6385159459
 20
49.973162589
 10
89.6574040742
 20
49.9595263853
 10
89.6604256699
 20
49.9571280978
  0
LINE
  5
40E
100
AcDbEntity
  8
_30_VOLUMEN
100
AcDbLine
 62
7
  6
CONTINUOUS
 10
98.3434809192
 20
46.3967160824
 11
98.4163973077
 21
46.3196210569
  0
LINE
  5
40F
100
AcDbEntity
  8
_30_VOLUMEN
100
AcDbLine
 62
7
  6
CONTINUOUS
 10
98.8538973077
 20
46.3196210569
 11
98.7809809192
 21
46.4159898928
  0
LINE
  5
410
100
AcDbEntity
  8
_30_VOLUMEN
100
AcDbLine
 62
7
  6
CONTINUOUS
 10
98.8538973077
 20
46.80258397
 11
98.7809809192
 21
46.8989528059
  0
LINE
  5
411
100
AcDbEntity
  8
_30_VOLUMEN
100
AcDbLine
 62
7
  6
CONTINUOUS
 10
97.6170856251
 20
66.0898746511
 11
97.6170856251
 21
66.5728375643
  0
LINE
  5
412
100
AcDbEntity
  8
_30_VOLUMEN
100
AcDbLine
 62
7
  6
CONTINUOUS
 10
97.6872309192
 20
47.1109641261
 11
97.6872309192
 21
46.628001213
  0
LINE
  5
413
100
AcDbEntity
  8
_30_VOLUMEN
100
AcDbLine
 62
7
  6
CONTINUOUS
 10
97.6872309192
 20
46.32074002
 11
97.6872309192
 21
45.8377771069
  0
LINE
  5
414
100
AcDbEntity
  8
_30_VOLUMEN
100
AcDbLine
 62
7
  6
CONTINUOUS
 10
97.9788973077
 20
46.3400137764
 11
97.9788973077
 21
45.8570508633
  0
LINE
  5
415
100
AcDbEntity
  8
_30_VOLUMEN
100
AcDbLine
 62
7
  6
CONTINUOUS
 10
98.0518145307
 20
47.0916903697
 11
98.0518145307
 21
46.6087274566
  0
LINE
  5
416
100
AcDbEntity
  8
_30_VOLUMEN
100
AcDbLine
 62
7
  6
CONTINUOUS
 10
98.1976473077
 20
46.3785613027
 11
98.1976473077
 21
45.8955983895
  0
LINE
  5
417
100
AcDbEntity
  8
_30_VOLUMEN
100
AcDbLine
 62
7
  6
CONTINUOUS
 10
98.2004200711
 20
66.0898746511
 11
98.2004200711
 21
66.5728375643
  0
LINE
  5
418
100
AcDbEntity
  8
_30_VOLUMEN
100
AcDbLine
 62
7
  6
CONTINUOUS
 10
98.3434809192
 20
47.053142857
 11
98.3434809192
 21
46.5701799438
  0
LINE
  5
419
100
AcDbEntity
  8
_30_VOLUMEN
100
AcDbLine
 62
7
  6
CONTINUOUS
 10
98.3434809192
 20
46.3967160824
 11
98.3434809192
 21
45.9534196587
  0
LINE
  5
41A
100
AcDbEntity
  8
_30_VOLUMEN
100
AcDbLine
 62
7
  6
CONTINUOUS
 10
98.4163973077
 20
46.3196210569
 11
98.4163973077
 21
46.0305146842
  0
LINE
  5
41B
100
AcDbEntity
  8
_30_VOLUMEN
100
AcDbLine
 62
7
  6
CONTINUOUS
 10
98.6351473077
 20
46.9760478314
 11
98.6351473077
 21
46.4930849183
  0
LINE
  5
41C
100
AcDbEntity
  8
_30_VOLUMEN
100
AcDbLine
 62
7
  6
CONTINUOUS
 10
98.7809809192
 20
46.8989528059
 11
98.7809809192
 21
46.4159898928
  0
LINE
  5
41D
100
AcDbEntity
  8
_30_VOLUMEN
100
AcDbLine
 62
7
  6
CONTINUOUS
 10
98.8538973077
 20
46.0305146842
 11
98.8538973077
 21
46.80258397
  0
LINE
  5
41E
100
AcDbEntity
  8
_30_VOLUMEN
100
AcDbLine
 62
7
  6
CONTINUOUS
 10
93.4608356251
 20
66.9968602586
 11
93.2420856251
 21
66.9197652331
  0
LINE
  5
41F
100
AcDbEntity
  8
_30_VOLUMEN
100
AcDbLine
 62
7
  6
CONTINUOUS
 10
92.9476477249
 20
45.8570508633
 11
93.2393141134
 21
45.779955831
  0
LINE
  5
420
100
AcDbEntity
  8
_30_VOLUMEN
100
AcDbLine
 62
7
  6
CONTINUOUS
 10
91.4163975163
 20
46.5123586747
 11
91.5622309192
 21
46.4738111619
  0
LINE
  5
421
100
AcDbEntity
  8
_30_VOLUMEN
100
AcDbLine
 62
7
  6
CONTINUOUS
 10
91.9997309192
 20
46.4738111619
 11
91.7809809192
 21
46.5509061874
  0
LINE
  5
422
100
AcDbEntity
  8
_30_VOLUMEN
100
AcDbLine
 62
7
  6
CONTINUOUS
 10
91.9997309192
 20
46.9567740751
 11
91.7809809192
 21
47.0338691006
  0
LINE
  5
423
100
AcDbEntity
  8
_30_VOLUMEN
100
AcDbLine
 62
7
  6
CONTINUOUS
 10
98.1976473077
 20
46.4545374055
 11
98.3434809192
 21
46.3967160824
  0
LINE
  5
424
100
AcDbEntity
  8
_30_VOLUMEN
100
AcDbLine
 62
7
  6
CONTINUOUS
 10
98.7809809192
 20
46.4159898928
 11
98.6351473077
 21
46.4930849183
  0
LINE
  5
425
100
AcDbEntity
  8
_30_VOLUMEN
100
AcDbLine
 62
7
  6
CONTINUOUS
 10
98.7809809192
 20
46.8989528059
 11
98.6351473077
 21
46.9760478314
  0
LINE
  5
426
100
AcDbEntity
  8
_30_VOLUMEN
100
AcDbLine
 62
7
  6
CONTINUOUS
 10
99.3670856251
 20
66.995741309
 11
99.3670856251
 21
67.4787042221
  0
LINE
  5
427
100
AcDbEntity
  8
_30_VOLUMEN
100
AcDbLine
 62
7
  6
CONTINUOUS
 10
93.5309809192
 20
45.7414083132
 11
93.8955641134
 21
45.7221345551
  0
LINE
  5
428
100
AcDbEntity
  8
_30_VOLUMEN
100
AcDbLine
 62
7
  6
CONTINUOUS
 10
93.8955641134
 20
45.8377771069
 11
93.6038977249
 21
45.8570508633
  0
LINE
  5
429
100
AcDbEntity
  8
_30_VOLUMEN
100
AcDbLine
 62
7
  6
CONTINUOUS
 10
91.1976475163
 20
46.5316324311
 11
91.4163975163
 21
46.5123586747
  0
LINE
  5
42A
100
AcDbEntity
  8
_30_VOLUMEN
100
AcDbLine
 62
7
  6
CONTINUOUS
 10
93.2393141134
 20
45.779955831
 11
93.5309809192
 21
45.7414083132
  0
LINE
  5
42B
100
AcDbEntity
  8
_30_VOLUMEN
100
AcDbLine
 62
7
  6
CONTINUOUS
 10
98.3434809192
 20
46.5701799438
 11
98.0518145307
 21
46.6087274566
  0
LINE
  5
42C
100
AcDbEntity
  8
_30_VOLUMEN
100
AcDbLine
 62
7
  6
CONTINUOUS
 10
93.6038977249
 20
45.8570508633
 11
93.3851477249
 21
45.8955983895
  0
LINE
  5
42D
100
AcDbEntity
  8
_30_VOLUMEN
100
AcDbLine
 62
7
  6
CONTINUOUS
 10
93.6038977249
 20
46.3400137764
 11
93.3851477249
 21
46.3785613027
  0
LINE
  5
42E
100
AcDbEntity
  8
_30_VOLUMEN
100
AcDbLine
 62
7
  6
CONTINUOUS
 10
97.9788973077
 20
46.4930849183
 11
98.1976473077
 21
46.4545374055
  0
LINE
  5
42F
100
AcDbEntity
  8
_30_VOLUMEN
100
AcDbLine
 62
7
  6
CONTINUOUS
 10
91.7809809192
 20
46.5509061874
 11
91.489314322
 21
46.6087274566
  0
LINE
  5
430
100
AcDbEntity
  8
_30_VOLUMEN
100
AcDbLine
 62
7
  6
CONTINUOUS
 10
91.7809809192
 20
47.0338691006
 11
91.489314322
 21
47.0916903697
  0
LINE
  5
431
100
AcDbEntity
  8
_30_VOLUMEN
100
AcDbLine
 62
7
  6
CONTINUOUS
 10
98.6351473077
 20
46.4930849183
 11
98.3434809192
 21
46.5701799438
  0
LINE
  5
432
100
AcDbEntity
  8
_30_VOLUMEN
100
AcDbLine
 62
7
  6
CONTINUOUS
 10
98.6351473077
 20
46.9760478314
 11
98.3434809192
 21
47.053142857
  0
LINE
  5
433
100
AcDbEntity
  8
_30_VOLUMEN
100
AcDbLine
 62
7
  6
CONTINUOUS
 10
97.9788973077
 20
45.8570508633
 11
97.6872309192
 21
45.8377771069
  0
LINE
  5
434
100
AcDbEntity
  8
_30_VOLUMEN
100
AcDbLine
 62
7
  6
CONTINUOUS
 10
94.4788977249
 20
45.8570508633
 11
94.1872309192
 21
45.8377771069
  0
LINE
  5
435
100
AcDbEntity
  8
_30_VOLUMEN
100
AcDbLine
 62
7
  6
CONTINUOUS
 10
97.6872309192
 20
45.7221345551
 11
98.0518145307
 21
45.7414083132
  0
LINE
  5
436
100
AcDbEntity
  8
_30_VOLUMEN
100
AcDbLine
 62
7
  6
CONTINUOUS
 10
94.1872309192
 20
45.7221345551
 11
94.5518141134
 21
45.7414083132
  0
LINE
  5
437
100
AcDbEntity
  8
BEZUGSACHSEN
100
AcDbLine
 62
7
  6
CONTINUOUS
 10
147.1576762543
 20
45.6004193886
 11
80.1576762543
 21
45.6004193886
  0
LINE
  5
438
100
AcDbEntity
  8
_30_VOLUMEN
100
AcDbLine
 62
7
  6
CONTINUOUS
 10
89.3747309192
 20
45.7221345551
 11
89.8122309192
 21
45.7221345551
  0
LINE
  5
439
100
AcDbEntity
  8
_30_VOLUMEN
100
AcDbLine
 62
7
  6
CONTINUOUS
 10
91.6351475163
 20
45.7221345551
 11
92.145564322
 21
45.7221345551
  0
LINE
  5
43A
100
AcDbEntity
  8
_30_VOLUMEN
100
AcDbLine
 62
7
  6
CONTINUOUS
 10
93.8955641134
 20
45.7221345551
 11
94.1872309192
 21
45.7221345551
  0
LINE
  5
43B
100
AcDbEntity
  8
_30_VOLUMEN
100
AcDbLine
 62
7
  6
CONTINUOUS
 10
95.9372309192
 20
45.7221345551
 11
97.6872309192
 21
45.7221345551
  0
LINE
  5
43C
100
AcDbEntity
  8
_30_VOLUMEN
100
AcDbLine
 62
7
  6
CONTINUOUS
 10
97.6872309192
 20
45.8377771069
 11
96.3747309192
 21
45.8377771069
  0
LINE
  5
43D
100
AcDbEntity
  8
_30_VOLUMEN
100
AcDbLine
 62
7
  6
CONTINUOUS
 10
94.1872309192
 20
45.8377771069
 11
93.8955641134
 21
45.8377771069
  0
LINE
  5
43E
100
AcDbEntity
  8
_30_VOLUMEN
100
AcDbLine
 62
7
  6
CONTINUOUS
 10
89.8122309192
 20
46.1268834931
 11
91.0518142177
 21
46.1268834931
  0
LINE
  5
43F
100
AcDbEntity
  8
_30_VOLUMEN
100
AcDbLine
 62
7
  6
CONTINUOUS
 10
91.1976475163
 20
46.2425260314
 11
89.8122309192
 21
46.2425260314
  0
LINE
  5
440
100
AcDbEntity
  8
_30_VOLUMEN
100
AcDbLine
 62
7
  6
CONTINUOUS
 10
97.6872309192
 20
46.32074002
 11
96.3747309192
 21
46.32074002
  0
LINE
  5
441
100
AcDbEntity
  8
_30_VOLUMEN
100
AcDbLine
 62
7
  6
CONTINUOUS
 10
94.1872309192
 20
46.32074002
 11
93.8955641134
 21
46.32074002
  0
LINE
  5
442
100
AcDbEntity
  8
_30_VOLUMEN
100
AcDbLine
 62
7
  6
CONTINUOUS
 10
96.3747309192
 20
46.5123586747
 11
97.6872309192
 21
46.5123586747
  0
LINE
  5
443
100
AcDbEntity
  8
_30_VOLUMEN
100
AcDbLine
 62
7
  6
CONTINUOUS
 10
89.8122309192
 20
46.5316324311
 11
91.1976475163
 21
46.5316324311
  0
LINE
  5
444
100
AcDbEntity
  8
_30_VOLUMEN
100
AcDbLine
 62
7
  6
CONTINUOUS
 10
97.6872309192
 20
46.628001213
 11
95.9372309192
 21
46.628001213
  0
LINE
  5
445
100
AcDbEntity
  8
_30_VOLUMEN
100
AcDbLine
 62
7
  6
CONTINUOUS
 10
95.3538977249
 20
46.628001213
 11
94.9163977249
 21
46.628001213
  0
LINE
  5
446
100
AcDbEntity
  8
_30_VOLUMEN
100
AcDbLine
 62
7
  6
CONTINUOUS
 10
93.1663977249
 20
46.628001213
 11
92.7288975163
 21
46.628001213
  0
LINE
  5
447
100
AcDbEntity
  8
_30_VOLUMEN
100
AcDbLine
 62
7
  6
CONTINUOUS
 10
91.1247309192
 20
46.628001213
 11
89.3747309192
 21
46.628001213
  0
LINE
  5
448
100
AcDbEntity
  8
_30_VOLUMEN
100
AcDbLine
 62
7
  6
CONTINUOUS
 10
97.6872309192
 20
47.1109641261
 11
95.9372309192
 21
47.1109641261
  0
LINE
  5
449
100
AcDbEntity
  8
_30_VOLUMEN
100
AcDbLine
 62
7
  6
CONTINUOUS
 10
95.3538977249
 20
47.1109641261
 11
94.9163977249
 21
47.1109641261
  0
LINE
  5
44A
100
AcDbEntity
  8
_30_VOLUMEN
100
AcDbLine
 62
7
  6
CONTINUOUS
 10
93.1663977249
 20
47.1109641261
 11
92.7288975163
 21
47.1109641261
  0
LINE
  5
44B
100
AcDbEntity
  8
_30_VOLUMEN
100
AcDbLine
 62
7
  6
CONTINUOUS
 10
91.1247309192
 20
47.1109641261
 11
89.3747309192
 21
47.1109641261
  0
LINE
  5
44C
100
AcDbEntity
  8
_30_VOLUMEN
100
AcDbLine
 62
7
  6
CONTINUOUS
 10
91.489314322
 20
46.6087274566
 11
91.1247309192
 21
46.628001213
  0
LINE
  5
44D
100
AcDbEntity
  8
_30_VOLUMEN
100
AcDbLine
 62
7
  6
CONTINUOUS
 10
98.0518145307
 20
46.6087274566
 11
97.6872309192
 21
46.628001213
  0
LINE
  5
44E
100
AcDbEntity
  8
_30_VOLUMEN
100
AcDbLine
 62
7
  6
CONTINUOUS
 10
91.489314322
 20
47.0916903697
 11
91.1247309192
 21
47.1109641261
  0
LINE
  5
44F
100
AcDbEntity
  8
_30_VOLUMEN
100
AcDbLine
 62
7
  6
CONTINUOUS
 10
98.0518145307
 20
47.0916903697
 11
97.6872309192
 21
47.1109641261
  0
LINE
  5
450
100
AcDbEntity
  8
_30_VOLUMEN
100
AcDbLine
 62
7
  6
CONTINUOUS
 10
93.8955641134
 20
46.32074002
 11
93.6038977249
 21
46.3400137764
  0
LINE
  5
451
100
AcDbEntity
  8
_30_VOLUMEN
100
AcDbLine
 62
7
  6
CONTINUOUS
 10
97.6872309192
 20
46.5123586747
 11
97.9788973077
 21
46.4930849183
  0
LINE
  5
452
100
AcDbEntity
  8
_30_VOLUMEN
100
AcDbLine
 62
7
  6
CONTINUOUS
 10
98.3434809192
 20
47.053142857
 11
98.0518145307
 21
47.0916903697
  0
LINE
  5
453
100
AcDbEntity
  8
_30_VOLUMEN
100
AcDbLine
 62
7
  6
CONTINUOUS
 10
95.2809809192
 20
45.9341459023
 11
95.3538977249
 21
46.0305146842
  0
LINE
  5
454
100
AcDbEntity
  8
_30_VOLUMEN
100
AcDbLine
 62
7
  6
CONTINUOUS
 10
98.1976473077
 20
45.8955983895
 11
97.9788973077
 21
45.8570508633
  0
LINE
  5
455
100
AcDbEntity
  8
_30_VOLUMEN
100
AcDbLine
 62
7
  6
CONTINUOUS
 10
98.1976473077
 20
46.3785613027
 11
97.9788973077
 21
46.3400137764
  0
LINE
  5
456
100
AcDbEntity
  8
_30_VOLUMEN
100
AcDbLine
 62
7
  6
CONTINUOUS
 10
94.6976477249
 20
45.8955983895
 11
94.4788977249
 21
45.8570508633
  0
LINE
  5
457
100
AcDbEntity
  8
_30_VOLUMEN
100
AcDbLine
 62
7
  6
CONTINUOUS
 10
98.0518145307
 20
45.7414083132
 11
98.3434809192
 21
45.779955831
  0
LINE
  5
458
100
AcDbEntity
  8
_30_VOLUMEN
100
AcDbLine
 62
7
  6
CONTINUOUS
 10
94.5518141134
 20
45.7414083132
 11
94.8434809192
 21
45.779955831
  0
LINE
  5
459
100
AcDbEntity
  8
_30_VOLUMEN
100
AcDbLine
 62
7
  6
CONTINUOUS
 10
91.489314322
 20
46.1654310058
 11
91.7809809192
 21
46.2039785186
  0
LINE
  5
45A
100
AcDbEntity
  8
_30_VOLUMEN
100
AcDbLine
 62
7
  6
CONTINUOUS
 10
91.4163975163
 20
46.2617997877
 11
91.1976475163
 21
46.2425260314
  0
LINE
  5
45B
100
AcDbEntity
  8
_30_VOLUMEN
100
AcDbLine
 62
7
  6
CONTINUOUS
 10
97.9788973077
 20
46.3400137764
 11
97.6872309192
 21
46.32074002
  0
LINE
  5
45C
100
AcDbEntity
  8
_30_VOLUMEN
100
AcDbLine
 62
7
  6
CONTINUOUS
 10
94.4788977249
 20
46.3400137764
 11
94.1872309192
 21
46.32074002
  0
LINE
  5
45D
100
AcDbEntity
  8
_30_VOLUMEN
100
AcDbLine
 62
7
  6
CONTINUOUS
 10
98.7809809192
 20
45.9341459023
 11
98.8538973077
 21
46.0305146842
  0
LINE
  5
45E
100
AcDbEntity
  8
_30_VOLUMEN
100
AcDbLine
 62
7
  6
CONTINUOUS
 10
94.9163977249
 20
46.5134775973
 11
94.8434809192
 21
46.4363825718
  0
LINE
  5
45F
100
AcDbEntity
  8
_30_VOLUMEN
100
AcDbLine
 62
7
  6
CONTINUOUS
 10
94.9163977249
 20
46.0305146842
 11
94.8434809192
 21
45.9534196587
  0
LINE
  5
460
100
AcDbEntity
  8
_30_VOLUMEN
100
AcDbLine
 62
7
  6
CONTINUOUS
 10
91.6351475163
 20
46.3581685696
 11
91.5622309192
 21
46.3003473005
  0
LINE
  5
461
100
AcDbEntity
  8
_30_VOLUMEN
100
AcDbLine
 62
7
  6
CONTINUOUS
 10
91.9997309192
 20
46.2810735441
 11
92.0726475163
 21
46.3388948133
  0
LINE
  5
462
100
AcDbEntity
  8
_30_VOLUMEN
100
AcDbLine
 62
7
  6
CONTINUOUS
 10
130.4295864596
 20
67.4787042221
 11
129.4087536826
 21
67.1125027969
  0
LINE
  5
463
100
AcDbEntity
  8
_30_VOLUMEN
100
AcDbLine
 62
7
  6
CONTINUOUS
 10
129.1900036826
 20
67.016134015
 11
127.9504200711
 21
66.5728375643
  0
LINE
  5
464
100
AcDbEntity
  8
_30_VOLUMEN
100
AcDbLine
 62
7
  6
CONTINUOUS
 10
98.3434809192
 20
45.779955831
 11
98.6351473077
 21
45.8570508633
  0
LINE
  5
465
100
AcDbEntity
  8
_30_VOLUMEN
100
AcDbLine
 62
7
  6
CONTINUOUS
 10
94.8434809192
 20
45.779955831
 11
95.1351477249
 21
45.8570508633
  0
LINE
  5
466
100
AcDbEntity
  8
_30_VOLUMEN
100
AcDbLine
 62
7
  6
CONTINUOUS
 10
94.6976477249
 20
46.3785613027
 11
94.4788977249
 21
46.3400137764
  0
LINE
  5
467
100
AcDbEntity
  8
BEZUGSACHSEN
100
AcDbLine
 62
7
  6
CONTINUOUS
 10
90.2862579305
 20
50.6004193886
 11
97.7763138111
 21
50.6004193886
  0
LINE
  5
468
100
AcDbEntity
  8
RUNDUNGEN
100
AcDbLine
 62
7
  6
CONTINUOUS
 10
97.7763138111
 20
50.6004193886
 11
137.0290945781
 21
50.6004193886
  0
LINE
  5
469
100
AcDbEntity
  8
_30_VOLUMEN
100
AcDbLine
 62
7
  6
CONTINUOUS
 10
89.6691700711
 20
66.995741309
 11
90.8358356251
 21
66.0898746511
  0
LINE
  5
46A
100
AcDbEntity
  8
_30_VOLUMEN
100
AcDbLine
 62
7
  6
CONTINUOUS
 10
89.6691700711
 20
67.4787042221
 11
90.8358356251
 21
66.5728375643
  0
LINE
  5
46B
100
AcDbEntity
  8
_30_VOLUMEN
100
AcDbLine
 62
7
  6
CONTINUOUS
 10
91.127504517
 20
66.6499325898
 11
90.471254517
 21
67.170324093
  0
LINE
  5
46C
100
AcDbEntity
  8
_30_VOLUMEN
100
AcDbLine
 62
7
  6
CONTINUOUS
 10
90.3983356251
 20
67.2474191186
 11
90.1066700711
 21
67.4787042221
  0
LINE
  5
46D
100
AcDbEntity
  8
_30_VOLUMEN
100
AcDbLine
 62
7
  6
CONTINUOUS
 10
93.1691700711
 20
66.3018859713
 11
93.2420856251
 21
66.2440647022
  0
LINE
  5
46E
100
AcDbEntity
  8
_30_VOLUMEN
100
AcDbLine
 62
7
  6
CONTINUOUS
 10
93.1691700711
 20
66.7848488844
 11
93.2420856251
 21
66.7270276153
  0
LINE
  5
46F
100
AcDbEntity
  8
_30_VOLUMEN
100
AcDbLine
 62
7
  6
CONTINUOUS
 10
98.4163973077
 20
46.0305146842
 11
98.3434809192
 21
45.9534196587
  0
LINE
  5
470
100
AcDbEntity
  8
_30_VOLUMEN
100
AcDbLine
 62
7
  6
CONTINUOUS
 10
131.9608368768
 20
67.2474191186
 11
132.1066700711
 21
67.3052403877
  0
LINE
  5
471
100
AcDbEntity
  8
_30_VOLUMEN
100
AcDbLine
 62
7
  6
CONTINUOUS
 10
132.0108590247
 20
66.7842894409
 11
132.1066700711
 21
66.8222774746
  0
LINE
  5
472
100
AcDbEntity
  8
_30_VOLUMEN
100
AcDbLine
 62
7
  6
CONTINUOUS
 10
129.6275036826
 20
67.016134015
 11
130.8670864596
 21
67.4787042221
  0
LINE
  5
473
100
AcDbEntity
  8
_30_VOLUMEN
100
AcDbLine
 62
7
  6
CONTINUOUS
 10
130.2883873832
 20
66.7797904611
 11
130.8670864596
 21
66.995741309
  0
LINE
  5
474
100
AcDbEntity
  8
_30_VOLUMEN
100
AcDbLine
 62
7
  6
CONTINUOUS
 10
128.3879200711
 20
66.5728375643
 11
129.4087536826
 21
66.9390389895
  0
LINE
  5
475
100
AcDbEntity
  8
_30_VOLUMEN
100
AcDbLine
 62
7
  6
CONTINUOUS
 10
128.3879200711
 20
66.0898746511
 11
129.4087536826
 21
66.4560760763
  0
LINE
  5
476
100
AcDbEntity
  8
_30_VOLUMEN
100
AcDbLine
 62
7
  6
CONTINUOUS
 10
91.5622309192
 20
46.3003473005
 11
91.4163975163
 21
46.2617997877
  0
LINE
  5
477
100
AcDbEntity
  8
0
100
AcDbLine
 62
7
  6
CONTINUOUS
 10
146.1964729017
 20
53.1004193886
 11
140.4996587656
 21
53.1004193886
  0
LINE
  5
478
100
AcDbEntity
  8
0
100
AcDbLine
 62
7
  6
CONTINUOUS
 10
87.4128951463
 20
53.1004193886
 11
81.6096620205
 21
53.1004193886
  0
LINE
  5
479
100
AcDbEntity
  8
RUNDUNGEN
100
AcDbLine
 62
7
  6
CONTINUOUS
 10
147.1576762543
 20
53.6004193886
 11
145.7878461007
 21
53.6004193886
  0
LINE
  5
47A
100
AcDbEntity
  8
_30_VOLUMEN
100
AcDbLine
 62
7
  6
CONTINUOUS
 10
145.7878461007
 20
53.6004193886
 11
114.6351334643
 21
53.6004193886
  0
LINE
  5
47B
100
AcDbEntity
  8
_30_VOLUMEN
100
AcDbLine
 62
7
  6
CONTINUOUS
 10
112.6802190653
 20
53.6004193886
 11
81.5275064078
 21
53.6004193886
  0
LINE
  5
47C
100
AcDbEntity
  8
RUNDUNGEN
100
AcDbLine
 62
7
  6
CONTINUOUS
 10
81.5275064078
 20
53.6004193886
 11
80.1576762543
 21
53.6004193886
  0
LINE
  5
47D
100
AcDbEntity
  8
_30_VOLUMEN
100
AcDbLine
 62
7
  6
CONTINUOUS
 10
96.4504200711
 20
66.995741309
 11
97.6170856251
 21
66.0898746511
  0
LINE
  5
47E
100
AcDbEntity
  8
_30_VOLUMEN
100
AcDbLine
 62
7
  6
CONTINUOUS
 10
93.6795856251
 20
66.7463013717
 11
93.6066700711
 21
66.8041226948
  0
LINE
  5
47F
100
AcDbEntity
  8
_30_VOLUMEN
100
AcDbLine
 62
7
  6
CONTINUOUS
 10
93.1691700711
 20
67.170324093
 11
93.2420856251
 21
67.1125027969
  0
LINE
  5
480
100
AcDbEntity
  8
_30_VOLUMEN
100
AcDbLine
 62
7
  6
CONTINUOUS
 10
93.6795856251
 20
67.1317765533
 11
93.6066700711
 21
67.1895978494
  0
LINE
  5
481
100
AcDbEntity
  8
_30_VOLUMEN
100
AcDbLine
 62
7
  6
CONTINUOUS
 10
131.6691700711
 20
67.343787914
 11
131.5233364596
 21
67.2666928749
  0
LINE
  5
482
100
AcDbEntity
  8
_30_VOLUMEN
100
AcDbLine
 62
7
  6
CONTINUOUS
 10
133.8566700711
 20
66.8041226948
 11
133.7108368768
 21
66.7463013717
  0
LINE
  5
483
100
AcDbEntity
  8
_30_VOLUMEN
100
AcDbLine
 62
7
  6
CONTINUOUS
 10
96.4504200711
 20
67.4787042221
 11
97.6170856251
 21
66.5728375643
  0
LINE
  5
484
100
AcDbEntity
  8
_30_VOLUMEN
100
AcDbLine
 62
7
  6
CONTINUOUS
 10
97.908754517
 20
66.6499325898
 11
97.252504517
 21
67.170324093
  0
LINE
  5
485
100
AcDbEntity
  8
_30_VOLUMEN
100
AcDbLine
 62
7
  6
CONTINUOUS
 10
97.1795856251
 20
67.2474191186
 11
96.8879200711
 21
67.4787042221
  0
LINE
  5
486
100
AcDbEntity
  8
_30_VOLUMEN
100
AcDbLine
 62
7
  6
CONTINUOUS
 10
134.1483368768
 20
66.7077538589
 11
134.2941700711
 21
66.7848488844
  0
LINE
  5
487
100
AcDbEntity
  8
_30_VOLUMEN
100
AcDbLine
 62
7
  6
CONTINUOUS
 10
95.1351477249
 20
45.8570508633
 11
95.2809809192
 21
45.9341459023
  0
LINE
  5
488
100
AcDbEntity
  8
_30_VOLUMEN
100
AcDbLine
 62
7
  6
CONTINUOUS
 10
134.1483368768
 20
66.2247909458
 11
134.2941700711
 21
66.3018859713
  0
LINE
  5
489
100
AcDbEntity
  8
_30_VOLUMEN
100
AcDbLine
 62
7
  6
CONTINUOUS
 10
98.6351473077
 20
45.8570508633
 11
98.7809809192
 21
45.9341459023
  0
LINE
  5
48A
100
AcDbEntity
  8
_30_VOLUMEN
100
AcDbLine
 62
7
  6
CONTINUOUS
 10
94.8434809192
 20
46.4363825718
 11
94.6976477249
 21
46.3785613027
  0
LINE
  5
48B
100
AcDbEntity
  8
_30_VOLUMEN
100
AcDbLine
 62
7
  6
CONTINUOUS
 10
91.7809809192
 20
46.2039785186
 11
91.9997309192
 21
46.2810735441
  0
LINE
  5
48C
100
AcDbEntity
  8
_30_VOLUMEN
100
AcDbLine
 62
7
  6
CONTINUOUS
 10
93.2420856251
 20
66.2440647022
 11
93.4608356251
 21
66.1669696766
  0
LINE
  5
48D
100
AcDbEntity
  8
_30_VOLUMEN
100
AcDbLine
 62
7
  6
CONTINUOUS
 10
93.2420856251
 20
66.7270276153
 11
93.4608356251
 21
66.6499325898
  0
LINE
  5
48E
100
AcDbEntity
  8
_30_VOLUMEN
100
AcDbLine
 62
7
  6
CONTINUOUS
 10
94.8434809192
 20
45.9534196587
 11
94.6976477249
 21
45.8955983895
  0
LINE
  5
48F
100
AcDbEntity
  8
_30_VOLUMEN
100
AcDbLine
 62
7
  6
CONTINUOUS
 10
98.2934586282
 20
46.4165493364
 11
98.1976473077
 21
46.3785613027
  0
LINE
  5
490
100
AcDbEntity
  8
_30_VOLUMEN
100
AcDbLine
 62
7
  6
CONTINUOUS
 10
98.3434809192
 20
45.9534196587
 11
98.1976473077
 21
45.8955983895
  0
LINE
  5
491
100
AcDbEntity
  8
_30_VOLUMEN
100
AcDbLine
 62
7
  6
CONTINUOUS
 10
133.8566700711
 20
66.1476959203
 11
134.1483368768
 21
66.2247909458
  0
LINE
  5
492
100
AcDbEntity
  8
_30_VOLUMEN
100
AcDbLine
 62
7
  6
CONTINUOUS
 10
133.8566700711
 20
66.6306588334
 11
134.1483368768
 21
66.7077538589
  0
LINE
  5
493
100
AcDbEntity
  8
RUNDUNGEN
100
AcDbLine
 62
7
  6
CONTINUOUS
 10
80.1576762543
 20
59.6004193886
 11
81.5275064078
 21
59.6004193886
  0
LINE
  5
494
100
AcDbEntity
  8
_30_VOLUMEN
100
AcDbLine
 62
7
  6
CONTINUOUS
 10
81.5275064078
 20
59.6004193886
 11
112.6802190445
 21
59.6004193886
  0
LINE
  5
495
100
AcDbEntity
  8
_30_VOLUMEN
100
AcDbLine
 62
7
  6
CONTINUOUS
 10
114.6351334426
 20
59.6004193886
 11
145.7878461007
 21
59.6004193886
  0
LINE
  5
496
100
AcDbEntity
  8
RUNDUNGEN
100
AcDbLine
 62
7
  6
CONTINUOUS
 10
145.7878461007
 20
59.6004193886
 11
147.1576762543
 21
59.6004193886
  0
LINE
  5
497
100
AcDbEntity
  8
0
100
AcDbLine
 62
7
  6
CONTINUOUS
 10
81.3564096669
 20
60.1004193886
 11
86.6775953031
 21
60.1004193886
  0
LINE
  5
498
100
AcDbEntity
  8
_30_VOLUMEN
100
AcDbLine
 62
7
  6
CONTINUOUS
 10
93.8254200711
 20
66.7077538589
 11
93.6795856251
 21
66.7463013717
  0
LINE
  5
499
100
AcDbEntity
  8
_30_VOLUMEN
100
AcDbLine
 62
7
  6
CONTINUOUS
 10
93.8254200711
 20
67.0932290405
 11
93.6795856251
 21
67.1317765533
  0
LINE
  5
49A
100
AcDbEntity
  8
_30_VOLUMEN
100
AcDbLine
 62
7
  6
CONTINUOUS
 10
93.2420856251
 20
67.1125027969
 11
93.4608356251
 21
67.0354077714
  0
LINE
  5
49B
100
AcDbEntity
  8
_30_VOLUMEN
100
AcDbLine
 62
7
  6
CONTINUOUS
 10
131.8879200711
 20
67.170324093
 11
131.9608368768
 21
67.2474191186
  0
LINE
  5
49C
100
AcDbEntity
  8
_30_VOLUMEN
100
AcDbLine
 62
7
  6
CONTINUOUS
 10
133.9295868768
 20
66.8812177203
 11
133.8566700711
 21
66.8041226948
  0
LINE
  5
49D
100
AcDbEntity
  8
_30_VOLUMEN
100
AcDbLine
 62
7
  6
CONTINUOUS
 10
131.9608368768
 20
67.4208829462
 11
131.6691700711
 21
67.343787914
  0
LINE
  5
49E
100
AcDbEntity
  8
_30_VOLUMEN
100
AcDbLine
 62
7
  6
CONTINUOUS
 10
133.7108368768
 20
66.7463013717
 11
133.4920868768
 21
66.7077538589
  0
LINE
  5
49F
100
AcDbEntity
  8
_30_VOLUMEN
100
AcDbLine
 62
7
  6
CONTINUOUS
 10
132.1066700711
 20
66.8222774746
 11
132.3254200711
 21
66.8608250008
  0
LINE
  5
4A0
100
AcDbEntity
  8
_30_VOLUMEN
100
AcDbLine
 62
7
  6
CONTINUOUS
 10
132.1066700711
 20
67.3052403877
 11
132.3254200711
 21
67.343787914
  0
LINE
  5
4A1
100
AcDbEntity
  8
_30_VOLUMEN
100
AcDbLine
 62
7
  6
CONTINUOUS
 10
133.5650032653
 20
66.1091484075
 11
133.8566700711
 21
66.1476959203
  0
LINE
  5
4A2
100
AcDbEntity
  8
_30_VOLUMEN
100
AcDbLine
 62
7
  6
CONTINUOUS
 10
133.5650032653
 20
66.5921113206
 11
133.8566700711
 21
66.6306588334
  0
LINE
  5
4A3
100
AcDbEntity
  8
BEZUGSACHSEN
100
AcDbLine
 62
7
  6
CONTINUOUS
 10
90.2862579305
 20
62.6004193886
 11
137.0290945781
 21
62.6004193886
  0
LINE
  5
4A4
100
AcDbEntity
  8
_30_VOLUMEN
100
AcDbLine
 62
7
  6
CONTINUOUS
 10
93.4608356251
 20
66.1669696766
 11
93.752504517
 21
66.1091484075
  0
LINE
  5
4A5
100
AcDbEntity
  8
_30_VOLUMEN
100
AcDbLine
 62
7
  6
CONTINUOUS
 10
93.4608356251
 20
66.6499325898
 11
93.752504517
 21
66.5921113206
  0
LINE
  5
4A6
100
AcDbEntity
  8
_30_VOLUMEN
100
AcDbLine
 62
7
  6
CONTINUOUS
 10
131.5233364596
 20
67.2666928749
 11
131.4504200711
 21
67.170324093
  0
LINE
  5
4A7
100
AcDbEntity
  8
_30_VOLUMEN
100
AcDbLine
 62
7
  6
CONTINUOUS
 10
132.2525032653
 20
67.459430464
 11
131.9608368768
 21
67.4208829462
  0
LINE
  5
4A8
100
AcDbEntity
  8
_30_VOLUMEN
100
AcDbLine
 62
7
  6
CONTINUOUS
 10
133.4920868768
 20
66.7077538589
 11
133.2004200711
 21
66.6884801025
  0
LINE
  5
4A9
100
AcDbEntity
  8
_30_VOLUMEN
100
AcDbLine
 62
7
  6
CONTINUOUS
 10
132.3254200711
 20
66.8608250008
 11
132.6170868768
 21
66.8800987572
  0
LINE
  5
4AA
100
AcDbEntity
  8
_30_VOLUMEN
100
AcDbLine
 62
7
  6
CONTINUOUS
 10
132.3254200711
 20
67.343787914
 11
132.6170868768
 21
67.3630616703
  0
LINE
  5
4AB
100
AcDbEntity
  8
_30_VOLUMEN
100
AcDbLine
 62
7
  6
CONTINUOUS
 10
133.2004200711
 20
66.0898746511
 11
133.5650032653
 21
66.1091484075
  0
LINE
  5
4AC
100
AcDbEntity
  8
_30_VOLUMEN
100
AcDbLine
 62
7
  6
CONTINUOUS
 10
133.2004200711
 20
66.5728375643
 11
133.5650032653
 21
66.5921113206
  0
LINE
  5
4AD
100
AcDbEntity
  8
_30_VOLUMEN
100
AcDbLine
 62
7
  6
CONTINUOUS
 10
132.6170868768
 20
67.4787042221
 11
132.2525032653
 21
67.459430464
  0
LINE
  5
4AE
100
AcDbEntity
  8
_30_VOLUMEN
100
AcDbLine
 62
7
  6
CONTINUOUS
 10
90.8358356251
 20
66.0898746511
 11
91.4191700711
 21
66.0898746511
  0
LINE
  5
4AF
100
AcDbEntity
  8
_30_VOLUMEN
100
AcDbLine
 62
7
  6
CONTINUOUS
 10
94.1170856251
 20
66.0898746511
 11
95.8670856251
 21
66.0898746511
  0
LINE
  5
4B0
100
AcDbEntity
  8
_30_VOLUMEN
100
AcDbLine
 62
7
  6
CONTINUOUS
 10
97.6170856251
 20
66.0898746511
 11
98.2004200711
 21
66.0898746511
  0
LINE
  5
4B1
100
AcDbEntity
  8
_30_VOLUMEN
100
AcDbLine
 62
7
  6
CONTINUOUS
 10
127.9504200711
 20
66.0898746511
 11
128.3879200711
 21
66.0898746511
  0
LINE
  5
4B2
100
AcDbEntity
  8
_30_VOLUMEN
100
AcDbLine
 62
7
  6
CONTINUOUS
 10
130.4295864596
 20
66.0898746511
 11
130.8670864596
 21
66.0898746511
  0
LINE
  5
4B3
100
AcDbEntity
  8
_30_VOLUMEN
100
AcDbLine
 62
7
  6
CONTINUOUS
 10
132.6170868768
 20
66.0898746511
 11
133.2004200711
 21
66.0898746511
  0
LINE
  5
4B4
100
AcDbEntity
  8
_30_VOLUMEN
100
AcDbLine
 62
7
  6
CONTINUOUS
 10
134.9504200711
 20
66.0898746511
 11
135.3879200711
 21
66.0898746511
  0
LINE
  5
4B5
100
AcDbEntity
  8
_30_VOLUMEN
100
AcDbLine
 62
7
  6
CONTINUOUS
 10
137.2108367725
 20
66.0898746511
 11
137.8670867725
 21
66.0898746511
  0
LINE
  5
4B6
100
AcDbEntity
  8
_30_VOLUMEN
100
AcDbLine
 62
7
  6
CONTINUOUS
 10
138.4504200711
 20
66.0898746511
 11
138.8879200711
 21
66.0898746511
  0
LINE
  5
4B7
100
AcDbEntity
  8
_30_VOLUMEN
100
AcDbLine
 62
7
  6
CONTINUOUS
 10
90.8358356251
 20
66.5728375643
 11
91.4191700711
 21
66.5728375643
  0
LINE
  5
4B8
100
AcDbEntity
  8
_30_VOLUMEN
100
AcDbLine
 62
7
  6
CONTINUOUS
 10
94.1170856251
 20
66.5728375643
 11
95.8670856251
 21
66.5728375643
  0
LINE
  5
4B9
100
AcDbEntity
  8
_30_VOLUMEN
100
AcDbLine
 62
7
  6
CONTINUOUS
 10
97.6170856251
 20
66.5728375643
 11
98.2004200711
 21
66.5728375643
  0
LINE
  5
4BA
100
AcDbEntity
  8
_30_VOLUMEN
100
AcDbLine
 62
7
  6
CONTINUOUS
 10
127.9504200711
 20
66.5728375643
 11
128.3879200711
 21
66.5728375643
  0
LINE
  5
4BB
100
AcDbEntity
  8
_30_VOLUMEN
100
AcDbLine
 62
7
  6
CONTINUOUS
 10
130.4295864596
 20
66.5728375643
 11
130.8670864596
 21
66.5728375643
  0
LINE
  5
4BC
100
AcDbEntity
  8
_30_VOLUMEN
100
AcDbLine
 62
7
  6
CONTINUOUS
 10
132.6170868768
 20
66.5728375643
 11
133.2004200711
 21
66.5728375643
  0
LINE
  5
4BD
100
AcDbEntity
  8
_30_VOLUMEN
100
AcDbLine
 62
7
  6
CONTINUOUS
 10
134.9504200711
 20
66.5728375643
 11
135.3879200711
 21
66.5728375643
  0
LINE
  5
4BE
100
AcDbEntity
  8
_30_VOLUMEN
100
AcDbLine
 62
7
  6
CONTINUOUS
 10
137.2108367725
 20
66.5728375643
 11
137.8670867725
 21
66.5728375643
  0
LINE
  5
4BF
100
AcDbEntity
  8
_30_VOLUMEN
100
AcDbLine
 62
7
  6
CONTINUOUS
 10
138.4504200711
 20
66.5728375643
 11
138.8879200711
 21
66.5728375643
  0
LINE
  5
4C0
100
AcDbEntity
  8
_30_VOLUMEN
100
AcDbLine
 62
7
  6
CONTINUOUS
 10
91.080304453
 20
66.6873611799
 11
91.174704581
 21
66.6873611799
  0
LINE
  5
4C1
100
AcDbEntity
  8
_30_VOLUMEN
100
AcDbLine
 62
7
  6
CONTINUOUS
 10
97.861554453
 20
66.6873611799
 11
97.955954581
 21
66.6873611799
  0
LINE
  5
4C2
100
AcDbEntity
  8
_30_VOLUMEN
100
AcDbLine
 62
7
  6
CONTINUOUS
 10
133.2004200711
 20
66.6884801025
 11
132.6170868768
 21
66.6884801025
  0
LINE
  5
4C3
100
AcDbEntity
  8
_30_VOLUMEN
100
AcDbLine
 62
7
  6
CONTINUOUS
 10
95.4295856251
 20
66.6884801025
 11
94.0441700711
 21
66.6884801025
  0
LINE
  5
4C4
100
AcDbEntity
  8
_30_VOLUMEN
100
AcDbLine
 62
7
  6
CONTINUOUS
 10
93.752504517
 20
66.1091484075
 11
94.1170856251
 21
66.0898746511
  0
LINE
  5
4C5
100
AcDbEntity
  8
_30_VOLUMEN
100
AcDbLine
 62
7
  6
CONTINUOUS
 10
93.752504517
 20
66.5921113206
 11
94.1170856251
 21
66.5728375643
  0
LINE
  5
4C6
100
AcDbEntity
  8
_30_VOLUMEN
100
AcDbLine
 62
7
  6
CONTINUOUS
 10
94.0441700711
 20
66.6884801025
 11
93.8254200711
 21
66.7077538589
  0
LINE
  5
4C7
100
AcDbEntity
  8
_30_VOLUMEN
100
AcDbLine
 62
7
  6
CONTINUOUS
 10
94.0441700711
 20
67.0739552841
 11
93.8254200711
 21
67.0932290405
  0
LINE
  5
4C8
100
AcDbEntity
  8
_30_VOLUMEN
100
AcDbLine
 62
7
  6
CONTINUOUS
 10
93.4608356251
 20
67.0354077714
 11
93.6066700711
 21
67.016134015
  0
LINE
  5
4C9
100
AcDbEntity
  8
_30_VOLUMEN
100
AcDbLine
 62
7
  6
CONTINUOUS
 10
134.2941700711
 20
66.7848488844
 11
134.3670868768
 21
66.8812177203
  0
LINE
  5
4CA
100
AcDbEntity
  8
_30_VOLUMEN
100
AcDbLine
 62
7
  6
CONTINUOUS
 10
134.2941700711
 20
66.3018859713
 11
134.3670868768
 21
66.3982548072
  0
LINE
  5
4CB
100
AcDbEntity
  8
_30_VOLUMEN
100
AcDbLine
 62
7
  6
CONTINUOUS
 10
93.8254200711
 20
66.9390389895
 11
94.0441700711
 21
66.9583127459
  0
LINE
  5
4CC
100
AcDbEntity
  8
_30_VOLUMEN
100
AcDbLine
 62
7
  6
CONTINUOUS
 10
93.8254200711
 20
67.343787914
 11
94.0441700711
 21
67.3630616703
  0
LINE
  5
4CD
100
AcDbEntity
  8
_30_VOLUMEN
100
AcDbLine
 62
7
  6
CONTINUOUS
 10
94.1170856251
 20
67.4787042221
 11
93.752504517
 21
67.459430464
  0
LINE
  5
4CE
100
AcDbEntity
  8
_30_VOLUMEN
100
AcDbLine
 62
7
  6
CONTINUOUS
 10
132.6170868768
 20
66.8800987572
 11
133.2004200711
 21
66.8800987572
  0
LINE
  5
4CF
100
AcDbEntity
  8
_30_VOLUMEN
100
AcDbLine
 62
7
  6
CONTINUOUS
 10
94.0441700711
 20
66.9583127459
 11
95.4295856251
 21
66.9583127459
  0
LINE
  5
4D0
100
AcDbEntity
  8
_30_VOLUMEN
100
AcDbLine
 62
7
  6
CONTINUOUS
 10
95.4295856251
 20
67.0739552841
 11
94.0441700711
 21
67.0739552841
  0
LINE
  5
4D1
100
AcDbEntity
  8
_30_VOLUMEN
100
AcDbLine
 62
7
  6
CONTINUOUS
 10
90.471254517
 20
67.170324093
 11
91.783754517
 21
67.170324093
  0
LINE
  5
4D2
100
AcDbEntity
  8
_30_VOLUMEN
100
AcDbLine
 62
7
  6
CONTINUOUS
 10
97.252504517
 20
67.170324093
 11
98.565004517
 21
67.170324093
  0
LINE
  5
4D3
100
AcDbEntity
  8
_30_VOLUMEN
100
AcDbLine
 62
7
  6
CONTINUOUS
 10
98.6379200711
 20
67.2474191186
 11
97.1795856251
 21
67.2474191186
  0
LINE
  5
4D4
100
AcDbEntity
  8
_30_VOLUMEN
100
AcDbLine
 62
7
  6
CONTINUOUS
 10
91.8566700711
 20
67.2474191186
 11
90.3983356251
 21
67.2474191186
  0
LINE
  5
4D5
100
AcDbEntity
  8
_30_VOLUMEN
100
AcDbLine
 62
7
  6
CONTINUOUS
 10
94.0441700711
 20
67.3630616703
 11
95.4295856251
 21
67.3630616703
  0
LINE
  5
4D6
100
AcDbEntity
  8
_30_VOLUMEN
100
AcDbLine
 62
7
  6
CONTINUOUS
 10
132.6170868768
 20
67.3630616703
 11
133.2004200711
 21
67.3630616703
  0
LINE
  5
4D7
100
AcDbEntity
  8
_30_VOLUMEN
100
AcDbLine
 62
7
  6
CONTINUOUS
 10
138.8879200711
 20
67.4787042221
 11
138.4504200711
 21
67.4787042221
  0
LINE
  5
4D8
100
AcDbEntity
  8
_30_VOLUMEN
100
AcDbLine
 62
7
  6
CONTINUOUS
 10
137.8670867725
 20
67.4787042221
 11
137.4295867725
 21
67.4787042221
  0
LINE
  5
4D9
100
AcDbEntity
  8
_30_VOLUMEN
100
AcDbLine
 62
7
  6
CONTINUOUS
 10
135.6066700711
 20
67.4787042221
 11
134.9504200711
 21
67.4787042221
  0
LINE
  5
4DA
100
AcDbEntity
  8
_30_VOLUMEN
100
AcDbLine
 62
7
  6
CONTINUOUS
 10
133.2004200711
 20
67.4787042221
 11
132.6170868768
 21
67.4787042221
  0
LINE
  5
4DB
100
AcDbEntity
  8
_30_VOLUMEN
100
AcDbLine
 62
7
  6
CONTINUOUS
 10
130.8670864596
 20
67.4787042221
 11
130.4295864596
 21
67.4787042221
  0
LINE
  5
4DC
100
AcDbEntity
  8
_30_VOLUMEN
100
AcDbLine
 62
7
  6
CONTINUOUS
 10
128.3879200711
 20
67.4787042221
 11
127.9504200711
 21
67.4787042221
  0
LINE
  5
4DD
100
AcDbEntity
  8
_30_VOLUMEN
100
AcDbLine
 62
7
  6
CONTINUOUS
 10
99.3670856251
 20
67.4787042221
 11
98.9295856251
 21
67.4787042221
  0
LINE
  5
4DE
100
AcDbEntity
  8
_30_VOLUMEN
100
AcDbLine
 62
7
  6
CONTINUOUS
 10
96.8879200711
 20
67.4787042221
 11
96.4504200711
 21
67.4787042221
  0
LINE
  5
4DF
100
AcDbEntity
  8
_30_VOLUMEN
100
AcDbLine
 62
7
  6
CONTINUOUS
 10
95.8670856251
 20
67.4787042221
 11
94.1170856251
 21
67.4787042221
  0
LINE
  5
4E0
100
AcDbEntity
  8
_30_VOLUMEN
100
AcDbLine
 62
7
  6
CONTINUOUS
 10
92.5858356251
 20
67.4787042221
 11
92.1483356251
 21
67.4787042221
  0
LINE
  5
4E1
100
AcDbEntity
  8
_30_VOLUMEN
100
AcDbLine
 62
7
  6
CONTINUOUS
 10
90.1066700711
 20
67.4787042221
 11
89.6691700711
 21
67.4787042221
  0
LINE
  5
4E2
100
AcDbEntity
  8
BEZUGSACHSEN
100
AcDbLine
 62
7
  6
CONTINUOUS
 10
147.1576762543
 20
67.6004193886
 11
80.1576762543
 21
67.6004193886
  0
LINE
  5
4E3
100
AcDbEntity
  8
_30_VOLUMEN
100
AcDbLine
 62
7
  6
CONTINUOUS
 10
132.2525032653
 20
66.1091484075
 11
132.6170868768
 21
66.0898746511
  0
LINE
  5
4E4
100
AcDbEntity
  8
_30_VOLUMEN
100
AcDbLine
 62
7
  6
CONTINUOUS
 10
132.2525032653
 20
66.5921113206
 11
132.6170868768
 21
66.5728375643
  0
LINE
  5
4E5
100
AcDbEntity
  8
_30_VOLUMEN
100
AcDbLine
 62
7
  6
CONTINUOUS
 10
133.5650032653
 20
67.459430464
 11
133.2004200711
 21
67.4787042221
  0
LINE
  5
4E6
100
AcDbEntity
  8
_30_VOLUMEN
100
AcDbLine
 62
7
  6
CONTINUOUS
 10
132.6170868768
 20
66.6884801025
 11
132.3254200711
 21
66.7077538589
  0
LINE
  5
4E7
100
AcDbEntity
  8
_30_VOLUMEN
100
AcDbLine
 62
7
  6
CONTINUOUS
 10
133.2004200711
 20
66.8800987572
 11
133.4920868768
 21
66.8608250008
  0
LINE
  5
4E8
100
AcDbEntity
  8
_30_VOLUMEN
100
AcDbLine
 62
7
  6
CONTINUOUS
 10
133.2004200711
 20
67.3630616703
 11
133.4920868768
 21
67.343787914
  0
LINE
  5
4E9
100
AcDbEntity
  8
_30_VOLUMEN
100
AcDbLine
 62
7
  6
CONTINUOUS
 10
131.9608368768
 20
66.1476959203
 11
132.2525032653
 21
66.1091484075
  0
LINE
  5
4EA
100
AcDbEntity
  8
_30_VOLUMEN
100
AcDbLine
 62
7
  6
CONTINUOUS
 10
131.9608368768
 20
66.6306588334
 11
132.2525032653
 21
66.5921113206
  0
LINE
  5
4EB
100
AcDbEntity
  8
_30_VOLUMEN
100
AcDbLine
 62
7
  6
CONTINUOUS
 10
127.9504200711
 20
66.0898746511
 11
127.9504200711
 21
66.5728375643
  0
LINE
  5
4EC
100
AcDbEntity
  8
_30_VOLUMEN
100
AcDbLine
 62
7
  6
CONTINUOUS
 10
127.9504200711
 20
66.995741309
 11
127.9504200711
 21
67.4787042221
  0
LINE
  5
4ED
100
AcDbEntity
  8
_30_VOLUMEN
100
AcDbLine
 62
7
  6
CONTINUOUS
 10
128.3879200711
 20
66.0898746511
 11
128.3879200711
 21
66.5728375643
  0
LINE
  5
4EE
100
AcDbEntity
  8
_30_VOLUMEN
100
AcDbLine
 62
7
  6
CONTINUOUS
 10
93.752504517
 20
67.459430464
 11
93.4608356251
 21
67.4016091898
  0
LINE
  5
4EF
100
AcDbEntity
  8
_30_VOLUMEN
100
AcDbLine
 62
7
  6
CONTINUOUS
 10
93.6066700711
 20
67.016134015
 11
93.4608356251
 21
66.9968602586
  0
LINE
  5
4F0
100
AcDbEntity
  8
_30_VOLUMEN
100
AcDbLine
 62
7
  6
CONTINUOUS
 10
133.8566700711
 20
67.4208829462
 11
133.5650032653
 21
67.459430464
  0
LINE
  5
4F1
100
AcDbEntity
  8
_30_VOLUMEN
100
AcDbLine
 62
7
  6
CONTINUOUS
 10
132.3254200711
 20
66.7077538589
 11
132.1066700711
 21
66.7463013717
  0
LINE
  5
4F2
100
AcDbEntity
  8
_30_VOLUMEN
100
AcDbLine
 62
7
  6
CONTINUOUS
 10
133.4920868768
 20
66.8608250008
 11
133.7108368768
 21
66.8222774746
  0
LINE
  5
4F3
100
AcDbEntity
  8
_30_VOLUMEN
100
AcDbLine
 62
7
  6
CONTINUOUS
 10
133.4920868768
 20
67.343787914
 11
133.7108368768
 21
67.3052403877
  0
LINE
  5
4F4
100
AcDbEntity
  8
_30_VOLUMEN
100
AcDbLine
 62
7
  6
CONTINUOUS
 10
131.6691700711
 20
66.2247909458
 11
131.9608368768
 21
66.1476959203
  0
LINE
  5
4F5
100
AcDbEntity
  8
_30_VOLUMEN
100
AcDbLine
 62
7
  6
CONTINUOUS
 10
131.6691700711
 20
66.7077538589
 11
131.9608368768
 21
66.6306588334
  0
LINE
  5
4F6
100
AcDbEntity
  8
_30_VOLUMEN
100
AcDbLine
 62
7
  6
CONTINUOUS
 10
129.4087536826
 20
66.4560760763
 11
130.4295864596
 21
66.0898746511
  0
LINE
  5
4F7
100
AcDbEntity
  8
_30_VOLUMEN
100
AcDbLine
 62
7
  6
CONTINUOUS
 10
127.9504200711
 20
66.995741309
 11
128.5291195371
 21
66.7797904611
  0
LINE
  5
4F8
100
AcDbEntity
  8
_30_VOLUMEN
100
AcDbLine
 62
7
  6
CONTINUOUS
 10
129.4087536826
 20
66.4560760763
 11
129.4087536826
 21
66.9390389895
  0
LINE
  5
4F9
100
AcDbEntity
  8
_30_VOLUMEN
100
AcDbLine
 62
7
  6
CONTINUOUS
 10
130.4295864596
 20
66.0898746511
 11
130.4295864596
 21
66.5728375643
  0
LINE
  5
4FA
100
AcDbEntity
  8
_30_VOLUMEN
100
AcDbLine
 62
7
  6
CONTINUOUS
 10
130.8670864596
 20
66.0898746511
 11
130.8670864596
 21
66.5728375643
  0
LINE
  5
4FB
100
AcDbEntity
  8
_30_VOLUMEN
100
AcDbLine
 62
7
  6
CONTINUOUS
 10
130.8670864596
 20
66.995741309
 11
130.8670864596
 21
67.4787042221
  0
LINE
  5
4FC
100
AcDbEntity
  8
_30_VOLUMEN
100
AcDbLine
 62
7
  6
CONTINUOUS
 10
93.6795856251
 20
66.9004914767
 11
93.8254200711
 21
66.9390389895
  0
LINE
  5
4FD
100
AcDbEntity
  8
_30_VOLUMEN
100
AcDbLine
 62
7
  6
CONTINUOUS
 10
93.6795856251
 20
67.3052403877
 11
93.8254200711
 21
67.343787914
  0
LINE
  5
4FE
100
AcDbEntity
  8
_30_VOLUMEN
100
AcDbLine
 62
7
  6
CONTINUOUS
 10
134.1483368768
 20
67.343787914
 11
133.8566700711
 21
67.4208829462
  0
LINE
  5
4FF
100
AcDbEntity
  8
_30_VOLUMEN
100
AcDbLine
 62
7
  6
CONTINUOUS
 10
130.8670864596
 20
66.5728375643
 11
129.6275036826
 21
67.016134015
  0
LINE
  5
500
100
AcDbEntity
  8
_30_VOLUMEN
100
AcDbLine
 62
7
  6
CONTINUOUS
 10
129.4087536826
 20
66.9390389895
 11
130.4295864596
 21
66.5728375643
  0
LINE
  5
501
100
AcDbEntity
  8
_30_VOLUMEN
100
AcDbLine
 62
7
  6
CONTINUOUS
 10
129.4087536826
 20
67.1125027969
 11
128.3879200711
 21
67.4787042221
  0
LINE
  5
502
100
AcDbEntity
  8
_30_VOLUMEN
100
AcDbLine
 62
7
  6
CONTINUOUS
 10
127.9504200711
 20
67.4787042221
 11
129.1900036826
 21
67.016134015
  0
LINE
  5
503
100
AcDbEntity
  8
_30_VOLUMEN
100
AcDbLine
 62
7
  6
CONTINUOUS
 10
132.1066700711
 20
66.7463013717
 11
131.9608368768
 21
66.8041226948
  0
LINE
  5
504
100
AcDbEntity
  8
_30_VOLUMEN
100
AcDbLine
 62
7
  6
CONTINUOUS
 10
133.7108368768
 20
66.8222774746
 11
133.8066479232
 21
66.7842894409
  0
LINE
  5
505
100
AcDbEntity
  8
_30_VOLUMEN
100
AcDbLine
 62
7
  6
CONTINUOUS
 10
133.7108368768
 20
67.3052403877
 11
133.8566700711
 21
67.2474191186
  0
LINE
  5
506
100
AcDbEntity
  8
_30_VOLUMEN
100
AcDbLine
 62
7
  6
CONTINUOUS
 10
131.5233364596
 20
66.3018859713
 11
131.6691700711
 21
66.2247909458
  0
LINE
  5
507
100
AcDbEntity
  8
_30_VOLUMEN
100
AcDbLine
 62
7
  6
CONTINUOUS
 10
131.5233364596
 20
66.7848488844
 11
131.6691700711
 21
66.7077538589
  0
LINE
  5
508
100
AcDbEntity
  8
_30_VOLUMEN
100
AcDbLine
 62
7
  6
CONTINUOUS
 10
131.4504200711
 20
66.3982548072
 11
131.4504200711
 21
67.170324093
  0
LINE
  5
509
100
AcDbEntity
  8
_30_VOLUMEN
100
AcDbLine
 62
7
  6
CONTINUOUS
 10
131.5233364596
 20
66.3018859713
 11
131.5233364596
 21
66.7848488844
  0
LINE
  5
50A
100
AcDbEntity
  8
_30_VOLUMEN
100
AcDbLine
 62
7
  6
CONTINUOUS
 10
131.6691700711
 20
66.2247909458
 11
131.6691700711
 21
66.7077538589
  0
LINE
  5
50B
100
AcDbEntity
  8
_30_VOLUMEN
100
AcDbLine
 62
7
  6
CONTINUOUS
 10
131.8879200711
 20
66.8812177203
 11
131.8879200711
 21
67.170324093
  0
LINE
  5
50C
100
AcDbEntity
  8
_30_VOLUMEN
100
AcDbLine
 62
7
  6
CONTINUOUS
 10
131.9608368768
 20
66.1476959203
 11
131.9608368768
 21
66.6306588334
  0
LINE
  5
50D
100
AcDbEntity
  8
_30_VOLUMEN
100
AcDbLine
 62
7
  6
CONTINUOUS
 10
131.9608368768
 20
66.8041226948
 11
131.9608368768
 21
67.2474191186
  0
LINE
  5
50E
100
AcDbEntity
  8
_30_VOLUMEN
100
AcDbLine
 62
7
  6
CONTINUOUS
 10
132.1066700711
 20
66.8222774746
 11
132.1066700711
 21
67.3052403877
  0
LINE
  5
50F
100
AcDbEntity
  8
_30_VOLUMEN
100
AcDbLine
 62
7
  6
CONTINUOUS
 10
132.2525032653
 20
66.1091484075
 11
132.2525032653
 21
66.5921113206
  0
LINE
  5
510
100
AcDbEntity
  8
_30_VOLUMEN
100
AcDbLine
 62
7
  6
CONTINUOUS
 10
132.3254200711
 20
66.8608250008
 11
132.3254200711
 21
67.343787914
  0
LINE
  5
511
100
AcDbEntity
  8
_30_VOLUMEN
100
AcDbLine
 62
7
  6
CONTINUOUS
 10
132.6170868768
 20
66.0898746511
 11
132.6170868768
 21
66.5728375643
  0
LINE
  5
512
100
AcDbEntity
  8
_30_VOLUMEN
100
AcDbLine
 62
7
  6
CONTINUOUS
 10
132.6170868768
 20
66.8800987572
 11
132.6170868768
 21
67.3630616703
  0
LINE
  5
513
100
AcDbEntity
  8
_30_VOLUMEN
100
AcDbLine
 62
7
  6
CONTINUOUS
 10
133.2004200711
 20
66.0898746511
 11
133.2004200711
 21
66.5728375643
  0
LINE
  5
514
100
AcDbEntity
  8
_30_VOLUMEN
100
AcDbLine
 62
7
  6
CONTINUOUS
 10
133.2004200711
 20
66.8800987572
 11
133.2004200711
 21
67.3630616703
  0
LINE
  5
515
100
AcDbEntity
  8
_30_VOLUMEN
100
AcDbLine
 62
7
  6
CONTINUOUS
 10
133.4920868768
 20
66.8608250008
 11
133.4920868768
 21
67.343787914
  0
LWPOLYLINE
  5
516
100
AcDbEntity
  8
RUNDUNGEN
100
AcDbPolyline
 62
7
  6
CONTINUOUS
 90
16
 70
0
 10
138.2877321793
 20
50.3685458607
 10
138.3830311777
 20
50.4331117541
 10
138.4755773367
 20
50.5012861176
 10
138.5654681453
 20
50.573799091
 10
138.6526068293
 20
50.6513954086
 10
138.7368375486
 20
50.7349533021
 10
138.8182861509
 20
50.8259440644
 10
138.8958289533
 20
50.9247533573
 10
138.9674664126
 20
51.0303635502
 10
139.0324587952
 20
51.1431500018
 10
139.0898718814
 20
51.2632925201
 10
139.137889727
 20
51.3885990511
 10
139.1757727358
 20
51.5182904553
 10
139.2030002598
 20
51.652114429
 10
139.2188282225
 20
51.7880009246
 10
139.2231281721
 20
51.9053279622
  0
LINE
  5
517
100
AcDbEntity
  8
RUNDUNGEN
100
AcDbLine
 62
7
  6
CONTINUOUS
 10
137.6917726959
 20
49.9831031439
 11
138.2877321793
 21
50.3685458607
  0
LINE
  5
518
100
AcDbEntity
  8
RUNDUNGEN
100
AcDbLine
 62
7
  6
CONTINUOUS
 10
138.2634808204
 20
50.3529069304
 11
138.2645524361
 21
50.3535911105
  0
LINE
  5
519
100
AcDbEntity
  8
_30_VOLUMEN
100
AcDbLine
 62
7
  6
CONTINUOUS
 10
135.3879200711
 20
66.8608250008
 11
137.2108367725
 21
66.0898746511
  0
LINE
  5
51A
100
AcDbEntity
  8
_30_VOLUMEN
100
AcDbLine
 62
7
  6
CONTINUOUS
 10
135.3879200711
 20
67.343787914
 11
137.2108367725
 21
66.5728375643
  0
LINE
  5
51B
100
AcDbEntity
  8
_30_VOLUMEN
100
AcDbLine
 62
7
  6
CONTINUOUS
 10
137.4295867725
 20
66.6884801025
 11
135.6066700711
 21
67.4787042221
  0
LINE
  5
51C
100
AcDbEntity
  8
_30_VOLUMEN
100
AcDbLine
 62
7
  6
CONTINUOUS
 10
134.2941700711
 20
67.2666928749
 11
134.1483368768
 21
67.343787914
  0
LINE
  5
51D
100
AcDbEntity
  8
BEZUGSACHSEN
100
AcDbLine
 62
7
  6
CONTINUOUS
 10
138.2645524361
 20
62.8472476667
 11
138.2541379833
 21
62.853949079
  0
LINE
  5
51E
100
AcDbEntity
  8
BEZUGSACHSEN
100
AcDbLine
 62
7
  6
CONTINUOUS
 10
138.2541379824
 20
62.8539490796
 11
137.6917726959
 21
63.2177356333
  0
LWPOLYLINE
  5
51F
100
AcDbEntity
  8
BEZUGSACHSEN
100
AcDbPolyline
 62
7
  6
CONTINUOUS
 90
4
 70
0
 10
137.6912109177
 20
63.2181094111
 10
137.6768365627
 20
63.2276761882
 10
137.6579484344
 20
63.2413123919
 10
137.6549268387
 20
63.2437106794
  0
LINE
  5
520
100
AcDbEntity
  8
_30_VOLUMEN
100
AcDbLine
 62
7
  6
CONTINUOUS
 10
133.5650032653
 20
66.1091484075
 11
133.5650032653
 21
66.5921113206
  0
LINE
  5
521
100
AcDbEntity
  8
_30_VOLUMEN
100
AcDbLine
 62
7
  6
CONTINUOUS
 10
133.7108368768
 20
66.8222774746
 11
133.7108368768
 21
67.3052403877
  0
LINE
  5
522
100
AcDbEntity
  8
_30_VOLUMEN
100
AcDbLine
 62
7
  6
CONTINUOUS
 10
133.8566700711
 20
66.1476959203
 11
133.8566700711
 21
66.6306588334
  0
LINE
  5
523
100
AcDbEntity
  8
_30_VOLUMEN
100
AcDbLine
 62
7
  6
CONTINUOUS
 10
133.8566700711
 20
66.8041226948
 11
133.8566700711
 21
67.2474191186
  0
LINE
  5
524
100
AcDbEntity
  8
_30_VOLUMEN
100
AcDbLine
 62
7
  6
CONTINUOUS
 10
133.9295868768
 20
67.170324093
 11
133.9295868768
 21
66.8812177203
  0
LINE
  5
525
100
AcDbEntity
  8
_30_VOLUMEN
100
AcDbLine
 62
7
  6
CONTINUOUS
 10
134.1483368768
 20
66.2247909458
 11
134.1483368768
 21
66.7077538589
  0
LINE
  5
526
100
AcDbEntity
  8
_30_VOLUMEN
100
AcDbLine
 62
7
  6
CONTINUOUS
 10
134.2941700711
 20
66.3018859713
 11
134.2941700711
 21
66.7848488844
  0
LINE
  5
527
100
AcDbEntity
  8
_30_VOLUMEN
100
AcDbLine
 62
7
  6
CONTINUOUS
 10
134.3670868768
 20
66.3982548072
 11
134.3670868768
 21
67.170324093
  0
LINE
  5
528
100
AcDbEntity
  8
_30_VOLUMEN
100
AcDbLine
 62
7
  6
CONTINUOUS
 10
134.9504200711
 20
66.0898746511
 11
134.9504200711
 21
67.4787042221
  0
LINE
  5
529
100
AcDbEntity
  8
_30_VOLUMEN
100
AcDbLine
 62
7
  6
CONTINUOUS
 10
135.3879200711
 20
66.0898746511
 11
135.3879200711
 21
67.343787914
  0
LWPOLYLINE
  5
52A
100
AcDbEntity
  8
RUNDUNGEN
100
AcDbPolyline
 62
7
  6
CONTINUOUS
 90
6
 70
0
 10
137.6812140883
 20
49.9841173074
 10
137.6649757358
 20
49.9667165608
 10
137.65486616
 20
49.9570913731
 10
137.6580000428
 20
49.9595658501
 10
137.6768755764
 20
49.9731889277
 10
137.6912820696
 20
49.9827753386
  0
LINE
  5
52B
100
AcDbEntity
  8
_30_VOLUMEN
100
AcDbLine
 62
7
  6
CONTINUOUS
 10
131.9608368768
 20
66.8041226948
 11
131.8879200711
 21
66.8812177203
  0
LINE
  5
52C
100
AcDbEntity
  8
_30_VOLUMEN
100
AcDbLine
 62
7
  6
CONTINUOUS
 10
133.8566700711
 20
67.2474191186
 11
133.9295868768
 21
67.170324093
  0
LINE
  5
52D
100
AcDbEntity
  8
_30_VOLUMEN
100
AcDbLine
 62
7
  6
CONTINUOUS
 10
131.4504200711
 20
66.3982548072
 11
131.5233364596
 21
66.3018859713
  0
LINE
  5
52E
100
AcDbEntity
  8
_30_VOLUMEN
100
AcDbLine
 62
7
  6
CONTINUOUS
 10
131.4504200711
 20
66.8812177203
 11
131.5233364596
 21
66.7848488844
  0
LINE
  5
52F
100
AcDbEntity
  8
_30_VOLUMEN
100
AcDbLine
 62
7
  6
CONTINUOUS
 10
137.2108367725
 20
66.0898746511
 11
137.2108367725
 21
66.5728375643
  0
LINE
  5
530
100
AcDbEntity
  8
_30_VOLUMEN
100
AcDbLine
 62
7
  6
CONTINUOUS
 10
137.4295867725
 20
67.4787042221
 11
137.4295867725
 21
66.6884801025
  0
LINE
  5
531
100
AcDbEntity
  8
_30_VOLUMEN
100
AcDbLine
 62
7
  6
CONTINUOUS
 10
137.8670867725
 20
66.0898746511
 11
137.8670867725
 21
67.4787042221
  0
LINE
  5
532
100
AcDbEntity
  8
_30_VOLUMEN
100
AcDbLine
 62
7
  6
CONTINUOUS
 10
134.3670868768
 20
67.170324093
 11
134.2941700711
 21
67.2666928749
  0
LWPOLYLINE
  5
533
100
AcDbEntity
  8
BEZUGSACHSEN
100
AcDbPolyline
 62
7
  6
CONTINUOUS
 90
17
 70
0
 10
139.2231282015
 20
61.295521918
 10
139.2195106653
 20
61.4031468659
 10
139.2043760235
 20
61.5399617761
 10
139.1776831832
 20
61.6747536696
 10
139.1401747654
 20
61.8054179083
 10
139.0923803934
 20
61.93168453
 10
139.035048396
 20
62.0527556627
 10
138.9700086227
 20
62.1664094082
 10
138.8982036791
 20
62.2728308714
 10
138.8203962775
 20
62.3723788863
 10
138.7386385327
 20
62.4639913657
 10
138.6540866792
 20
62.5480536889
 10
138.5666180259
 20
62.6260660046
 10
138.4764049787
 20
62.6989152763
 10
138.3835569676
 20
62.7673559066
 10
138.2879810495
 20
62.8321308347
 10
138.2634604097
 20
62.8479448628
  0
LINE
  5
534
100
AcDbEntity
  8
_30_VOLUMEN
100
AcDbLine
 62
7
  6
CONTINUOUS
 10
138.4504200711
 20
66.0898746511
 11
138.4504200711
 21
67.4787042221
  0
LINE
  5
535
100
AcDbEntity
  8
_30_VOLUMEN
100
AcDbLine
 62
7
  6
CONTINUOUS
 10
138.8879200711
 20
66.0898746511
 11
138.8879200711
 21
67.4787042221
  0
LINE
  5
536
100
AcDbEntity
  8
BEZUGSACHSEN
100
AcDbLine
 62
7
  6
CONTINUOUS
 10
139.2231280598
 20
61.2958647698
 11
139.2231280598
 21
60.6004193886
  0
LINE
  5
537
100
AcDbEntity
  8
RUNDUNGEN
100
AcDbLine
 62
7
  6
CONTINUOUS
 10
139.2231280598
 20
52.6004193886
 11
139.2231280598
 21
51.9049740074
  0
LINE
  5
538
100
AcDbEntity
  8
0
100
AcDbLine
 62
7
  6
CONTINUOUS
 10
140.4996587656
 20
53.6004193886
 11
140.4996587656
 21
53.1004193886
  0
LINE
  5
539
100
AcDbEntity
  8
0
100
AcDbLine
 62
7
  6
CONTINUOUS
 10
140.56653737
 20
53.6004193886
 11
140.56653737
 21
53.1004193886
  0
LINE
  5
53A
100
AcDbEntity
  8
0
100
AcDbLine
 62
7
  6
CONTINUOUS
 10
140.6892239976
 20
53.6004193886
 11
140.6892239976
 21
53.1004193886
  0
LINE
  5
53B
100
AcDbEntity
  8
0
100
AcDbLine
 62
7
  6
CONTINUOUS
 10
140.9086141694
 20
53.6004193886
 11
140.9086141694
 21
53.1004193886
  0
LINE
  5
53C
100
AcDbEntity
  8
0
100
AcDbLine
 62
7
  6
CONTINUOUS
 10
141.0871087627
 20
53.6004193886
 11
141.0871087627
 21
53.1004193886
  0
LINE
  5
53D
100
AcDbEntity
  8
0
100
AcDbLine
 62
7
  6
CONTINUOUS
 10
141.4032025152
 20
53.6004193886
 11
141.4032025152
 21
53.1004193886
  0
LINE
  5
53E
100
AcDbEntity
  8
0
100
AcDbLine
 62
7
  6
CONTINUOUS
 10
142.0223982983
 20
53.6004193886
 11
142.0223982983
 21
53.1004193886
  0
LINE
  5
53F
100
AcDbEntity
  8
0
100
AcDbLine
 62
7
  6
CONTINUOUS
 10
142.3942999567
 20
53.6004193886
 11
142.3942999567
 21
53.1004193886
  0
LINE
  5
540
100
AcDbEntity
  8
0
100
AcDbLine
 62
7
  6
CONTINUOUS
 10
142.6286027449
 20
53.6004193886
 11
142.6286027449
 21
53.1004193886
  0
LINE
  5
541
100
AcDbEntity
  8
0
100
AcDbLine
 62
7
  6
CONTINUOUS
 10
142.9596088729
 20
53.6004193886
 11
142.9596088729
 21
53.1004193886
  0
LINE
  5
542
100
AcDbEntity
  8
0
100
AcDbLine
 62
7
  6
CONTINUOUS
 10
143.2497194581
 20
53.6004193886
 11
143.2497194581
 21
53.1004193886
  0
LINE
  5
543
100
AcDbEntity
  8
0
100
AcDbLine
 62
7
  6
CONTINUOUS
 10
143.5956380605
 20
53.6004193886
 11
143.5956380605
 21
53.1004193886
  0
LINE
  5
544
100
AcDbEntity
  8
0
100
AcDbLine
 62
7
  6
CONTINUOUS
 10
143.8318615936
 20
53.6004193886
 11
143.8318615936
 21
53.1004193886
  0
LINE
  5
545
100
AcDbEntity
  8
0
100
AcDbLine
 62
7
  6
CONTINUOUS
 10
143.9304860638
 20
53.6004193886
 11
143.9304860638
 21
53.1004193886
  0
LINE
  5
546
100
AcDbEntity
  8
0
100
AcDbLine
 62
7
  6
CONTINUOUS
 10
144.083452495
 20
53.6004193886
 11
144.083452495
 21
53.1004193886
  0
LINE
  5
547
100
AcDbEntity
  8
0
100
AcDbLine
 62
7
  6
CONTINUOUS
 10
144.2898510894
 20
53.6004193886
 11
144.2898510894
 21
53.1004193886
  0
LINE
  5
548
100
AcDbEntity
  8
0
100
AcDbLine
 62
7
  6
CONTINUOUS
 10
144.6896568867
 20
53.6004193886
 11
144.6896568867
 21
53.1004193886
  0
LINE
  5
549
100
AcDbEntity
  8
0
100
AcDbLine
 62
7
  6
CONTINUOUS
 10
144.9797674819
 20
53.6004193886
 11
144.9797674819
 21
53.1004193886
  0
LINE
  5
54A
100
AcDbEntity
  8
0
100
AcDbLine
 62
7
  6
CONTINUOUS
 10
145.3256860244
 20
53.6004193886
 11
145.3256860244
 21
53.1004193886
  0
LINE
  5
54B
100
AcDbEntity
  8
0
100
AcDbLine
 62
7
  6
CONTINUOUS
 10
145.5340056637
 20
53.6004193886
 11
145.5340056637
 21
53.1004193886
  0
LINE
  5
54C
100
AcDbEntity
  8
0
100
AcDbLine
 62
7
  6
CONTINUOUS
 10
145.6456215584
 20
53.6004193886
 11
145.6456215584
 21
53.1004193886
  0
LINE
  5
54D
100
AcDbEntity
  8
0
100
AcDbLine
 62
7
  6
CONTINUOUS
 10
145.7163421347
 20
53.6004193886
 11
145.7163421347
 21
53.1004193886
  0
LINE
  5
54E
100
AcDbEntity
  8
0
100
AcDbLine
 62
7
  6
CONTINUOUS
 10
146.0569527938
 20
53.6004193886
 11
146.0569527938
 21
53.1004193886
  0
LINE
  5
54F
100
AcDbEntity
  8
0
100
AcDbLine
 62
7
  6
CONTINUOUS
 10
146.1964729017
 20
53.6004193886
 11
146.1964729017
 21
53.1004193886
  0
LINE
  5
550
100
AcDbEntity
  8
BEZUGSACHSEN
100
AcDbLine
 62
7
  6
CONTINUOUS
 10
148.6576762543
 20
66.1004193886
 11
148.6576762543
 21
60.6004193886
  0
LINE
  5
551
100
AcDbEntity
  8
_30_VOLUMEN
100
AcDbLine
 62
7
  6
CONTINUOUS
 10
148.6576762543
 20
65.623735585
 11
148.6576762543
 21
58.1073414427
  0
LINE
  5
552
100
AcDbEntity
  8
RUNDUNGEN
100
AcDbLine
 62
7
  6
CONTINUOUS
 10
148.6576762543
 20
58.1004193886
 11
148.6576762543
 21
55.1004193886
  0
LINE
  5
553
100
AcDbEntity
  8
_30_VOLUMEN
100
AcDbLine
 62
7
  6
CONTINUOUS
 10
148.6576435157
 20
55.0905090505
 11
148.6576762543
 21
47.5771031922
  0
LINE
  5
554
100
AcDbEntity
  8
RUNDUNGEN
100
AcDbLine
 62
7
  6
CONTINUOUS
 10
148.6576762543
 20
52.6004193886
 11
148.6576762543
 21
47.1004193886
  0
ARC
  5
555
100
AcDbEntity
  8
RUNDUNGEN
100
AcDbCircle
 62
7
  6
CONTINUOUS
 10
91.5126762543
 20
124.3667250256
 40
12.855
100
AcDbArc
 50
171.3481336035
 51
180.0
  0
ARC
  5
556
100
AcDbEntity
  8
BEZUGSACHSEN
100
AcDbCircle
 62
7
  6
CONTINUOUS
 10
82.6887603896
 20
125.901720403
 40
5.0
100
AcDbArc
 50
278.9861982209
 51
337.5003162124
  0
ARC
  5
557
100
AcDbEntity
  8
BEZUGSACHSEN
100
AcDbCircle
 62
7
  6
CONTINUOUS
 10
84.4330868464
 20
130.1128969922
 40
5.0
100
AcDbArc
 50
337.4962966376
 51
22.5038213527
  0
ARC
  5
558
100
AcDbEntity
  8
_30_VOLUMEN
100
AcDbCircle
 62
7
  6
CONTINUOUS
 10
93.0922244487
 20
135.3391488517
 40
5.0
100
AcDbArc
 50
157.5
 51
202.5
  0
ARC
  5
559
100
AcDbEntity
  8
BEZUGSACHSEN
100
AcDbCircle
 62
7
  6
CONTINUOUS
 10
93.0922244487
 20
135.3391488517
 40
5.0
100
AcDbArc
 50
157.4999992312
 51
202.5
  0
ARC
  5
55A
100
AcDbEntity
  8
BEZUGSACHSEN
100
AcDbCircle
 62
7
  6
CONTINUOUS
 10
80.1576762543
 20
118.9206782794
 40
1.5
100
AcDbArc
 50
98.9863609145
 51
180.0
  0
ARC
  5
55B
100
AcDbEntity
  8
_30_VOLUMEN
100
AcDbCircle
 62
7
  6
CONTINUOUS
 10
80.1576762543
 20
118.9206782794
 40
1.5
100
AcDbArc
 50
98.9863608835
 51
179.4894768397
  0
ARC
  5
55C
100
AcDbEntity
  8
0
100
AcDbCircle
 62
7
  6
CONTINUOUS
 10
85.8045936201
 20
131.2435252214
 40
0.8048127039
100
AcDbArc
 50
80.7709153814
 51
169.9999999998
  0
ARC
  5
55D
100
AcDbEntity
  8
0
100
AcDbCircle
 62
7
  6
CONTINUOUS
 10
85.6853809758
 20
130.5674367192
 40
0.8048127039
100
AcDbArc
 50
170.0000000002
 51
259.2290846186
  0
ARC
  5
55E
100
AcDbEntity
  8
0
100
AcDbCircle
 62
7
  6
CONTINUOUS
 10
83.2221971451
 20
128.2411963885
 40
0.7995919807
100
AcDbArc
 50
260.4006302106
 51
350.3709718986
  0
ARC
  5
55F
100
AcDbEntity
  8
0
100
AcDbCircle
 62
7
  6
CONTINUOUS
 10
85.8987686081
 20
127.7635751199
 40
0.794183569
100
AcDbArc
 50
258.7319005611
 51
350.0
  0
ARC
  5
560
100
AcDbEntity
  8
0
100
AcDbCircle
 62
7
  6
CONTINUOUS
 10
85.2018849985
 20
127.8864545026
 40
0.7941835226
100
AcDbArc
 50
170.0
 51
261.2679482936
  0
ARC
  5
561
100
AcDbEntity
  8
0
100
AcDbCircle
 62
7
  6
CONTINUOUS
 10
83.3496708939
 20
128.9319389189
 40
0.7940562503
100
AcDbArc
 50
349.2285047387
 51
80.0
  0
ARC
  5
562
100
AcDbEntity
  8
0
100
AcDbCircle
 62
7
  6
CONTINUOUS
 10
83.3288893068
 20
128.9176211175
 40
0.2901472637
100
AcDbArc
 50
350.0
 51
77.834211849
  0
ARC
  5
563
100
AcDbEntity
  8
0
100
AcDbCircle
 62
7
  6
CONTINUOUS
 10
85.6936406576
 20
130.5731044005
 40
0.2901450393
100
AcDbArc
 50
170.0
 51
257.8346348199
  0
ARC
  5
564
100
AcDbEntity
  8
0
100
AcDbCircle
 62
7
  6
CONTINUOUS
 10
83.2168661066
 20
128.2488342409
 40
0.284389991
100
AcDbArc
 50
261.0381638333
 51
351.1272013473
  0
ARC
  5
565
100
AcDbEntity
  8
0
100
AcDbCircle
 62
7
  6
CONTINUOUS
 10
85.8014535766
 20
131.2476739205
 40
0.2793817655
100
AcDbArc
 50
80.0
 51
172.1653651801
  0
ARC
  5
566
100
AcDbEntity
  8
0
100
AcDbCircle
 62
7
  6
CONTINUOUS
 10
85.8930800314
 20
127.7716999393
 40
0.2793771733
100
AcDbArc
 50
257.8332171535
 51
350.0
  0
ARC
  5
567
100
AcDbEntity
  8
0
100
AcDbCircle
 62
7
  6
CONTINUOUS
 10
85.2100093328
 20
127.8921437332
 40
0.2793770953
100
AcDbArc
 50
170.0
 51
262.1663598754
  0
ARC
  5
568
100
AcDbEntity
  8
_30_VOLUMEN
100
AcDbCircle
 62
7
  6
CONTINUOUS
 10
99.1157058244
 20
149.8811192816
 40
5.0
100
AcDbArc
 50
112.5
 51
157.5
  0
ARC
  5
569
100
AcDbEntity
  8
BEZUGSACHSEN
100
AcDbCircle
 62
7
  6
CONTINUOUS
 10
99.1157058244
 20
149.8811192816
 40
5.0
100
AcDbArc
 50
112.5
 51
157.5
  0
ARC
  5
56A
100
AcDbEntity
  8
RUNDUNGEN
100
AcDbCircle
 62
7
  6
CONTINUOUS
 10
113.6576762543
 20
129.3391488517
 40
34.0
100
AcDbArc
 50
8.6518663965
 51
171.3481336035
  0
ARC
  5
56B
100
AcDbEntity
  8
RUNDUNGEN
100
AcDbCircle
 62
7
  6
CONTINUOUS
 10
113.6576762543
 20
135.3391488517
 40
16.0
100
AcDbArc
 50
354.6566087724
 51
7.1708368072
  0
ARC
  5
56C
100
AcDbEntity
  8
BEZUGSACHSEN
100
AcDbCircle
 62
7
  6
CONTINUOUS
 10
113.6576762543
 20
135.3391488517
 40
16.0
100
AcDbArc
 50
7.1708368072
 51
354.6566087724
  0
ARC
  5
56D
100
AcDbEntity
  8
RUNDUNGEN
100
AcDbCircle
 62
7
  6
CONTINUOUS
 10
135.8026762543
 20
124.3667250256
 40
12.855
100
AcDbArc
 50
0.0
 51
8.6518663965
  0
ARC
  5
56E
100
AcDbEntity
  8
RUNDUNGEN
100
AcDbCircle
 62
7
  6
CONTINUOUS
 10
144.626592119
 20
125.901720403
 40
5.0
100
AcDbArc
 50
202.4996837876
 51
261.0138017791
  0
ARC
  5
56F
100
AcDbEntity
  8
RUNDUNGEN
100
AcDbCircle
 62
7
  6
CONTINUOUS
 10
142.8822656622
 20
130.1128969922
 40
5.0
100
AcDbArc
 50
157.4961786473
 51
202.5037033624
  0
ARC
  5
570
100
AcDbEntity
  8
RUNDUNGEN
100
AcDbCircle
 62
7
  6
CONTINUOUS
 10
134.2231280598
 20
135.3391488517
 40
5.0
100
AcDbArc
 50
337.5
 51
22.5000007688
  0
ARC
  5
571
100
AcDbEntity
  8
RUNDUNGEN
100
AcDbCircle
 62
7
  6
CONTINUOUS
 10
147.1576762543
 20
118.9206782794
 40
1.5
100
AcDbArc
 50
0.0
 51
81.0136390855
  0
ARC
  5
572
100
AcDbEntity
  8
_30_VOLUMEN
100
AcDbCircle
 62
7
  6
CONTINUOUS
 10
147.1576762543
 20
118.9206782794
 40
1.5
100
AcDbArc
 50
75.6426063318
 51
81.0136391165
  0
ARC
  5
573
100
AcDbEntity
  8
_30_VOLUMEN
100
AcDbCircle
 62
7
  6
CONTINUOUS
 10
147.1576762543
 20
118.9206782794
 40
1.5
100
AcDbArc
 50
0.5105231547
 51
5.4009092744
  0
ARC
  5
574
100
AcDbEntity
  8
BEZUGSACHSEN
100
AcDbCircle
 62
7
  6
CONTINUOUS
 10
147.1576762543
 20
118.9206782794
 40
1.5
100
AcDbArc
 50
0.5103320887
 51
1.5523099527
  0
ARC
  5
575
100
AcDbEntity
  8
BEZUGSACHSEN
100
AcDbCircle
 62
7
  6
CONTINUOUS
 10
147.1576762543
 20
118.9206782794
 40
1.5
100
AcDbArc
 50
75.6425601833
 51
81.0136390855
  0
ARC
  5
576
100
AcDbEntity
  8
RUNDUNGEN
100
AcDbCircle
 62
7
  6
CONTINUOUS
 10
128.1996466842
 20
149.8811192816
 40
5.0
100
AcDbArc
 50
22.5
 51
67.5
  0
ARC
  5
577
100
AcDbEntity
  8
_30_VOLUMEN
100
AcDbCircle
 62
7
  6
CONTINUOUS
 10
113.6576762543
 20
155.9046006573
 40
5.0
100
AcDbArc
 50
82.5914854271
 51
86.302449208
  0
ARC
  5
578
100
AcDbEntity
  8
_30_VOLUMEN
100
AcDbCircle
 62
7
  6
CONTINUOUS
 10
113.6576762543
 20
155.9046006573
 40
5.0
100
AcDbArc
 50
97.5925049206
 51
99.3758167634
  0
ARC
  5
579
100
AcDbEntity
  8
RUNDUNGEN
100
AcDbCircle
 62
7
  6
CONTINUOUS
 10
113.6576762543
 20
155.9046006573
 40
5.0
100
AcDbArc
 50
67.5
 51
112.5
  0
ARC
  5
57A
100
AcDbEntity
  8
BEZUGSACHSEN
100
AcDbCircle
 62
7
  6
CONTINUOUS
 10
220.9875799327
 20
137.7108853582
 40
13.0
100
AcDbArc
 50
179.9999919624
 51
195.0
  0
ARC
  5
57B
100
AcDbEntity
  8
BEZUGSACHSEN
100
AcDbCircle
 62
7
  6
CONTINUOUS
 10
182.9875799327
 20
137.7108853582
 40
13.0
100
AcDbArc
 50
345.0
 51
0.0000080376
  0
ARC
  5
57C
100
AcDbEntity
  8
RUNDUNGEN
100
AcDbCircle
 62
7
  6
CONTINUOUS
 10
203.4875799327
 20
161.8391488517
 40
1.5
100
AcDbArc
 50
1.4498525173
 51
90.0
  0
ARC
  5
57D
100
AcDbEntity
  8
RUNDUNGEN
100
AcDbCircle
 62
7
  6
CONTINUOUS
 10
200.4875799327
 20
161.8391488517
 40
1.5
100
AcDbArc
 50
90.0
 51
178.5499476309
  0
ARC
  5
57E
100
AcDbEntity
  8
BEZUGSACHSEN
100
AcDbCircle
 62
7
  6
CONTINUOUS
 10
197.4875799327
 20
159.4046006573
 40
1.5
100
AcDbArc
 50
90.0
 51
180.0
  0
ARC
  5
57F
100
AcDbEntity
  8
RUNDUNGEN
100
AcDbCircle
 62
7
  6
CONTINUOUS
 10
206.4875799327
 20
159.4046006573
 40
1.5
100
AcDbArc
 50
0.0
 51
90.0
  0
ARC
  5
580
100
AcDbEntity
  8
BEZUGSACHSEN
100
AcDbCircle
 62
7
  6
CONTINUOUS
 10
211.7875799327
 20
117.1811658546
 40
1.2
100
AcDbArc
 50
0.0002602074
 51
14.9997783366
  0
ARC
  5
581
100
AcDbEntity
  8
RUNDUNGEN
100
AcDbCircle
 62
7
  6
CONTINUOUS
 10
211.7875799327
 20
117.1811658546
 40
1.2
100
AcDbArc
 50
0.0002602074
 51
14.9997783366
  0
ARC
  5
582
100
AcDbEntity
  8
BEZUGSACHSEN
100
AcDbCircle
 62
7
  6
CONTINUOUS
 10
192.1875799327
 20
117.1811658546
 40
1.2
100
AcDbArc
 50
165.0002216634
 51
179.9997397926
  0
ARC
  5
583
100
AcDbEntity
  8
RUNDUNGEN
100
AcDbCircle
 62
7
  6
CONTINUOUS
 10
80.1576762543
 20
55.1004193886
 40
1.5
100
AcDbArc
 50
180.0
 51
270.0
  0
ARC
  5
584
100
AcDbEntity
  8
RUNDUNGEN
100
AcDbCircle
 62
7
  6
CONTINUOUS
 10
147.1576762543
 20
58.1004193886
 40
1.5
100
AcDbArc
 50
0.0
 51
90.0
  0
ARC
  5
585
100
AcDbEntity
  8
RUNDUNGEN
100
AcDbCircle
 62
7
  6
CONTINUOUS
 10
147.1576762543
 20
47.1004193886
 40
1.5
100
AcDbArc
 50
270.0
 51
360.0
  0
ARC
  5
586
100
AcDbEntity
  8
BEZUGSACHSEN
100
AcDbCircle
 62
7
  6
CONTINUOUS
 10
80.1576762543
 20
47.1004193886
 40
1.5
100
AcDbArc
 50
180.0
 51
270.0
  0
ARC
  5
587
100
AcDbEntity
  8
BEZUGSACHSEN
100
AcDbCircle
 62
7
  6
CONTINUOUS
 10
147.1576762543
 20
66.1004193886
 40
1.5
100
AcDbArc
 50
0.0
 51
90.0
  0
ARC
  5
588
100
AcDbEntity
  8
BEZUGSACHSEN
100
AcDbCircle
 62
7
  6
CONTINUOUS
 10
80.1576762543
 20
66.1004193886
 40
1.5
100
AcDbArc
 50
90.0
 51
180.0
  0
ARC
  5
589
100
AcDbEntity
  8
RUNDUNGEN
100
AcDbCircle
 62
7
  6
CONTINUOUS
 10
147.1576762543
 20
55.1004193886
 40
1.5
100
AcDbArc
 50
270.0
 51
360.0
  0
ARC
  5
58A
100
AcDbEntity
  8
RUNDUNGEN
100
AcDbCircle
 62
7
  6
CONTINUOUS
 10
80.1576762543
 20
58.1004193886
 40
1.5
100
AcDbArc
 50
90.0
 51
180.0
  0
ARC
  5
58B
100
AcDbEntity
  8
_30_VOLUMEN
100
AcDbCircle
 62
7
  6
CONTINUOUS
 10
140.2231280598
 20
52.6004193886
 40
1.0
100
AcDbArc
 50
90.0
 51
180.0
  0
ARC
  5
58C
100
AcDbEntity
  8
_30_VOLUMEN
100
AcDbCircle
 62
7
  6
CONTINUOUS
 10
87.0922244487
 20
52.6004193886
 40
1.0
100
AcDbArc
 50
0.0
 51
90.0
  0
ARC
  5
58D
100
AcDbEntity
  8
_30_VOLUMEN
100
AcDbCircle
 62
7
  6
CONTINUOUS
 10
87.0922244487
 20
60.6004193886
 40
1.0
100
AcDbArc
 50
270.0
 51
360.0
  0
ARC
  5
58E
100
AcDbEntity
  8
_30_VOLUMEN
100
AcDbCircle
 62
7
  6
CONTINUOUS
 10
140.2231280598
 20
60.6004193886
 40
1.0
100
AcDbArc
 50
180.0
 51
270.0
  0
LINE
  5
58F
100
AcDbEntity
  8
_30_VOLUMEN
100
AcDbLine
 62
7
  6
CONTINUOUS
 10
204.9870854824
 20
161.8773743629
 11
204.9875799327
 21
161.8244467165
  0
LINE
  5
590
100
AcDbEntity
  8
_30_VOLUMEN
100
AcDbLine
 62
7
  6
CONTINUOUS
 10
198.9875799327
 20
161.8244467165
 11
198.9880778644
 21
161.8775896144
  0
ENDSEC
  0
SECTION
  2
OBJECTS
  0
DICTIONARY
  5
C
100
AcDbDictionary
280
0
281
1
  3
ACAD_GROUP
350
D
  3
ACAD_MLINESTYLE
350
17
  3
ACAD_LAYOUT
350
1A
  3
ACAD_PLOTSETTINGS
350
19
  3
ACAD_PLOTSTYLENAME
350
E
  0
DICTIONARY
  5
D
102
{ACAD_REACTORS
330
C
102
}
100
AcDbDictionary
280
0
281
1
  0
ACDBDICTIONARYWDFLT
  5
E
102
{ACAD_REACTORS
330
C
102
}
100
AcDbDictionary
281
1
  3
Normal
350
F
100
AcDbDictionaryWithDefault
340
F
  0
DICTIONARY
  5
17
102
{ACAD_REACTORS
330
C
102
}
100
AcDbDictionary
280
0
281
1
  3
Standard
350
18
  0
DICTIONARY
  5
19
102
{ACAD_REACTORS
330
C
102
}
100
AcDbDictionary
281
1
  0
DICTIONARY
  5
1A
102
{ACAD_REACTORS
330
C
102
}
100
AcDbDictionary
281
1
  3
Model
350
591
  3
Layout1
350
592
  0
ACDBPLACEHOLDER
  5
F
102
{ACAD_REACTORS
330
E
102
}
  0
MLINESTYLE
  5
18
102
{ACAD_REACTORS
330
17
102
}
100
AcDbMlineStyle
  2
STANDARD
 70
0
  3

 62
256
 51
90.0
 52
90.0
 71
2
 49
0.5
 62
256
  6
BYLAYER
 49
-0.5
 62
256
  6
BYLAYER
  0
LAYOUT
  5
591
102
{ACAD_REACTORS
330
1A
102
}
100
AcDbPlotSettings
  1

  2
none_device
  4
ISO_A4_(297.00_x_210.00_MM)
  6

 40
0.0
 41
0.0
 42
0.0
 43
0.0
 44
297.0
 45
210.0
 46
0.0
 47
0.0
 48
0.0
 49
0.0
140
0.0
141
0.0
142
1.0
143
1.0
 70
1024
 72
1
 73
0
 74
0
  7

 75
0
147
1.0
148
0.0
149
0.0
100
AcDbLayout
  1
Model
 70
0
 71
0
 10
0.0
 20
0.0
 11
297.0
 21
210.0
 12
0.0
 22
0.0
 32
0.0
 14
0.0
 24
0.0
 34
0.0
 15
0.0
 25
0.0
 35
0.0
146
0.0
 13
0.0
 23
0.0
 33
0.0
 16
1.0
 26
0.0
 36
0.0
 17
0.0
 27
1.0
 37
0.0
 76
0
330
20B
345
0
346
0
  0
LAYOUT
  5
592
102
{ACAD_REACTORS
330
1A
102
}
100
AcDbPlotSettings
  1

  2
none_device
  4
ISO_A4_(297.00_x_210.00_MM)
  6

 40
0.0
 41
0.0
 42
0.0
 43
0.0
 44
297.0
 45
210.0
 46
0.0
 47
0.0
 48
0.0
 49
0.0
140
0.0
141
0.0
142
1.0
143
1.0
 70
0
 72
1
 73
0
 74
0
  7

 75
0
147
1.0
148
0.0
149
0.0
100
AcDbLayout
  1
Layout1
 70
0
 71
1
 10
0.0
 20
0.0
 11
297.0
 21
210.0
 12
0.0
 22
0.0
 32
0.0
 14
0.0
 24
0.0
 34
0.0
 15
0.0
 25
0.0
 35
0.0
146
0.0
 13
0.0
 23
0.0
 33
0.0
 16
1.0
 26
0.0
 36
0.0
 17
0.0
 27
1.0
 37
0.0
 76
0
330
20C
345
0
346
0
  0
ENDSEC
  0
EOF
