999
DXF file: vcgh-s22-dxf.dxf
999
Pro/ENGINEER 2010140 by Parametric Technology Corporation
  0
SECTION
  2
HEADER
  9
$ACADVER
  1
AC1021
  9
$DWGCODEPAGE
  3
ANSI_1252
  9
$EXTMAX
 10
420.0
 20
297.0
 30
0.0
  9
$EXTMIN
 10
0.0
 20
0.0
 30
0.0
  9
$LIMMIN
 10
0.0
 20
0.0
  9
$LIMMAX
 10
420.0
 20
297.0
  9
$VIEWCTR
 10
210.0
 20
148.5
  9
$VIEWSIZE
 40
297.0
  9
$CLAYER
  8
0
  9
$LTSCALE
 40
23.1
  9
$CELTYPE
  6
BYLAYER
  9
$DIMSCALE
 40
1.0
  9
$DIMASZ
 40
3.5
  9
$DIMEXO
 40
2.625
  9
$DIMDLI
 40
15.96
  9
$DIMEXE
 40
7.56
  9
$DIMCEN
 40
3.78
  9
$DIMLFAC
 40
1.0
  9
$DIMBLK
  1
_FILLED
  9
$DIMTXT
 40
3.5
  9
$DIMTOL
 70
1
  9
$DIMLIM
 70
0
  9
$DIMTFAC
 40
1.0
  9
$DIMTP
 40
0.005
  9
$DIMTM
 40
0.005
  9
$PDMODE
 70
3
  9
$PDSIZE
 40
0.3125
  9
$HANDSEED
  5
7A6
  9
$TILEMODE
 70
1
  9
$MEASUREMENT
 70
1
  9
$INSUNITS
 70
4
  0
ENDSEC
  0
SECTION
  2
CLASSES
  0
CLASS
  1
ACDBDICTIONARYWDFLT
  2
AcDbDictionaryWithDefault
  3
AutoCAD 2000
 90
0
 91
1
280
0
281
0
  0
CLASS
  1
ACDBPLACEHOLDER
  2
AcDbPlaceHolder
  3
AutoCAD 2000
 90
0
 91
1
280
0
281
0
  0
CLASS
  1
LAYOUT
  2
AcDbLayout
  3
AutoCAD 2000
 90
0
 91
0
280
0
281
0
  0
ENDSEC
  0
SECTION
  2
TABLES
  0
TABLE
  2
VPORT
  5
8
100
AcDbSymbolTable
 70
2
  0
VPORT
  5
1F4
100
AcDbSymbolTableRecord
100
AcDbViewportTableRecord
  2
*ACTIVE
 70
0
 10
0.0
 20
0.0
 11
1.0
 21
1.0
 12
210.0
 22
148.5
 13
0.0
 23
0.0
 14
1.0
 24
1.0
 15
0.0
 25
0.0
 16
0.0
 26
0.0
 36
1.0
 17
0.0
 27
0.0
 37
0.0
 40
297.0
 41
1.4141414141
 42
50.0
 43
0.0
 44
0.0
 50
0.0
 51
0.0
 71
0
 72
100
 73
1
 74
1
 75
0
 76
0
 77
0
 78
0
  0
ENDTAB
  0
TABLE
  2
LTYPE
  5
5
100
AcDbSymbolTable
 70
6
  0
LTYPE
  5
14
100
AcDbSymbolTableRecord
100
AcDbLinetypeTableRecord
  2
BYBLOCK
 70
0
  3

 72
65
 73
0
 40
0.0
  0
LTYPE
  5
15
100
AcDbSymbolTableRecord
100
AcDbLinetypeTableRecord
  2
BYLAYER
 70
0
  3

 72
65
 73
0
 40
0.0
  0
LTYPE
  5
16
100
AcDbSymbolTableRecord
100
AcDbLinetypeTableRecord
  2
CONTINUOUS
 70
64
  3
Solid line
 72
65
 73
0
 40
0.0
  0
LTYPE
  5
1F5
100
AcDbSymbolTableRecord
100
AcDbLinetypeTableRecord
  2
CENTER
 70
64
  3
____ _ ____ _ ____ _ ____ _ ____ _ ____ _ ____
 72
65
 73
4
 40
0.6
 49
0.375
 74
0
 49
-0.075
 74
0
 49
0.075
 74
0
 49
-0.075
 74
0
  0
LTYPE
  5
1F6
100
AcDbSymbolTableRecord
100
AcDbLinetypeTableRecord
  2
HIDDEN
 70
64
  3
- - - - - - - - - - - - - - - - - - - -
 72
65
 73
2
 40
0.2
 49
0.1
 74
0
 49
-0.1
 74
0
  0
LTYPE
  5
1F7
100
AcDbSymbolTableRecord
100
AcDbLinetypeTableRecord
  2
PHANTOM
 70
64
  3
_____ _ _ _____ _ _ _____ _ _ _____
 72
65
 73
6
 40
0.8
 49
0.45
 74
0
 49
-0.05
 74
0
 49
0.1
 74
0
 49
-0.05
 74
0
 49
0.1
 74
0
 49
-0.05
 74
0
  0
LTYPE
  5
1F8
100
AcDbSymbolTableRecord
100
AcDbLinetypeTableRecord
  2
DOT
 70
64
  3
. . . . . . . . . . . . . . . . . . . .
 72
65
 73
2
 40
0.2
 49
0.1
 74
0
 49
-0.1
 74
0
  0
LTYPE
  5
1F9
100
AcDbSymbolTableRecord
100
AcDbLinetypeTableRecord
  2
DASHED
 70
64
  3
- - - - - - - - - - - - - - - - - - - -
 72
65
 73
2
 40
0.2
 49
0.1
 74
0
 49
-0.1
 74
0
  0
ENDTAB
  0
TABLE
  2
LAYER
  5
2
100
AcDbSymbolTable
 70
36
  0
LAYER
  5
10
100
AcDbSymbolTableRecord
100
AcDbLayerTableRecord
  2
0
 70
0
 62
7
  6
CONTINUOUS
370
-3
390
F
  0
LAYER
  5
1FA
100
AcDbSymbolTableRecord
100
AcDbLayerTableRecord
  2
DEFAULT_1
 70
0
 62
7
  6
CENTER
370
-3
390
F
  0
LAYER
  5
1FB
100
AcDbSymbolTableRecord
100
AcDbLayerTableRecord
  2
DEFAULT_2
 70
0
 62
8
  6
HIDDEN
370
-3
390
F
  0
LAYER
  5
1FC
100
AcDbSymbolTableRecord
100
AcDbLayerTableRecord
  2
DEFAULT_3
 70
0
 62
7
  6
PHANTOM
370
-3
390
F
  0
LAYER
  5
1FD
100
AcDbSymbolTableRecord
100
AcDbLayerTableRecord
  2
AUSFORMSCHRAEGEN
 70
0
 62
7
  6
CONTINUOUS
370
-3
390
F
  0
LAYER
  5
1FE
100
AcDbSymbolTableRecord
100
AcDbLayerTableRecord
  2
BEZUGSACHSEN
 70
0
 62
7
  6
CONTINUOUS
370
-3
390
F
  0
LAYER
  5
1FF
100
AcDbSymbolTableRecord
100
AcDbLayerTableRecord
  2
BEZUGSEBENEN
 70
0
 62
7
  6
CONTINUOUS
370
-3
390
F
  0
LAYER
  5
200
100
AcDbSymbolTableRecord
100
AcDbLayerTableRecord
  2
BG_STARTBEZUEGE
 70
0
 62
7
  6
CONTINUOUS
370
-3
390
F
  0
LAYER
  5
201
100
AcDbSymbolTableRecord
100
AcDbLayerTableRecord
  2
BOHRUNGEN
 70
0
 62
7
  6
CONTINUOUS
370
-3
390
F
  0
LAYER
  5
202
100
AcDbSymbolTableRecord
100
AcDbLayerTableRecord
  2
FASEN
 70
0
 62
7
  6
CONTINUOUS
370
-3
390
F
  0
LAYER
  5
203
100
AcDbSymbolTableRecord
100
AcDbLayerTableRecord
  2
FLAECHEN
 70
0
 62
7
  6
CONTINUOUS
370
-3
390
F
  0
LAYER
  5
204
100
AcDbSymbolTableRecord
100
AcDbLayerTableRecord
  2
HILFEN
 70
0
 62
7
  6
CONTINUOUS
370
-3
390
F
  0
LAYER
  5
205
100
AcDbSymbolTableRecord
100
AcDbLayerTableRecord
  2
KONSTRUKTIONSELEMENTE
 70
0
 62
7
  6
CONTINUOUS
370
-3
390
F
  0
LAYER
  5
206
100
AcDbSymbolTableRecord
100
AcDbLayerTableRecord
  2
PLATZIERUNG
 70
0
 62
7
  6
CONTINUOUS
370
-3
390
F
  0
LAYER
  5
207
100
AcDbSymbolTableRecord
100
AcDbLayerTableRecord
  2
PLAZIERUNG
 70
0
 62
7
  6
CONTINUOUS
370
-3
390
F
  0
LAYER
  5
208
100
AcDbSymbolTableRecord
100
AcDbLayerTableRecord
  2
RUNDUNGEN
 70
0
 62
7
  6
CONTINUOUS
370
-3
390
F
  0
LAYER
  5
209
100
AcDbSymbolTableRecord
100
AcDbLayerTableRecord
  2
TEIL_STARTBEZUEGE
 70
0
 62
7
  6
CONTINUOUS
370
-3
390
F
  0
LAYER
  5
20A
100
AcDbSymbolTableRecord
100
AcDbLayerTableRecord
  2
T_STARTBEZUEGE
 70
0
 62
7
  6
CONTINUOUS
370
-3
390
F
  0
ENDTAB
  0
TABLE
  2
STYLE
  5
3
100
AcDbSymbolTable
 70
1
  0
STYLE
  5
11
100
AcDbSymbolTableRecord
100
AcDbTextStyleTableRecord
  2
STANDARD
 70
0
 40
0.0
 41
0.7
 50
0.0
 71
0
 42
0.2
  3
txt
  4

  0
STYLE
  5
20B
100
AcDbSymbolTableRecord
100
AcDbTextStyleTableRecord
  2
TEXTSTYLE_1
 70
0
 40
0.0
 41
0.8
 50
0.0
 71
0
 42
0.2
  3
gdt
  4

  0
ENDTAB
  0
TABLE
  2
VIEW
  5
6
100
AcDbSymbolTable
 70
0
  0
ENDTAB
  0
TABLE
  2
UCS
  5
7
100
AcDbSymbolTable
 70
0
  0
ENDTAB
  0
TABLE
  2
APPID
  5
9
100
AcDbSymbolTable
 70
1
  0
APPID
  5
20C
100
AcDbSymbolTableRecord
100
AcDbRegAppTableRecord
  2
ACAD
 70
0
  0
ENDTAB
  0
TABLE
  2
BLOCK_RECORD
  5
1
100
AcDbSymbolTable
 70
0
  0
BLOCK_RECORD
  5
20D
100
AcDbSymbolTableRecord
100
AcDbBlockTableRecord
  2
*Model_Space
  0
BLOCK_RECORD
  5
20E
100
AcDbSymbolTableRecord
100
AcDbBlockTableRecord
  2
*Paper_Space
  0
ENDTAB
  0
TABLE
  2
DIMSTYLE
  5
A
100
AcDbSymbolTable
 70
1
100
AcDbDimStyleTable
 71
0
  0
DIMSTYLE
105
20F
100
AcDbSymbolTableRecord
100
AcDbDimStyleTableRecord
  2
STANDARD
 70
0
  3

  4

 40
1.0
 41
3.5
 42
0.0625
 43
0.38
 44
0.18
 45
0.0
 46
0.0
 47
0.005
 48
0.005
140
3.5
141
0.09
142
0.0
143
25.4
144
1.0
145
0.0
146
1.0
147
0.09
 71
1.0
 72
0.0
 73
0
 74
0
 75
0
 76
0
 77
1
 78
8
170
0
171
2
172
0
173
0
174
0
175
0
176
0
177
0
178
5
270
2
271
3
272
3
273
2
274
2
275
0
280
0
281
0
282
0
283
1
284
8
285
0
286
0
287
3
288
0
340
11
  0
ENDTAB
  0
ENDSEC
  0
SECTION
  2
BLOCKS
  0
BLOCK
  5
20
100
AcDbEntity
  8
0
100
AcDbBlockBegin
  2
*Model_Space
 70
0
 10
0.0
 20
0.0
 30
0.0
  3
*Model_Space
  1

  0
ENDBLK
  5
21
100
AcDbEntity
  8
0
100
AcDbBlockEnd
  0
BLOCK
  5
1C
100
AcDbEntity
  8
0
100
AcDbBlockBegin
  2
*Paper_Space
 70
0
 10
0.0
 20
0.0
 30
0.0
  3
*Paper_Space
  1

  0
ENDBLK
  5
1D
100
AcDbEntity
  8
0
100
AcDbBlockEnd
  0
ENDSEC
  0
SECTION
  2
ENTITIES
  0
LINE
  5
210
100
AcDbEntity
  8
0
100
AcDbLine
 62
7
  6
CONTINUOUS
 10
0.0
 20
0.0
 11
0.0
 21
297.0
  0
LINE
  5
211
100
AcDbEntity
  8
0
100
AcDbLine
 62
7
  6
CONTINUOUS
 10
0.0
 20
0.0
 11
420.0
 21
0.0
  0
LINE
  5
212
100
AcDbEntity
  8
0
100
AcDbLine
 62
7
  6
CONTINUOUS
 10
0.0
 20
297.0
 11
420.0
 21
297.0
  0
LINE
  5
213
100
AcDbEntity
  8
0
100
AcDbLine
 62
7
  6
CONTINUOUS
 10
420.0
 20
0.0
 11
420.0
 21
297.0
  0
LINE
  5
214
100
AcDbEntity
  8
BEZUGSACHSEN
100
AcDbLine
 62
7
  6
CONTINUOUS
 10
410.719414631
 20
16.7496569647
 11
290.719414631
 21
16.7496569647
  0
LINE
  5
215
100
AcDbEntity
  8
KONSTRUKTIONSELEMENTE
100
AcDbLine
 62
7
  6
CONTINUOUS
 10
355.3399677567
 20
17.7281559123
 11
350.719414631
 21
16.9963321914
  0
LINE
  5
216
100
AcDbEntity
  8
0
100
AcDbLine
 62
7
  6
CONTINUOUS
 10
350.719414631
 20
16.9963321914
 11
346.0988615052
 21
17.7281559123
  0
LINE
  5
217
100
AcDbEntity
  8
KONSTRUKTIONSELEMENTE
100
AcDbLine
 62
7
  6
CONTINUOUS
 10
363.0392170748
 20
30.7492887609
 11
364.0600390869
 21
30.7492887609
  0
LINE
  5
218
100
AcDbEntity
  8
KONSTRUKTIONSELEMENTE
100
AcDbLine
 62
7
  6
CONTINUOUS
 10
363.0448592503
 20
30.7927998938
 11
364.0656812625
 21
30.7927998938
  0
LINE
  5
219
100
AcDbEntity
  8
KONSTRUKTIONSELEMENTE
100
AcDbLine
 62
7
  6
CONTINUOUS
 10
364.3849985939
 20
33.2357093556
 11
364.4351758769
 21
33.2357093556
  0
LINE
  5
21A
100
AcDbEntity
  8
KONSTRUKTIONSELEMENTE
100
AcDbLine
 62
7
  6
CONTINUOUS
 10
364.4361326613
 20
33.6772053108
 11
364.5380433993
 21
33.6772053108
  0
LINE
  5
21B
100
AcDbEntity
  8
KONSTRUKTIONSELEMENTE
100
AcDbLine
 62
7
  6
CONTINUOUS
 10
364.3132866877
 20
33.7985026955
 11
364.4300550464
 21
33.7985026955
  0
LINE
  5
21C
100
AcDbEntity
  8
KONSTRUKTIONSELEMENTE
100
AcDbLine
 62
7
  6
CONTINUOUS
 10
364.5859621439
 20
34.4152099052
 11
364.694389326
 21
34.4152099052
  0
LINE
  5
21D
100
AcDbEntity
  8
KONSTRUKTIONSELEMENTE
100
AcDbLine
 62
7
  6
CONTINUOUS
 10
364.3844932633
 20
34.5978359836
 11
364.4351758769
 21
34.5978359836
  0
LINE
  5
21E
100
AcDbEntity
  8
KONSTRUKTIONSELEMENTE
100
AcDbLine
 62
7
  6
CONTINUOUS
 10
364.5524967491
 20
34.8546618386
 11
364.6374830958
 21
34.8546618386
  0
LINE
  5
21F
100
AcDbEntity
  8
KONSTRUKTIONSELEMENTE
100
AcDbLine
 62
7
  6
CONTINUOUS
 10
364.4081554458
 20
34.9897330792
 11
364.5380433993
 21
34.9897330792
  0
LINE
  5
220
100
AcDbEntity
  8
KONSTRUKTIONSELEMENTE
100
AcDbLine
 62
7
  6
CONTINUOUS
 10
364.1271099152
 20
35.5268972851
 11
364.4300550464
 21
35.5268972851
  0
LINE
  5
221
100
AcDbEntity
  8
KONSTRUKTIONSELEMENTE
100
AcDbLine
 62
7
  6
CONTINUOUS
 10
364.5393441473
 20
35.7026448768
 11
364.694389326
 21
35.7026448768
  0
LINE
  5
222
100
AcDbEntity
  8
KONSTRUKTIONSELEMENTE
100
AcDbLine
 62
7
  6
CONTINUOUS
 10
364.6022090984
 20
36.1423909751
 11
364.8981339586
 21
36.1423909751
  0
LINE
  5
223
100
AcDbEntity
  8
KONSTRUKTIONSELEMENTE
100
AcDbLine
 62
7
  6
CONTINUOUS
 10
365.1759085207
 20
36.4046487893
 11
365.2175871335
 21
36.4046487893
  0
LINE
  5
224
100
AcDbEntity
  8
KONSTRUKTIONSELEMENTE
100
AcDbLine
 62
7
  6
CONTINUOUS
 10
364.9924198202
 20
36.4409439909
 11
365.1132694286
 21
36.4409439909
  0
LINE
  5
225
100
AcDbEntity
  8
KONSTRUKTIONSELEMENTE
100
AcDbLine
 62
7
  6
CONTINUOUS
 10
364.3732945051
 20
36.5965550593
 11
364.6374831439
 21
36.5965550593
  0
LINE
  5
226
100
AcDbEntity
  8
KONSTRUKTIONSELEMENTE
100
AcDbLine
 62
7
  6
CONTINUOUS
 10
365.0327030372
 20
36.6357569557
 11
365.1179780918
 21
36.6357569557
  0
LINE
  5
227
100
AcDbEntity
  8
KONSTRUKTIONSELEMENTE
100
AcDbLine
 62
7
  6
CONTINUOUS
 10
364.6684976554
 20
37.8800298531
 11
364.8981339586
 21
37.8800298531
  0
LINE
  5
228
100
AcDbEntity
  8
KONSTRUKTIONSELEMENTE
100
AcDbLine
 62
7
  6
CONTINUOUS
 10
365.346860862
 20
38.155057254
 11
365.4322079223
 21
38.155057254
  0
LINE
  5
229
100
AcDbEntity
  8
KONSTRUKTIONSELEMENTE
100
AcDbLine
 62
7
  6
CONTINUOUS
 10
365.3811680632
 20
39.9406420755
 11
365.6833039563
 21
39.9406420755
  0
LINE
  5
22A
100
AcDbEntity
  8
KONSTRUKTIONSELEMENTE
100
AcDbLine
 62
7
  6
CONTINUOUS
 10
365.7525445901
 20
40.1093194266
 11
365.892676906
 21
40.1093194266
  0
LINE
  5
22B
100
AcDbEntity
  8
KONSTRUKTIONSELEMENTE
100
AcDbLine
 62
7
  6
CONTINUOUS
 10
367.4159358165
 20
52.0793729707
 11
367.5528360932
 21
52.0793729707
  0
LINE
  5
22C
100
AcDbEntity
  8
0
100
AcDbLine
 62
7
  6
CONTINUOUS
 10
331.125786902
 20
63.5943821736
 11
331.1257489102
 21
63.5944072681
  0
LWPOLYLINE
  5
22D
100
AcDbEntity
  8
0
100
AcDbPolyline
 62
7
  6
CONTINUOUS
 90
15
 70
0
 10
331.1257864584
 20
63.5943826614
 10
331.2468442924
 20
63.5070769316
 10
331.4014344149
 20
63.3714884496
 10
331.527448762
 20
63.2349017578
 10
331.6237980773
 20
63.108487395
 10
331.6963446441
 20
62.9953536703
 10
331.7483892965
 20
62.9004848098
 10
331.7858731304
 20
62.821893546
 10
331.8128747608
 20
62.757596203
 10
331.8320188496
 20
62.7063900196
 10
331.8456433756
 20
62.6658343606
 10
331.8549633824
 20
62.6352048504
 10
331.8611745103
 20
62.6128305439
 10
331.8649170031
 20
62.5981489498
 10
331.8666631732
 20
62.5907671242
  0
LINE
  5
22E
100
AcDbEntity
  8
KONSTRUKTIONSELEMENTE
100
AcDbLine
 62
7
  6
CONTINUOUS
 10
356.269414631
 20
242.4145035337
 11
350.719414631
 21
240.3122975273
  0
LWPOLYLINE
  5
22F
100
AcDbEntity
  8
0
100
AcDbPolyline
 62
7
  6
CONTINUOUS
 90
7
 70
0
 10
317.2409730231
 20
273.7573939072
 10
317.0853047287
 20
273.341910644
 10
316.8616238595
 20
272.6163954475
 10
316.6937787218
 20
271.8813010512
 10
316.5819554217
 20
271.1419716076
 10
316.5262963427
 20
270.4044209796
 10
316.5194094877
 20
270.0402294939
  0
LINE
  5
230
100
AcDbEntity
  8
KONSTRUKTIONSELEMENTE
100
AcDbLine
 62
7
  6
CONTINUOUS
 10
350.719414631
 20
239.2820271963
 11
356.269414631
 21
241.3842332026
  0
LINE
  5
231
100
AcDbEntity
  8
KONSTRUKTIONSELEMENTE
100
AcDbLine
 62
7
  6
CONTINUOUS
 10
350.719414631
 20
238.9046724062
 11
356.269414631
 21
241.0068784125
  0
LINE
  5
232
100
AcDbEntity
  8
BEZUGSACHSEN
100
AcDbLine
 62
7
  6
CONTINUOUS
 10
290.719414631
 20
16.7496569647
 11
290.719414631
 21
308.7496569647
  0
LWPOLYLINE
  5
233
100
AcDbEntity
  8
0
100
AcDbPolyline
 62
7
  6
CONTINUOUS
 90
4
 70
0
 10
323.1049309668
 20
294.7496569647
 10
322.9467338588
 20
293.9255394475
 10
322.7475979718
 20
292.9725404419
 10
322.5884849981
 20
292.2669143212
  0
LINE
  5
234
100
AcDbEntity
  8
0
100
AcDbLine
 62
7
  6
CONTINUOUS
 10
322.5884755036
 20
292.2668998696
 11
320.8763002117
 21
284.9102880089
  0
LWPOLYLINE
  5
235
100
AcDbEntity
  8
0
100
AcDbPolyline
 62
7
  6
CONTINUOUS
 90
9
 70
0
 10
320.8762694098
 20
284.9101590542
 10
320.6400446149
 20
283.9390634461
 10
320.3006978609
 20
282.6623096399
 10
319.9079441166
 20
281.3052115756
 10
319.4607950644
 20
279.8715440516
 10
318.9586074235
 20
278.365341725
 10
318.4010836861
 20
276.7910113703
 10
317.7883169573
 20
275.153489529
 10
317.2409770213
 20
273.7573885602
  0
LWPOLYLINE
  5
236
100
AcDbEntity
  8
0
100
AcDbPolyline
 62
7
  6
CONTINUOUS
 90
7
 70
0
 10
316.6756385368
 20
188.3184247175
 10
316.7476888578
 20
187.4369474266
 10
316.8675163902
 20
186.2240658161
 10
317.0205306432
 20
184.9493449194
 10
317.210413848
 20
183.6171822463
 10
317.4420041786
 20
182.2295595621
 10
317.6593509441
 20
181.0847269498
  0
LWPOLYLINE
  5
237
100
AcDbEntity
  8
0
100
AcDbPolyline
 62
7
  6
CONTINUOUS
 90
7
 70
0
 10
316.5203459449
 20
192.1182479894
 10
316.5255321958
 20
191.6280201622
 10
316.5426309351
 20
190.86197345
 10
316.5696449122
 20
190.116815551
 10
316.6054980462
 20
189.392725592
 10
316.6491431323
 20
188.6897930881
 10
316.6756452056
 20
188.3184309137
  0
LINE
  5
238
100
AcDbEntity
  8
0
100
AcDbLine
 62
7
  6
CONTINUOUS
 10
316.5195094656
 20
192.3315071009
 11
316.5203452065
 21
192.1182845111
  0
LINE
  5
239
100
AcDbEntity
  8
0
100
AcDbLine
 62
7
  6
CONTINUOUS
 10
316.5195094656
 20
192.3315071009
 11
316.519414631
 21
270.0396814162
  0
LWPOLYLINE
  5
23A
100
AcDbEntity
  8
KONSTRUKTIONSELEMENTE
100
AcDbPolyline
 62
7
  6
CONTINUOUS
 90
6
 70
0
 10
320.8052506292
 20
259.1418002744
 10
320.7816295825
 20
258.154872013
 10
320.7627604964
 20
257.1913617503
 10
320.7494071837
 20
256.26575301
 10
320.7423699374
 20
255.3932232543
 10
320.7424858281
 20
254.5905724576
  0
LINE
  5
23B
100
AcDbEntity
  8
KONSTRUKTIONSELEMENTE
100
AcDbLine
 62
7
  6
CONTINUOUS
 10
320.8387648177
 20
260.3276931447
 11
320.8052506292
 21
259.1418002744
  0
LINE
  5
23C
100
AcDbEntity
  8
KONSTRUKTIONSELEMENTE
100
AcDbLine
 62
7
  6
CONTINUOUS
 10
321.4616588887
 20
273.1309270903
 11
321.3701326155
 21
271.7301847119
  0
LINE
  5
23D
100
AcDbEntity
  8
KONSTRUKTIONSELEMENTE
100
AcDbLine
 62
7
  6
CONTINUOUS
 10
322.507428611
 20
288.197123541
 11
321.4616588887
 21
273.1309270903
  0
LWPOLYLINE
  5
23E
100
AcDbEntity
  8
0
100
AcDbPolyline
 62
7
  6
CONTINUOUS
 90
5
 70
0
 10
329.1363718916
 20
205.016911347
 10
329.0854319657
 20
204.8459993886
 10
328.9659829539
 20
204.333946673
 10
328.8939031264
 20
203.8161275805
 10
328.8694146794
 20
203.2888184378
  0
LINE
  5
23F
100
AcDbEntity
  8
0
100
AcDbLine
 62
7
  6
CONTINUOUS
 10
329.1363718916
 20
205.016911347
 11
329.1364623879
 21
205.0171986368
  0
LWPOLYLINE
  5
240
100
AcDbEntity
  8
0
100
AcDbPolyline
 62
7
  6
CONTINUOUS
 90
5
 70
0
 10
329.397157574
 20
205.6943645064
 10
329.3506475398
 20
205.5904984106
 10
329.2631447367
 20
205.3780310994
 10
329.1845820377
 20
205.1633665368
 10
329.1364627843
 20
205.0171989779
  0
LINE
  5
241
100
AcDbEntity
  8
0
100
AcDbLine
 62
7
  6
CONTINUOUS
 10
329.397157574
 20
205.6943645064
 11
329.3972383344
 21
205.6945402625
  0
LINE
  5
242
100
AcDbEntity
  8
0
100
AcDbLine
 62
7
  6
CONTINUOUS
 10
331.8666631732
 20
62.5907671242
 11
331.8672604151
 21
62.588083994
  0
LINE
  5
243
100
AcDbEntity
  8
0
100
AcDbLine
 62
7
  6
CONTINUOUS
 10
339.8427829147
 20
23.7074118085
 11
331.8671726438
 21
62.5885118789
  0
LWPOLYLINE
  5
244
100
AcDbEntity
  8
KONSTRUKTIONSELEMENTE
100
AcDbPolyline
 62
7
  6
CONTINUOUS
 90
4
 70
0
 10
320.9919123967
 20
239.2536792158
 10
321.0113736104
 20
238.9274609836
 10
321.0460690269
 20
238.6005788066
 10
321.0960830774
 20
238.2736531101
  0
LINE
  5
245
100
AcDbEntity
  8
KONSTRUKTIONSELEMENTE
100
AcDbLine
 62
7
  6
CONTINUOUS
 10
320.9881618214
 20
239.3953958089
 11
320.9919123967
 21
239.2536792158
  0
LINE
  5
246
100
AcDbEntity
  8
KONSTRUKTIONSELEMENTE
100
AcDbLine
 62
7
  6
CONTINUOUS
 10
320.7501203064
 20
253.9984148388
 11
320.989045051
 21
239.3963987569
  0
LINE
  5
247
100
AcDbEntity
  8
KONSTRUKTIONSELEMENTE
100
AcDbLine
 62
7
  6
CONTINUOUS
 10
320.7424858281
 20
254.5905724576
 11
320.748648572
 21
253.9969801369
  0
LWPOLYLINE
  5
248
100
AcDbEntity
  8
0
100
AcDbPolyline
 62
7
  6
CONTINUOUS
 90
4
 70
0
 10
328.8694143601
 20
195.013012707
 10
328.8719629976
 20
194.6681344444
 10
328.9154620124
 20
193.5702771924
 10
328.9836707666
 20
192.7657783343
  0
LINE
  5
249
100
AcDbEntity
  8
KONSTRUKTIONSELEMENTE
100
AcDbLine
 62
7
  6
CONTINUOUS
 10
320.719414631
 20
260.3600423444
 11
320.719414631
 21
271.5558224319
  0
LINE
  5
24A
100
AcDbEntity
  8
0
100
AcDbLine
 62
7
  6
CONTINUOUS
 10
326.019414631
 20
144.0381279455
 11
326.019414631
 21
84.0272948316
  0
LINE
  5
24B
100
AcDbEntity
  8
0
100
AcDbLine
 62
7
  6
CONTINUOUS
 10
326.019414631
 20
73.0999567501
 11
326.019414631
 21
83.8726388032
  0
LINE
  5
24C
100
AcDbEntity
  8
0
100
AcDbLine
 62
7
  6
CONTINUOUS
 10
328.869414631
 20
195.0125306311
 11
328.869414631
 21
203.2888644577
  0
LWPOLYLINE
  5
24D
100
AcDbEntity
  8
KONSTRUKTIONSELEMENTE
100
AcDbPolyline
 62
7
  6
CONTINUOUS
 90
14
 70
0
 10
335.784507969
 20
282.7766098962
 10
335.7905347035
 20
282.8488698332
 10
335.8350643643
 20
283.1038169542
 10
335.9112260051
 20
283.34177733
 10
336.0144023948
 20
283.5608773615
 10
336.1403184245
 20
283.7595413187
 10
336.2848829383
 20
283.9365361832
 10
336.4446772949
 20
284.0915456692
 10
336.6156911873
 20
284.2237749608
 10
336.7949312112
 20
284.3335576321
 10
336.9783707846
 20
284.4207805926
 10
337.1637839168
 20
284.4866142192
 10
337.3479334369
 20
284.5319084718
 10
337.527910502
 20
284.5588098376
  0
LINE
  5
24E
100
AcDbEntity
  8
0
100
AcDbLine
 62
7
  6
CONTINUOUS
 10
318.2996138919
 20
177.9447884251
 11
320.5680474915
 21
167.0351859317
  0
LINE
  5
24F
100
AcDbEntity
  8
0
100
AcDbLine
 62
7
  6
CONTINUOUS
 10
320.5680474915
 20
167.0351859317
 11
322.1852439805
 21
159.197113303
  0
LINE
  5
250
100
AcDbEntity
  8
0
100
AcDbLine
 62
7
  6
CONTINUOUS
 10
322.1852439805
 20
159.197113303
 11
325.6102390572
 21
142.5302528225
  0
LINE
  5
251
100
AcDbEntity
  8
0
100
AcDbLine
 62
7
  6
CONTINUOUS
 10
317.6593139723
 20
181.0849236113
 11
318.2996138919
 21
177.9447884251
  0
LINE
  5
252
100
AcDbEntity
  8
0
100
AcDbLine
 62
7
  6
CONTINUOUS
 10
325.6102390572
 20
142.5302528225
 11
325.6100990484
 21
142.5309569612
  0
LWPOLYLINE
  5
253
100
AcDbEntity
  8
0
100
AcDbPolyline
 62
7
  6
CONTINUOUS
 90
4
 70
0
 10
329.3045475816
 20
189.6510157298
 10
329.4151723132
 20
188.6197467766
 10
329.5284994139
 20
187.6177968727
 10
329.6142135533
 20
186.8991720062
  0
LINE
  5
254
100
AcDbEntity
  8
0
100
AcDbLine
 62
7
  6
CONTINUOUS
 10
328.9836480339
 20
192.7659943369
 11
329.3045475816
 21
189.6510157298
  0
LINE
  5
255
100
AcDbEntity
  8
BEZUGSACHSEN
100
AcDbLine
 62
7
  6
CONTINUOUS
 10
332.2152232842
 20
231.3334224973
 11
332.2243640428
 21
231.238516018
  0
LINE
  5
256
100
AcDbEntity
  8
0
100
AcDbLine
 62
7
  6
CONTINUOUS
 10
337.419414631
 20
284.5425928429
 11
337.419414631
 21
257.5871258766
  0
LWPOLYLINE
  5
257
100
AcDbEntity
  8
KONSTRUKTIONSELEMENTE
100
AcDbPolyline
 62
7
  6
CONTINUOUS
 90
9
 70
0
 10
334.6658271056
 20
259.0560843577
 10
334.7399051425
 20
261.5684060587
 10
334.8380846833
 20
264.3879190351
 10
334.9546986528
 20
267.304914782
 10
335.0894319213
 20
270.3108124211
 10
335.241937159
 20
273.3971197073
 10
335.4117931527
 20
276.5546506107
 10
335.598531041
 20
279.7740653143
 10
335.7844295577
 20
282.7767030425
  0
LINE
  5
258
100
AcDbEntity
  8
0
100
AcDbLine
 62
7
  6
CONTINUOUS
 10
333.8697986991
 20
167.0235735876
 11
333.8591860832
 21
166.6707235787
  0
LWPOLYLINE
  5
259
100
AcDbEntity
  8
0
100
AcDbPolyline
 62
7
  6
CONTINUOUS
 90
4
 70
0
 10
333.8591882657
 20
166.6707732112
 10
333.7643027212
 20
164.473899862
 10
333.656745912
 20
161.876714226
 10
333.315265681
 20
153.3190355005
  0
LWPOLYLINE
  5
25A
100
AcDbEntity
  8
0
100
AcDbPolyline
 62
7
  6
CONTINUOUS
 90
6
 70
0
 10
333.315265681
 20
153.3190355005
 10
333.1660312606
 20
149.76665365
 10
333.1165299892
 20
148.8156940835
 10
333.0622101996
 20
147.9061743051
 10
333.0041526069
 20
147.0379388846
 10
332.9625574176
 20
146.4712234587
  0
LINE
  5
25B
100
AcDbEntity
  8
0
100
AcDbLine
 62
7
  6
CONTINUOUS
 10
333.8130466852
 20
155.2293739133
 11
333.4755824021
 21
151.7870235667
  0
LWPOLYLINE
  5
25C
100
AcDbEntity
  8
0
100
AcDbPolyline
 62
7
  6
CONTINUOUS
 90
3
 70
0
 10
333.4755824021
 20
151.7870235667
 10
331.9132766306
 20
135.5212328501
 10
330.5966664114
 20
122.2554322296
  0
LWPOLYLINE
  5
25D
100
AcDbEntity
  8
0
100
AcDbPolyline
 62
7
  6
CONTINUOUS
 90
16
 70
0
 10
330.5966664114
 20
122.2554322296
 10
330.2727312428
 20
119.0190284672
 10
329.9512630061
 20
115.8426625787
 10
329.6324394951
 20
112.7394376478
 10
329.3164461326
 20
109.7221069046
 10
329.0035073331
 20
106.8028117802
 10
328.6938374655
 20
103.9928890211
 10
328.3877422582
 20
101.303479105
 10
328.0855349207
 20
98.7446789815
 10
327.7876128357
 20
96.3260519411
 10
327.4943969095
 20
94.0559081
 10
327.2064728427
 20
91.9422237311
 10
326.9244111256
 20
89.9911121657
 10
326.6493563199
 20
88.2105746038
 10
326.3829761084
 20
86.6089438298
 10
326.1564405311
 20
85.3480777356
  0
LINE
  5
25E
100
AcDbEntity
  8
0
100
AcDbLine
 62
7
  6
CONTINUOUS
 10
334.2114831222
 20
159.2236158058
 11
333.8130466852
 21
155.2293739133
  0
LINE
  5
25F
100
AcDbEntity
  8
0
100
AcDbLine
 62
7
  6
CONTINUOUS
 10
330.2733426653
 20
183.3519232998
 11
330.8160494543
 21
181.1981855207
  0
LINE
  5
260
100
AcDbEntity
  8
KONSTRUKTIONSELEMENTE
100
AcDbLine
 62
7
  6
CONTINUOUS
 10
321.1996698877
 20
237.7852492629
 11
329.2453118645
 21
205.3293045947
  0
LWPOLYLINE
  5
261
100
AcDbEntity
  8
0
100
AcDbPolyline
 62
7
  6
CONTINUOUS
 90
3
 70
0
 10
330.8160494543
 20
181.1981855207
 10
331.3360263737
 20
179.0986468916
 10
331.8764980915
 20
176.878578096
  0
LINE
  5
262
100
AcDbEntity
  8
0
100
AcDbLine
 62
7
  6
CONTINUOUS
 10
331.8764980915
 20
176.878578096
 11
333.5655780881
 21
169.8443708232
  0
LINE
  5
263
100
AcDbEntity
  8
KONSTRUKTIONSELEMENTE
100
AcDbLine
 62
7
  6
CONTINUOUS
 10
321.1614367893
 20
237.947289758
 11
321.1996700588
 21
237.7852493056
  0
LWPOLYLINE
  5
264
100
AcDbEntity
  8
0
100
AcDbPolyline
 62
7
  6
CONTINUOUS
 90
6
 70
0
 10
333.5655803885
 20
169.844361275
 10
333.6484642987
 20
169.4714135701
 10
333.7539261918
 20
168.8661900207
 10
333.825656389
 20
168.2534559245
 10
333.8639078524
 20
167.6376919599
 10
333.8697986991
 20
167.0235735876
  0
LINE
  5
265
100
AcDbEntity
  8
KONSTRUKTIONSELEMENTE
100
AcDbLine
 62
7
  6
CONTINUOUS
 10
321.0960830774
 20
238.2736531101
 11
321.1614367893
 21
237.947289758
  0
LINE
  5
266
100
AcDbEntity
  8
BEZUGSACHSEN
100
AcDbLine
 62
7
  6
CONTINUOUS
 10
328.1603894913
 20
228.2294169499
 11
328.1607752537
 21
228.2272406104
  0
LWPOLYLINE
  5
267
100
AcDbEntity
  8
0
100
AcDbPolyline
 62
7
  6
CONTINUOUS
 90
7
 70
0
 10
329.6472618697
 20
186.6409800214
 10
329.7151170037
 20
186.1675152582
 10
329.7975936882
 20
185.6571250779
 10
329.8944964625
 20
185.1162266549
 10
330.0039059532
 20
184.5588203386
 10
330.1290011144
 20
183.9732672876
 10
330.2733426653
 20
183.3519232998
  0
LINE
  5
268
100
AcDbEntity
  8
0
100
AcDbLine
 62
7
  6
CONTINUOUS
 10
329.6142135341
 20
186.8991721315
 11
329.6472618697
 21
186.6409800214
  0
LINE
  5
269
100
AcDbEntity
  8
KONSTRUKTIONSELEMENTE
100
AcDbLine
 62
7
  6
CONTINUOUS
 10
345.219414631
 20
228.9966747441
 11
345.219414631
 21
233.8352309314
  0
LINE
  5
26A
100
AcDbEntity
  8
KONSTRUKTIONSELEMENTE
100
AcDbLine
 62
7
  6
CONTINUOUS
 10
345.219414631
 20
235.7818314282
 11
345.219414631
 21
239.6559808429
  0
LINE
  5
26B
100
AcDbEntity
  8
KONSTRUKTIONSELEMENTE
100
AcDbLine
 62
7
  6
CONTINUOUS
 10
345.219414631
 20
242.4736335239
 11
345.219414631
 21
243.7432285935
  0
LINE
  5
26C
100
AcDbEntity
  8
KONSTRUKTIONSELEMENTE
100
AcDbLine
 62
7
  6
CONTINUOUS
 10
345.219414631
 20
246.9157748219
 11
345.219414631
 21
248.1853698915
  0
LINE
  5
26D
100
AcDbEntity
  8
KONSTRUKTIONSELEMENTE
100
AcDbLine
 62
7
  6
CONTINUOUS
 10
345.219414631
 20
249.7630710078
 11
345.219414631
 21
253.4097711469
  0
LINE
  5
26E
100
AcDbEntity
  8
KONSTRUKTIONSELEMENTE
100
AcDbLine
 62
7
  6
CONTINUOUS
 10
346.579414631
 20
249.7630710078
 11
346.579414631
 21
253.3924590283
  0
LINE
  5
26F
100
AcDbEntity
  8
KONSTRUKTIONSELEMENTE
100
AcDbLine
 62
7
  6
CONTINUOUS
 10
346.7613756525
 20
235.7818314282
 11
346.7613756525
 21
239.6559808429
  0
LINE
  5
270
100
AcDbEntity
  8
KONSTRUKTIONSELEMENTE
100
AcDbLine
 62
7
  6
CONTINUOUS
 10
346.919414631
 20
230.9108478096
 11
346.919414631
 21
232.3016929511
  0
LINE
  5
271
100
AcDbEntity
  8
KONSTRUKTIONSELEMENTE
100
AcDbLine
 62
7
  6
CONTINUOUS
 10
347.559414631
 20
230.7827954505
 11
347.559414631
 21
232.0523905201
  0
LINE
  5
272
100
AcDbEntity
  8
KONSTRUKTIONSELEMENTE
100
AcDbLine
 62
7
  6
CONTINUOUS
 10
347.769414631
 20
249.7630710078
 11
347.769414631
 21
251.0326660773
  0
LINE
  5
273
100
AcDbEntity
  8
KONSTRUKTIONSELEMENTE
100
AcDbLine
 62
7
  6
CONTINUOUS
 10
347.9513756525
 20
235.7818314282
 11
347.9513756525
 21
237.0514264978
  0
LINE
  5
274
100
AcDbEntity
  8
KONSTRUKTIONSELEMENTE
100
AcDbLine
 62
7
  6
CONTINUOUS
 10
349.249414631
 20
231.5086815998
 11
349.249414631
 21
231.7038591609
  0
LINE
  5
275
100
AcDbEntity
  8
KONSTRUKTIONSELEMENTE
100
AcDbLine
 62
7
  6
CONTINUOUS
 10
349.359414631
 20
239.6559808429
 11
349.359414631
 21
237.0514264978
  0
LINE
  5
276
100
AcDbEntity
  8
KONSTRUKTIONSELEMENTE
100
AcDbLine
 62
7
  6
CONTINUOUS
 10
349.679414631
 20
230.7827954505
 11
349.679414631
 21
231.3971515649
  0
LINE
  5
277
100
AcDbEntity
  8
KONSTRUKTIONSELEMENTE
100
AcDbLine
 62
7
  6
CONTINUOUS
 10
349.679414631
 20
231.4380344058
 11
349.679414631
 21
232.0523905201
  0
LINE
  5
278
100
AcDbEntity
  8
KONSTRUKTIONSELEMENTE
100
AcDbLine
 62
7
  6
CONTINUOUS
 10
350.319414631
 20
231.3971515649
 11
350.319414631
 21
230.9108478096
  0
LINE
  5
279
100
AcDbEntity
  8
KONSTRUKTIONSELEMENTE
100
AcDbLine
 62
7
  6
CONTINUOUS
 10
350.319414631
 20
231.4380344058
 11
350.319414631
 21
232.3016929511
  0
LINE
  5
27A
100
AcDbEntity
  8
BG_STARTBEZUEGE
100
AcDbLine
 62
7
  6
CENTER
 10
350.719414631
 20
316.5773557633
 11
350.719414631
 21
11.5183153527
  0
LINE
  5
27B
100
AcDbEntity
  8
0
100
AcDbLine
 62
7
  6
CONTINUOUS
 10
350.719414631
 20
294.7496569647
 11
350.719414631
 21
292.8507527031
  0
LINE
  5
27C
100
AcDbEntity
  8
KONSTRUKTIONSELEMENTE
100
AcDbLine
 62
7
  6
CONTINUOUS
 10
350.719414631
 20
237.0514264978
 11
350.719414631
 21
239.2820271963
  0
LINE
  5
27D
100
AcDbEntity
  8
KONSTRUKTIONSELEMENTE
100
AcDbLine
 62
7
  6
CONTINUOUS
 10
351.169414631
 20
230.9108478096
 11
351.169414631
 21
231.3971515649
  0
LINE
  5
27E
100
AcDbEntity
  8
KONSTRUKTIONSELEMENTE
100
AcDbLine
 62
7
  6
CONTINUOUS
 10
351.169414631
 20
231.4380344058
 11
351.169414631
 21
232.3016929511
  0
LINE
  5
27F
100
AcDbEntity
  8
KONSTRUKTIONSELEMENTE
100
AcDbLine
 62
7
  6
CONTINUOUS
 10
351.809414631
 20
230.7827954505
 11
351.809414631
 21
231.3971515649
  0
LINE
  5
280
100
AcDbEntity
  8
KONSTRUKTIONSELEMENTE
100
AcDbLine
 62
7
  6
CONTINUOUS
 10
351.809414631
 20
231.4380344058
 11
351.809414631
 21
232.0523905201
  0
LINE
  5
281
100
AcDbEntity
  8
0
100
AcDbLine
 62
7
  6
CONTINUOUS
 10
367.3956093768
 20
236.8145104208
 11
367.4514451123
 21
237.0129000351
  0
LINE
  5
282
100
AcDbEntity
  8
KONSTRUKTIONSELEMENTE
100
AcDbLine
 62
7
  6
CONTINUOUS
 10
383.62459603
 20
182.5790030326
 11
383.5971089537
 21
182.5644809091
  0
LINE
  5
283
100
AcDbEntity
  8
KONSTRUKTIONSELEMENTE
100
AcDbLine
 62
7
  6
CONTINUOUS
 10
382.996415857
 20
179.7303998318
 11
382.7193560453
 21
179.5840220668
  0
LINE
  5
284
100
AcDbEntity
  8
KONSTRUKTIONSELEMENTE
100
AcDbLine
 62
7
  6
CONTINUOUS
 10
377.9956074986
 20
157.3842613737
 11
379.9626322413
 21
157.3842613737
  0
LINE
  5
285
100
AcDbEntity
  8
KONSTRUKTIONSELEMENTE
100
AcDbLine
 62
7
  6
CONTINUOUS
 10
377.7410557657
 20
157.4836996906
 11
379.7080805085
 21
157.4836996906
  0
LINE
  5
286
100
AcDbEntity
  8
0
100
AcDbLine
 62
7
  6
CONTINUOUS
 10
380.5760256755
 20
160.0239970687
 11
381.7711814272
 21
160.0239970687
  0
LINE
  5
287
100
AcDbEntity
  8
KONSTRUKTIONSELEMENTE
100
AcDbLine
 62
7
  6
CONTINUOUS
 10
367.3324964542
 20
163.5494370191
 11
369.149414631
 21
163.5494370191
  0
LINE
  5
288
100
AcDbEntity
  8
KONSTRUKTIONSELEMENTE
100
AcDbLine
 62
7
  6
CONTINUOUS
 10
366.9740088921
 20
163.648875336
 11
369.149414631
 21
163.648875336
  0
LINE
  5
289
100
AcDbEntity
  8
BEZUGSACHSEN
100
AcDbLine
 62
7
  6
CONTINUOUS
 10
330.3094414154
 20
233.0289235002
 11
330.2889476987
 21
233.1096996024
  0
LINE
  5
28A
100
AcDbEntity
  8
BEZUGSACHSEN
100
AcDbLine
 62
7
  6
CONTINUOUS
 10
331.0859445485
 20
228.8727415193
 11
331.0730951787
 21
228.9292856033
  0
LINE
  5
28B
100
AcDbEntity
  8
BEZUGSACHSEN
100
AcDbLine
 62
7
  6
CONTINUOUS
 10
328.9173214381
 20
225.4491226918
 11
328.9334028912
 21
225.3734333218
  0
LINE
  5
28C
100
AcDbEntity
  8
KONSTRUKTIONSELEMENTE
100
AcDbLine
 62
7
  6
CONTINUOUS
 10
352.239414631
 20
231.7038591609
 11
352.239414631
 21
231.5086815998
  0
LINE
  5
28D
100
AcDbEntity
  8
KONSTRUKTIONSELEMENTE
100
AcDbLine
 62
7
  6
CONTINUOUS
 10
353.929414631
 20
230.7827954505
 11
353.929414631
 21
232.0523905201
  0
LINE
  5
28E
100
AcDbEntity
  8
KONSTRUKTIONSELEMENTE
100
AcDbLine
 62
7
  6
CONTINUOUS
 10
354.569414631
 20
232.3016929511
 11
354.569414631
 21
230.9108478096
  0
LINE
  5
28F
100
AcDbEntity
  8
KONSTRUKTIONSELEMENTE
100
AcDbLine
 62
7
  6
CONTINUOUS
 10
354.859414631
 20
253.3924590283
 11
354.859414631
 21
251.0326660773
  0
LINE
  5
290
100
AcDbEntity
  8
KONSTRUKTIONSELEMENTE
100
AcDbLine
 62
7
  6
CONTINUOUS
 10
356.269414631
 20
228.9966747441
 11
356.269414631
 21
233.8352309314
  0
LINE
  5
291
100
AcDbEntity
  8
KONSTRUKTIONSELEMENTE
100
AcDbLine
 62
7
  6
CONTINUOUS
 10
356.269414631
 20
241.0068784125
 11
356.269414631
 21
242.4145035337
  0
LINE
  5
292
100
AcDbEntity
  8
KONSTRUKTIONSELEMENTE
100
AcDbLine
 62
7
  6
CONTINUOUS
 10
356.269414631
 20
249.7630710078
 11
356.269414631
 21
253.3344968895
  0
LINE
  5
293
100
AcDbEntity
  8
KONSTRUKTIONSELEMENTE
100
AcDbLine
 62
7
  6
CONTINUOUS
 10
356.5313756525
 20
235.7818314282
 11
356.5313756525
 21
237.0514264978
  0
LINE
  5
294
100
AcDbEntity
  8
0
100
AcDbLine
 62
7
  6
CONTINUOUS
 10
369.2236059777
 20
231.3334224973
 11
369.2144652191
 21
231.238516018
  0
LINE
  5
295
100
AcDbEntity
  8
0
100
AcDbLine
 62
7
  6
CONTINUOUS
 10
373.2784397707
 20
228.2294169499
 11
373.2780540082
 21
228.2272406104
  0
LINE
  5
296
100
AcDbEntity
  8
0
100
AcDbLine
 62
7
  6
CONTINUOUS
 10
372.5215078238
 20
225.4491226918
 11
372.5054263708
 21
225.3734333218
  0
LINE
  5
297
100
AcDbEntity
  8
0
100
AcDbLine
 62
7
  6
CONTINUOUS
 10
370.3528847135
 20
228.8727415193
 11
370.3657340832
 21
228.9292856033
  0
LINE
  5
298
100
AcDbEntity
  8
0
100
AcDbLine
 62
7
  6
CONTINUOUS
 10
380.2391592032
 20
237.7852493056
 11
380.2773924726
 21
237.947289758
  0
LINE
  5
299
100
AcDbEntity
  8
0
100
AcDbLine
 62
7
  6
CONTINUOUS
 10
372.1935173975
 20
205.3293045947
 11
380.2391357275
 21
237.7851538583
  0
LINE
  5
29A
100
AcDbEntity
  8
0
100
AcDbLine
 62
7
  6
CONTINUOUS
 10
371.1293878465
 20
233.0289235002
 11
371.1498815632
 21
233.1096996024
  0
LINE
  5
29B
100
AcDbEntity
  8
KONSTRUKTIONSELEMENTE
100
AcDbLine
 62
7
  6
CONTINUOUS
 10
381.7434156131
 20
165.0478540527
 11
381.7711814272
 21
165.0478540527
  0
LINE
  5
29C
100
AcDbEntity
  8
KONSTRUKTIONSELEMENTE
100
AcDbLine
 62
7
  6
CONTINUOUS
 10
365.3415356077
 20
166.9354938843
 11
369.149414631
 21
166.9354938843
  0
LINE
  5
29D
100
AcDbEntity
  8
0
100
AcDbLine
 62
7
  6
CONTINUOUS
 10
382.6593502109
 20
168.9895741909
 11
383.7859357928
 21
168.9895741909
  0
LINE
  5
29E
100
AcDbEntity
  8
KONSTRUKTIONSELEMENTE
100
AcDbLine
 62
7
  6
CONTINUOUS
 10
381.2682280408
 20
172.6628686189
 11
383.2352527836
 21
172.6628686189
  0
LINE
  5
29F
100
AcDbEntity
  8
KONSTRUKTIONSELEMENTE
100
AcDbLine
 62
7
  6
CONTINUOUS
 10
366.9740088921
 20
163.648875336
 11
367.3324964542
 21
163.5494370191
  0
LINE
  5
2A0
100
AcDbEntity
  8
KONSTRUKTIONSELEMENTE
100
AcDbLine
 62
7
  6
CONTINUOUS
 10
377.7410557657
 20
157.4836996906
 11
377.9956074986
 21
157.3842613737
  0
LINE
  5
2A1
100
AcDbEntity
  8
KONSTRUKTIONSELEMENTE
100
AcDbLine
 62
7
  6
CONTINUOUS
 10
379.7080805085
 20
157.4836996906
 11
379.9626322413
 21
157.3842613737
  0
LINE
  5
2A2
100
AcDbEntity
  8
BEZUGSACHSEN
100
AcDbLine
 62
7
  6
CONTINUOUS
 10
334.0432198852
 20
236.8145104208
 11
333.9873841496
 21
237.0129000351
  0
LWPOLYLINE
  5
2A3
100
AcDbEntity
  8
KONSTRUKTIONSELEMENTE
100
AcDbPolyline
 62
7
  6
CONTINUOUS
 90
15
 70
0
 10
375.2823883631
 20
85.3480797025
 10
375.0552717215
 20
86.6123023251
 10
374.7882371795
 20
88.2182923264
 10
374.5124532823
 20
90.0042749502
 10
374.2296059143
 20
91.9618461387
 10
373.9408517019
 20
94.0829332203
 10
373.6467706378
 20
96.3613379256
 10
373.3479578441
 20
98.7889728966
 10
373.0448438513
 20
101.3573864897
 10
372.7378358658
 20
104.0568521205
 10
372.4272554512
 20
106.8771039335
 10
372.1134169057
 20
109.8068160016
 10
371.7965429289
 20
112.8344592324
 10
371.4768660188
 20
115.9476899188
 10
371.1545816839
 20
119.1335477918
  0
LINE
  5
2A4
100
AcDbEntity
  8
KONSTRUKTIONSELEMENTE
100
AcDbLine
 62
7
  6
CONTINUOUS
 10
367.6257825767
 20
155.2293739133
 11
367.2273461398
 21
159.2236158058
  0
LWPOLYLINE
  5
2A5
100
AcDbEntity
  8
KONSTRUKTIONSELEMENTE
100
AcDbPolyline
 62
7
  6
CONTINUOUS
 90
3
 70
0
 10
371.1545816839
 20
119.1335477918
 10
370.5029537649
 20
125.6692333432
 10
369.4030601726
 20
136.7462752197
  0
LINE
  5
2A6
100
AcDbEntity
  8
KONSTRUKTIONSELEMENTE
100
AcDbLine
 62
7
  6
CONTINUOUS
 10
367.9632468599
 20
151.7870235667
 11
367.6257825767
 21
155.2293739133
  0
LINE
  5
2A7
100
AcDbEntity
  8
KONSTRUKTIONSELEMENTE
100
AcDbLine
 62
7
  6
CONTINUOUS
 10
369.4030692047
 20
136.746276123
 11
367.9632468599
 21
151.7870235667
  0
LINE
  5
2A8
100
AcDbEntity
  8
KONSTRUKTIONSELEMENTE
100
AcDbLine
 62
7
  6
CONTINUOUS
 10
366.7591315165
 20
166.3148984715
 11
366.9740088921
 21
163.648875336
  0
LWPOLYLINE
  5
2A9
100
AcDbEntity
  8
KONSTRUKTIONSELEMENTE
100
AcDbPolyline
 62
7
  6
CONTINUOUS
 90
5
 70
0
 10
368.4762718444
 20
146.4712234587
 10
368.4346766551
 20
147.0379388846
 10
368.3766190624
 20
147.9061743051
 10
368.3222992728
 20
148.8156940835
 10
368.2727980013
 20
149.76665365
  0
LWPOLYLINE
  5
2AA
100
AcDbEntity
  8
0
100
AcDbPolyline
 62
7
  6
CONTINUOUS
 90
9
 70
0
 10
365.6543997042
 20
282.7767030425
 10
365.8402982209
 20
279.7740653143
 10
366.0270361093
 20
276.5546506107
 10
366.196892103
 20
273.3971197073
 10
366.3493973407
 20
270.3108124211
 10
366.4841306091
 20
267.304914782
 10
366.6007445787
 20
264.3879190351
 10
366.6989241194
 20
261.5684060587
 10
366.7730657406
 20
259.0560858076
  0
LINE
  5
2AB
100
AcDbEntity
  8
KONSTRUKTIONSELEMENTE
100
AcDbLine
 62
7
  6
CONTINUOUS
 10
368.2727980013
 20
149.76665365
 11
368.123563581
 21
153.3190355005
  0
LWPOLYLINE
  5
2AC
100
AcDbEntity
  8
KONSTRUKTIONSELEMENTE
100
AcDbPolyline
 62
7
  6
CONTINUOUS
 90
3
 70
0
 10
368.123563581
 20
153.3190355005
 10
367.8913957314
 20
159.1535307402
 10
367.712811164
 20
163.5494370191
  0
LINE
  5
2AD
100
AcDbEntity
  8
KONSTRUKTIONSELEMENTE
100
AcDbLine
 62
7
  6
CONTINUOUS
 10
364.019414631
 20
284.5425494132
 11
364.019414631
 21
257.5871258766
  0
LINE
  5
2AE
100
AcDbEntity
  8
KONSTRUKTIONSELEMENTE
100
AcDbLine
 62
7
  6
CONTINUOUS
 10
369.149414631
 20
163.5494370191
 11
369.149414631
 21
172.7921281882
  0
LINE
  5
2AF
100
AcDbEntity
  8
KONSTRUKTIONSELEMENTE
100
AcDbLine
 62
7
  6
CONTINUOUS
 10
369.4120645346
 20
176.4224744645
 11
369.4120645346
 21
171.2484036318
  0
LINE
  5
2B0
100
AcDbEntity
  8
KONSTRUKTIONSELEMENTE
100
AcDbLine
 62
7
  6
CONTINUOUS
 10
372.569414631
 20
203.2888644577
 11
372.569414631
 21
195.0125306311
  0
LWPOLYLINE
  5
2B1
100
AcDbEntity
  8
0
100
AcDbPolyline
 62
7
  6
CONTINUOUS
 90
15
 70
0
 10
366.7729712423
 20
259.0572814039
 10
366.7723052729
 20
258.9908246105
 10
366.7505255606
 20
258.8340207693
 10
366.7007369504
 20
258.678800211
 10
366.6215767356
 20
258.5226112812
 10
366.5102880083
 20
258.3653067637
 10
366.3666623996
 20
258.2116086898
 10
366.1914553024
 20
258.0659729784
 10
365.9873691812
 20
257.9333197944
 10
365.7583733887
 20
257.8180217827
 10
365.5093713186
 20
257.7236250669
 10
365.245923257
 20
257.6528438745
 10
364.9741499105
 20
257.6073804911
 10
364.6999972955
 20
257.5879655047
 10
364.6317417176
 20
257.5871619093
  0
LWPOLYLINE
  5
2B2
100
AcDbEntity
  8
KONSTRUKTIONSELEMENTE
100
AcDbPolyline
 62
7
  6
CONTINUOUS
 90
4
 70
0
 10
372.4551584954
 20
192.7657783343
 10
372.5233672496
 20
193.5702771924
 10
372.5668662643
 20
194.6681344444
 10
372.5694149018
 20
195.013012707
  0
LINE
  5
2B3
100
AcDbEntity
  8
KONSTRUKTIONSELEMENTE
100
AcDbLine
 62
7
  6
CONTINUOUS
 10
372.1342816804
 20
189.6510157298
 11
372.4551812484
 21
192.7659942934
  0
LWPOLYLINE
  5
2B4
100
AcDbEntity
  8
KONSTRUKTIONSELEMENTE
100
AcDbPolyline
 62
7
  6
CONTINUOUS
 90
4
 70
0
 10
371.8246157087
 20
186.8991720062
 10
371.9103298481
 20
187.6177968727
 10
372.0236569487
 20
188.6197467766
 10
372.1342816804
 20
189.6510157298
  0
LWPOLYLINE
  5
2B5
100
AcDbEntity
  8
KONSTRUKTIONSELEMENTE
100
AcDbPolyline
 62
7
  6
CONTINUOUS
 90
3
 70
0
 10
371.7237122582
 20
186.1675152582
 10
371.7915673923
 20
186.6409800214
 10
371.8246157279
 20
186.8991721315
  0
LWPOLYLINE
  5
2B6
100
AcDbEntity
  8
0
100
AcDbPolyline
 62
7
  6
CONTINUOUS
 90
4
 70
0
 10
380.3427461846
 20
238.2736531101
 10
380.3927602351
 20
238.6005788066
 10
380.4274556515
 20
238.9274609836
 10
380.4469168653
 20
239.2536792158
  0
LINE
  5
2B7
100
AcDbEntity
  8
0
100
AcDbLine
 62
7
  6
CONTINUOUS
 10
380.2773924726
 20
237.947289758
 11
380.3427461846
 21
238.2736531101
  0
LINE
  5
2B8
100
AcDbEntity
  8
KONSTRUKTIONSELEMENTE
100
AcDbLine
 62
7
  6
CONTINUOUS
 10
367.3838940087
 20
176.4224744645
 11
365.5096608021
 21
167.9392638359
  0
LINE
  5
2B9
100
AcDbEntity
  8
KONSTRUKTIONSELEMENTE
100
AcDbLine
 62
7
  6
CONTINUOUS
 10
369.084896968
 20
178.8280442643
 11
368.5534238032
 21
176.4224744645
  0
LINE
  5
2BA
100
AcDbEntity
  8
KONSTRUKTIONSELEMENTE
100
AcDbLine
 62
7
  6
CONTINUOUS
 10
371.0455868908
 20
178.8280442643
 11
369.7375282945
 21
172.907470161
  0
LINE
  5
2BB
100
AcDbEntity
  8
KONSTRUKTIONSELEMENTE
100
AcDbLine
 62
7
  6
CONTINUOUS
 10
371.2876121857
 20
178.7286059474
 11
369.7375282945
 21
171.7125696858
  0
LWPOLYLINE
  5
2BC
100
AcDbEntity
  8
KONSTRUKTIONSELEMENTE
100
AcDbPolyline
 62
7
  6
CONTINUOUS
 90
6
 70
0
 10
371.1654865967
 20
183.3519232998
 10
371.3098281475
 20
183.9732672876
 10
371.4349233087
 20
184.5588203386
 10
371.5443327995
 20
185.1162266549
 10
371.6412355737
 20
185.6571250779
 10
371.7237122582
 20
186.1675152582
  0
LWPOLYLINE
  5
2BD
100
AcDbEntity
  8
KONSTRUKTIONSELEMENTE
100
AcDbPolyline
 62
7
  6
CONTINUOUS
 90
3
 70
0
 10
370.0369251699
 20
178.8280442643
 10
370.6227798076
 20
181.1981855207
 10
371.1654865967
 20
183.3519232998
  0
LINE
  5
2BE
100
AcDbEntity
  8
KONSTRUKTIONSELEMENTE
100
AcDbLine
 62
7
  6
CONTINUOUS
 10
367.3838940087
 20
176.4224744645
 11
369.4120645346
 21
176.4224744645
  0
LINE
  5
2BF
100
AcDbEntity
  8
KONSTRUKTIONSELEMENTE
100
AcDbLine
 62
7
  6
CONTINUOUS
 10
382.5959536016
 20
177.8410115461
 11
385.719414631
 21
177.8410115461
  0
LINE
  5
2C0
100
AcDbEntity
  8
KONSTRUKTIONSELEMENTE
100
AcDbLine
 62
7
  6
CONTINUOUS
 10
369.084896968
 20
178.8280442643
 11
371.0455868908
 21
178.8280442643
  0
LINE
  5
2C1
100
AcDbEntity
  8
KONSTRUKTIONSELEMENTE
100
AcDbLine
 62
7
  6
CONTINUOUS
 10
382.4943865799
 20
178.8401505705
 11
385.719414631
 21
178.8401505705
  0
LINE
  5
2C2
100
AcDbEntity
  8
KONSTRUKTIONSELEMENTE
100
AcDbLine
 62
7
  6
CONTINUOUS
 10
382.6346785854
 20
179.5486708398
 11
385.719414631
 21
179.5486708398
  0
LINE
  5
2C3
100
AcDbEntity
  8
KONSTRUKTIONSELEMENTE
100
AcDbLine
 62
7
  6
CONTINUOUS
 10
382.996415857
 20
179.7303998318
 11
385.719414631
 21
179.7303998318
  0
LINE
  5
2C4
100
AcDbEntity
  8
KONSTRUKTIONSELEMENTE
100
AcDbLine
 62
7
  6
CONTINUOUS
 10
383.5971089537
 20
182.5644809091
 11
385.719414631
 21
182.5644809091
  0
LINE
  5
2C5
100
AcDbEntity
  8
KONSTRUKTIONSELEMENTE
100
AcDbLine
 62
7
  6
CONTINUOUS
 10
383.7416099677
 20
182.6423647732
 11
385.719414631
 21
182.6423647732
  0
LINE
  5
2C6
100
AcDbEntity
  8
KONSTRUKTIONSELEMENTE
100
AcDbLine
 62
7
  6
CONTINUOUS
 10
383.3124449073
 20
183.3274447086
 11
385.719414631
 21
183.3274447086
  0
LINE
  5
2C7
100
AcDbEntity
  8
KONSTRUKTIONSELEMENTE
100
AcDbLine
 62
7
  6
CONTINUOUS
 10
383.4232873747
 20
184.0359649779
 11
385.719414631
 21
184.0359649779
  0
LINE
  5
2C8
100
AcDbEntity
  8
KONSTRUKTIONSELEMENTE
100
AcDbLine
 62
7
  6
CONTINUOUS
 10
384.3598062531
 20
184.5422100492
 11
385.719414631
 21
184.5422100492
  0
LINE
  5
2C9
100
AcDbEntity
  8
KONSTRUKTIONSELEMENTE
100
AcDbLine
 62
7
  6
CONTINUOUS
 10
384.3733337073
 20
185.1598657952
 11
385.719414631
 21
185.1598657952
  0
LINE
  5
2CA
100
AcDbEntity
  8
KONSTRUKTIONSELEMENTE
100
AcDbLine
 62
7
  6
CONTINUOUS
 10
383.4898045164
 20
172.563430302
 11
383.2352527836
 21
172.6628686189
  0
LINE
  5
2CB
100
AcDbEntity
  8
0
100
AcDbLine
 62
7
  6
CONTINUOUS
 10
365.654406075
 20
282.7766040627
 11
365.6543997042
 21
282.7767030425
  0
LWPOLYLINE
  5
2CC
100
AcDbEntity
  8
KONSTRUKTIONSELEMENTE
100
AcDbPolyline
 62
7
  6
CONTINUOUS
 90
5
 70
0
 10
372.5694145812
 20
203.2889722539
 10
372.5471204323
 20
203.7919709409
 10
372.4757962763
 20
204.3179502201
 10
372.355607101
 20
204.8381282715
 10
372.302459056
 20
205.0169059812
  0
LINE
  5
2CD
100
AcDbEntity
  8
KONSTRUKTIONSELEMENTE
100
AcDbLine
 62
7
  6
CONTINUOUS
 10
375.419414631
 20
144.0381279455
 11
375.419414631
 21
84.0272948316
  0
LINE
  5
2CE
100
AcDbEntity
  8
KONSTRUKTIONSELEMENTE
100
AcDbLine
 62
7
  6
CONTINUOUS
 10
375.419414631
 20
73.0999567501
 11
375.419414631
 21
83.8726388032
  0
LINE
  5
2CF
100
AcDbEntity
  8
KONSTRUKTIONSELEMENTE
100
AcDbLine
 62
7
  6
CONTINUOUS
 10
380.719414631
 20
260.3600423444
 11
380.719414631
 21
271.5558224319
  0
LINE
  5
2D0
100
AcDbEntity
  8
0
100
AcDbLine
 62
7
  6
CONTINUOUS
 10
381.7711814272
 20
165.0478540527
 11
381.7711814272
 21
160.0239970687
  0
LWPOLYLINE
  5
2D1
100
AcDbEntity
  8
0
100
AcDbPolyline
 62
7
  6
CONTINUOUS
 90
8
 70
0
 10
380.6901806899
 20
253.9969801351
 10
380.6963434333
 20
254.5905723729
 10
380.6964593249
 20
255.3932231732
 10
380.6894220791
 20
256.2657529353
 10
380.6760687667
 20
257.1913616846
 10
380.6571996806
 20
258.1548719588
 10
380.6335786339
 20
259.1418002332
 10
380.6000644443
 20
260.3276931446
  0
LINE
  5
2D2
100
AcDbEntity
  8
0
100
AcDbLine
 62
7
  6
CONTINUOUS
 10
380.449784211
 20
239.3963987569
 11
380.6887083331
 21
253.9983767919
  0
LINE
  5
2D3
100
AcDbEntity
  8
0
100
AcDbLine
 62
7
  6
CONTINUOUS
 10
380.4469168653
 20
239.2536792158
 11
380.4506674406
 21
239.3953958089
  0
LWPOLYLINE
  5
2D4
100
AcDbEntity
  8
KONSTRUKTIONSELEMENTE
100
AcDbPolyline
 62
7
  6
CONTINUOUS
 90
7
 70
0
 10
384.7631840563
 20
188.3184309137
 10
384.7896861296
 20
188.6897930881
 10
384.8333312158
 20
189.392725592
 10
384.8691843498
 20
190.116815551
 10
384.8961983268
 20
190.86197345
 10
384.9132970661
 20
191.6280201622
 10
384.918483317
 20
192.1182479894
  0
LINE
  5
2D5
100
AcDbEntity
  8
KONSTRUKTIONSELEMENTE
100
AcDbLine
 62
7
  6
CONTINUOUS
 10
384.7071622653
 20
187.6198744927
 11
384.7631907256
 21
188.3184247236
  0
LINE
  5
2D6
100
AcDbEntity
  8
KONSTRUKTIONSELEMENTE
100
AcDbLine
 62
7
  6
CONTINUOUS
 10
384.7071606111
 20
187.6198745271
 11
384.7076413382
 21
187.625445641
  0
LINE
  5
2D7
100
AcDbEntity
  8
KONSTRUKTIONSELEMENTE
100
AcDbLine
 62
7
  6
CONTINUOUS
 10
384.4580537919
 20
185.2637080795
 11
384.5082697091
 21
185.6891793901
  0
LINE
  5
2D8
100
AcDbEntity
  8
KONSTRUKTIONSELEMENTE
100
AcDbLine
 62
7
  6
CONTINUOUS
 10
384.065721149
 20
182.6423647732
 11
384.180059026
 21
183.3274447086
  0
LINE
  5
2D9
100
AcDbEntity
  8
0
100
AcDbLine
 62
7
  6
CONTINUOUS
 10
375.8285902048
 20
142.5302528225
 11
375.8287302136
 21
142.5309569612
  0
LINE
  5
2DA
100
AcDbEntity
  8
KONSTRUKTIONSELEMENTE
100
AcDbLine
 62
7
  6
CONTINUOUS
 10
375.8285902048
 20
142.5302528225
 11
378.8808103582
 21
157.3842613737
  0
LINE
  5
2DB
100
AcDbEntity
  8
KONSTRUKTIONSELEMENTE
100
AcDbLine
 62
7
  6
CONTINUOUS
 10
382.0394214174
 20
172.6628686189
 11
383.1176093996
 21
177.8410115461
  0
LINE
  5
2DC
100
AcDbEntity
  8
KONSTRUKTIONSELEMENTE
100
AcDbLine
 62
7
  6
CONTINUOUS
 10
383.5971089537
 20
182.5644809091
 11
382.996415857
 21
179.7303998318
  0
LINE
  5
2DD
100
AcDbEntity
  8
KONSTRUKTIONSELEMENTE
100
AcDbLine
 62
7
  6
CONTINUOUS
 10
382.8077245066
 20
178.8401505705
 11
382.5959536016
 21
177.8410115461
  0
LINE
  5
2DE
100
AcDbEntity
  8
0
100
AcDbLine
 62
7
  6
CONTINUOUS
 10
383.7859357928
 20
168.9895741909
 11
381.7711814272
 21
160.0239970687
  0
LINE
  5
2DF
100
AcDbEntity
  8
KONSTRUKTIONSELEMENTE
100
AcDbLine
 62
7
  6
CONTINUOUS
 10
377.7410557657
 20
157.4836996906
 11
381.2682280408
 21
172.6628686189
  0
LINE
  5
2E0
100
AcDbEntity
  8
KONSTRUKTIONSELEMENTE
100
AcDbLine
 62
7
  6
CONTINUOUS
 10
383.2352527836
 20
172.6628686189
 11
379.7080805085
 21
157.4836996906
  0
LINE
  5
2E1
100
AcDbEntity
  8
KONSTRUKTIONSELEMENTE
100
AcDbLine
 62
7
  6
CONTINUOUS
 10
379.9626322413
 20
157.3842613737
 11
383.4898045164
 21
172.563430302
  0
LINE
  5
2E2
100
AcDbEntity
  8
0
100
AcDbLine
 62
7
  6
CONTINUOUS
 10
383.7859357928
 20
168.9895741909
 11
381.7711814272
 21
165.0478540527
  0
LINE
  5
2E3
100
AcDbEntity
  8
KONSTRUKTIONSELEMENTE
100
AcDbLine
 62
7
  6
CONTINUOUS
 10
384.4580293902
 20
185.2637109595
 11
385.719414631
 21
185.2637109595
  0
LINE
  5
2E4
100
AcDbEntity
  8
KONSTRUKTIONSELEMENTE
100
AcDbLine
 62
7
  6
CONTINUOUS
 10
383.6319953459
 20
185.6891793901
 11
385.719414631
 21
185.6891793901
  0
LINE
  5
2E5
100
AcDbEntity
  8
KONSTRUKTIONSELEMENTE
100
AcDbLine
 62
7
  6
CONTINUOUS
 10
383.7014278594
 20
186.3976996594
 11
385.719414631
 21
186.3976996594
  0
LINE
  5
2E6
100
AcDbEntity
  8
KONSTRUKTIONSELEMENTE
100
AcDbLine
 62
7
  6
CONTINUOUS
 10
384.640083686
 20
186.9039447307
 11
385.719414631
 21
186.9039447307
  0
LINE
  5
2E7
100
AcDbEntity
  8
KONSTRUKTIONSELEMENTE
100
AcDbLine
 62
7
  6
CONTINUOUS
 10
384.6459275432
 20
187.5216004768
 11
385.719414631
 21
187.5216004768
  0
LINE
  5
2E8
100
AcDbEntity
  8
KONSTRUKTIONSELEMENTE
100
AcDbLine
 62
7
  6
CONTINUOUS
 10
384.7076413382
 20
187.625445641
 11
385.719414631
 21
187.625445641
  0
LINE
  5
2E9
100
AcDbEntity
  8
KONSTRUKTIONSELEMENTE
100
AcDbLine
 62
7
  6
CONTINUOUS
 10
383.8854556194
 20
193.7190748748
 11
385.719414631
 21
193.7190748748
  0
LINE
  5
2EA
100
AcDbEntity
  8
KONSTRUKTIONSELEMENTE
100
AcDbLine
 62
7
  6
CONTINUOUS
 10
383.8638072625
 20
194.4275951441
 11
385.719414631
 21
194.4275951441
  0
LINE
  5
2EB
100
AcDbEntity
  8
KONSTRUKTIONSELEMENTE
100
AcDbLine
 62
7
  6
CONTINUOUS
 10
371.2876121857
 20
178.7286059474
 11
371.0455868908
 21
178.8280442643
  0
LWPOLYLINE
  5
2EC
100
AcDbEntity
  8
0
100
AcDbPolyline
 62
7
  6
CONTINUOUS
 90
3
 70
0
 10
380.0686966464
 20
271.730184712
 10
380.0553354403
 20
271.9429908259
 10
378.931400651
 20
288.197123541
  0
LWPOLYLINE
  5
2ED
100
AcDbEntity
  8
KONSTRUKTIONSELEMENTE
100
AcDbPolyline
 62
7
  6
CONTINUOUS
 90
7
 70
0
 10
384.9194197743
 20
270.0402294939
 10
384.9125329192
 20
270.4044209796
 10
384.8568738402
 20
271.1419716076
 10
384.7450505402
 20
271.8813010512
 10
384.5772054024
 20
272.6163954475
 10
384.3535245332
 20
273.341910644
 10
384.1978562388
 20
273.7573939072
  0
LINE
  5
2EE
100
AcDbEntity
  8
KONSTRUKTIONSELEMENTE
100
AcDbLine
 62
7
  6
CONTINUOUS
 10
384.919414631
 20
197.7340232928
 11
384.919414631
 21
198.6787174357
  0
LINE
  5
2EF
100
AcDbEntity
  8
KONSTRUKTIONSELEMENTE
100
AcDbLine
 62
7
  6
CONTINUOUS
 10
384.919414631
 20
202.6132596902
 11
384.919414631
 21
203.4021857852
  0
LINE
  5
2F0
100
AcDbEntity
  8
KONSTRUKTIONSELEMENTE
100
AcDbLine
 62
7
  6
CONTINUOUS
 10
384.919414631
 20
204.2880030724
 11
384.919414631
 21
205.2915730575
  0
LINE
  5
2F1
100
AcDbEntity
  8
KONSTRUKTIONSELEMENTE
100
AcDbLine
 62
7
  6
CONTINUOUS
 10
384.919414631
 20
206.1842927841
 11
384.919414631
 21
207.1809604564
  0
LINE
  5
2F2
100
AcDbEntity
  8
KONSTRUKTIONSELEMENTE
100
AcDbLine
 62
7
  6
CONTINUOUS
 10
384.919414631
 20
208.0805824957
 11
384.919414631
 21
270.0396814162
  0
LINE
  5
2F3
100
AcDbEntity
  8
KONSTRUKTIONSELEMENTE
100
AcDbLine
 62
7
  6
CONTINUOUS
 10
385.719414631
 20
208.1867745481
 11
385.719414631
 21
203.4021857852
  0
LINE
  5
2F4
100
AcDbEntity
  8
KONSTRUKTIONSELEMENTE
100
AcDbLine
 62
7
  6
CONTINUOUS
 10
385.719414631
 20
202.7690274003
 11
385.719414631
 21
198.6787174357
  0
LINE
  5
2F5
100
AcDbEntity
  8
KONSTRUKTIONSELEMENTE
100
AcDbLine
 62
7
  6
CONTINUOUS
 10
385.719414631
 20
198.1494038408
 11
385.719414631
 21
193.7190748748
  0
LINE
  5
2F6
100
AcDbEntity
  8
KONSTRUKTIONSELEMENTE
100
AcDbLine
 62
7
  6
CONTINUOUS
 10
385.719414631
 20
187.625445641
 11
385.719414631
 21
185.6891793901
  0
LINE
  5
2F7
100
AcDbEntity
  8
KONSTRUKTIONSELEMENTE
100
AcDbLine
 62
7
  6
CONTINUOUS
 10
385.719414631
 20
185.2637109595
 11
385.719414631
 21
183.3274447086
  0
LINE
  5
2F8
100
AcDbEntity
  8
KONSTRUKTIONSELEMENTE
100
AcDbLine
 62
7
  6
CONTINUOUS
 10
385.719414631
 20
182.6423647732
 11
385.719414631
 21
177.8410115461
  0
LINE
  5
2F9
100
AcDbEntity
  8
KONSTRUKTIONSELEMENTE
100
AcDbLine
 62
7
  6
CONTINUOUS
 10
384.9190516991
 20
192.2356121145
 11
384.919414631
 21
193.7190748748
  0
LINE
  5
2FA
100
AcDbEntity
  8
KONSTRUKTIONSELEMENTE
100
AcDbLine
 62
7
  6
CONTINUOUS
 10
384.9184840555
 20
192.1182845111
 11
384.9190516991
 21
192.2356121145
  0
LINE
  5
2FB
100
AcDbEntity
  8
KONSTRUKTIONSELEMENTE
100
AcDbLine
 62
7
  6
CONTINUOUS
 10
369.5716566182
 20
62.5885118789
 11
366.5248400903
 21
47.7352813058
  0
LINE
  5
2FC
100
AcDbEntity
  8
KONSTRUKTIONSELEMENTE
100
AcDbLine
 62
7
  6
CONTINUOUS
 10
363.0404807547
 20
30.7490295445
 11
361.5960463473
 21
23.7074118085
  0
LWPOLYLINE
  5
2FD
100
AcDbEntity
  8
KONSTRUKTIONSELEMENTE
100
AcDbPolyline
 62
7
  6
CONTINUOUS
 90
15
 70
0
 10
369.5716570886
 20
62.5885143771
 10
369.5732969596
 20
62.5956017554
 10
369.5765818892
 20
62.6087394486
 10
369.5822277036
 20
62.6294894916
 10
369.5908448405
 20
62.6584043351
 10
369.6035790683
 20
62.6971366293
 10
369.6215866647
 20
62.7463956743
 10
369.6471302559
 20
62.8086587534
 10
369.6827120425
 20
62.8851056952
 10
369.7323996528
 20
62.9780184498
 10
369.8020301324
 20
63.089532889
 10
369.8952219481
 20
63.2152350464
 10
370.0183189035
 20
63.352518343
 10
370.1705550521
 20
63.4900250945
 10
370.313038119
 20
63.5943795752
  0
LINE
  5
2FE
100
AcDbEntity
  8
KONSTRUKTIONSELEMENTE
100
AcDbLine
 62
7
  6
CONTINUOUS
 10
384.7889687307
 20
195.8952977727
 11
385.719414631
 21
195.8952977727
  0
LINE
  5
2FF
100
AcDbEntity
  8
KONSTRUKTIONSELEMENTE
100
AcDbLine
 62
7
  6
CONTINUOUS
 10
383.7731682853
 20
197.0255030235
 11
385.719414631
 21
197.0255030235
  0
LINE
  5
300
100
AcDbEntity
  8
KONSTRUKTIONSELEMENTE
100
AcDbLine
 62
7
  6
CONTINUOUS
 10
383.7474760578
 20
197.7340232928
 11
385.719414631
 21
197.7340232928
  0
LINE
  5
301
100
AcDbEntity
  8
KONSTRUKTIONSELEMENTE
100
AcDbLine
 62
7
  6
CONTINUOUS
 10
384.919414631
 20
198.1494038408
 11
385.719414631
 21
198.1494038408
  0
LINE
  5
302
100
AcDbEntity
  8
KONSTRUKTIONSELEMENTE
100
AcDbLine
 62
7
  6
CONTINUOUS
 10
383.7125434578
 20
198.6787174357
 11
385.719414631
 21
198.6787174357
  0
LINE
  5
303
100
AcDbEntity
  8
KONSTRUKTIONSELEMENTE
100
AcDbLine
 62
7
  6
CONTINUOUS
 10
383.690308876
 20
199.2691507682
 11
385.719414631
 21
199.2691507682
  0
LINE
  5
304
100
AcDbEntity
  8
KONSTRUKTIONSELEMENTE
100
AcDbLine
 62
7
  6
CONTINUOUS
 10
383.9346923774
 20
199.4131989893
 11
385.719414631
 21
199.4131989893
  0
LINE
  5
305
100
AcDbEntity
  8
KONSTRUKTIONSELEMENTE
100
AcDbLine
 62
7
  6
CONTINUOUS
 10
384.2362545169
 20
199.5702271802
 11
385.719414631
 21
199.5702271802
  0
LINE
  5
306
100
AcDbEntity
  8
KONSTRUKTIONSELEMENTE
100
AcDbLine
 62
7
  6
CONTINUOUS
 10
384.0375590083
 20
199.6623528304
 11
385.719414631
 21
199.6623528304
  0
LINE
  5
307
100
AcDbEntity
  8
KONSTRUKTIONSELEMENTE
100
AcDbLine
 62
7
  6
CONTINUOUS
 10
383.7946312895
 20
199.9906516797
 11
385.719414631
 21
199.9906516797
  0
LINE
  5
308
100
AcDbEntity
  8
KONSTRUKTIONSELEMENTE
100
AcDbLine
 62
7
  6
CONTINUOUS
 10
383.6402715196
 20
200.5681043701
 11
385.719414631
 21
200.5681043701
  0
LINE
  5
309
100
AcDbEntity
  8
KONSTRUKTIONSELEMENTE
100
AcDbLine
 62
7
  6
CONTINUOUS
 10
383.6123096849
 20
201.2766246394
 11
385.719414631
 21
201.2766246394
  0
LINE
  5
30A
100
AcDbEntity
  8
KONSTRUKTIONSELEMENTE
100
AcDbLine
 62
7
  6
CONTINUOUS
 10
383.7305010853
 20
201.761952353
 11
385.719414631
 21
201.761952353
  0
LINE
  5
30B
100
AcDbEntity
  8
KONSTRUKTIONSELEMENTE
100
AcDbLine
 62
7
  6
CONTINUOUS
 10
383.8484612126
 20
202.011106193
 11
385.719414631
 21
202.011106193
  0
LINE
  5
30C
100
AcDbEntity
  8
KONSTRUKTIONSELEMENTE
100
AcDbLine
 62
7
  6
CONTINUOUS
 10
384.1622229351
 20
202.4043085953
 11
385.719414631
 21
202.4043085953
  0
LINE
  5
30D
100
AcDbEntity
  8
KONSTRUKTIONSELEMENTE
100
AcDbLine
 62
7
  6
CONTINUOUS
 10
384.4858473719
 20
202.5743177673
 11
385.719414631
 21
202.5743177673
  0
LINE
  5
30E
100
AcDbEntity
  8
KONSTRUKTIONSELEMENTE
100
AcDbLine
 62
7
  6
CONTINUOUS
 10
384.6641326393
 20
202.6132596902
 11
385.719414631
 21
202.6132596902
  0
LINE
  5
30F
100
AcDbEntity
  8
KONSTRUKTIONSELEMENTE
100
AcDbLine
 62
7
  6
CONTINUOUS
 10
384.919414631
 20
202.7690274003
 11
385.719414631
 21
202.7690274003
  0
LINE
  5
310
100
AcDbEntity
  8
KONSTRUKTIONSELEMENTE
100
AcDbLine
 62
7
  6
CONTINUOUS
 10
384.919414631
 20
202.7949886823
 11
385.719414631
 21
202.7949886823
  0
LINE
  5
311
100
AcDbEntity
  8
KONSTRUKTIONSELEMENTE
100
AcDbLine
 62
7
  6
CONTINUOUS
 10
383.5254535844
 20
203.4021857852
 11
385.719414631
 21
203.4021857852
  0
LINE
  5
312
100
AcDbEntity
  8
KONSTRUKTIONSELEMENTE
100
AcDbLine
 62
7
  6
CONTINUOUS
 10
383.5005029272
 20
203.9926191178
 11
385.719414631
 21
203.9926191178
  0
LINE
  5
313
100
AcDbEntity
  8
KONSTRUKTIONSELEMENTE
100
AcDbLine
 62
7
  6
CONTINUOUS
 10
384.919414631
 20
204.3041545379
 11
385.719414631
 21
204.3041545379
  0
LINE
  5
314
100
AcDbEntity
  8
KONSTRUKTIONSELEMENTE
100
AcDbLine
 62
7
  6
CONTINUOUS
 10
384.919414631
 20
204.4482027566
 11
385.719414631
 21
204.4482027566
  0
LINE
  5
315
100
AcDbEntity
  8
KONSTRUKTIONSELEMENTE
100
AcDbLine
 62
7
  6
CONTINUOUS
 10
384.919414631
 20
204.5792699966
 11
385.719414631
 21
204.5792699966
  0
LINE
  5
316
100
AcDbEntity
  8
KONSTRUKTIONSELEMENTE
100
AcDbLine
 62
7
  6
CONTINUOUS
 10
384.919414631
 20
204.8284241733
 11
385.719414631
 21
204.8284241733
  0
LINE
  5
317
100
AcDbEntity
  8
KONSTRUKTIONSELEMENTE
100
AcDbLine
 62
7
  6
CONTINUOUS
 10
384.919414631
 20
205.1826843079
 11
385.719414631
 21
205.1826843079
  0
LINE
  5
318
100
AcDbEntity
  8
KONSTRUKTIONSELEMENTE
100
AcDbLine
 62
7
  6
CONTINUOUS
 10
383.4442854114
 20
205.2915730575
 11
385.719414631
 21
205.2915730575
  0
LINE
  5
319
100
AcDbEntity
  8
KONSTRUKTIONSELEMENTE
100
AcDbLine
 62
7
  6
CONTINUOUS
 10
383.4181093399
 20
205.8820065589
 11
385.719414631
 21
205.8820065589
  0
LINE
  5
31A
100
AcDbEntity
  8
KONSTRUKTIONSELEMENTE
100
AcDbLine
 62
7
  6
CONTINUOUS
 10
384.919414631
 20
206.193541979
 11
385.719414631
 21
206.193541979
  0
LWPOLYLINE
  5
31B
100
AcDbEntity
  8
KONSTRUKTIONSELEMENTE
100
AcDbPolyline
 62
7
  6
CONTINUOUS
 90
20
 70
0
 10
372.0415909517
 20
205.6945401858
 10
371.554505546
 20
206.7269623315
 10
370.9540795615
 20
207.9320761147
 10
370.3536740768
 20
209.0688037405
 10
369.7583674149
 20
210.1326441207
 10
369.1721643313
 20
211.1210669399
 10
368.598148567
 20
212.0330356852
 10
368.0387052993
 20
212.86850281
 10
367.4956527089
 20
213.6281356613
 10
366.9702918476
 20
214.3131958427
 10
366.4625853558
 20
214.9264425204
 10
365.9722664275
 20
215.4704897175
 10
365.4971281578
 20
215.9495023292
 10
365.0348811518
 20
216.3667695058
 10
364.5804766626
 20
216.7267635152
 10
364.1285338433
 20
217.0321609816
 10
363.671987448
 20
217.2842862949
 10
363.202032462
 20
217.4818742915
 10
362.7166644123
 20
217.6174955087
 10
362.5615298164
 20
217.6457645178
  0
LINE
  5
31C
100
AcDbEntity
  8
KONSTRUKTIONSELEMENTE
100
AcDbLine
 62
7
  6
CONTINUOUS
 10
372.0416716879
 20
205.6943645064
 11
372.0415909613
 21
205.6945401892
  0
LWPOLYLINE
  5
31D
100
AcDbEntity
  8
KONSTRUKTIONSELEMENTE
100
AcDbPolyline
 62
7
  6
CONTINUOUS
 90
5
 70
0
 10
372.3023664776
 20
205.0171989779
 10
372.2542472243
 20
205.1633665368
 10
372.1756845252
 20
205.3780310994
 10
372.0881817222
 20
205.5904984106
 10
372.0416716879
 20
205.6943645064
  0
LINE
  5
31E
100
AcDbEntity
  8
KONSTRUKTIONSELEMENTE
100
AcDbLine
 62
7
  6
CONTINUOUS
 10
372.302459056
 20
205.0169059812
 11
372.3023668741
 21
205.0171986368
  0
LINE
  5
31F
100
AcDbEntity
  8
KONSTRUKTIONSELEMENTE
100
AcDbLine
 62
7
  6
CONTINUOUS
 10
384.919414631
 20
206.3375900289
 11
385.719414631
 21
206.3375900289
  0
LINE
  5
320
100
AcDbEntity
  8
KONSTRUKTIONSELEMENTE
100
AcDbLine
 62
7
  6
CONTINUOUS
 10
384.919414631
 20
206.4686574377
 11
385.719414631
 21
206.4686574377
  0
LINE
  5
321
100
AcDbEntity
  8
KONSTRUKTIONSELEMENTE
100
AcDbLine
 62
7
  6
CONTINUOUS
 10
384.919414631
 20
206.7178114455
 11
385.719414631
 21
206.7178114455
  0
LINE
  5
322
100
AcDbEntity
  8
KONSTRUKTIONSELEMENTE
100
AcDbLine
 62
7
  6
CONTINUOUS
 10
384.919414631
 20
206.9539848968
 11
385.719414631
 21
206.9539848968
  0
LINE
  5
323
100
AcDbEntity
  8
KONSTRUKTIONSELEMENTE
100
AcDbLine
 62
7
  6
CONTINUOUS
 10
383.3590914179
 20
207.1809604564
 11
385.719414631
 21
207.1809604564
  0
LINE
  5
324
100
AcDbEntity
  8
KONSTRUKTIONSELEMENTE
100
AcDbLine
 62
7
  6
CONTINUOUS
 10
383.3315916701
 20
207.7713940001
 11
385.719414631
 21
207.7713940001
  0
LINE
  5
325
100
AcDbEntity
  8
KONSTRUKTIONSELEMENTE
100
AcDbLine
 62
7
  6
CONTINUOUS
 10
384.919414631
 20
208.1867745481
 11
385.719414631
 21
208.1867745481
  0
LINE
  5
326
100
AcDbEntity
  8
BEZUGSACHSEN
100
AcDbLine
 62
7
  6
CONTINUOUS
 10
410.719414631
 20
308.7496569647
 11
410.719414631
 21
16.7496569647
  0
LWPOLYLINE
  5
327
100
AcDbEntity
  8
0
100
AcDbPolyline
 62
7
  6
CONTINUOUS
 90
20
 70
0
 10
338.8773087918
 20
217.645765995
 10
338.7207002371
 20
217.6171933623
 10
338.2344568807
 20
217.4810500957
 10
337.7636218547
 20
217.2827129061
 10
337.3062737782
 20
217.0296840539
 10
336.8535836994
 20
216.7232553896
 10
336.3985007156
 20
216.3621452815
 10
335.9357010233
 20
215.9437626937
 10
335.4602370062
 20
215.4637851702
 10
334.9697886767
 20
214.918957605
 10
334.4621599103
 20
214.3051822469
 10
333.937068447
 20
213.6198786943
 10
333.3944620902
 20
212.8603139421
 10
332.8356217061
 20
212.0252394691
 10
332.262338906
 20
211.1139844254
 10
331.6769669099
 20
210.1265767703
 10
331.0825516105
 20
209.0640151158
 10
330.4830562963
 20
207.9287759264
 10
329.8834992827
 20
206.7252578574
 10
329.397238344
 20
205.6945402591
  0
LINE
  5
328
100
AcDbEntity
  8
0
100
AcDbLine
 62
7
  6
CONTINUOUS
 10
338.8755295862
 20
217.6454842402
 11
350.719414631
 21
219.5213713443
  0
LINE
  5
329
100
AcDbEntity
  8
KONSTRUKTIONSELEMENTE
100
AcDbLine
 62
7
  6
CONTINUOUS
 10
350.719414631
 20
219.5213713443
 11
362.5632996757
 21
217.6454842402
  0
LINE
  5
32A
100
AcDbEntity
  8
KONSTRUKTIONSELEMENTE
100
AcDbLine
 62
7
  6
CONTINUOUS
 10
380.5625590989
 20
284.910158879
 11
378.8503537584
 21
292.2668998696
  0
LWPOLYLINE
  5
32B
100
AcDbEntity
  8
KONSTRUKTIONSELEMENTE
100
AcDbPolyline
 62
7
  6
CONTINUOUS
 90
4
 70
0
 10
378.8503442638
 20
292.2669143212
 10
378.6912312902
 20
292.9725404419
 10
378.4920954032
 20
293.9255394475
 10
378.3338982952
 20
294.7496569647
  0
LINE
  5
32C
100
AcDbEntity
  8
KONSTRUKTIONSELEMENTE
100
AcDbLine
 62
7
  6
CONTINUOUS
 10
346.069414631
 20
228.4390245695
 11
355.419414631
 21
228.4390245695
  0
LINE
  5
32D
100
AcDbEntity
  8
KONSTRUKTIONSELEMENTE
100
AcDbLine
 62
7
  6
CONTINUOUS
 10
346.069414631
 20
228.8163793596
 11
355.419414631
 21
228.8163793596
  0
LINE
  5
32E
100
AcDbEntity
  8
KONSTRUKTIONSELEMENTE
100
AcDbLine
 62
7
  6
CONTINUOUS
 10
354.139414631
 20
230.6287424272
 11
351.599414631
 21
230.6287424272
  0
LINE
  5
32F
100
AcDbEntity
  8
KONSTRUKTIONSELEMENTE
100
AcDbLine
 62
7
  6
CONTINUOUS
 10
349.889414631
 20
230.6287424272
 11
347.349414631
 21
230.6287424272
  0
LINE
  5
330
100
AcDbEntity
  8
KONSTRUKTIONSELEMENTE
100
AcDbLine
 62
7
  6
CONTINUOUS
 10
347.729414631
 20
230.6712654156
 11
349.509414631
 21
230.6712654156
  0
LINE
  5
331
100
AcDbEntity
  8
KONSTRUKTIONSELEMENTE
100
AcDbLine
 62
7
  6
CONTINUOUS
 10
351.979414631
 20
230.6712654156
 11
353.759414631
 21
230.6712654156
  0
LINE
  5
332
100
AcDbEntity
  8
KONSTRUKTIONSELEMENTE
100
AcDbLine
 62
7
  6
CONTINUOUS
 10
347.729414631
 20
231.0486202057
 11
349.509414631
 21
231.0486202057
  0
LINE
  5
333
100
AcDbEntity
  8
KONSTRUKTIONSELEMENTE
100
AcDbLine
 62
7
  6
CONTINUOUS
 10
351.979414631
 20
231.0486202057
 11
353.759414631
 21
231.0486202057
  0
LINE
  5
334
100
AcDbEntity
  8
KONSTRUKTIONSELEMENTE
100
AcDbLine
 62
7
  6
CONTINUOUS
 10
352.069414631
 20
231.3971515649
 11
351.809414631
 21
231.3971515649
  0
LINE
  5
335
100
AcDbEntity
  8
KONSTRUKTIONSELEMENTE
100
AcDbLine
 62
7
  6
CONTINUOUS
 10
351.169414631
 20
231.3971515649
 11
350.319414631
 21
231.3971515649
  0
LINE
  5
336
100
AcDbEntity
  8
KONSTRUKTIONSELEMENTE
100
AcDbLine
 62
7
  6
CONTINUOUS
 10
349.679414631
 20
231.3971515649
 11
349.419414631
 21
231.3971515649
  0
LINE
  5
337
100
AcDbEntity
  8
KONSTRUKTIONSELEMENTE
100
AcDbLine
 62
7
  6
CONTINUOUS
 10
349.419414631
 20
231.4380344058
 11
349.679414631
 21
231.4380344058
  0
LINE
  5
338
100
AcDbEntity
  8
KONSTRUKTIONSELEMENTE
100
AcDbLine
 62
7
  6
CONTINUOUS
 10
350.319414631
 20
231.4380344058
 11
351.169414631
 21
231.4380344058
  0
LINE
  5
339
100
AcDbEntity
  8
KONSTRUKTIONSELEMENTE
100
AcDbLine
 62
7
  6
CONTINUOUS
 10
351.809414631
 20
231.4380344058
 11
352.069414631
 21
231.4380344058
  0
LINE
  5
33A
100
AcDbEntity
  8
KONSTRUKTIONSELEMENTE
100
AcDbLine
 62
7
  6
CONTINUOUS
 10
349.419414631
 20
231.8153891959
 11
349.679414631
 21
231.8153891959
  0
LINE
  5
33B
100
AcDbEntity
  8
KONSTRUKTIONSELEMENTE
100
AcDbLine
 62
7
  6
CONTINUOUS
 10
350.319414631
 20
231.8153891959
 11
351.169414631
 21
231.8153891959
  0
LINE
  5
33C
100
AcDbEntity
  8
KONSTRUKTIONSELEMENTE
100
AcDbLine
 62
7
  6
CONTINUOUS
 10
351.809414631
 20
231.8153891959
 11
352.069414631
 21
231.8153891959
  0
LINE
  5
33D
100
AcDbEntity
  8
KONSTRUKTIONSELEMENTE
100
AcDbLine
 62
7
  6
CONTINUOUS
 10
353.759414631
 20
232.163920555
 11
351.979414631
 21
232.163920555
  0
LINE
  5
33E
100
AcDbEntity
  8
KONSTRUKTIONSELEMENTE
100
AcDbLine
 62
7
  6
CONTINUOUS
 10
349.509414631
 20
232.163920555
 11
347.729414631
 21
232.163920555
  0
LINE
  5
33F
100
AcDbEntity
  8
KONSTRUKTIONSELEMENTE
100
AcDbLine
 62
7
  6
CONTINUOUS
 10
347.349414631
 20
232.2064435435
 11
349.889414631
 21
232.2064435435
  0
LINE
  5
340
100
AcDbEntity
  8
KONSTRUKTIONSELEMENTE
100
AcDbLine
 62
7
  6
CONTINUOUS
 10
351.599414631
 20
232.2064435435
 11
354.139414631
 21
232.2064435435
  0
LINE
  5
341
100
AcDbEntity
  8
KONSTRUKTIONSELEMENTE
100
AcDbLine
 62
7
  6
CONTINUOUS
 10
347.349414631
 20
232.5837983336
 11
349.889414631
 21
232.5837983336
  0
LINE
  5
342
100
AcDbEntity
  8
KONSTRUKTIONSELEMENTE
100
AcDbLine
 62
7
  6
CONTINUOUS
 10
351.599414631
 20
232.5837983336
 11
354.139414631
 21
232.5837983336
  0
LINE
  5
343
100
AcDbEntity
  8
KONSTRUKTIONSELEMENTE
100
AcDbLine
 62
7
  6
CONTINUOUS
 10
355.419414631
 20
234.392881106
 11
346.069414631
 21
234.392881106
  0
LINE
  5
344
100
AcDbEntity
  8
KONSTRUKTIONSELEMENTE
100
AcDbLine
 62
7
  6
CONTINUOUS
 10
345.219414631
 20
235.7818314282
 11
346.7613756525
 21
235.7818314282
  0
LINE
  5
345
100
AcDbEntity
  8
KONSTRUKTIONSELEMENTE
100
AcDbLine
 62
7
  6
CONTINUOUS
 10
347.9513756525
 20
235.7818314282
 11
356.5313756525
 21
235.7818314282
  0
LINE
  5
346
100
AcDbEntity
  8
KONSTRUKTIONSELEMENTE
100
AcDbLine
 62
7
  6
CONTINUOUS
 10
345.219414631
 20
236.1591862183
 11
346.7613756525
 21
236.1591862183
  0
LINE
  5
347
100
AcDbEntity
  8
KONSTRUKTIONSELEMENTE
100
AcDbLine
 62
7
  6
CONTINUOUS
 10
347.9513756525
 20
236.1591862183
 11
356.5313756525
 21
236.1591862183
  0
LINE
  5
348
100
AcDbEntity
  8
KONSTRUKTIONSELEMENTE
100
AcDbLine
 62
7
  6
CONTINUOUS
 10
356.5313756525
 20
237.0514264978
 11
350.719414631
 21
237.0514264978
  0
LINE
  5
349
100
AcDbEntity
  8
KONSTRUKTIONSELEMENTE
100
AcDbLine
 62
7
  6
CONTINUOUS
 10
349.359414631
 20
237.0514264978
 11
347.9513756525
 21
237.0514264978
  0
LWPOLYLINE
  5
34A
100
AcDbEntity
  8
KONSTRUKTIONSELEMENTE
100
AcDbPolyline
 62
7
  6
CONTINUOUS
 90
9
 70
0
 10
384.1978522406
 20
273.7573885602
 10
383.6505123046
 20
275.153489529
 10
383.0377455758
 20
276.7910113703
 10
382.4802218384
 20
278.365341725
 10
381.9780341976
 20
279.8715440516
 10
381.5308851454
 20
281.3052115756
 10
381.1381314011
 20
282.6623096399
 10
380.798784647
 20
283.9390634461
 10
380.5625598522
 20
284.9101590542
  0
LINE
  5
34B
100
AcDbEntity
  8
KONSTRUKTIONSELEMENTE
100
AcDbLine
 62
7
  6
CONTINUOUS
 10
345.219414631
 20
242.4736335239
 11
352.1898313451
 21
242.4736335239
  0
LINE
  5
34C
100
AcDbEntity
  8
KONSTRUKTIONSELEMENTE
100
AcDbLine
 62
7
  6
CONTINUOUS
 10
345.219414631
 20
242.850988314
 11
352.1898313451
 21
242.850988314
  0
LINE
  5
34D
100
AcDbEntity
  8
KONSTRUKTIONSELEMENTE
100
AcDbLine
 62
7
  6
CONTINUOUS
 10
352.1898313451
 20
243.7432285935
 11
345.219414631
 21
243.7432285935
  0
LINE
  5
34E
100
AcDbEntity
  8
KONSTRUKTIONSELEMENTE
100
AcDbLine
 62
7
  6
CONTINUOUS
 10
345.219414631
 20
246.9157748219
 11
352.1898313451
 21
246.9157748219
  0
LINE
  5
34F
100
AcDbEntity
  8
KONSTRUKTIONSELEMENTE
100
AcDbLine
 62
7
  6
CONTINUOUS
 10
345.219414631
 20
247.293129612
 11
352.1898313451
 21
247.293129612
  0
LINE
  5
350
100
AcDbEntity
  8
KONSTRUKTIONSELEMENTE
100
AcDbLine
 62
7
  6
CONTINUOUS
 10
352.1898313451
 20
248.1853698915
 11
345.219414631
 21
248.1853698915
  0
LINE
  5
351
100
AcDbEntity
  8
KONSTRUKTIONSELEMENTE
100
AcDbLine
 62
7
  6
CONTINUOUS
 10
370.3130376761
 20
63.5943790877
 11
370.3130803518
 21
63.5944072681
  0
LINE
  5
352
100
AcDbEntity
  8
KONSTRUKTIONSELEMENTE
100
AcDbLine
 62
7
  6
CONTINUOUS
 10
380.1406241209
 20
260.204586481
 11
380.719414631
 21
260.3596729308
  0
LINE
  5
353
100
AcDbEntity
  8
KONSTRUKTIONSELEMENTE
100
AcDbLine
 62
7
  6
CONTINUOUS
 10
345.219414631
 20
249.7630710078
 11
346.579414631
 21
249.7630710078
  0
LINE
  5
354
100
AcDbEntity
  8
KONSTRUKTIONSELEMENTE
100
AcDbLine
 62
7
  6
CONTINUOUS
 10
347.769414631
 20
249.7630710078
 11
356.269414631
 21
249.7630710078
  0
LINE
  5
355
100
AcDbEntity
  8
KONSTRUKTIONSELEMENTE
100
AcDbLine
 62
7
  6
CONTINUOUS
 10
345.219414631
 20
250.1404257979
 11
346.579414631
 21
250.1404257979
  0
LINE
  5
356
100
AcDbEntity
  8
KONSTRUKTIONSELEMENTE
100
AcDbLine
 62
7
  6
CONTINUOUS
 10
347.769414631
 20
250.1404257979
 11
356.269414631
 21
250.1404257979
  0
LINE
  5
357
100
AcDbEntity
  8
KONSTRUKTIONSELEMENTE
100
AcDbLine
 62
7
  6
CONTINUOUS
 10
354.859414631
 20
251.0326660773
 11
347.769414631
 21
251.0326660773
  0
LINE
  5
358
100
AcDbEntity
  8
0
100
AcDbLine
 62
7
  6
CONTINUOUS
 10
336.8070875569
 20
257.5871258766
 11
364.631741705
 21
257.5871258766
  0
LWPOLYLINE
  5
359
100
AcDbEntity
  8
KONSTRUKTIONSELEMENTE
100
AcDbPolyline
 62
7
  6
CONTINUOUS
 90
15
 70
0
 10
336.8070875443
 20
257.5871619093
 10
336.738832036
 20
257.5879655031
 10
336.4646794094
 20
257.6073804842
 10
336.1929060505
 20
257.6528438646
 10
335.9294579763
 20
257.7236250563
 10
335.6804558942
 20
257.8180217735
 10
335.4514600912
 20
257.9333197884
 10
335.2473739614
 20
258.0659729771
 10
335.0721668579
 20
258.211608694
 10
334.9285412456
 20
258.3653067736
 10
334.817252517
 20
258.5226112967
 10
334.7380923031
 20
258.6788002315
 10
334.6883036955
 20
258.8340207948
 10
334.6665239876
 20
258.9908246416
 10
334.6658580196
 20
259.0572814042
  0
LINE
  5
35A
100
AcDbEntity
  8
KONSTRUKTIONSELEMENTE
100
AcDbLine
 62
7
  6
CONTINUOUS
 10
320.719414631
 20
260.3596729308
 11
321.2982051411
 21
260.204586481
  0
LINE
  5
35B
100
AcDbEntity
  8
KONSTRUKTIONSELEMENTE
100
AcDbLine
 62
7
  6
CONTINUOUS
 10
334.6923727012
 20
259.9577491422
 11
337.419414631
 21
259.9577491422
  0
LINE
  5
35C
100
AcDbEntity
  8
KONSTRUKTIONSELEMENTE
100
AcDbLine
 62
7
  6
CONTINUOUS
 10
364.019414631
 20
259.9577491422
 11
366.7464565608
 21
259.9577491422
  0
LINE
  5
35D
100
AcDbEntity
  8
KONSTRUKTIONSELEMENTE
100
AcDbLine
 62
7
  6
CONTINUOUS
 10
320.719414631
 20
271.5558253535
 11
321.740911396
 21
271.8295345868
  0
LINE
  5
35E
100
AcDbEntity
  8
KONSTRUKTIONSELEMENTE
100
AcDbLine
 62
7
  6
CONTINUOUS
 10
335.170812825
 20
271.9577491422
 11
337.419414631
 21
271.9577491422
  0
LINE
  5
35F
100
AcDbEntity
  8
KONSTRUKTIONSELEMENTE
100
AcDbLine
 62
7
  6
CONTINUOUS
 10
364.019414631
 20
271.9577491422
 11
366.268016437
 21
271.9577491422
  0
LINE
  5
360
100
AcDbEntity
  8
KONSTRUKTIONSELEMENTE
100
AcDbLine
 62
7
  6
CONTINUOUS
 10
379.6979178659
 20
271.8295345868
 11
380.719414631
 21
271.5558253535
  0
LINE
  5
361
100
AcDbEntity
  8
KONSTRUKTIONSELEMENTE
100
AcDbLine
 62
7
  6
CONTINUOUS
 10
337.527910502
 20
284.5588098376
 11
337.603226228
 21
284.5652346162
  0
LINE
  5
362
100
AcDbEntity
  8
KONSTRUKTIONSELEMENTE
100
AcDbLine
 62
7
  6
CONTINUOUS
 10
337.6001097218
 20
284.5650277064
 11
337.5944172381
 21
284.5646221265
  0
LINE
  5
363
100
AcDbEntity
  8
KONSTRUKTIONSELEMENTE
100
AcDbLine
 62
7
  6
CONTINUOUS
 10
337.595499252
 20
284.564706484
 11
337.7360046713
 21
284.5696991809
  0
LINE
  5
364
100
AcDbEntity
  8
0
100
AcDbLine
 62
7
  6
CONTINUOUS
 10
337.7374378723
 20
284.5696822496
 11
363.7013913897
 21
284.5696822496
  0
LINE
  5
365
100
AcDbEntity
  8
0
100
AcDbLine
 62
7
  6
CONTINUOUS
 10
363.7028254437
 20
284.5696991815
 11
363.8433566476
 21
284.5647045893
  0
LINE
  5
366
100
AcDbEntity
  8
0
100
AcDbLine
 62
7
  6
CONTINUOUS
 10
363.8396412073
 20
284.5649626586
 11
363.8444392274
 21
284.5646201662
  0
LINE
  5
367
100
AcDbEntity
  8
0
100
AcDbLine
 62
7
  6
CONTINUOUS
 10
363.8367289067
 20
284.5651584351
 11
363.9187879651
 21
284.5579800753
  0
LWPOLYLINE
  5
368
100
AcDbEntity
  8
0
100
AcDbPolyline
 62
7
  6
CONTINUOUS
 90
14
 70
0
 10
363.9187879651
 20
284.5579800753
 10
364.0981797341
 20
284.5304711268
 10
364.2816885516
 20
284.4846155075
 10
364.4664423825
 20
284.4182969366
 10
364.6491958992
 20
284.3306810078
 10
364.8276983813
 20
284.2206246783
 10
364.9979324197
 20
284.0882658622
 10
365.1569331995
 20
283.9332817282
 10
365.3007281122
 20
283.7564672949
 10
365.4259300484
 20
283.5581450767
 10
365.5284850091
 20
283.3395406912
 10
365.6041606538
 20
283.1022173852
 10
365.6483811429
 20
282.8480287399
 10
365.6543212595
 20
282.7766104135
  0
LINE
  5
369
100
AcDbEntity
  8
KONSTRUKTIONSELEMENTE
100
AcDbLine
 62
7
  6
CONTINUOUS
 10
373.9434123548
 20
292.8507527031
 11
327.4954169071
 21
292.8507527031
  0
LINE
  5
36A
100
AcDbEntity
  8
0
100
AcDbLine
 62
7
  6
CONTINUOUS
 10
323.1052749765
 20
294.7496569647
 11
378.3335504878
 21
294.7496569647
  0
LINE
  5
36B
100
AcDbEntity
  8
BEZUGSACHSEN
100
AcDbLine
 62
7
  6
CONTINUOUS
 10
290.719414631
 20
308.7496569647
 11
410.719414631
 21
308.7496569647
  0
LINE
  5
36C
100
AcDbEntity
  8
BEZUGSACHSEN
100
AcDbLine
 62
7
  6
CONTINUOUS
 10
204.8280685322
 20
16.7496569647
 11
224.8280685322
 21
16.7496569647
  0
LINE
  5
36D
100
AcDbEntity
  8
KONSTRUKTIONSELEMENTE
100
AcDbLine
 62
7
  6
CONTINUOUS
 10
168.283183917
 20
38.9913882027
 11
165.9998871998
 21
38.3702102788
  0
LINE
  5
36E
100
AcDbEntity
  8
KONSTRUKTIONSELEMENTE
100
AcDbLine
 62
7
  6
CONTINUOUS
 10
167.9480623504
 20
40.2232123604
 11
165.6647656332
 21
39.6020344365
  0
LINE
  5
36F
100
AcDbEntity
  8
KONSTRUKTIONSELEMENTE
100
AcDbLine
 62
7
  6
CONTINUOUS
 10
128.8072913035
 20
33.2357093556
 11
128.1040725458
 21
33.0690768398
  0
LINE
  5
370
100
AcDbEntity
  8
KONSTRUKTIONSELEMENTE
100
AcDbLine
 62
7
  6
CONTINUOUS
 10
165.1343275526
 20
33.6454573097
 11
159.1775820843
 21
32.4039175631
  0
LINE
  5
371
100
AcDbEntity
  8
KONSTRUKTIONSELEMENTE
100
AcDbLine
 62
7
  6
CONTINUOUS
 10
164.8738496013
 20
34.8951964826
 11
160.2408261898
 21
33.9295546329
  0
LINE
  5
372
100
AcDbEntity
  8
KONSTRUKTIONSELEMENTE
100
AcDbLine
 62
7
  6
CONTINUOUS
 10
158.2949304548
 20
41.6089627759
 11
157.4676107969
 21
41.4365279717
  0
LINE
  5
373
100
AcDbEntity
  8
KONSTRUKTIONSELEMENTE
100
AcDbLine
 62
7
  6
CONTINUOUS
 10
160.2988686628
 20
43.5914704981
 11
159.6370114216
 21
43.453522339
  0
LINE
  5
374
100
AcDbEntity
  8
KONSTRUKTIONSELEMENTE
100
AcDbLine
 62
7
  6
CONTINUOUS
 10
128.7787308198
 20
31.6947633475
 11
127.9078856592
 21
31.5497763642
  0
LINE
  5
375
100
AcDbEntity
  8
KONSTRUKTIONSELEMENTE
100
AcDbLine
 62
7
  6
CONTINUOUS
 10
120.106865467
 20
34.5978359836
 11
119.3920889062
 21
34.4912197429
  0
LINE
  5
376
100
AcDbEntity
  8
KONSTRUKTIONSELEMENTE
100
AcDbLine
 62
7
  6
CONTINUOUS
 10
156.9040771881
 20
32.0232825544
 11
150.8677841453
 21
31.2569212429
  0
LINE
  5
377
100
AcDbEntity
  8
KONSTRUKTIONSELEMENTE
100
AcDbLine
 62
7
  6
CONTINUOUS
 10
156.7432925828
 20
33.2897126054
 11
152.0483928769
 21
32.6936531579
  0
LINE
  5
378
100
AcDbEntity
  8
KONSTRUKTIONSELEMENTE
100
AcDbLine
 62
7
  6
CONTINUOUS
 10
150.7161838091
 20
40.5029446371
 11
149.8778072169
 21
40.3965052413
  0
LINE
  5
379
100
AcDbEntity
  8
KONSTRUKTIONSELEMENTE
100
AcDbLine
 62
7
  6
CONTINUOUS
 10
152.8706844871
 20
42.3206892347
 11
152.1999878186
 21
42.2355383027
  0
LINE
  5
37A
100
AcDbEntity
  8
KONSTRUKTIONSELEMENTE
100
AcDbLine
 62
7
  6
CONTINUOUS
 10
119.9481972758
 20
33.0648145531
 11
119.068222877
 21
32.9939308513
  0
LINE
  5
37B
100
AcDbEntity
  8
KONSTRUKTIONSELEMENTE
100
AcDbLine
 62
7
  6
CONTINUOUS
 10
139.3817728257
 20
30.7492887609
 11
138.3685822178
 21
30.7927998938
  0
LINE
  5
37C
100
AcDbEntity
  8
KONSTRUKTIONSELEMENTE
100
AcDbLine
 62
7
  6
CONTINUOUS
 10
133.6403619576
 20
30.9958517367
 11
132.6271713497
 21
31.0393628696
  0
LINE
  5
37D
100
AcDbEntity
  8
KONSTRUKTIONSELEMENTE
100
AcDbLine
 62
7
  6
CONTINUOUS
 10
138.6095811978
 20
36.4046487893
 11
133.8813609376
 21
36.6077006322
  0
LINE
  5
37E
100
AcDbEntity
  8
KONSTRUKTIONSELEMENTE
100
AcDbLine
 62
7
  6
CONTINUOUS
 10
138.675308184
 20
37.9351528387
 11
133.9470879238
 21
38.1382046816
  0
LINE
  5
37F
100
AcDbEntity
  8
KONSTRUKTIONSELEMENTE
100
AcDbLine
 62
7
  6
CONTINUOUS
 10
127.9078856592
 20
31.5497763642
 11
126.3992250384
 21
31.744589329
  0
LINE
  5
380
100
AcDbEntity
  8
KONSTRUKTIONSELEMENTE
100
AcDbLine
 62
7
  6
CONTINUOUS
 10
128.1040725458
 20
33.0690768398
 11
126.595411925
 21
33.2638898046
  0
LINE
  5
381
100
AcDbEntity
  8
KONSTRUKTIONSELEMENTE
100
AcDbLine
 62
7
  6
CONTINUOUS
 10
129.9028761839
 20
36.4409439909
 11
128.3942155631
 21
36.6357569557
  0
LINE
  5
382
100
AcDbEntity
  8
KONSTRUKTIONSELEMENTE
100
AcDbLine
 62
7
  6
CONTINUOUS
 10
131.1048367947
 20
37.8303689792
 11
128.5904024268
 21
38.155057254
  0
LINE
  5
383
100
AcDbEntity
  8
KONSTRUKTIONSELEMENTE
100
AcDbLine
 62
7
  6
CONTINUOUS
 10
131.3991170903
 20
40.1093194266
 11
130.3933433431
 21
40.2391947365
  0
LINE
  5
384
100
AcDbEntity
  8
KONSTRUKTIONSELEMENTE
100
AcDbLine
 62
7
  6
CONTINUOUS
 10
129.2484960777
 20
41.9316631543
 11
127.739835457
 21
42.1264761191
  0
LINE
  5
385
100
AcDbEntity
  8
KONSTRUKTIONSELEMENTE
100
AcDbLine
 62
7
  6
CONTINUOUS
 10
119.068222877
 20
32.9939308513
 11
117.5814196904
 21
33.3155288055
  0
LINE
  5
386
100
AcDbEntity
  8
KONSTRUKTIONSELEMENTE
100
AcDbLine
 62
7
  6
CONTINUOUS
 10
119.3920889062
 20
34.4912197429
 11
117.9052857196
 21
34.812817697
  0
LINE
  5
387
100
AcDbEntity
  8
KONSTRUKTIONSELEMENTE
100
AcDbLine
 62
7
  6
CONTINUOUS
 10
122.0287548509
 20
35.4882462408
 11
121.0375527265
 21
35.7026448768
  0
LINE
  5
388
100
AcDbEntity
  8
KONSTRUKTIONSELEMENTE
100
AcDbLine
 62
7
  6
CONTINUOUS
 10
123.2702412268
 20
41.227853338
 11
122.2790391024
 21
41.442251974
  0
LINE
  5
389
100
AcDbEntity
  8
KONSTRUKTIONSELEMENTE
100
AcDbLine
 62
7
  6
CONTINUOUS
 10
121.2813074539
 20
43.2254051475
 11
119.7945042673
 21
43.5470031016
  0
LINE
  5
38A
100
AcDbEntity
  8
KONSTRUKTIONSELEMENTE
100
AcDbLine
 62
7
  6
CONTINUOUS
 10
110.0485253437
 20
35.2816294525
 11
108.7561671103
 21
35.679308979
  0
LINE
  5
38B
100
AcDbEntity
  8
KONSTRUKTIONSELEMENTE
100
AcDbLine
 62
7
  6
CONTINUOUS
 10
79.0682032817
 20
50.7657240975
 11
78.2372241441
 21
51.0638174609
  0
LINE
  5
38C
100
AcDbEntity
  8
KONSTRUKTIONSELEMENTE
100
AcDbLine
 62
7
  6
CONTINUOUS
 10
72.7939977064
 20
57.6357331174
 11
72.1177480075
 21
57.8906137369
  0
LINE
  5
38D
100
AcDbEntity
  8
KONSTRUKTIONSELEMENTE
100
AcDbLine
 62
7
  6
CONTINUOUS
 10
126.3992250384
 20
31.744589329
 11
125.5937831782
 21
32.1060348319
  0
LINE
  5
38E
100
AcDbEntity
  8
KONSTRUKTIONSELEMENTE
100
AcDbLine
 62
7
  6
CONTINUOUS
 10
71.9090204122
 20
56.3739306409
 11
71.1058719496
 21
56.7404528468
  0
LINE
  5
38F
100
AcDbEntity
  8
KONSTRUKTIONSELEMENTE
100
AcDbLine
 62
7
  6
CONTINUOUS
 10
95.4746966397
 20
40.8082500137
 11
94.5711435498
 21
41.2687282874
  0
LINE
  5
390
100
AcDbEntity
  8
KONSTRUKTIONSELEMENTE
100
AcDbLine
 62
7
  6
CONTINUOUS
 10
90.3545613151
 20
43.4176274835
 11
89.4510082253
 21
43.8781057572
  0
LINE
  5
391
100
AcDbEntity
  8
KONSTRUKTIONSELEMENTE
100
AcDbLine
 62
7
  6
CONTINUOUS
 10
95.3599476413
 20
44.3054923856
 11
92.3481051576
 21
45.840419379
  0
LINE
  5
392
100
AcDbEntity
  8
KONSTRUKTIONSELEMENTE
100
AcDbLine
 62
7
  6
CONTINUOUS
 10
95.673083508
 20
45.2921629007
 11
92.9624242386
 21
46.6735977218
  0
LINE
  5
393
100
AcDbEntity
  8
KONSTRUKTIONSELEMENTE
100
AcDbLine
 62
7
  6
CONTINUOUS
 10
66.1123810621
 20
64.5313406042
 11
65.266024068
 21
64.99418047
  0
LINE
  5
394
100
AcDbEntity
  8
KONSTRUKTIONSELEMENTE
100
AcDbLine
 62
7
  6
CONTINUOUS
 10
117.5814196904
 20
33.3155288055
 11
116.8093930692
 21
33.7437430221
  0
LINE
  5
395
100
AcDbEntity
  8
KONSTRUKTIONSELEMENTE
100
AcDbLine
 62
7
  6
CONTINUOUS
 10
87.389795027
 20
45.0490933828
 11
86.384817568
 21
45.6734705002
  0
LINE
  5
396
100
AcDbEntity
  8
KONSTRUKTIONSELEMENTE
100
AcDbLine
 62
7
  6
CONTINUOUS
 10
82.795603438
 20
47.9033943182
 11
81.9341923097
 21
48.4385758712
  0
LINE
  5
397
100
AcDbEntity
  8
KONSTRUKTIONSELEMENTE
100
AcDbLine
 62
7
  6
CONTINUOUS
 10
88.0657858861
 20
50.9413501275
 11
85.6251221179
 21
52.4576971805
  0
LINE
  5
398
100
AcDbEntity
  8
KONSTRUKTIONSELEMENTE
100
AcDbLine
 62
7
  6
CONTINUOUS
 10
89.1613589203
 20
52.0641841312
 11
86.4335559186
 21
53.7589263961
  0
LINE
  5
399
100
AcDbEntity
  8
KONSTRUKTIONSELEMENTE
100
AcDbLine
 62
7
  6
CONTINUOUS
 10
64.5272303745
 20
62.9692565087
 11
63.5411538891
 21
63.6056610417
  0
LINE
  5
39A
100
AcDbEntity
  8
KONSTRUKTIONSELEMENTE
100
AcDbLine
 62
7
  6
CONTINUOUS
 10
78.2372241441
 20
51.0638174609
 11
74.9782605733
 21
53.4792535024
  0
LINE
  5
39B
100
AcDbEntity
  8
KONSTRUKTIONSELEMENTE
100
AcDbLine
 62
7
  6
CONTINUOUS
 10
79.2851919334
 20
52.1939038248
 11
76.7051780706
 21
54.1061247922
  0
LINE
  5
39C
100
AcDbEntity
  8
KONSTRUKTIONSELEMENTE
100
AcDbLine
 62
7
  6
CONTINUOUS
 10
81.565633498
 20
55.2707296471
 11
78.9856196352
 21
57.1829506144
  0
LINE
  5
39D
100
AcDbEntity
  8
KONSTRUKTIONSELEMENTE
100
AcDbLine
 62
7
  6
CONTINUOUS
 10
53.6145171833
 20
76.6499877621
 11
52.9321402704
 21
77.2101225658
  0
LINE
  5
39E
100
AcDbEntity
  8
KONSTRUKTIONSELEMENTE
100
AcDbLine
 62
7
  6
CONTINUOUS
 10
71.1058719496
 20
56.7404528468
 11
70.0906674361
 21
57.6335984492
  0
LINE
  5
39F
100
AcDbEntity
  8
KONSTRUKTIONSELEMENTE
100
AcDbLine
 62
7
  6
CONTINUOUS
 10
72.1177480075
 20
57.8906137369
 11
71.102543494
 21
58.7837593393
  0
LINE
  5
3A0
100
AcDbEntity
  8
KONSTRUKTIONSELEMENTE
100
AcDbLine
 62
7
  6
CONTINUOUS
 10
63.5411538891
 20
63.6056610417
 11
62.2836776935
 21
65.1677444713
  0
LINE
  5
3A1
100
AcDbEntity
  8
KONSTRUKTIONSELEMENTE
100
AcDbLine
 62
7
  6
CONTINUOUS
 10
127.739835457
 20
42.1264761191
 11
127.0366243727
 21
41.9598426124
  0
LINE
  5
3A2
100
AcDbEntity
  8
KONSTRUKTIONSELEMENTE
100
AcDbLine
 62
7
  6
CONTINUOUS
 10
160.2038607391
 20
44.8756977197
 11
159.5419959235
 21
44.7377479819
  0
LINE
  5
3A3
100
AcDbEntity
  8
KONSTRUKTIONSELEMENTE
100
AcDbLine
 62
7
  6
CONTINUOUS
 10
191.5256874683
 20
61.286663232
 11
190.5759895087
 21
61.1111333113
  0
LINE
  5
3A4
100
AcDbEntity
  8
KONSTRUKTIONSELEMENTE
100
AcDbLine
 62
7
  6
CONTINUOUS
 10
127.9360223207
 20
43.6457764174
 11
127.0651848364
 21
43.5007884654
  0
LINE
  5
3A5
100
AcDbEntity
  8
KONSTRUKTIONSELEMENTE
100
AcDbLine
 62
7
  6
CONTINUOUS
 10
119.7945042673
 20
43.5470031016
 11
119.0797201442
 21
43.4403884967
  0
LINE
  5
3A6
100
AcDbEntity
  8
KONSTRUKTIONSELEMENTE
100
AcDbLine
 62
7
  6
CONTINUOUS
 10
152.877579828
 20
43.6084075721
 11
152.206875484
 21
43.5232556656
  0
LINE
  5
3A7
100
AcDbEntity
  8
KONSTRUKTIONSELEMENTE
100
AcDbLine
 62
7
  6
CONTINUOUS
 10
120.1183702587
 20
45.0442918184
 11
119.2383883023
 21
44.9734097743
  0
LINE
  5
3A8
100
AcDbEntity
  8
KONSTRUKTIONSELEMENTE
100
AcDbLine
 62
7
  6
CONTINUOUS
 10
161.248745971
 20
44.8326729481
 11
160.2038607391
 21
44.8756977197
  0
LINE
  5
3A9
100
AcDbEntity
  8
KONSTRUKTIONSELEMENTE
100
AcDbLine
 62
7
  6
CONTINUOUS
 10
139.8966342789
 20
42.7382385766
 11
138.883443671
 21
42.7817497095
  0
LINE
  5
3AA
100
AcDbEntity
  8
KONSTRUKTIONSELEMENTE
100
AcDbLine
 62
7
  6
CONTINUOUS
 10
134.1552234108
 20
42.9848015524
 11
133.1420328029
 21
43.0283126853
  0
LINE
  5
3AB
100
AcDbEntity
  8
KONSTRUKTIONSELEMENTE
100
AcDbLine
 62
7
  6
CONTINUOUS
 10
72.7539161454
 20
56.310743531
 11
71.9090204122
 21
56.3739306409
  0
LINE
  5
3AC
100
AcDbEntity
  8
KONSTRUKTIONSELEMENTE
100
AcDbLine
 62
7
  6
CONTINUOUS
 10
161.1782839037
 20
43.5139575027
 11
160.2988686628
 21
43.5914704981
  0
LINE
  5
3AD
100
AcDbEntity
  8
KONSTRUKTIONSELEMENTE
100
AcDbLine
 62
7
  6
CONTINUOUS
 10
89.7268034512
 20
52.0134648906
 11
89.1613589203
 21
52.0641841312
  0
LINE
  5
3AE
100
AcDbEntity
  8
KONSTRUKTIONSELEMENTE
100
AcDbLine
 62
7
  6
CONTINUOUS
 10
153.9157855851
 20
43.4828484827
 11
152.877579828
 21
43.6084075721
  0
LINE
  5
3AF
100
AcDbEntity
  8
KONSTRUKTIONSELEMENTE
100
AcDbLine
 62
7
  6
CONTINUOUS
 10
129.4446829414
 20
43.4509634526
 11
127.9360223207
 21
43.6457764174
  0
LINE
  5
3B0
100
AcDbEntity
  8
KONSTRUKTIONSELEMENTE
100
AcDbLine
 62
7
  6
CONTINUOUS
 10
153.7412179959
 20
42.1738426558
 11
152.8706844871
 21
42.3206892347
  0
LINE
  5
3B1
100
AcDbEntity
  8
KONSTRUKTIONSELEMENTE
100
AcDbLine
 62
7
  6
CONTINUOUS
 10
79.8445917961
 20
52.0970960124
 11
79.2851919334
 21
52.1939038248
  0
LINE
  5
3B2
100
AcDbEntity
  8
KONSTRUKTIONSELEMENTE
100
AcDbLine
 62
7
  6
CONTINUOUS
 10
83.0372098588
 20
56.4046519911
 11
82.4778099961
 21
56.5014598036
  0
LINE
  5
3B3
100
AcDbEntity
  8
KONSTRUKTIONSELEMENTE
100
AcDbLine
 62
7
  6
CONTINUOUS
 10
65.661065374
 20
62.737837078
 11
64.5272303745
 21
62.9692565087
  0
LINE
  5
3B4
100
AcDbEntity
  8
KONSTRUKTIONSELEMENTE
100
AcDbLine
 62
7
  6
CONTINUOUS
 10
121.6051734453
 20
44.7226938643
 11
120.1183702587
 21
45.0442918184
  0
LINE
  5
3B5
100
AcDbEntity
  8
KONSTRUKTIONSELEMENTE
100
AcDbLine
 62
7
  6
CONTINUOUS
 10
116.1625368048
 20
45.9555370212
 11
115.1932644323
 21
46.2537978039
  0
LINE
  5
3B6
100
AcDbEntity
  8
KONSTRUKTIONSELEMENTE
100
AcDbLine
 62
7
  6
CONTINUOUS
 10
110.6699884305
 20
47.6456829735
 11
109.700716058
 21
47.9439437562
  0
LINE
  5
3B7
100
AcDbEntity
  8
KONSTRUKTIONSELEMENTE
100
AcDbLine
 62
7
  6
CONTINUOUS
 10
54.4149923743
 20
76.3723580373
 11
53.6145171833
 21
76.6499877621
  0
LINE
  5
3B8
100
AcDbEntity
  8
KONSTRUKTIONSELEMENTE
100
AcDbLine
 62
7
  6
CONTINUOUS
 10
77.0051539693
 20
65.4930313549
 11
76.3289042704
 21
65.7479119745
  0
LINE
  5
3B9
100
AcDbEntity
  8
KONSTRUKTIONSELEMENTE
100
AcDbLine
 62
7
  6
CONTINUOUS
 10
49.5567022355
 20
83.9982457468
 11
48.7819307233
 21
84.3411294108
  0
LINE
  5
3BA
100
AcDbEntity
  8
KONSTRUKTIONSELEMENTE
100
AcDbLine
 62
7
  6
CONTINUOUS
 10
130.2501324779
 20
43.089516981
 11
129.4446829414
 21
43.4509634526
  0
LINE
  5
3BB
100
AcDbEntity
  8
KONSTRUKTIONSELEMENTE
100
AcDbLine
 62
7
  6
CONTINUOUS
 10
78.0170299091
 20
66.6431921108
 11
77.2138785568
 21
67.0097168889
  0
LINE
  5
3BC
100
AcDbEntity
  8
KONSTRUKTIONSELEMENTE
100
AcDbLine
 62
7
  6
CONTINUOUS
 10
98.5139953552
 20
52.7278180533
 11
97.3092624978
 21
53.3417867428
  0
LINE
  5
3BD
100
AcDbEntity
  8
KONSTRUKTIONSELEMENTE
100
AcDbLine
 62
7
  6
CONTINUOUS
 10
126.595411925
 20
33.2638898046
 11
125.957596462
 21
33.6036897306
  0
LINE
  5
3BE
100
AcDbEntity
  8
KONSTRUKTIONSELEMENTE
100
AcDbLine
 62
7
  6
CONTINUOUS
 10
129.8863192142
 20
41.5918622374
 11
129.2484960777
 21
41.9316631543
  0
LINE
  5
3BF
100
AcDbEntity
  8
KONSTRUKTIONSELEMENTE
100
AcDbLine
 62
7
  6
CONTINUOUS
 10
74.0702908181
 20
74.6559607534
 11
73.2239340239
 21
75.1188003708
  0
LINE
  5
3C0
100
AcDbEntity
  8
KONSTRUKTIONSELEMENTE
100
AcDbLine
 62
7
  6
CONTINUOUS
 10
122.3771925089
 20
44.2944813053
 11
121.6051734453
 21
44.7226938643
  0
LINE
  5
3C1
100
AcDbEntity
  8
KONSTRUKTIONSELEMENTE
100
AcDbLine
 62
7
  6
CONTINUOUS
 10
91.1824437995
 20
55.3172577778
 11
88.4546407978
 21
57.0120000428
  0
LINE
  5
3C2
100
AcDbEntity
  8
KONSTRUKTIONSELEMENTE
100
AcDbLine
 62
7
  6
CONTINUOUS
 10
91.7125690167
 20
56.4908130636
 11
88.2669245034
 21
58.6315392755
  0
LINE
  5
3C3
100
AcDbEntity
  8
KONSTRUKTIONSELEMENTE
100
AcDbLine
 62
7
  6
CONTINUOUS
 10
117.9052857196
 20
34.812817697
 11
117.298456927
 21
35.205299331
  0
LINE
  5
3C4
100
AcDbEntity
  8
KONSTRUKTIONSELEMENTE
100
AcDbLine
 62
7
  6
CONTINUOUS
 10
121.8881286842
 20
42.8329251493
 11
121.2813074539
 21
43.2254051475
  0
LINE
  5
3C5
100
AcDbEntity
  8
KONSTRUKTIONSELEMENTE
100
AcDbLine
 62
7
  6
CONTINUOUS
 10
54.79334166
 20
77.6428142636
 11
54.205011746
 21
78.0625082978
  0
LINE
  5
3C6
100
AcDbEntity
  8
KONSTRUKTIONSELEMENTE
100
AcDbLine
 62
7
  6
CONTINUOUS
 10
82.4778099961
 20
56.5014598036
 11
79.8977961333
 21
58.4136807709
  0
LINE
  5
3C7
100
AcDbEntity
  8
KONSTRUKTIONSELEMENTE
100
AcDbLine
 62
7
  6
CONTINUOUS
 10
84.6062222509
 20
59.3731640767
 11
82.026208388
 21
61.2853850441
  0
LINE
  5
3C8
100
AcDbEntity
  8
KONSTRUKTIONSELEMENTE
100
AcDbLine
 62
7
  6
CONTINUOUS
 10
85.3826075642
 20
60.7045381695
 11
82.1236439934
 21
63.1199742109
  0
LINE
  5
3C9
100
AcDbEntity
  8
KONSTRUKTIONSELEMENTE
100
AcDbLine
 62
7
  6
CONTINUOUS
 10
51.2631509535
 20
94.4803428265
 11
50.8210212849
 21
94.8364626308
  0
LINE
  5
3CA
100
AcDbEntity
  8
KONSTRUKTIONSELEMENTE
100
AcDbLine
 62
7
  6
CONTINUOUS
 10
50.0388303622
 20
85.2330566797
 11
49.4872269106
 21
85.6999722074
  0
LINE
  5
3CB
100
AcDbEntity
  8
KONSTRUKTIONSELEMENTE
100
AcDbLine
 62
7
  6
CONTINUOUS
 10
78.0203584828
 20
64.5998857526
 11
77.0051539693
 21
65.4930313549
  0
LINE
  5
3CC
100
AcDbEntity
  8
KONSTRUKTIONSELEMENTE
100
AcDbLine
 62
7
  6
CONTINUOUS
 10
79.0322344226
 20
65.7500465084
 11
78.0170299091
 21
66.6431921108
  0
LINE
  5
3CD
100
AcDbEntity
  8
KONSTRUKTIONSELEMENTE
100
AcDbLine
 62
7
  6
CONTINUOUS
 10
48.7819307233
 20
84.3411294108
 11
48.1482187422
 21
84.9557811334
  0
LINE
  5
3CE
100
AcDbEntity
  8
KONSTRUKTIONSELEMENTE
100
AcDbLine
 62
7
  6
CONTINUOUS
 10
65.266024068
 20
64.99418047
 11
64.0085478725
 21
66.5562638996
  0
LINE
  5
3CF
100
AcDbEntity
  8
KONSTRUKTIONSELEMENTE
100
AcDbLine
 62
7
  6
CONTINUOUS
 10
68.9469687732
 20
63.9527917894
 11
68.1086511762
 21
64.9941809079
  0
LINE
  5
3D0
100
AcDbEntity
  8
KONSTRUKTIONSELEMENTE
100
AcDbLine
 62
7
  6
CONTINUOUS
 10
75.5589707568
 20
69.2754493005
 11
74.7206531599
 21
70.3168384191
  0
LINE
  5
3D1
100
AcDbEntity
  8
KONSTRUKTIONSELEMENTE
100
AcDbLine
 62
7
  6
CONTINUOUS
 10
52.9321402704
 20
77.2101225658
 11
50.6750299609
 21
80.5806756179
  0
LINE
  5
3D2
100
AcDbEntity
  8
KONSTRUKTIONSELEMENTE
100
AcDbLine
 62
7
  6
CONTINUOUS
 10
54.205011746
 20
78.0625082978
 11
52.5121790139
 21
80.5904230868
  0
LINE
  5
3D3
100
AcDbEntity
  8
KONSTRUKTIONSELEMENTE
100
AcDbLine
 62
7
  6
CONTINUOUS
 10
61.6300955275
 20
83.0347585169
 11
59.9372627954
 21
85.562673306
  0
LINE
  5
3D4
100
AcDbEntity
  8
KONSTRUKTIONSELEMENTE
100
AcDbLine
 62
7
  6
CONTINUOUS
 10
70.0906674361
 20
57.6335984492
 11
69.6248080785
 21
58.3835101626
  0
LINE
  5
3D5
100
AcDbEntity
  8
KONSTRUKTIONSELEMENTE
100
AcDbLine
 62
7
  6
CONTINUOUS
 10
48.1482187422
 20
84.9557811334
 11
47.8197832927
 21
85.5467284923
  0
LINE
  5
3D6
100
AcDbEntity
  8
KONSTRUKTIONSELEMENTE
100
AcDbLine
 62
7
  6
CONTINUOUS
 10
49.4872269106
 20
85.6999722074
 11
49.158791461
 21
86.2909195663
  0
LINE
  5
3D7
100
AcDbEntity
  8
KONSTRUKTIONSELEMENTE
100
AcDbLine
 62
7
  6
CONTINUOUS
 10
71.102543494
 20
58.7837593393
 11
70.763585775
 21
59.4220268774
  0
LINE
  5
3D8
100
AcDbEntity
  8
KONSTRUKTIONSELEMENTE
100
AcDbLine
 62
7
  6
CONTINUOUS
 10
45.4527940654
 20
89.985474473
 11
44.9635926506
 21
91.0627466388
  0
LINE
  5
3D9
100
AcDbEntity
  8
KONSTRUKTIONSELEMENTE
100
AcDbLine
 62
7
  6
CONTINUOUS
 10
43.2164452832
 20
94.910146036
 11
42.797129899
 21
95.8335219265
  0
LINE
  5
3DA
100
AcDbEntity
  8
KONSTRUKTIONSELEMENTE
100
AcDbLine
 62
7
  6
CONTINUOUS
 10
49.2864176641
 20
94.5108456752
 11
48.0983574423
 21
97.1270772917
  0
LINE
  5
3DB
100
AcDbEntity
  8
KONSTRUKTIONSELEMENTE
100
AcDbLine
 62
7
  6
CONTINUOUS
 10
50.8210212849
 20
94.8364626308
 11
49.4931893017
 21
97.7604861374
  0
LINE
  5
3DC
100
AcDbEntity
  8
KONSTRUKTIONSELEMENTE
100
AcDbLine
 62
7
  6
CONTINUOUS
 10
80.0674532018
 20
50.9785157882
 11
79.0682032817
 21
50.7657240975
  0
LINE
  5
3DD
100
AcDbEntity
  8
KONSTRUKTIONSELEMENTE
100
AcDbLine
 62
7
  6
CONTINUOUS
 10
90.0404280624
 20
50.9168663358
 11
89.196674948
 21
50.8399116464
  0
LINE
  5
3DE
100
AcDbEntity
  8
KONSTRUKTIONSELEMENTE
100
AcDbLine
 62
7
  6
CONTINUOUS
 10
73.5119918601
 20
57.68419025
 11
72.7939977064
 21
57.6357331174
  0
LINE
  5
3DF
100
AcDbEntity
  8
KONSTRUKTIONSELEMENTE
100
AcDbLine
 62
7
  6
CONTINUOUS
 10
83.2600713177
 20
55.2860718388
 11
82.8364626398
 21
55.282235715
  0
LINE
  5
3E0
100
AcDbEntity
  8
KONSTRUKTIONSELEMENTE
100
AcDbLine
 62
7
  6
CONTINUOUS
 10
67.1064967211
 20
64.4734859624
 11
66.1123810621
 21
64.5313406042
  0
LINE
  5
3E1
100
AcDbEntity
  8
KONSTRUKTIONSELEMENTE
100
AcDbLine
 62
7
  6
CONTINUOUS
 10
77.2138785568
 20
67.0097168889
 11
76.3689857724
 21
67.0729014938
  0
LINE
  5
3E2
100
AcDbEntity
  8
KONSTRUKTIONSELEMENTE
100
AcDbLine
 62
7
  6
CONTINUOUS
 10
55.4997710397
 20
77.5056237757
 11
54.79334166
 21
77.6428142636
  0
LINE
  5
3E3
100
AcDbEntity
  8
KONSTRUKTIONSELEMENTE
100
AcDbLine
 62
7
  6
CONTINUOUS
 10
74.8090844354
 20
76.6808844487
 11
73.6752493116
 21
76.9123041885
  0
LINE
  5
3E4
100
AcDbEntity
  8
KONSTRUKTIONSELEMENTE
100
AcDbLine
 62
7
  6
CONTINUOUS
 10
50.7314929922
 20
85.0379101211
 11
50.0388303622
 21
85.2330566797
  0
LINE
  5
3E5
100
AcDbEntity
  8
KONSTRUKTIONSELEMENTE
100
AcDbLine
 62
7
  6
CONTINUOUS
 10
162.0147868038
 20
44.4707239294
 11
161.248745971
 21
44.8326729481
  0
LINE
  5
3E6
100
AcDbEntity
  8
KONSTRUKTIONSELEMENTE
100
AcDbLine
 62
7
  6
CONTINUOUS
 10
50.9151645773
 20
93.3941583481
 11
50.1706771014
 21
93.7986058464
  0
LINE
  5
3E7
100
AcDbEntity
  8
KONSTRUKTIONSELEMENTE
100
AcDbLine
 62
7
  6
CONTINUOUS
 10
154.6507960867
 20
43.0614274652
 11
153.9157855851
 21
43.4828484827
  0
LINE
  5
3E8
100
AcDbEntity
  8
KONSTRUKTIONSELEMENTE
100
AcDbLine
 62
7
  6
CONTINUOUS
 10
75.7951607958
 20
76.0444800195
 11
74.8090844354
 21
76.6808844487
  0
LINE
  5
3E9
100
AcDbEntity
  8
KONSTRUKTIONSELEMENTE
100
AcDbLine
 62
7
  6
CONTINUOUS
 10
125.5937831782
 20
32.1060348319
 11
124.9886578609
 21
32.6990525316
  0
LINE
  5
3EA
100
AcDbEntity
  8
KONSTRUKTIONSELEMENTE
100
AcDbLine
 62
7
  6
CONTINUOUS
 10
92.2956715615
 20
55.8279575807
 11
91.7125690167
 21
56.4908130636
  0
LINE
  5
3EB
100
AcDbEntity
  8
KONSTRUKTIONSELEMENTE
100
AcDbLine
 62
7
  6
CONTINUOUS
 10
116.8093930692
 20
33.7437430221
 11
116.2565495183
 21
34.3857712054
  0
LINE
  5
3EC
100
AcDbEntity
  8
KONSTRUKTIONSELEMENTE
100
AcDbLine
 62
7
  6
CONTINUOUS
 10
75.3277670137
 20
73.0938773238
 11
74.0702908181
 21
74.6559607534
  0
LINE
  5
3ED
100
AcDbEntity
  8
KONSTRUKTIONSELEMENTE
100
AcDbLine
 62
7
  6
CONTINUOUS
 10
77.0526369913
 20
74.48239659
 11
75.7951607958
 21
76.0444800195
  0
LINE
  5
3EE
100
AcDbEntity
  8
KONSTRUKTIONSELEMENTE
100
AcDbLine
 62
7
  6
CONTINUOUS
 10
85.9095278557
 20
59.9962014026
 11
85.3826075642
 21
60.7045381695
  0
LINE
  5
3EF
100
AcDbEntity
  8
KONSTRUKTIONSELEMENTE
100
AcDbLine
 62
7
  6
CONTINUOUS
 10
62.9029668546
 20
83.8871441493
 11
60.6458565452
 21
87.2576972014
  0
LINE
  5
3F0
100
AcDbEntity
  8
KONSTRUKTIONSELEMENTE
100
AcDbLine
 62
7
  6
CONTINUOUS
 10
79.4980908904
 20
65.0001373671
 11
79.0322344226
 21
65.7500465084
  0
LINE
  5
3F1
100
AcDbEntity
  8
KONSTRUKTIONSELEMENTE
100
AcDbLine
 62
7
  6
CONTINUOUS
 10
91.4784103968
 20
54.8327954654
 11
91.1824437995
 21
55.3172577778
  0
LINE
  5
3F2
100
AcDbEntity
  8
KONSTRUKTIONSELEMENTE
100
AcDbLine
 62
7
  6
CONTINUOUS
 10
59.9508574155
 20
88.4214893042
 11
59.4582044761
 21
89.3079099199
  0
LINE
  5
3F3
100
AcDbEntity
  8
KONSTRUKTIONSELEMENTE
100
AcDbLine
 62
7
  6
CONTINUOUS
 10
57.4875927184
 20
92.8535923827
 11
56.9949395441
 21
93.740013421
  0
LINE
  5
3F4
100
AcDbEntity
  8
KONSTRUKTIONSELEMENTE
100
AcDbLine
 62
7
  6
CONTINUOUS
 10
78.3593162018
 20
63.9616182144
 11
78.0203584828
 21
64.5998857526
  0
LINE
  5
3F5
100
AcDbEntity
  8
KONSTRUKTIONSELEMENTE
100
AcDbLine
 62
7
  6
CONTINUOUS
 10
81.820974528
 20
54.7636784491
 11
81.565633498
 21
55.2707296471
  0
LINE
  5
3F6
100
AcDbEntity
  8
KONSTRUKTIONSELEMENTE
100
AcDbLine
 62
7
  6
CONTINUOUS
 10
54.3081015846
 20
96.4199850408
 11
52.9802696014
 21
99.3440085474
  0
LINE
  5
3F7
100
AcDbEntity
  8
KONSTRUKTIONSELEMENTE
100
AcDbLine
 62
7
  6
CONTINUOUS
 10
55.4005756367
 20
97.1017215805
 11
53.7233141
 21
100.7952251427
  0
LINE
  5
3F8
100
AcDbEntity
  8
KONSTRUKTIONSELEMENTE
100
AcDbLine
 62
7
  6
CONTINUOUS
 10
62.2836776935
 20
65.1677444713
 11
61.8725580175
 21
66.2669886761
  0
LINE
  5
3F9
100
AcDbEntity
  8
KONSTRUKTIONSELEMENTE
100
AcDbLine
 62
7
  6
CONTINUOUS
 10
63.1610533067
 20
83.042880789
 11
62.9029668546
 21
83.8871441493
  0
LINE
  5
3FA
100
AcDbEntity
  8
KONSTRUKTIONSELEMENTE
100
AcDbLine
 62
7
  6
CONTINUOUS
 10
64.0085478725
 20
66.5562638996
 11
63.7371477375
 21
67.4819432724
  0
LINE
  5
3FB
100
AcDbEntity
  8
KONSTRUKTIONSELEMENTE
100
AcDbLine
 62
7
  6
CONTINUOUS
 10
47.8197832927
 20
85.5467284923
 11
47.6324073547
 21
86.409443899
  0
LINE
  5
3FC
100
AcDbEntity
  8
KONSTRUKTIONSELEMENTE
100
AcDbLine
 62
7
  6
CONTINUOUS
 10
49.158791461
 20
86.2909195663
 11
49.0535244833
 21
87.0058979111
  0
LINE
  5
3FD
100
AcDbEntity
  8
0
100
AcDbLine
 62
7
  6
CONTINUOUS
 10
61.4144832198
 20
206.7529176893
 11
38.616991052
 21
160.2228148256
  0
LINE
  5
3FE
100
AcDbEntity
  8
KONSTRUKTIONSELEMENTE
100
AcDbLine
 62
7
  6
CONTINUOUS
 10
73.9361038733
 20
56.6309433565
 11
72.7539161454
 21
56.310743531
  0
LINE
  5
3FF
100
AcDbEntity
  8
KONSTRUKTIONSELEMENTE
100
AcDbLine
 62
7
  6
CONTINUOUS
 10
67.3698574575
 20
62.9692569264
 11
65.661065374
 21
62.737837078
  0
LINE
  5
400
100
AcDbEntity
  8
KONSTRUKTIONSELEMENTE
100
AcDbLine
 62
7
  6
CONTINUOUS
 10
76.3289042704
 20
65.7479119745
 11
75.6109102349
 21
65.6994549761
  0
LINE
  5
401
100
AcDbEntity
  8
KONSTRUKTIONSELEMENTE
100
AcDbLine
 62
7
  6
CONTINUOUS
 10
55.6397580261
 20
76.378856869
 11
54.4149923743
 21
76.3723580373
  0
LINE
  5
402
100
AcDbEntity
  8
KONSTRUKTIONSELEMENTE
100
AcDbLine
 62
7
  6
CONTINUOUS
 10
73.2239340239
 20
75.1188003708
 11
72.2298185662
 21
75.1766551747
  0
LINE
  5
403
100
AcDbEntity
  8
KONSTRUKTIONSELEMENTE
100
AcDbLine
 62
7
  6
CONTINUOUS
 10
50.7778097713
 20
83.9034257562
 11
49.5567022355
 21
83.9982457468
  0
LINE
  5
404
100
AcDbEntity
  8
KONSTRUKTIONSELEMENTE
100
AcDbLine
 62
7
  6
CONTINUOUS
 10
192.4063618525
 20
62.6911440223
 11
190.8209374766
 21
62.9625280218
  0
LINE
  5
405
100
AcDbEntity
  8
KONSTRUKTIONSELEMENTE
100
AcDbLine
 62
7
  6
CONTINUOUS
 10
161.7788698941
 20
43.1175234176
 11
161.1782839037
 21
43.5139575027
  0
LINE
  5
406
100
AcDbEntity
  8
KONSTRUKTIONSELEMENTE
100
AcDbLine
 62
7
  6
CONTINUOUS
 10
154.3085562493
 20
41.731134149
 11
153.7412179959
 21
42.1738426558
  0
LINE
  5
407
100
AcDbEntity
  8
KONSTRUKTIONSELEMENTE
100
AcDbLine
 62
7
  6
CONTINUOUS
 10
130.8552501303
 20
42.4965003386
 11
130.2501324779
 21
43.089516981
  0
LINE
  5
408
100
AcDbEntity
  8
KONSTRUKTIONSELEMENTE
100
AcDbLine
 62
7
  6
CONTINUOUS
 10
122.9300436363
 20
43.6524515518
 11
122.3771925089
 21
44.2944813053
  0
LINE
  5
409
100
AcDbEntity
  8
KONSTRUKTIONSELEMENTE
100
AcDbLine
 62
7
  6
CONTINUOUS
 10
125.957596462
 20
33.6036897306
 11
125.5201052325
 21
34.1750609957
  0
LINE
  5
40A
100
AcDbEntity
  8
KONSTRUKTIONSELEMENTE
100
AcDbLine
 62
7
  6
CONTINUOUS
 10
117.298456927
 20
35.205299331
 11
116.910811233
 21
35.8115950628
  0
LINE
  5
40B
100
AcDbEntity
  8
KONSTRUKTIONSELEMENTE
100
AcDbLine
 62
7
  6
CONTINUOUS
 10
84.8615632809
 20
58.8661128788
 11
84.6062222509
 21
59.3731640767
  0
LINE
  5
40C
100
AcDbEntity
  8
KONSTRUKTIONSELEMENTE
100
AcDbLine
 62
7
  6
CONTINUOUS
 10
77.4637567924
 20
73.3831522813
 11
77.0526369913
 21
74.48239659
  0
LINE
  5
40D
100
AcDbEntity
  8
KONSTRUKTIONSELEMENTE
100
AcDbLine
 62
7
  6
CONTINUOUS
 10
82.956012485
 20
54.8758284533
 11
82.8364626398
 21
55.282235715
  0
LINE
  5
40E
100
AcDbEntity
  8
KONSTRUKTIONSELEMENTE
100
AcDbLine
 62
7
  6
CONTINUOUS
 10
75.5991673485
 20
72.1681977027
 11
75.3277670137
 21
73.0938773238
  0
LINE
  5
40F
100
AcDbEntity
  8
KONSTRUKTIONSELEMENTE
100
AcDbLine
 62
7
  6
CONTINUOUS
 10
61.7941349992
 20
82.3309359385
 11
61.6300955275
 21
83.0347585169
  0
LINE
  5
410
100
AcDbEntity
  8
KONSTRUKTIONSELEMENTE
100
AcDbLine
 62
7
  6
CONTINUOUS
 10
69.6248080785
 20
58.3835101626
 11
69.4544992982
 21
59.2134686551
  0
LINE
  5
411
100
AcDbEntity
  8
KONSTRUKTIONSELEMENTE
100
AcDbLine
 62
7
  6
CONTINUOUS
 10
55.5175332136
 20
96.226673384
 11
55.4005756367
 21
97.1017215805
  0
LINE
  5
412
100
AcDbEntity
  8
KONSTRUKTIONSELEMENTE
100
AcDbLine
 62
7
  6
CONTINUOUS
 10
70.763585775
 20
59.4220268774
 11
70.7201758174
 21
60.1403438506
  0
LINE
  5
413
100
AcDbEntity
  8
KONSTRUKTIONSELEMENTE
100
AcDbLine
 62
7
  6
CONTINUOUS
 10
61.8725580175
 20
66.2669886761
 11
61.8886362876
 21
67.4240879874
  0
LINE
  5
414
100
AcDbEntity
  8
KONSTRUKTIONSELEMENTE
100
AcDbLine
 62
7
  6
CONTINUOUS
 10
54.2852873001
 20
95.8527289546
 11
54.3081015846
 21
96.4199850408
  0
LINE
  5
415
100
AcDbEntity
  8
KONSTRUKTIONSELEMENTE
100
AcDbLine
 62
7
  6
CONTINUOUS
 10
47.6324073547
 20
86.409443899
 11
47.7503079677
 21
87.2484549528
  0
LWPOLYLINE
  5
416
100
AcDbEntity
  8
0
100
AcDbPolyline
 62
7
  6
CONTINUOUS
 90
6
 70
0
 10
96.4946517798
 20
221.5312752584
 10
96.2508498779
 20
221.3978863082
 10
96.0282194384
 20
221.2356334165
 10
95.8344206095
 20
221.054094398
 10
95.6736341293
 20
220.8657676735
 10
95.5412663703
 20
220.6766923271
  0
LINE
  5
417
100
AcDbEntity
  8
KONSTRUKTIONSELEMENTE
100
AcDbLine
 62
7
  6
CONTINUOUS
 10
76.3689857724
 20
67.0729014938
 11
75.1867981035
 21
66.7527017353
  0
LINE
  5
418
100
AcDbEntity
  8
KONSTRUKTIONSELEMENTE
100
AcDbLine
 62
7
  6
CONTINUOUS
 10
73.6752493116
 20
76.9123041885
 11
71.9664576285
 21
76.6808840487
  0
LINE
  5
419
100
AcDbEntity
  8
KONSTRUKTIONSELEMENTE
100
AcDbLine
 62
7
  6
CONTINUOUS
 10
52.0547101757
 20
93.3547429666
 11
50.9151645773
 21
93.3941583481
  0
LINE
  5
41A
100
AcDbEntity
  8
KONSTRUKTIONSELEMENTE
100
AcDbLine
 62
7
  6
CONTINUOUS
 10
51.867866768
 20
94.3836869981
 11
51.2631509535
 21
94.4803428265
  0
LINE
  5
41B
100
AcDbEntity
  8
KONSTRUKTIONSELEMENTE
100
AcDbLine
 62
7
  6
CONTINUOUS
 10
192.4141480743
 20
60.9993442467
 11
191.5256874683
 21
61.286663232
  0
LINE
  5
41C
100
AcDbEntity
  8
KONSTRUKTIONSELEMENTE
100
AcDbLine
 62
7
  6
CONTINUOUS
 10
130.3238104665
 20
41.0204911497
 11
129.8863192142
 21
41.5918622374
  0
LINE
  5
41D
100
AcDbEntity
  8
KONSTRUKTIONSELEMENTE
100
AcDbLine
 62
7
  6
CONTINUOUS
 10
122.275774416
 20
42.2266295923
 11
121.8881286842
 21
42.8329251493
  0
LINE
  5
41E
100
AcDbEntity
  8
KONSTRUKTIONSELEMENTE
100
AcDbLine
 62
7
  6
CONTINUOUS
 10
79.6684026195
 20
64.1701763696
 11
79.4980908904
 21
65.0001373671
  0
LINE
  5
41F
100
AcDbEntity
  8
KONSTRUKTIONSELEMENTE
100
AcDbLine
 62
7
  6
CONTINUOUS
 10
85.9966012378
 20
58.9782628829
 11
85.9095278557
 21
59.9962014026
  0
LINE
  5
420
100
AcDbEntity
  8
KONSTRUKTIONSELEMENTE
100
AcDbLine
 62
7
  6
CONTINUOUS
 10
78.4027262775
 20
63.2433013755
 11
78.3593162018
 21
63.9616182144
  0
LINE
  5
421
100
AcDbEntity
  8
KONSTRUKTIONSELEMENTE
100
AcDbLine
 62
7
  6
CONTINUOUS
 10
77.4476783979
 20
72.226053279
 11
77.4637567924
 21
73.3831522813
  0
LINE
  5
422
100
AcDbEntity
  8
KONSTRUKTIONSELEMENTE
100
AcDbLine
 62
7
  6
CONTINUOUS
 10
68.7076109258
 20
166.9354938843
 11
69.2048025101
 21
176.4224744645
  0
LINE
  5
423
100
AcDbEntity
  8
KONSTRUKTIONSELEMENTE
100
AcDbLine
 62
7
  6
CONTINUOUS
 10
76.9641592497
 20
163.648875336
 11
77.7596657846
 21
178.8280442643
  0
LINE
  5
424
100
AcDbEntity
  8
KONSTRUKTIONSELEMENTE
100
AcDbLine
 62
7
  6
CONTINUOUS
 10
78.8615553658
 20
163.5494370191
 11
79.6570619007
 21
178.7286059474
  0
LINE
  5
425
100
AcDbEntity
  8
KONSTRUKTIONSELEMENTE
100
AcDbLine
 62
7
  6
CONTINUOUS
 10
63.1129475571
 20
82.1969939386
 11
63.1610533067
 21
83.042880789
  0
LINE
  5
426
100
AcDbEntity
  8
KONSTRUKTIONSELEMENTE
100
AcDbLine
 62
7
  6
CONTINUOUS
 10
63.7371477375
 20
67.4819432724
 11
63.8929457996
 21
68.4654777491
  0
LINE
  5
427
100
AcDbEntity
  8
KONSTRUKTIONSELEMENTE
100
AcDbLine
 62
7
  6
CONTINUOUS
 10
61.6519833455
 20
81.6254882629
 11
61.7941349992
 21
82.3309359385
  0
LINE
  5
428
100
AcDbEntity
  8
KONSTRUKTIONSELEMENTE
100
AcDbLine
 62
7
  6
CONTINUOUS
 10
49.0535244833
 20
87.0058979111
 11
49.2535341739
 21
87.6971719682
  0
LINE
  5
429
100
AcDbEntity
  8
KONSTRUKTIONSELEMENTE
100
AcDbLine
 62
7
  6
CONTINUOUS
 10
95.10639072
 20
219.7497174701
 11
95.0752694773
 21
219.6653470024
  0
LWPOLYLINE
  5
42A
100
AcDbEntity
  8
KONSTRUKTIONSELEMENTE
100
AcDbPolyline
 62
7
  6
CONTINUOUS
 90
9
 70
0
 10
95.0755092793
 20
219.6659873828
 10
95.0344530597
 20
219.5606305816
 10
94.9307780135
 20
219.3310473251
 10
94.7768112106
 20
219.036778771
 10
94.5688503493
 20
218.6842639393
 10
94.304949549
 20
218.2794082251
 10
93.9848487286
 20
217.8282865336
 10
93.6107656535
 20
217.3384953343
 10
93.5090210216
 20
217.2136583849
  0
LWPOLYLINE
  5
42B
100
AcDbEntity
  8
0
100
AcDbPolyline
 62
7
  6
CONTINUOUS
 90
10
 70
0
 10
95.0755137467
 20
219.6659996501
 10
95.0345475281
 20
219.5608599123
 10
94.9309885388
 20
219.3314799345
 10
94.7771259381
 20
219.0373444529
 10
94.5692283007
 20
218.6848726738
 10
94.3053216403
 20
218.2799547871
 10
93.9851519429
 20
217.8286980564
 10
93.6109540331
 20
217.3387339236
 10
93.1864022351
 20
216.8178145882
 10
92.7189885715
 20
216.2767101936
  0
LWPOLYLINE
  5
42C
100
AcDbEntity
  8
0
100
AcDbPolyline
 62
7
  6
CONTINUOUS
 90
6
 70
0
 10
95.4345208665
 20
220.4957335584
 10
95.343288966
 20
220.317330132
 10
95.2622461208
 20
220.139401658
 10
95.1849309749
 20
219.9533875541
 10
95.1063210893
 20
219.749536904
 10
95.0752855813
 20
219.6653912801
  0
LINE
  5
42D
100
AcDbEntity
  8
0
100
AcDbLine
 62
7
  6
CONTINUOUS
 10
95.5412663703
 20
220.6766923271
 11
95.4345208665
 21
220.4957335584
  0
LINE
  5
42E
100
AcDbEntity
  8
0
100
AcDbLine
 62
7
  6
CONTINUOUS
 10
92.7189885715
 20
216.2767101936
 11
92.3939430102
 21
215.9165869882
  0
LINE
  5
42F
100
AcDbEntity
  8
0
100
AcDbLine
 62
7
  6
CONTINUOUS
 10
92.3939430102
 20
215.9165869882
 11
92.3938056582
 21
215.9164373249
  0
LWPOLYLINE
  5
430
100
AcDbEntity
  8
0
100
AcDbPolyline
 62
7
  6
CONTINUOUS
 90
7
 70
0
 10
92.3938069232
 20
215.9164370734
 10
92.2728140448
 20
215.7859596404
 10
92.0030901613
 20
215.5047968494
 10
91.727583585
 20
215.2305743746
 10
91.4464668463
 20
214.9633798485
 10
91.1598656541
 20
214.7033333194
 10
91.0412827192
 20
214.5992397308
  0
LINE
  5
431
100
AcDbEntity
  8
KONSTRUKTIONSELEMENTE
100
AcDbLine
 62
7
  6
CONTINUOUS
 10
106.6341027323
 20
228.8163793596
 11
113.0491341642
 21
234.392881106
  0
LINE
  5
432
100
AcDbEntity
  8
KONSTRUKTIONSELEMENTE
100
AcDbLine
 62
7
  6
CONTINUOUS
 10
115.0810357629
 20
236.1591862183
 11
122.2769551796
 21
242.4145035337
  0
LINE
  5
433
100
AcDbEntity
  8
KONSTRUKTIONSELEMENTE
100
AcDbLine
 62
7
  6
CONTINUOUS
 10
122.7790734812
 20
242.850988314
 11
128.9155775199
 21
248.1853698915
  0
LINE
  5
434
100
AcDbEntity
  8
KONSTRUKTIONSELEMENTE
100
AcDbLine
 62
7
  6
CONTINUOUS
 10
131.164612069
 20
250.1404257979
 11
137.8347902779
 21
255.9387232538
  0
LINE
  5
435
100
AcDbEntity
  8
0
100
AcDbLine
 62
7
  6
CONTINUOUS
 10
89.1607527302
 20
212.9645214409
 11
133.144302524
 21
251.1988379587
  0
LINE
  5
436
100
AcDbEntity
  8
0
100
AcDbLine
 62
7
  6
CONTINUOUS
 10
85.202996765
 20
204.2240446954
 11
89.3614276752
 21
207.8389135358
  0
LINE
  5
437
100
AcDbEntity
  8
0
100
AcDbLine
 62
7
  6
CONTINUOUS
 10
91.052606326
 20
201.3589547481
 11
90.6487700994
 21
201.0079052721
  0
LINE
  5
438
100
AcDbEntity
  8
0
100
AcDbLine
 62
7
  6
CONTINUOUS
 10
96.4946602616
 20
221.5312570441
 11
101.5620004179
 21
223.8524440649
  0
LINE
  5
439
100
AcDbEntity
  8
KONSTRUKTIONSELEMENTE
100
AcDbLine
 62
7
  6
CONTINUOUS
 10
56.676431944
 20
76.6662341001
 11
55.6397580261
 21
76.378856869
  0
LINE
  5
43A
100
AcDbEntity
  8
KONSTRUKTIONSELEMENTE
100
AcDbLine
 62
7
  6
CONTINUOUS
 10
51.8346994255
 20
84.104079911
 11
50.7778097713
 21
83.9034257562
  0
LINE
  5
43B
100
AcDbEntity
  8
KONSTRUKTIONSELEMENTE
100
AcDbLine
 62
7
  6
CONTINUOUS
 10
56.3242995878
 20
77.6509366352
 11
55.4997710397
 21
77.5056237757
  0
LINE
  5
43C
100
AcDbEntity
  8
KONSTRUKTIONSELEMENTE
100
AcDbLine
 62
7
  6
CONTINUOUS
 10
51.5652144881
 20
85.1145323579
 11
50.7314929922
 21
85.0379101211
  0
LINE
  5
43D
100
AcDbEntity
  8
KONSTRUKTIONSELEMENTE
100
AcDbLine
 62
7
  6
CONTINUOUS
 10
193.9305517671
 20
61.9569129432
 11
192.4063618525
 21
62.6911440223
  0
LINE
  5
43E
100
AcDbEntity
  8
KONSTRUKTIONSELEMENTE
100
AcDbLine
 62
7
  6
CONTINUOUS
 10
162.8850339512
 20
43.6088824689
 11
162.0147868038
 21
44.4707239294
  0
LINE
  5
43F
100
AcDbEntity
  8
KONSTRUKTIONSELEMENTE
100
AcDbLine
 62
7
  6
CONTINUOUS
 10
155.4501204214
 20
42.1334344984
 11
154.6507960867
 21
43.0614274652
  0
LINE
  5
440
100
AcDbEntity
  8
KONSTRUKTIONSELEMENTE
100
AcDbLine
 62
7
  6
CONTINUOUS
 10
124.9886578609
 20
32.6990525316
 11
124.4489358412
 21
33.7985026955
  0
LINE
  5
441
100
AcDbEntity
  8
KONSTRUKTIONSELEMENTE
100
AcDbLine
 62
7
  6
CONTINUOUS
 10
131.394979835
 20
41.3970492726
 11
130.8552501303
 21
42.4965003386
  0
LINE
  5
442
100
AcDbEntity
  8
KONSTRUKTIONSELEMENTE
100
AcDbLine
 62
7
  6
CONTINUOUS
 10
116.2565495183
 20
34.3857712054
 11
115.8116537403
 21
35.5268972851
  0
LINE
  5
443
100
AcDbEntity
  8
KONSTRUKTIONSELEMENTE
100
AcDbLine
 62
7
  6
CONTINUOUS
 10
92.465729842
 20
54.8205545903
 11
92.2956715615
 21
55.8279575807
  0
LINE
  5
444
100
AcDbEntity
  8
KONSTRUKTIONSELEMENTE
100
AcDbLine
 62
7
  6
CONTINUOUS
 10
91.4960684107
 20
54.220659223
 11
91.4784103968
 21
54.8327954654
  0
LINE
  5
445
100
AcDbEntity
  8
KONSTRUKTIONSELEMENTE
100
AcDbLine
 62
7
  6
CONTINUOUS
 10
81.7884949569
 20
54.1521494947
 11
81.820974528
 21
54.7636784491
  0
LINE
  5
446
100
AcDbEntity
  8
KONSTRUKTIONSELEMENTE
100
AcDbLine
 62
7
  6
CONTINUOUS
 10
84.8290837097
 20
58.2545839243
 11
84.8615632809
 21
58.8661128788
  0
LINE
  5
447
100
AcDbEntity
  8
KONSTRUKTIONSELEMENTE
100
AcDbLine
 62
7
  6
CONTINUOUS
 10
69.4544992982
 20
59.2134686551
 11
69.6214796081
 21
60.4268166383
  0
LINE
  5
448
100
AcDbEntity
  8
0
100
AcDbLine
 62
7
  6
CONTINUOUS
 10
86.9088259363
 20
143.6248081521
 11
93.7865947361
 21
192.5626760276
  0
LINE
  5
449
100
AcDbEntity
  8
KONSTRUKTIONSELEMENTE
100
AcDbLine
 62
7
  6
CONTINUOUS
 10
75.4433694878
 20
71.184663388
 11
75.5991673485
 21
72.1681977027
  0
LINE
  5
44A
100
AcDbEntity
  8
KONSTRUKTIONSELEMENTE
100
AcDbLine
 62
7
  6
CONTINUOUS
 10
55.0996608067
 20
95.2943851809
 11
55.5175332136
 21
96.226673384
  0
LINE
  5
44B
100
AcDbEntity
  8
KONSTRUKTIONSELEMENTE
100
AcDbLine
 62
7
  6
CONTINUOUS
 10
148.4012375832
 20
236.7553607882
 11
148.1911390112
 21
236.6262661422
  0
LINE
  5
44C
100
AcDbEntity
  8
0
100
AcDbLine
 62
7
  6
CONTINUOUS
 10
173.7413143254
 20
252.3255200897
 11
92.378011751
 21
202.3320021037
  0
LINE
  5
44D
100
AcDbEntity
  8
KONSTRUKTIONSELEMENTE
100
AcDbLine
 62
7
  6
CONTINUOUS
 10
52.8220119361
 20
93.5175515545
 11
52.0547101757
 21
93.3547429666
  0
LINE
  5
44E
100
AcDbEntity
  8
KONSTRUKTIONSELEMENTE
100
AcDbLine
 62
7
  6
CONTINUOUS
 10
52.6351685285
 20
94.546495586
 11
51.867866768
 21
94.3836869981
  0
LINE
  5
44F
100
AcDbEntity
  8
KONSTRUKTIONSELEMENTE
100
AcDbLine
 62
7
  6
CONTINUOUS
 10
162.2660966251
 20
42.4366564665
 11
161.7788698941
 21
43.1175234176
  0
LINE
  5
450
100
AcDbEntity
  8
KONSTRUKTIONSELEMENTE
100
AcDbLine
 62
7
  6
CONTINUOUS
 10
154.740379171
 20
41.0138521781
 11
154.3085562493
 21
41.731134149
  0
LINE
  5
451
100
AcDbEntity
  8
KONSTRUKTIONSELEMENTE
100
AcDbLine
 62
7
  6
CONTINUOUS
 10
123.3749318709
 20
42.5113271951
 11
122.9300436363
 21
43.6524515518
  0
LINE
  5
452
100
AcDbEntity
  8
KONSTRUKTIONSELEMENTE
100
AcDbLine
 62
7
  6
CONTINUOUS
 10
125.5201052325
 20
34.1750609957
 11
125.2829381908
 21
34.978003245
  0
LINE
  5
453
100
AcDbEntity
  8
KONSTRUKTIONSELEMENTE
100
AcDbLine
 62
7
  6
CONTINUOUS
 10
116.910811233
 20
35.8115950628
 11
116.7423485621
 21
36.6317045427
  0
LINE
  5
454
100
AcDbEntity
  8
KONSTRUKTIONSELEMENTE
100
AcDbLine
 62
7
  6
CONTINUOUS
 10
115.8116537403
 20
35.5268972851
 11
115.6971687724
 21
36.5965550593
  0
LINE
  5
455
100
AcDbEntity
  8
KONSTRUKTIONSELEMENTE
100
AcDbLine
 62
7
  6
CONTINUOUS
 10
92.357479539
 20
53.6854776701
 11
92.465729842
 21
54.8205545903
  0
LINE
  5
456
100
AcDbEntity
  8
KONSTRUKTIONSELEMENTE
100
AcDbLine
 62
7
  6
CONTINUOUS
 10
79.5014223687
 20
62.9568284535
 11
79.6684026195
 21
64.1701763696
  0
LINE
  5
457
100
AcDbEntity
  8
KONSTRUKTIONSELEMENTE
100
AcDbLine
 62
7
  6
CONTINUOUS
 10
82.755265266
 20
53.7534121771
 11
82.956012485
 21
54.8758284533
  0
LINE
  5
458
100
AcDbEntity
  8
KONSTRUKTIONSELEMENTE
100
AcDbLine
 62
7
  6
CONTINUOUS
 10
61.8886362876
 20
67.4240879874
 11
62.4796713421
 21
69.0440269503
  0
LINE
  5
459
100
AcDbEntity
  8
KONSTRUKTIONSELEMENTE
100
AcDbLine
 62
7
  6
CONTINUOUS
 10
62.6405513652
 20
81.066978544
 11
63.1129475571
 21
82.1969939386
  0
LINE
  5
45A
100
AcDbEntity
  8
KONSTRUKTIONSELEMENTE
100
AcDbLine
 62
7
  6
CONTINUOUS
 10
47.7503079677
 20
87.2484549528
 11
48.3145450742
 21
88.3355288346
  0
LINE
  5
45B
100
AcDbEntity
  8
KONSTRUKTIONSELEMENTE
100
AcDbLine
 62
7
  6
CONTINUOUS
 10
53.9601152084
 20
95.3338005624
 11
54.2852873001
 21
95.8527289546
  0
LINE
  5
45C
100
AcDbEntity
  8
KONSTRUKTIONSELEMENTE
100
AcDbLine
 62
7
  6
CONTINUOUS
 10
68.7076109258
 20
166.9354938843
 11
77.1721729056
 21
171.2484036318
  0
LINE
  5
45D
100
AcDbEntity
  8
KONSTRUKTIONSELEMENTE
100
AcDbLine
 62
7
  6
CONTINUOUS
 10
193.241372773
 20
60.2491772687
 11
192.4141480743
 21
60.9993442467
  0
LINE
  5
45E
100
AcDbEntity
  8
KONSTRUKTIONSELEMENTE
100
AcDbLine
 62
7
  6
CONTINUOUS
 10
194.7577750196
 20
61.2067450521
 11
193.9305517671
 21
61.9569129432
  0
LINE
  5
45F
100
AcDbEntity
  8
KONSTRUKTIONSELEMENTE
100
AcDbLine
 62
7
  6
CONTINUOUS
 10
176.986733262
 20
39.7881536338
 11
167.8943560829
 21
52.0793729707
  0
LINE
  5
460
100
AcDbEntity
  8
KONSTRUKTIONSELEMENTE
100
AcDbLine
 62
7
  6
CONTINUOUS
 10
176.624990364
 20
37.3531006205
 11
166.215668981
 21
51.4481666278
  0
LINE
  5
461
100
AcDbEntity
  8
KONSTRUKTIONSELEMENTE
100
AcDbLine
 62
7
  6
CONTINUOUS
 10
124.4489358412
 20
33.7985026955
 11
124.2444666331
 21
34.8546618386
  0
LINE
  5
462
100
AcDbEntity
  8
KONSTRUKTIONSELEMENTE
100
AcDbLine
 62
7
  6
CONTINUOUS
 10
85.7958540188
 20
57.8558466067
 11
85.9966012378
 21
58.9782628829
  0
LINE
  5
463
100
AcDbEntity
  8
KONSTRUKTIONSELEMENTE
100
AcDbLine
 62
7
  6
CONTINUOUS
 10
70.7201758174
 20
60.1403438506
 11
70.972313385
 21
60.9387099903
  0
LINE
  5
464
100
AcDbEntity
  8
KONSTRUKTIONSELEMENTE
100
AcDbLine
 62
7
  6
CONTINUOUS
 10
78.1505882374
 20
62.4449346988
 11
78.4027262775
 21
63.2433013755
  0
LINE
  5
465
100
AcDbEntity
  8
KONSTRUKTIONSELEMENTE
100
AcDbLine
 62
7
  6
CONTINUOUS
 10
76.8566437439
 20
70.6061140248
 11
77.4476783979
 21
72.226053279
  0
LINE
  5
466
100
AcDbEntity
  8
KONSTRUKTIONSELEMENTE
100
AcDbLine
 62
7
  6
CONTINUOUS
 10
69.6214796081
 20
60.4268166383
 11
70.0422632838
 21
61.4168763716
  0
LINE
  5
467
100
AcDbEntity
  8
KONSTRUKTIONSELEMENTE
100
AcDbLine
 62
7
  6
CONTINUOUS
 10
169.5767166511
 20
262.0302771167
 11
170.6659947211
 21
263.7076182526
  0
LINE
  5
468
100
AcDbEntity
  8
KONSTRUKTIONSELEMENTE
100
AcDbLine
 62
7
  6
CONTINUOUS
 10
49.2535341739
 20
87.6971719682
 11
49.7588202203
 21
88.3647415639
  0
LINE
  5
469
100
AcDbEntity
  8
KONSTRUKTIONSELEMENTE
100
AcDbLine
 62
7
  6
CONTINUOUS
 10
193.6111993193
 20
202.5743177673
 11
193.0280528324
 21
202.4043085953
  0
LINE
  5
46A
100
AcDbEntity
  8
KONSTRUKTIONSELEMENTE
100
AcDbLine
 62
7
  6
CONTINUOUS
 10
69.2048025101
 20
176.4224744645
 11
77.1721729056
 21
171.2484036318
  0
LINE
  5
46B
100
AcDbEntity
  8
KONSTRUKTIONSELEMENTE
100
AcDbLine
 62
7
  6
CONTINUOUS
 10
130.3933433431
 20
40.2391947365
 11
130.3238104665
 21
41.0204911497
  0
LINE
  5
46C
100
AcDbEntity
  8
KONSTRUKTIONSELEMENTE
100
AcDbLine
 62
7
  6
CONTINUOUS
 10
125.2829381908
 20
34.978003245
 11
125.2461030333
 21
36.0125156652
  0
LINE
  5
46D
100
AcDbEntity
  8
KONSTRUKTIONSELEMENTE
100
AcDbLine
 62
7
  6
CONTINUOUS
 10
122.2790391024
 20
41.442251974
 11
122.275774416
 21
42.2266295923
  0
LINE
  5
46E
100
AcDbEntity
  8
KONSTRUKTIONSELEMENTE
100
AcDbLine
 62
7
  6
CONTINUOUS
 10
124.2444666331
 20
34.8546618386
 11
124.2403292861
 21
36.1423909751
  0
LINE
  5
46F
100
AcDbEntity
  8
KONSTRUKTIONSELEMENTE
100
AcDbLine
 62
7
  6
CONTINUOUS
 10
116.7423485621
 20
36.6317045427
 11
116.7930538274
 21
37.665631217
  0
LINE
  5
470
100
AcDbEntity
  8
KONSTRUKTIONSELEMENTE
100
AcDbLine
 62
7
  6
CONTINUOUS
 10
109.8528926349
 20
36.9446314895
 11
110.6699884305
 21
47.6456829735
  0
LINE
  5
471
100
AcDbEntity
  8
KONSTRUKTIONSELEMENTE
100
AcDbLine
 62
7
  6
CONTINUOUS
 10
108.7561671103
 20
35.679308979
 11
109.700716058
 21
47.9439437562
  0
LINE
  5
472
100
AcDbEntity
  8
KONSTRUKTIONSELEMENTE
100
AcDbLine
 62
7
  6
CONTINUOUS
 10
115.6971687724
 20
36.5965550593
 11
115.801851703
 21
37.8800298531
  0
LINE
  5
473
100
AcDbEntity
  8
KONSTRUKTIONSELEMENTE
100
AcDbLine
 62
7
  6
CONTINUOUS
 10
95.4746966397
 20
40.8082500137
 11
98.5139953552
 21
52.7278180533
  0
LINE
  5
474
100
AcDbEntity
  8
KONSTRUKTIONSELEMENTE
100
AcDbLine
 62
7
  6
CONTINUOUS
 10
94.5711435498
 20
41.2687282874
 11
95.3599476413
 21
44.3054923856
  0
LINE
  5
475
100
AcDbEntity
  8
KONSTRUKTIONSELEMENTE
100
AcDbLine
 62
7
  6
CONTINUOUS
 10
95.673083508
 20
45.2921629007
 11
97.447903176
 21
52.1248770908
  0
LINE
  5
476
100
AcDbEntity
  8
KONSTRUKTIONSELEMENTE
100
AcDbLine
 62
7
  6
CONTINUOUS
 10
87.389795027
 20
45.0490933828
 11
89.196674948
 21
50.8399116464
  0
LINE
  5
477
100
AcDbEntity
  8
KONSTRUKTIONSELEMENTE
100
AcDbLine
 62
7
  6
CONTINUOUS
 10
86.384817568
 20
45.6734705002
 11
88.0657858861
 21
50.9413501275
  0
LINE
  5
478
100
AcDbEntity
  8
KONSTRUKTIONSELEMENTE
100
AcDbLine
 62
7
  6
CONTINUOUS
 10
79.0806388111
 20
61.9667688545
 11
79.5014223687
 21
62.9568284535
  0
LINE
  5
479
100
AcDbEntity
  8
KONSTRUKTIONSELEMENTE
100
AcDbLine
 62
7
  6
CONTINUOUS
 10
63.8929457996
 20
68.4654777491
 11
64.4759415561
 21
69.5068671298
  0
LINE
  5
47A
100
AcDbEntity
  8
KONSTRUKTIONSELEMENTE
100
AcDbLine
 62
7
  6
CONTINUOUS
 10
61.2036399722
 20
80.9184150919
 11
61.6519833455
 21
81.6254882629
  0
LINE
  5
47B
100
AcDbEntity
  8
KONSTRUKTIONSELEMENTE
100
AcDbLine
 62
7
  6
CONTINUOUS
 10
54.3794305926
 20
94.4104246719
 11
55.0996608067
 21
95.2943851809
  0
LINE
  5
47C
100
AcDbEntity
  8
KONSTRUKTIONSELEMENTE
100
AcDbLine
 62
7
  6
CONTINUOUS
 10
48.3145450742
 20
88.3355288346
 11
49.0429995138
 21
89.1271299257
  0
LINE
  5
47D
100
AcDbEntity
  8
KONSTRUKTIONSELEMENTE
100
AcDbLine
 62
7
  6
CONTINUOUS
 10
195.8235419623
 20
206.3375900289
 11
195.5371344049
 21
206.193541979
  0
LINE
  5
47E
100
AcDbEntity
  8
KONSTRUKTIONSELEMENTE
100
AcDbLine
 62
7
  6
CONTINUOUS
 10
195.9888419296
 20
204.4482027566
 11
195.702434387
 21
204.3041545379
  0
LINE
  5
47F
100
AcDbEntity
  8
KONSTRUKTIONSELEMENTE
100
AcDbLine
 62
7
  6
CONTINUOUS
 10
193.2280784906
 20
201.8268555659
 11
193.5144860332
 21
201.9709037847
  0
LINE
  5
480
100
AcDbEntity
  8
KONSTRUKTIONSELEMENTE
100
AcDbLine
 62
7
  6
CONTINUOUS
 10
195.7540906102
 20
203.7137212053
 11
196.4752751599
 21
204.0147976082
  0
LINE
  5
481
100
AcDbEntity
  8
KONSTRUKTIONSELEMENTE
100
AcDbLine
 62
7
  6
CONTINUOUS
 10
193.2760028277
 20
199.5702271802
 11
192.8412257427
 21
199.4131989893
  0
LINE
  5
482
100
AcDbEntity
  8
KONSTRUKTIONSELEMENTE
100
AcDbLine
 62
7
  6
CONTINUOUS
 10
192.6064743973
 20
198.6787174357
 11
193.0412514564
 21
198.8357456243
  0
LINE
  5
483
100
AcDbEntity
  8
KONSTRUKTIONSELEMENTE
100
AcDbLine
 62
7
  6
CONTINUOUS
 10
196.1466780659
 20
199.2264260537
 11
196.5814550139
 21
199.3834549134
  0
LINE
  5
484
100
AcDbEntity
  8
0
100
AcDbLine
 62
7
  6
CONTINUOUS
 10
85.202996765
 20
204.2240446954
 11
87.827232881
 21
201.2052063746
  0
LINE
  5
485
100
AcDbEntity
  8
0
100
AcDbLine
 62
7
  6
CONTINUOUS
 10
89.333933222
 20
209.5947801042
 11
88.8345666996
 21
210.3079494078
  0
LINE
  5
486
100
AcDbEntity
  8
KONSTRUKTIONSELEMENTE
100
AcDbLine
 62
7
  6
CONTINUOUS
 10
192.3005145294
 20
44.384598763
 11
183.3001621509
 21
58.6375370979
  0
LINE
  5
487
100
AcDbEntity
  8
KONSTRUKTIONSELEMENTE
100
AcDbLine
 62
7
  6
CONTINUOUS
 10
193.816916776
 20
45.3421665463
 11
189.7954826775
 21
51.7105007864
  0
LINE
  5
488
100
AcDbEntity
  8
KONSTRUKTIONSELEMENTE
100
AcDbLine
 62
7
  6
CONTINUOUS
 10
188.6465016598
 20
53.5300246122
 11
185.774048579
 21
58.0788350264
  0
LINE
  5
489
100
AcDbEntity
  8
KONSTRUKTIONSELEMENTE
100
AcDbLine
 62
7
  6
CONTINUOUS
 10
187.0404322188
 20
41.7834384817
 11
179.4969254049
 21
56.8581888632
  0
LINE
  5
48A
100
AcDbEntity
  8
KONSTRUKTIONSELEMENTE
100
AcDbLine
 62
7
  6
CONTINUOUS
 10
163.2588862741
 20
42.6435794944
 11
162.8850339512
 21
43.6088824689
  0
LINE
  5
48B
100
AcDbEntity
  8
KONSTRUKTIONSELEMENTE
100
AcDbLine
 62
7
  6
CONTINUOUS
 10
155.7464280115
 20
41.1415790634
 11
155.4501204214
 21
42.1334344984
  0
LINE
  5
48C
100
AcDbEntity
  8
KONSTRUKTIONSELEMENTE
100
AcDbLine
 62
7
  6
CONTINUOUS
 10
131.3991170903
 20
40.1093194266
 11
131.394979835
 21
41.3970492726
  0
LINE
  5
48D
100
AcDbEntity
  8
KONSTRUKTIONSELEMENTE
100
AcDbLine
 62
7
  6
CONTINUOUS
 10
132.6271713497
 20
31.0393628696
 11
133.1420328029
 21
43.0283126853
  0
LINE
  5
48E
100
AcDbEntity
  8
KONSTRUKTIONSELEMENTE
100
AcDbLine
 62
7
  6
CONTINUOUS
 10
133.6403619576
 20
30.9958517367
 11
133.8813609376
 21
36.6077006322
  0
LINE
  5
48F
100
AcDbEntity
  8
KONSTRUKTIONSELEMENTE
100
AcDbLine
 62
7
  6
CONTINUOUS
 10
133.9470879238
 20
38.1382046816
 11
134.1552234108
 21
42.9848015524
  0
LINE
  5
490
100
AcDbEntity
  8
KONSTRUKTIONSELEMENTE
100
AcDbLine
 62
7
  6
CONTINUOUS
 10
123.2702412268
 20
41.227853338
 11
123.3749318709
 21
42.5113271951
  0
LINE
  5
491
100
AcDbEntity
  8
KONSTRUKTIONSELEMENTE
100
AcDbLine
 62
7
  6
CONTINUOUS
 10
124.2403292861
 20
36.1423909751
 11
124.7307964912
 21
39.9406420755
  0
LINE
  5
492
100
AcDbEntity
  8
KONSTRUKTIONSELEMENTE
100
AcDbLine
 62
7
  6
CONTINUOUS
 10
91.2354211271
 20
53.4808470092
 11
91.4960684107
 21
54.220659223
  0
LINE
  5
493
100
AcDbEntity
  8
KONSTRUKTIONSELEMENTE
100
AcDbLine
 62
7
  6
CONTINUOUS
 10
92.0968322554
 20
52.9456654562
 11
92.357479539
 21
53.6854776701
  0
LINE
  5
494
100
AcDbEntity
  8
KONSTRUKTIONSELEMENTE
100
AcDbLine
 62
7
  6
CONTINUOUS
 10
81.4681976797
 20
53.4361401929
 11
81.7884949569
 21
54.1521494947
  0
LINE
  5
495
100
AcDbEntity
  8
KONSTRUKTIONSELEMENTE
100
AcDbLine
 62
7
  6
CONTINUOUS
 10
82.4349679888
 20
53.0374028753
 11
82.755265266
 21
53.7534121771
  0
LINE
  5
496
100
AcDbEntity
  8
KONSTRUKTIONSELEMENTE
100
AcDbLine
 62
7
  6
CONTINUOUS
 10
84.5087862196
 20
57.5385743352
 11
84.8290837097
 21
58.2545839243
  0
LINE
  5
497
100
AcDbEntity
  8
KONSTRUKTIONSELEMENTE
100
AcDbLine
 62
7
  6
CONTINUOUS
 10
85.4755569545
 20
57.1398375922
 11
85.7958540188
 21
57.8558466067
  0
LINE
  5
498
100
AcDbEntity
  8
KONSTRUKTIONSELEMENTE
100
AcDbLine
 62
7
  6
CONTINUOUS
 10
70.972313385
 20
60.9387099903
 11
71.5199956915
 21
61.8171279861
  0
LINE
  5
499
100
AcDbEntity
  8
KONSTRUKTIONSELEMENTE
100
AcDbLine
 62
7
  6
CONTINUOUS
 10
77.602905931
 20
61.566516703
 11
78.1505882374
 21
62.4449346988
  0
LINE
  5
49A
100
AcDbEntity
  8
KONSTRUKTIONSELEMENTE
100
AcDbLine
 62
7
  6
CONTINUOUS
 10
70.0422632838
 20
61.4168763716
 11
70.7585915803
 21
62.4869878267
  0
LINE
  5
49B
100
AcDbEntity
  8
KONSTRUKTIONSELEMENTE
100
AcDbLine
 62
7
  6
CONTINUOUS
 10
62.4796713421
 20
69.0440269503
 11
63.350145667
 21
70.3168363241
  0
LINE
  5
49C
100
AcDbEntity
  8
KONSTRUKTIONSELEMENTE
100
AcDbLine
 62
7
  6
CONTINUOUS
 10
61.980063365
 20
80.2178414989
 11
62.6405513652
 21
81.066978544
  0
LINE
  5
49D
100
AcDbEntity
  8
KONSTRUKTIONSELEMENTE
100
AcDbLine
 62
7
  6
CONTINUOUS
 10
45.4527940654
 20
89.985474473
 11
50.1706771014
 21
93.7986058464
  0
LINE
  5
49E
100
AcDbEntity
  8
KONSTRUKTIONSELEMENTE
100
AcDbLine
 62
7
  6
CONTINUOUS
 10
44.9635926506
 20
91.0627466388
 11
49.2864176641
 21
94.5108456752
  0
LINE
  5
49F
100
AcDbEntity
  8
KONSTRUKTIONSELEMENTE
100
AcDbLine
 62
7
  6
CONTINUOUS
 10
192.8412257427
 20
199.4131989893
 11
192.5548181741
 21
199.2691507682
  0
LINE
  5
4A0
100
AcDbEntity
  8
KONSTRUKTIONSELEMENTE
100
AcDbLine
 62
7
  6
CONTINUOUS
 10
196.3814293853
 20
199.960907605
 11
196.0950218427
 21
199.8168593862
  0
LINE
  5
4A1
100
AcDbEntity
  8
KONSTRUKTIONSELEMENTE
100
AcDbLine
 62
7
  6
CONTINUOUS
 10
76.9641592497
 20
163.648875336
 11
78.8615553658
 21
163.5494370191
  0
LINE
  5
4A2
100
AcDbEntity
  8
KONSTRUKTIONSELEMENTE
100
AcDbLine
 62
7
  6
CONTINUOUS
 10
194.6027184438
 20
157.4836996906
 11
196.5001145599
 21
157.3842613737
  0
LINE
  5
4A3
100
AcDbEntity
  8
KONSTRUKTIONSELEMENTE
100
AcDbLine
 62
7
  6
CONTINUOUS
 10
193.241372773
 20
60.2491772687
 11
193.8158638183
 21
59.3394145063
  0
LINE
  5
4A4
100
AcDbEntity
  8
KONSTRUKTIONSELEMENTE
100
AcDbLine
 62
7
  6
CONTINUOUS
 10
194.7577750196
 20
61.2067450521
 11
195.5237629013
 21
59.9937283186
  0
LINE
  5
4A5
100
AcDbEntity
  8
KONSTRUKTIONSELEMENTE
100
AcDbLine
 62
7
  6
CONTINUOUS
 10
181.1007620882
 20
57.6607595621
 11
188.6442689021
 21
42.5860091806
  0
LINE
  5
4A6
100
AcDbEntity
  8
KONSTRUKTIONSELEMENTE
100
AcDbLine
 62
7
  6
CONTINUOUS
 10
165.9998871998
 20
38.3702102788
 11
165.6647656332
 21
39.6020344365
  0
LINE
  5
4A7
100
AcDbEntity
  8
KONSTRUKTIONSELEMENTE
100
AcDbLine
 62
7
  6
CONTINUOUS
 10
167.9480623504
 20
40.2232123604
 11
168.283183917
 21
38.9913882027
  0
LINE
  5
4A8
100
AcDbEntity
  8
KONSTRUKTIONSELEMENTE
100
AcDbLine
 62
7
  6
CONTINUOUS
 10
159.1775820843
 20
32.4039175631
 11
158.917104133
 21
33.653656736
  0
LINE
  5
4A9
100
AcDbEntity
  8
KONSTRUKTIONSELEMENTE
100
AcDbLine
 62
7
  6
CONTINUOUS
 10
162.370287937
 20
41.9367601671
 11
162.2660966251
 21
42.4366564665
  0
LINE
  5
4AA
100
AcDbEntity
  8
KONSTRUKTIONSELEMENTE
100
AcDbLine
 62
7
  6
CONTINUOUS
 10
163.2588862741
 20
42.6435794944
 11
163.363077586
 21
42.1436831951
  0
LINE
  5
4AB
100
AcDbEntity
  8
KONSTRUKTIONSELEMENTE
100
AcDbLine
 62
7
  6
CONTINUOUS
 10
164.8738496013
 20
34.8951964826
 11
165.1343275526
 21
33.6454573097
  0
LINE
  5
4AC
100
AcDbEntity
  8
KONSTRUKTIONSELEMENTE
100
AcDbLine
 62
7
  6
CONTINUOUS
 10
150.8677841453
 20
31.2569212429
 11
150.7069995399
 21
32.5233512939
  0
LINE
  5
4AD
100
AcDbEntity
  8
KONSTRUKTIONSELEMENTE
100
AcDbLine
 62
7
  6
CONTINUOUS
 10
154.740379171
 20
41.0138521781
 11
154.8046930942
 21
40.5072795191
  0
LINE
  5
4AE
100
AcDbEntity
  8
KONSTRUKTIONSELEMENTE
100
AcDbLine
 62
7
  6
CONTINUOUS
 10
155.7464280115
 20
41.1415790634
 11
155.8107419347
 21
40.6350064044
  0
LINE
  5
4AF
100
AcDbEntity
  8
KONSTRUKTIONSELEMENTE
100
AcDbLine
 62
7
  6
CONTINUOUS
 10
156.7432925828
 20
33.2897126054
 11
156.9040771881
 21
32.0232825544
  0
LINE
  5
4B0
100
AcDbEntity
  8
KONSTRUKTIONSELEMENTE
100
AcDbLine
 62
7
  6
CONTINUOUS
 10
157.4246908818
 20
42.470805815
 11
157.4676107969
 21
41.4365279717
  0
LINE
  5
4B1
100
AcDbEntity
  8
KONSTRUKTIONSELEMENTE
100
AcDbLine
 62
7
  6
CONTINUOUS
 10
138.883443671
 20
42.7817497095
 11
138.675308184
 21
37.9351528387
  0
LINE
  5
4B2
100
AcDbEntity
  8
KONSTRUKTIONSELEMENTE
100
AcDbLine
 62
7
  6
CONTINUOUS
 10
138.6095811978
 20
36.4046487893
 11
138.3685822178
 21
30.7927998938
  0
LINE
  5
4B3
100
AcDbEntity
  8
KONSTRUKTIONSELEMENTE
100
AcDbLine
 62
7
  6
CONTINUOUS
 10
139.8966342789
 20
42.7382385766
 11
139.3817728257
 21
30.7492887609
  0
LINE
  5
4B4
100
AcDbEntity
  8
KONSTRUKTIONSELEMENTE
100
AcDbLine
 62
7
  6
CONTINUOUS
 10
125.2461030333
 20
36.0125156652
 11
125.7365702384
 21
39.8107667656
  0
LINE
  5
4B5
100
AcDbEntity
  8
KONSTRUKTIONSELEMENTE
100
AcDbLine
 62
7
  6
CONTINUOUS
 10
128.5904024268
 20
38.155057254
 11
128.3942155631
 21
36.6357569557
  0
LINE
  5
4B6
100
AcDbEntity
  8
KONSTRUKTIONSELEMENTE
100
AcDbLine
 62
7
  6
CONTINUOUS
 10
129.9028761839
 20
36.4409439909
 11
129.6412936531
 21
34.4152099052
  0
LINE
  5
4B7
100
AcDbEntity
  8
KONSTRUKTIONSELEMENTE
100
AcDbLine
 62
7
  6
CONTINUOUS
 10
131.1048367947
 20
37.8303689792
 11
130.6143695897
 21
34.0321178789
  0
LINE
  5
4B8
100
AcDbEntity
  8
KONSTRUKTIONSELEMENTE
100
AcDbLine
 62
7
  6
CONTINUOUS
 10
115.801851703
 20
37.8800298531
 11
116.6115167571
 21
41.6232519946
  0
LINE
  5
4B9
100
AcDbEntity
  8
KONSTRUKTIONSELEMENTE
100
AcDbLine
 62
7
  6
CONTINUOUS
 10
116.7930538274
 20
37.665631217
 11
117.6027188815
 21
41.4088533585
  0
LINE
  5
4BA
100
AcDbEntity
  8
KONSTRUKTIONSELEMENTE
100
AcDbLine
 62
7
  6
CONTINUOUS
 10
81.9341923097
 20
48.4385758712
 11
88.2669245034
 21
58.6315392755
  0
LINE
  5
4BB
100
AcDbEntity
  8
KONSTRUKTIONSELEMENTE
100
AcDbLine
 62
7
  6
CONTINUOUS
 10
82.795603438
 20
47.9033943182
 11
85.6251221179
 21
52.4576971805
  0
LINE
  5
4BC
100
AcDbEntity
  8
KONSTRUKTIONSELEMENTE
100
AcDbLine
 62
7
  6
CONTINUOUS
 10
86.4335559186
 20
53.7589263961
 11
88.4546407978
 21
57.0120000428
  0
LINE
  5
4BD
100
AcDbEntity
  8
KONSTRUKTIONSELEMENTE
100
AcDbLine
 62
7
  6
CONTINUOUS
 10
78.3643100422
 20
60.8966568624
 11
79.0806388111
 21
61.9667688545
  0
LINE
  5
4BE
100
AcDbEntity
  8
KONSTRUKTIONSELEMENTE
100
AcDbLine
 62
7
  6
CONTINUOUS
 10
74.9782605733
 20
53.4792535024
 11
82.1236439934
 21
63.1199742109
  0
LINE
  5
4BF
100
AcDbEntity
  8
KONSTRUKTIONSELEMENTE
100
AcDbLine
 62
7
  6
CONTINUOUS
 10
74.7206531599
 20
70.3168384191
 11
75.4433694878
 21
71.184663388
  0
LINE
  5
4C0
100
AcDbEntity
  8
KONSTRUKTIONSELEMENTE
100
AcDbLine
 62
7
  6
CONTINUOUS
 10
64.4759415561
 20
69.5068671298
 11
65.4861353084
 21
70.6061114523
  0
LINE
  5
4C1
100
AcDbEntity
  8
KONSTRUKTIONSELEMENTE
100
AcDbLine
 62
7
  6
CONTINUOUS
 10
63.350145667
 20
70.3168363241
 11
64.6478177114
 21
71.6475005709
  0
LINE
  5
4C2
100
AcDbEntity
  8
KONSTRUKTIONSELEMENTE
100
AcDbLine
 62
7
  6
CONTINUOUS
 10
195.9615801142
 20
206.4686574377
 11
195.8235419623
 21
206.3375900289
  0
LINE
  5
4C3
100
AcDbEntity
  8
KONSTRUKTIONSELEMENTE
100
AcDbLine
 62
7
  6
CONTINUOUS
 10
196.1719370111
 20
205.7731178094
 11
196.5860514817
 21
206.166319867
  0
LINE
  5
4C4
100
AcDbEntity
  8
KONSTRUKTIONSELEMENTE
100
AcDbLine
 62
7
  6
CONTINUOUS
 10
193.0280528324
 20
202.4043085953
 11
192.6139383135
 21
202.011106193
  0
LINE
  5
4C5
100
AcDbEntity
  8
KONSTRUKTIONSELEMENTE
100
AcDbLine
 62
7
  6
CONTINUOUS
 10
196.1268800963
 20
204.5792699966
 11
195.9888419296
 21
204.4482027566
  0
LINE
  5
4C6
100
AcDbEntity
  8
KONSTRUKTIONSELEMENTE
100
AcDbLine
 62
7
  6
CONTINUOUS
 10
196.4752751599
 20
204.0147976082
 11
196.7513514638
 21
204.2769324259
  0
LINE
  5
4C7
100
AcDbEntity
  8
KONSTRUKTIONSELEMENTE
100
AcDbLine
 62
7
  6
CONTINUOUS
 10
196.5814550139
 20
199.3834549134
 11
196.8575313473
 21
199.6455893933
  0
LINE
  5
4C8
100
AcDbEntity
  8
KONSTRUKTIONSELEMENTE
100
AcDbLine
 62
7
  6
CONTINUOUS
 10
60.4491049916
 20
80.2097188288
 11
61.2036399722
 21
80.9184150919
  0
LINE
  5
4C9
100
AcDbEntity
  8
KONSTRUKTIONSELEMENTE
100
AcDbLine
 62
7
  6
CONTINUOUS
 10
61.0133825689
 20
79.3670805658
 11
61.980063365
 21
80.2178414989
  0
LINE
  5
4CA
100
AcDbEntity
  8
KONSTRUKTIONSELEMENTE
100
AcDbLine
 62
7
  6
CONTINUOUS
 10
197.4369458148
 20
198.1494038408
 11
195.2076725804
 21
196.2884998303
  0
LINE
  5
4CB
100
AcDbEntity
  8
KONSTRUKTIONSELEMENTE
100
AcDbLine
 62
7
  6
CONTINUOUS
 10
193.0403868965
 20
193.7190748748
 11
195.2696600718
 21
195.579979561
  0
LINE
  5
4CC
100
AcDbEntity
  8
KONSTRUKTIONSELEMENTE
100
AcDbLine
 62
7
  6
CONTINUOUS
 10
194.7935581098
 20
195.8952977727
 11
192.9783994051
 21
194.4275951441
  0
LINE
  5
4CD
100
AcDbEntity
  8
KONSTRUKTIONSELEMENTE
100
AcDbLine
 62
7
  6
CONTINUOUS
 10
195.6837747502
 20
195.9731816368
 11
197.4989333062
 21
197.4408835715
  0
LINE
  5
4CE
100
AcDbEntity
  8
KONSTRUKTIONSELEMENTE
100
AcDbLine
 62
7
  6
CONTINUOUS
 10
49.7588202203
 20
88.3647415639
 11
50.5693837183
 21
89.0086050944
  0
LINE
  5
4CF
100
AcDbEntity
  8
KONSTRUKTIONSELEMENTE
100
AcDbLine
 62
7
  6
CONTINUOUS
 10
53.3325851094
 20
94.8632003045
 11
53.9601152084
 21
95.3338005624
  0
LINE
  5
4D0
100
AcDbEntity
  8
KONSTRUKTIONSELEMENTE
100
AcDbLine
 62
7
  6
CONTINUOUS
 10
53.7519004936
 20
93.939824414
 11
54.3794305926
 21
94.4104246719
  0
LINE
  5
4D1
100
AcDbEntity
  8
KONSTRUKTIONSELEMENTE
100
AcDbLine
 62
7
  6
CONTINUOUS
 10
49.0429995138
 20
89.1271299257
 11
50.076730544
 21
89.8950261328
  0
LINE
  5
4D2
100
AcDbEntity
  8
KONSTRUKTIONSELEMENTE
100
AcDbLine
 62
7
  6
CONTINUOUS
 10
196.522608547
 20
177.8410115461
 11
197.4128251875
 21
177.9188954102
  0
LINE
  5
4D3
100
AcDbEntity
  8
KONSTRUKTIONSELEMENTE
100
AcDbLine
 62
7
  6
CONTINUOUS
 10
194.3421240986
 20
178.8401505705
 11
196.4192959825
 21
179.0218795625
  0
LINE
  5
4D4
100
AcDbEntity
  8
KONSTRUKTIONSELEMENTE
100
AcDbLine
 62
7
  6
CONTINUOUS
 10
197.3095126229
 20
179.0997634266
 11
201.3154869852
 21
179.4502407697
  0
LINE
  5
4D5
100
AcDbEntity
  8
KONSTRUKTIONSELEMENTE
100
AcDbLine
 62
7
  6
CONTINUOUS
 10
200.0665442503
 20
180.0549159111
 11
197.2475251314
 21
179.808283696
  0
LINE
  5
4D6
100
AcDbEntity
  8
KONSTRUKTIONSELEMENTE
100
AcDbLine
 62
7
  6
CONTINUOUS
 10
196.357308491
 20
179.7303998318
 11
194.2801366071
 21
179.5486708398
  0
LINE
  5
4D7
100
AcDbEntity
  8
KONSTRUKTIONSELEMENTE
100
AcDbLine
 62
7
  6
CONTINUOUS
 10
197.2956210948
 20
172.563430302
 11
195.3982249787
 21
172.6628686189
  0
LINE
  5
4D8
100
AcDbEntity
  8
KONSTRUKTIONSELEMENTE
100
AcDbLine
 62
7
  6
CONTINUOUS
 10
79.6570619007
 20
178.7286059474
 11
77.7596657846
 21
178.8280442643
  0
LINE
  5
4D9
100
AcDbEntity
  8
KONSTRUKTIONSELEMENTE
100
AcDbLine
 62
7
  6
CONTINUOUS
 10
163.363077586
 20
42.1436831951
 11
163.4059899267
 21
41.109403773
  0
LINE
  5
4DA
100
AcDbEntity
  8
KONSTRUKTIONSELEMENTE
100
AcDbLine
 62
7
  6
CONTINUOUS
 10
149.9168517988
 20
41.4309366295
 11
149.8778072169
 21
40.3965052413
  0
LINE
  5
4DB
100
AcDbEntity
  8
KONSTRUKTIONSELEMENTE
100
AcDbLine
 62
7
  6
CONTINUOUS
 10
155.8107419347
 20
40.6350064044
 11
155.7716896772
 21
39.6005740416
  0
LINE
  5
4DC
100
AcDbEntity
  8
KONSTRUKTIONSELEMENTE
100
AcDbLine
 62
7
  6
CONTINUOUS
 10
125.0619120359
 20
41.185080812
 11
124.7307964912
 21
39.9406420755
  0
LINE
  5
4DD
100
AcDbEntity
  8
KONSTRUKTIONSELEMENTE
100
AcDbLine
 62
7
  6
CONTINUOUS
 10
126.0349878809
 20
40.8019880764
 11
125.7365702384
 21
39.8107667656
  0
LINE
  5
4DE
100
AcDbEntity
  8
KONSTRUKTIONSELEMENTE
100
AcDbLine
 62
7
  6
CONTINUOUS
 10
117.04661063
 20
42.8352590945
 11
116.6115167571
 21
41.6232519946
  0
LINE
  5
4DF
100
AcDbEntity
  8
KONSTRUKTIONSELEMENTE
100
AcDbLine
 62
7
  6
CONTINUOUS
 10
117.983834938
 20
42.3713116399
 11
117.6027188815
 21
41.4088533585
  0
LINE
  5
4E0
100
AcDbEntity
  8
KONSTRUKTIONSELEMENTE
100
AcDbLine
 62
7
  6
CONTINUOUS
 10
91.2354211271
 20
53.4808470092
 11
90.8312038493
 21
52.8302317938
  0
LINE
  5
4E1
100
AcDbEntity
  8
KONSTRUKTIONSELEMENTE
100
AcDbLine
 62
7
  6
CONTINUOUS
 10
92.0968322554
 20
52.9456654562
 11
91.5578760108
 21
52.0781787049
  0
LINE
  5
4E2
100
AcDbEntity
  8
KONSTRUKTIONSELEMENTE
100
AcDbLine
 62
7
  6
CONTINUOUS
 10
76.7051780706
 20
54.1061247922
 11
78.9856196352
 21
57.1829506144
  0
LINE
  5
4E3
100
AcDbEntity
  8
KONSTRUKTIONSELEMENTE
100
AcDbLine
 62
7
  6
CONTINUOUS
 10
79.8977961333
 20
58.4136807709
 11
82.026208388
 21
61.2853850441
  0
LINE
  5
4E4
100
AcDbEntity
  8
KONSTRUKTIONSELEMENTE
100
AcDbLine
 62
7
  6
CONTINUOUS
 10
84.5087862196
 20
57.5385743352
 11
84.2047273869
 21
57.1283309497
  0
LINE
  5
4E5
100
AcDbEntity
  8
KONSTRUKTIONSELEMENTE
100
AcDbLine
 62
7
  6
CONTINUOUS
 10
81.4681976797
 20
53.4361401929
 11
81.0121094307
 21
52.8207751146
  0
LINE
  5
4E6
100
AcDbEntity
  8
KONSTRUKTIONSELEMENTE
100
AcDbLine
 62
7
  6
CONTINUOUS
 10
85.4755569545
 20
57.1398375922
 11
84.8674388632
 21
56.3193502466
  0
LINE
  5
4E7
100
AcDbEntity
  8
KONSTRUKTIONSELEMENTE
100
AcDbLine
 62
7
  6
CONTINUOUS
 10
82.4349679888
 20
53.0374028753
 11
81.674820907
 21
52.0117944115
  0
LINE
  5
4E8
100
AcDbEntity
  8
KONSTRUKTIONSELEMENTE
100
AcDbLine
 62
7
  6
CONTINUOUS
 10
70.7585915803
 20
62.4869878267
 11
73.2882816659
 21
65.3623899848
  0
LINE
  5
4E9
100
AcDbEntity
  8
KONSTRUKTIONSELEMENTE
100
AcDbLine
 62
7
  6
CONTINUOUS
 10
71.5199956915
 20
61.8171279861
 11
74.0496857771
 21
64.6925301442
  0
LINE
  5
4EA
100
AcDbEntity
  8
KONSTRUKTIONSELEMENTE
100
AcDbLine
 62
7
  6
CONTINUOUS
 10
77.602905931
 20
61.566516703
 11
75.0732158454
 21
58.6911145449
  0
LINE
  5
4EB
100
AcDbEntity
  8
KONSTRUKTIONSELEMENTE
100
AcDbLine
 62
7
  6
CONTINUOUS
 10
78.3643100422
 20
60.8966568624
 11
75.8346199566
 21
58.0212547043
  0
LINE
  5
4EC
100
AcDbEntity
  8
KONSTRUKTIONSELEMENTE
100
AcDbLine
 62
7
  6
CONTINUOUS
 10
75.5589707568
 20
69.2754493005
 11
76.8566437439
 21
70.6061140248
  0
LINE
  5
4ED
100
AcDbEntity
  8
KONSTRUKTIONSELEMENTE
100
AcDbLine
 62
7
  6
CONTINUOUS
 10
64.6478177114
 20
71.6475005709
 11
68.9599930582
 21
75.1187990604
  0
LINE
  5
4EE
100
AcDbEntity
  8
KONSTRUKTIONSELEMENTE
100
AcDbLine
 62
7
  6
CONTINUOUS
 10
69.7983106551
 20
74.0774099419
 11
65.4861353084
 21
70.6061114523
  0
LINE
  5
4EF
100
AcDbEntity
  8
KONSTRUKTIONSELEMENTE
100
AcDbLine
 62
7
  6
CONTINUOUS
 10
50.6750299609
 20
80.5806756179
 11
60.6458565452
 21
87.2576972014
  0
LINE
  5
4F0
100
AcDbEntity
  8
KONSTRUKTIONSELEMENTE
100
AcDbLine
 62
7
  6
CONTINUOUS
 10
52.5121790139
 20
80.5904230868
 11
59.9372627954
 21
85.562673306
  0
LINE
  5
4F1
100
AcDbEntity
  8
KONSTRUKTIONSELEMENTE
100
AcDbLine
 62
7
  6
CONTINUOUS
 10
57.2669263766
 20
78.0787545487
 11
60.4491049916
 21
80.2097188288
  0
LINE
  5
4F2
100
AcDbEntity
  8
KONSTRUKTIONSELEMENTE
100
AcDbLine
 62
7
  6
CONTINUOUS
 10
57.831203954
 20
77.2361162857
 11
61.0133825689
 21
79.3670805658
  0
LINE
  5
4F3
100
AcDbEntity
  8
KONSTRUKTIONSELEMENTE
100
AcDbLine
 62
7
  6
CONTINUOUS
 10
50.076730544
 20
89.8950261328
 11
56.9949395441
 21
93.740013421
  0
LINE
  5
4F4
100
AcDbEntity
  8
KONSTRUKTIONSELEMENTE
100
AcDbLine
 62
7
  6
CONTINUOUS
 10
50.5693837183
 20
89.0086050944
 11
57.4875927184
 21
92.8535923827
  0
LINE
  5
4F5
100
AcDbEntity
  8
KONSTRUKTIONSELEMENTE
100
AcDbLine
 62
7
  6
CONTINUOUS
 10
52.539995476
 20
85.4629226316
 11
59.4582044761
 21
89.3079099199
  0
LINE
  5
4F6
100
AcDbEntity
  8
0
100
AcDbLine
 62
7
  6
CONTINUOUS
 10
204.8280685322
 20
168.9895741909
 11
197.0920071792
 21
165.0478540527
  0
LINE
  5
4F7
100
AcDbEntity
  8
KONSTRUKTIONSELEMENTE
100
AcDbLine
 62
7
  6
CONTINUOUS
 10
42.797129899
 20
95.8335219265
 11
53.7233141
 21
100.7952251427
  0
LINE
  5
4F8
100
AcDbEntity
  8
KONSTRUKTIONSELEMENTE
100
AcDbLine
 62
7
  6
CONTINUOUS
 10
43.2164452832
 20
94.910146036
 11
48.0983574423
 21
97.1270772917
  0
LINE
  5
4F9
100
AcDbEntity
  8
KONSTRUKTIONSELEMENTE
100
AcDbLine
 62
7
  6
CONTINUOUS
 10
49.4931893017
 20
97.7604861374
 11
52.9802696014
 21
99.3440085474
  0
LINE
  5
4FA
100
AcDbEntity
  8
KONSTRUKTIONSELEMENTE
100
AcDbLine
 62
7
  6
CONTINUOUS
 10
193.0412514564
 20
198.8357456243
 11
193.7727672672
 21
199.0187357706
  0
LINE
  5
4FB
100
AcDbEntity
  8
KONSTRUKTIONSELEMENTE
100
AcDbLine
 62
7
  6
CONTINUOUS
 10
196.9995751657
 20
182.6423647732
 11
196.1093585253
 21
182.5644809091
  0
LINE
  5
4FC
100
AcDbEntity
  8
KONSTRUKTIONSELEMENTE
100
AcDbLine
 62
7
  6
CONTINUOUS
 10
193.9495367316
 20
183.3274447086
 11
200.9228996182
 21
183.9375349078
  0
LINE
  5
4FD
100
AcDbEntity
  8
KONSTRUKTIONSELEMENTE
100
AcDbLine
 62
7
  6
CONTINUOUS
 10
199.6739568833
 20
184.5422100492
 11
193.8875492402
 21
184.0359649779
  0
LINE
  5
4FE
100
AcDbEntity
  8
KONSTRUKTIONSELEMENTE
100
AcDbLine
 62
7
  6
CONTINUOUS
 10
199.7603387973
 20
185.2637109595
 11
198.5733831382
 21
185.1598657952
  0
LINE
  5
4FF
100
AcDbEntity
  8
KONSTRUKTIONSELEMENTE
100
AcDbLine
 62
7
  6
CONTINUOUS
 10
193.7429117207
 20
185.6891793901
 11
200.7162746073
 21
186.2992695893
  0
LINE
  5
500
100
AcDbEntity
  8
KONSTRUKTIONSELEMENTE
100
AcDbLine
 62
7
  6
CONTINUOUS
 10
199.4673318724
 20
186.9039447307
 11
193.6809242293
 21
186.3976996594
  0
LINE
  5
501
100
AcDbEntity
  8
KONSTRUKTIONSELEMENTE
100
AcDbLine
 62
7
  6
CONTINUOUS
 10
199.5537137864
 20
187.625445641
 11
198.3667581273
 21
187.5216004768
  0
LINE
  5
502
100
AcDbEntity
  8
KONSTRUKTIONSELEMENTE
100
AcDbLine
 62
7
  6
CONTINUOUS
 10
106.9621322468
 20
228.4390245695
 11
106.6341027323
 21
228.8163793596
  0
LINE
  5
503
100
AcDbEntity
  8
KONSTRUKTIONSELEMENTE
100
AcDbLine
 62
7
  6
CONTINUOUS
 10
193.8158638183
 20
59.3394145063
 11
194.1376201374
 21
58.2700576584
  0
LINE
  5
504
100
AcDbEntity
  8
KONSTRUKTIONSELEMENTE
100
AcDbLine
 62
7
  6
CONTINUOUS
 10
195.5237629013
 20
59.9937283186
 11
195.8455206665
 21
58.924372384
  0
LINE
  5
505
100
AcDbEntity
  8
KONSTRUKTIONSELEMENTE
100
AcDbLine
 62
7
  6
CONTINUOUS
 10
177.4069160599
 20
55.6562088133
 11
178.8632396997
 21
38.1947090275
  0
LINE
  5
506
100
AcDbEntity
  8
KONSTRUKTIONSELEMENTE
100
AcDbLine
 62
7
  6
CONTINUOUS
 10
175.728228958
 20
55.0250024705
 11
176.986733262
 21
39.7881536338
  0
LINE
  5
507
100
AcDbEntity
  8
KONSTRUKTIONSELEMENTE
100
AcDbLine
 62
7
  6
CONTINUOUS
 10
162.2477302867
 20
40.8679925213
 11
162.370287937
 21
41.9367601671
  0
LINE
  5
508
100
AcDbEntity
  8
KONSTRUKTIONSELEMENTE
100
AcDbLine
 62
7
  6
CONTINUOUS
 10
130.6143695897
 20
34.0321178789
 11
130.3159519242
 21
33.0408963908
  0
LINE
  5
509
100
AcDbEntity
  8
KONSTRUKTIONSELEMENTE
100
AcDbLine
 62
7
  6
CONTINUOUS
 10
122.0287548509
 20
35.4882462408
 11
121.5936686536
 21
34.2762380294
  0
LINE
  5
50A
100
AcDbEntity
  8
KONSTRUKTIONSELEMENTE
100
AcDbLine
 62
7
  6
CONTINUOUS
 10
129.6412936531
 20
34.4152099052
 11
129.3755738212
 21
33.6772053108
  0
LINE
  5
50B
100
AcDbEntity
  8
KONSTRUKTIONSELEMENTE
100
AcDbLine
 62
7
  6
CONTINUOUS
 10
121.0375527265
 20
35.7026448768
 11
120.7104218975
 21
34.9897330792
  0
LINE
  5
50C
100
AcDbEntity
  8
KONSTRUKTIONSELEMENTE
100
AcDbLine
 62
7
  6
CONTINUOUS
 10
192.6139383135
 20
202.011106193
 11
192.4862313725
 21
201.761952353
  0
LINE
  5
50D
100
AcDbEntity
  8
KONSTRUKTIONSELEMENTE
100
AcDbLine
 62
7
  6
CONTINUOUS
 10
192.9726646417
 20
201.3285472079
 11
193.2280784906
 21
201.8268555659
  0
LINE
  5
50E
100
AcDbEntity
  8
KONSTRUKTIONSELEMENTE
100
AcDbLine
 62
7
  6
CONTINUOUS
 10
196.0892870274
 20
206.7178114455
 11
195.9615801142
 21
206.4686574377
  0
LINE
  5
50F
100
AcDbEntity
  8
KONSTRUKTIONSELEMENTE
100
AcDbLine
 62
7
  6
CONTINUOUS
 10
196.2545869948
 20
204.8284241733
 11
196.1268800963
 21
204.5792699966
  0
LINE
  5
510
100
AcDbEntity
  8
KONSTRUKTIONSELEMENTE
100
AcDbLine
 62
7
  6
CONTINUOUS
 10
196.5091363133
 20
200.2100614439
 11
196.3814293853
 21
199.960907605
  0
LINE
  5
511
100
AcDbEntity
  8
KONSTRUKTIONSELEMENTE
100
AcDbLine
 62
7
  6
CONTINUOUS
 10
116.1625368048
 20
45.9555370212
 11
110.0485253437
 21
35.2816294525
  0
LINE
  5
512
100
AcDbEntity
  8
KONSTRUKTIONSELEMENTE
100
AcDbLine
 62
7
  6
CONTINUOUS
 10
115.1932644323
 20
46.2537978039
 11
109.8528926349
 21
36.9446314895
  0
LINE
  5
513
100
AcDbEntity
  8
KONSTRUKTIONSELEMENTE
100
AcDbLine
 62
7
  6
CONTINUOUS
 10
196.8575313473
 20
199.6455893933
 11
197.1232764125
 21
200.0258108099
  0
LINE
  5
514
100
AcDbEntity
  8
KONSTRUKTIONSELEMENTE
100
AcDbLine
 62
7
  6
CONTINUOUS
 10
97.447903176
 20
52.1248770908
 11
92.9624242386
 21
46.6735977218
  0
LINE
  5
515
100
AcDbEntity
  8
KONSTRUKTIONSELEMENTE
100
AcDbLine
 62
7
  6
CONTINUOUS
 10
92.3481051576
 20
45.840419379
 11
90.3545613151
 21
43.4176274835
  0
LINE
  5
516
100
AcDbEntity
  8
KONSTRUKTIONSELEMENTE
100
AcDbLine
 62
7
  6
CONTINUOUS
 10
97.3092624978
 20
53.3417867428
 11
89.4510082253
 21
43.8781057572
  0
LINE
  5
517
100
AcDbEntity
  8
KONSTRUKTIONSELEMENTE
100
AcDbLine
 62
7
  6
CONTINUOUS
 10
74.2584137415
 20
66.2092136599
 11
73.2882816659
 21
65.3623899848
  0
LINE
  5
518
100
AcDbEntity
  8
KONSTRUKTIONSELEMENTE
100
AcDbLine
 62
7
  6
CONTINUOUS
 10
75.8346199566
 20
58.0212547043
 11
74.8644883534
 21
57.1744315663
  0
LINE
  5
519
100
AcDbEntity
  8
KONSTRUKTIONSELEMENTE
100
AcDbLine
 62
7
  6
CONTINUOUS
 10
74.8511713903
 20
65.3476598229
 11
74.0496857771
 21
64.6925301442
  0
LINE
  5
51A
100
AcDbEntity
  8
KONSTRUKTIONSELEMENTE
100
AcDbLine
 62
7
  6
CONTINUOUS
 10
70.5371051152
 20
76.1023342389
 11
68.9599930582
 21
75.1187990604
  0
LINE
  5
51B
100
AcDbEntity
  8
KONSTRUKTIONSELEMENTE
100
AcDbLine
 62
7
  6
CONTINUOUS
 10
53.0326484154
 20
84.5765020159
 11
59.9508574155
 21
88.4214893042
  0
LINE
  5
51C
100
AcDbEntity
  8
KONSTRUKTIONSELEMENTE
100
AcDbLine
 62
7
  6
CONTINUOUS
 10
52.6351685285
 20
94.546495586
 11
53.3325851094
 21
94.8632003045
  0
LINE
  5
51D
100
AcDbEntity
  8
KONSTRUKTIONSELEMENTE
100
AcDbLine
 62
7
  6
CONTINUOUS
 10
52.8220119361
 20
93.5175515545
 11
53.7519004936
 21
93.939824414
  0
LINE
  5
51E
100
AcDbEntity
  8
KONSTRUKTIONSELEMENTE
100
AcDbLine
 62
7
  6
CONTINUOUS
 10
193.7727672672
 20
199.0187357706
 11
196.1466780659
 21
199.2264260537
  0
LINE
  5
51F
100
AcDbEntity
  8
KONSTRUKTIONSELEMENTE
100
AcDbLine
 62
7
  6
CONTINUOUS
 10
196.0950218427
 20
199.8168593862
 11
195.6499136264
 21
199.7779174633
  0
LINE
  5
520
100
AcDbEntity
  8
KONSTRUKTIONSELEMENTE
100
AcDbLine
 62
7
  6
CONTINUOUS
 10
195.0564357969
 20
199.7259948811
 11
194.1662193643
 21
199.6481110352
  0
LINE
  5
521
100
AcDbEntity
  8
KONSTRUKTIONSELEMENTE
100
AcDbLine
 62
7
  6
CONTINUOUS
 10
193.5144860332
 20
201.9709037847
 11
193.8112249479
 21
201.9968650757
  0
LINE
  5
522
100
AcDbEntity
  8
KONSTRUKTIONSELEMENTE
100
AcDbLine
 62
7
  6
CONTINUOUS
 10
196.1334794195
 20
202.7949886823
 11
195.8367406087
 21
202.7690274003
  0
LINE
  5
523
100
AcDbEntity
  8
KONSTRUKTIONSELEMENTE
100
AcDbLine
 62
7
  6
CONTINUOUS
 10
194.0563075356
 20
202.6132596902
 11
193.6111993193
 21
202.5743177673
  0
LINE
  5
524
100
AcDbEntity
  8
KONSTRUKTIONSELEMENTE
100
AcDbLine
 62
7
  6
CONTINUOUS
 10
192.1932244642
 20
203.4021857852
 11
195.7540906102
 21
203.7137212053
  0
LINE
  5
525
100
AcDbEntity
  8
KONSTRUKTIONSELEMENTE
100
AcDbLine
 62
7
  6
CONTINUOUS
 10
195.702434387
 20
204.3041545379
 11
192.141568241
 21
203.9926191178
  0
LINE
  5
526
100
AcDbEntity
  8
KONSTRUKTIONSELEMENTE
100
AcDbLine
 62
7
  6
CONTINUOUS
 10
192.0279244968
 20
205.2915730575
 11
195.5887906429
 21
205.6031084776
  0
LINE
  5
527
100
AcDbEntity
  8
0
100
AcDbLine
 62
7
  6
CONTINUOUS
 10
197.0920071792
 20
165.0478540527
 11
204.8280685322
 21
160.0239970687
  0
LINE
  5
528
100
AcDbEntity
  8
KONSTRUKTIONSELEMENTE
100
AcDbLine
 62
7
  6
CONTINUOUS
 10
113.3771636787
 20
234.0155263159
 11
113.0491341642
 21
234.392881106
  0
LINE
  5
529
100
AcDbEntity
  8
KONSTRUKTIONSELEMENTE
100
AcDbLine
 62
7
  6
CONTINUOUS
 10
115.4090652774
 20
235.7818314282
 11
115.0810357629
 21
236.1591862183
  0
LINE
  5
52A
100
AcDbEntity
  8
KONSTRUKTIONSELEMENTE
100
AcDbLine
 62
7
  6
CONTINUOUS
 10
116.4354703065
 20
236.6740717076
 11
116.107440792
 21
237.0514264978
  0
LINE
  5
52B
100
AcDbEntity
  8
KONSTRUKTIONSELEMENTE
100
AcDbLine
 62
7
  6
CONTINUOUS
 10
119.0014828793
 20
238.9046724062
 11
118.6734533648
 21
239.2820271963
  0
LINE
  5
52C
100
AcDbEntity
  8
KONSTRUKTIONSELEMENTE
100
AcDbLine
 62
7
  6
CONTINUOUS
 10
121.4197942544
 20
241.0068784125
 11
121.0917647399
 21
241.3842332026
  0
LINE
  5
52D
100
AcDbEntity
  8
0
100
AcDbLine
 62
7
  6
CONTINUOUS
 10
176.3385308542
 20
240.514388151
 11
185.0400866179
 21
141.0551506564
  0
LINE
  5
52E
100
AcDbEntity
  8
KONSTRUKTIONSELEMENTE
100
AcDbLine
 62
7
  6
CONTINUOUS
 10
154.8046930942
 20
40.5072795191
 11
154.5979685885
 21
39.451559667
  0
LINE
  5
52F
100
AcDbEntity
  8
KONSTRUKTIONSELEMENTE
100
AcDbLine
 62
7
  6
CONTINUOUS
 10
158.4695761137
 20
42.4277810435
 11
158.2949304548
 21
41.6089627759
  0
LINE
  5
530
100
AcDbEntity
  8
KONSTRUKTIONSELEMENTE
100
AcDbLine
 62
7
  6
CONTINUOUS
 10
163.4059899267
 20
41.109403773
 11
163.2313518422
 21
40.2905870842
  0
LINE
  5
531
100
AcDbEntity
  8
KONSTRUKTIONSELEMENTE
100
AcDbLine
 62
7
  6
CONTINUOUS
 10
192.4862313725
 20
201.761952353
 11
192.3791869681
 21
201.2766246394
  0
LINE
  5
532
100
AcDbEntity
  8
KONSTRUKTIONSELEMENTE
100
AcDbLine
 62
7
  6
CONTINUOUS
 10
196.6161807047
 20
200.6953891563
 11
196.5091363133
 21
200.2100614439
  0
LINE
  5
533
100
AcDbEntity
  8
KONSTRUKTIONSELEMENTE
100
AcDbLine
 62
7
  6
CONTINUOUS
 10
150.9550575559
 20
41.30537754
 11
150.7161838091
 21
40.5029446371
  0
LINE
  5
534
100
AcDbEntity
  8
KONSTRUKTIONSELEMENTE
100
AcDbLine
 62
7
  6
CONTINUOUS
 10
196.5860514817
 20
206.166319867
 11
196.7034271414
 21
206.5335606427
  0
LINE
  5
535
100
AcDbEntity
  8
KONSTRUKTIONSELEMENTE
100
AcDbLine
 62
7
  6
CONTINUOUS
 10
196.7513514638
 20
204.2769324259
 11
196.8687271235
 21
204.6441732015
  0
LINE
  5
536
100
AcDbEntity
  8
KONSTRUKTIONSELEMENTE
100
AcDbLine
 62
7
  6
CONTINUOUS
 10
125.5279637519
 20
42.1546555773
 11
125.0619120359
 21
41.185080812
  0
LINE
  5
537
100
AcDbEntity
  8
KONSTRUKTIONSELEMENTE
100
AcDbLine
 62
7
  6
CONTINUOUS
 10
117.5929169576
 20
43.7619864508
 11
117.04661063
 21
42.8352590945
  0
LINE
  5
538
100
AcDbEntity
  8
KONSTRUKTIONSELEMENTE
100
AcDbLine
 62
7
  6
CONTINUOUS
 10
90.8312038493
 20
52.8302317938
 11
90.2834173322
 21
52.268814792
  0
LINE
  5
539
100
AcDbEntity
  8
KONSTRUKTIONSELEMENTE
100
AcDbLine
 62
7
  6
CONTINUOUS
 10
91.5578760108
 20
52.0781787049
 11
91.0100894937
 21
51.5167617031
  0
LINE
  5
53A
100
AcDbEntity
  8
KONSTRUKTIONSELEMENTE
100
AcDbLine
 62
7
  6
CONTINUOUS
 10
84.2047273869
 20
57.1283309497
 11
83.6128479531
 21
56.6136098077
  0
LINE
  5
53B
100
AcDbEntity
  8
KONSTRUKTIONSELEMENTE
100
AcDbLine
 62
7
  6
CONTINUOUS
 10
84.8674388632
 20
56.3193502466
 11
84.2755594294
 21
55.8046291046
  0
LINE
  5
53C
100
AcDbEntity
  8
KONSTRUKTIONSELEMENTE
100
AcDbLine
 62
7
  6
CONTINUOUS
 10
81.0121094307
 20
52.8207751146
 11
80.4202299969
 21
52.3060539726
  0
LINE
  5
53D
100
AcDbEntity
  8
KONSTRUKTIONSELEMENTE
100
AcDbLine
 62
7
  6
CONTINUOUS
 10
81.674820907
 20
52.0117944115
 11
81.0829413667
 21
51.4970731258
  0
LINE
  5
53E
100
AcDbEntity
  8
KONSTRUKTIONSELEMENTE
100
AcDbLine
 62
7
  6
CONTINUOUS
 10
75.0732158454
 20
58.6911145449
 11
74.2717302322
 21
58.0359848662
  0
LINE
  5
53F
100
AcDbEntity
  8
KONSTRUKTIONSELEMENTE
100
AcDbLine
 62
7
  6
CONTINUOUS
 10
68.9469687732
 20
63.9527917894
 11
67.3698574575
 21
62.9692569264
  0
LINE
  5
540
100
AcDbEntity
  8
KONSTRUKTIONSELEMENTE
100
AcDbLine
 62
7
  6
CONTINUOUS
 10
71.0879435398
 20
74.8295246409
 11
69.7983106551
 21
74.0774099419
  0
LINE
  5
541
100
AcDbEntity
  8
KONSTRUKTIONSELEMENTE
100
AcDbLine
 62
7
  6
CONTINUOUS
 10
57.831203954
 20
77.2361162857
 11
56.676431944
 21
76.6662341001
  0
LINE
  5
542
100
AcDbEntity
  8
KONSTRUKTIONSELEMENTE
100
AcDbLine
 62
7
  6
CONTINUOUS
 10
57.2669263766
 20
78.0787545487
 11
56.3242995878
 21
77.6509366352
  0
LINE
  5
543
100
AcDbEntity
  8
KONSTRUKTIONSELEMENTE
100
AcDbLine
 62
7
  6
CONTINUOUS
 10
53.0326484154
 20
84.5765020159
 11
51.8346994255
 21
84.104079911
  0
LINE
  5
544
100
AcDbEntity
  8
KONSTRUKTIONSELEMENTE
100
AcDbLine
 62
7
  6
CONTINUOUS
 10
52.539995476
 20
85.4629226316
 11
51.5652144881
 21
85.1145323579
  0
LINE
  5
545
100
AcDbEntity
  8
KONSTRUKTIONSELEMENTE
100
AcDbLine
 62
7
  6
CONTINUOUS
 10
195.5371344049
 20
206.193541979
 11
191.9762682589
 21
205.8820065589
  0
LINE
  5
546
100
AcDbEntity
  8
KONSTRUKTIONSELEMENTE
100
AcDbLine
 62
7
  6
CONTINUOUS
 10
191.8626245184
 20
207.1809604564
 11
195.5718600699
 21
207.5054765175
  0
LINE
  5
547
100
AcDbEntity
  8
KONSTRUKTIONSELEMENTE
100
AcDbLine
 62
7
  6
CONTINUOUS
 10
196.1653376916
 20
207.5573990814
 11
196.6104459079
 21
207.5963410044
  0
LINE
  5
548
100
AcDbEntity
  8
KONSTRUKTIONSELEMENTE
100
AcDbLine
 62
7
  6
CONTINUOUS
 10
196.5587896663
 20
208.1867745481
 11
191.8109682768
 21
207.7713940001
  0
LINE
  5
549
100
AcDbEntity
  8
KONSTRUKTIONSELEMENTE
100
AcDbLine
 62
7
  6
CONTINUOUS
 10
193.8112249479
 20
201.9968650757
 11
194.2666644325
 21
201.9177200619
  0
LINE
  5
54A
100
AcDbEntity
  8
KONSTRUKTIONSELEMENTE
100
AcDbLine
 62
7
  6
CONTINUOUS
 10
198.5733831382
 20
185.1598657952
 11
199.6739568833
 21
184.5422100492
  0
LINE
  5
54B
100
AcDbEntity
  8
KONSTRUKTIONSELEMENTE
100
AcDbLine
 62
7
  6
CONTINUOUS
 10
200.8609121268
 20
184.6460551771
 11
199.7603387973
 21
185.2637109595
  0
LINE
  5
54C
100
AcDbEntity
  8
KONSTRUKTIONSELEMENTE
100
AcDbLine
 62
7
  6
CONTINUOUS
 10
201.2534994938
 20
180.158761039
 11
196.9995751657
 21
182.6423647732
  0
LINE
  5
54D
100
AcDbEntity
  8
KONSTRUKTIONSELEMENTE
100
AcDbLine
 62
7
  6
CONTINUOUS
 10
197.0718939845
 20
181.8157568914
 11
200.0665442503
 21
180.0549159111
  0
LINE
  5
54E
100
AcDbEntity
  8
KONSTRUKTIONSELEMENTE
100
AcDbLine
 62
7
  6
CONTINUOUS
 10
122.6049846941
 20
242.0371487435
 11
122.2769551796
 21
242.4145035337
  0
LINE
  5
54F
100
AcDbEntity
  8
KONSTRUKTIONSELEMENTE
100
AcDbLine
 62
7
  6
CONTINUOUS
 10
123.1071029957
 20
242.4736335239
 11
122.7790734812
 21
242.850988314
  0
LINE
  5
550
100
AcDbEntity
  8
KONSTRUKTIONSELEMENTE
100
AcDbLine
 62
7
  6
CONTINUOUS
 10
129.2436070344
 20
247.8080151014
 11
128.9155775199
 21
248.1853698915
  0
LINE
  5
551
100
AcDbEntity
  8
KONSTRUKTIONSELEMENTE
100
AcDbLine
 62
7
  6
CONTINUOUS
 10
191.8109682768
 20
207.7713940001
 11
191.8626245184
 21
207.1809604564
  0
LINE
  5
552
100
AcDbEntity
  8
KONSTRUKTIONSELEMENTE
100
AcDbLine
 62
7
  6
CONTINUOUS
 10
191.9762682589
 20
205.8820065589
 11
192.0279244968
 21
205.2915730575
  0
LINE
  5
553
100
AcDbEntity
  8
KONSTRUKTIONSELEMENTE
100
AcDbLine
 62
7
  6
CONTINUOUS
 10
192.141568241
 20
203.9926191178
 11
192.1932244642
 21
203.4021857852
  0
LINE
  5
554
100
AcDbEntity
  8
KONSTRUKTIONSELEMENTE
100
AcDbLine
 62
7
  6
CONTINUOUS
 10
192.3791869681
 20
201.2766246394
 11
192.4411744595
 21
200.5681043701
  0
LINE
  5
555
100
AcDbEntity
  8
KONSTRUKTIONSELEMENTE
100
AcDbLine
 62
7
  6
CONTINUOUS
 10
192.5548181741
 20
199.2691507682
 11
192.6064743973
 21
198.6787174357
  0
LINE
  5
556
100
AcDbEntity
  8
KONSTRUKTIONSELEMENTE
100
AcDbLine
 62
7
  6
CONTINUOUS
 10
192.6891244253
 20
197.7340232928
 11
192.7511119167
 21
197.0255030235
  0
LINE
  5
557
100
AcDbEntity
  8
KONSTRUKTIONSELEMENTE
100
AcDbLine
 62
7
  6
CONTINUOUS
 10
192.9783994051
 20
194.4275951441
 11
193.0403868965
 21
193.7190748748
  0
LINE
  5
558
100
AcDbEntity
  8
KONSTRUKTIONSELEMENTE
100
AcDbLine
 62
7
  6
CONTINUOUS
 10
193.6809242293
 20
186.3976996594
 11
193.7429117207
 21
185.6891793901
  0
LINE
  5
559
100
AcDbEntity
  8
KONSTRUKTIONSELEMENTE
100
AcDbLine
 62
7
  6
CONTINUOUS
 10
193.8875492402
 20
184.0359649779
 11
193.9495367316
 21
183.3274447086
  0
LINE
  5
55A
100
AcDbEntity
  8
KONSTRUKTIONSELEMENTE
100
AcDbLine
 62
7
  6
CONTINUOUS
 10
194.2801366071
 20
179.5486708398
 11
194.3421240986
 21
178.8401505705
  0
LINE
  5
55B
100
AcDbEntity
  8
KONSTRUKTIONSELEMENTE
100
AcDbLine
 62
7
  6
CONTINUOUS
 10
193.0346521332
 20
200.6200269386
 11
192.9726646417
 21
201.3285472079
  0
LINE
  5
55C
100
AcDbEntity
  8
KONSTRUKTIONSELEMENTE
100
AcDbLine
 62
7
  6
CONTINUOUS
 10
196.1093585253
 20
182.5644809091
 11
196.357308491
 21
179.7303998318
  0
LINE
  5
55D
100
AcDbEntity
  8
KONSTRUKTIONSELEMENTE
100
AcDbLine
 62
7
  6
CONTINUOUS
 10
196.4192959825
 20
179.0218795625
 11
196.522608547
 21
177.8410115461
  0
LINE
  5
55E
100
AcDbEntity
  8
KONSTRUKTIONSELEMENTE
100
AcDbLine
 62
7
  6
CONTINUOUS
 10
194.9427920231
 20
201.0249491587
 11
195.0564357969
 21
199.7259948811
  0
LINE
  5
55F
100
AcDbEntity
  8
KONSTRUKTIONSELEMENTE
100
AcDbLine
 62
7
  6
CONTINUOUS
 10
197.4128251875
 20
177.9188954102
 11
197.3095126229
 21
179.0997634266
  0
LINE
  5
560
100
AcDbEntity
  8
KONSTRUKTIONSELEMENTE
100
AcDbLine
 62
7
  6
CONTINUOUS
 10
197.2475251314
 20
179.808283696
 11
197.0718939845
 21
181.8157568914
  0
LINE
  5
561
100
AcDbEntity
  8
KONSTRUKTIONSELEMENTE
100
AcDbLine
 62
7
  6
CONTINUOUS
 10
195.6499136264
 20
199.7779174633
 11
195.5362698527
 21
201.0768717408
  0
LINE
  5
562
100
AcDbEntity
  8
KONSTRUKTIONSELEMENTE
100
AcDbLine
 62
7
  6
CONTINUOUS
 10
195.8367406087
 20
202.7690274003
 11
195.8883968318
 21
202.1785940678
  0
LINE
  5
563
100
AcDbEntity
  8
KONSTRUKTIONSELEMENTE
100
AcDbLine
 62
7
  6
CONTINUOUS
 10
196.0686245278
 20
206.9539848968
 11
196.0892870274
 21
206.7178114455
  0
LINE
  5
564
100
AcDbEntity
  8
KONSTRUKTIONSELEMENTE
100
AcDbLine
 62
7
  6
CONTINUOUS
 10
196.2235932491
 20
205.1826843079
 11
196.2545869948
 21
204.8284241733
  0
LINE
  5
565
100
AcDbEntity
  8
KONSTRUKTIONSELEMENTE
100
AcDbLine
 62
7
  6
CONTINUOUS
 10
196.5541932133
 20
201.4039094256
 11
196.6161807047
 21
200.6953891563
  0
LINE
  5
566
100
AcDbEntity
  8
KONSTRUKTIONSELEMENTE
100
AcDbLine
 62
7
  6
CONTINUOUS
 10
197.788208286
 20
194.1344554228
 11
197.7262207946
 21
194.8429756921
  0
LINE
  5
567
100
AcDbEntity
  8
KONSTRUKTIONSELEMENTE
100
AcDbLine
 62
7
  6
CONTINUOUS
 10
197.4989333062
 20
197.4408835715
 11
197.4369458148
 21
198.1494038408
  0
LINE
  5
568
100
AcDbEntity
  8
KONSTRUKTIONSELEMENTE
100
AcDbLine
 62
7
  6
CONTINUOUS
 10
197.2096583264
 20
200.7473117202
 11
197.147670835
 21
201.4558319896
  0
LINE
  5
569
100
AcDbEntity
  8
KONSTRUKTIONSELEMENTE
100
AcDbLine
 62
7
  6
CONTINUOUS
 10
196.8687271235
 20
204.6441732015
 11
196.8274021391
 21
205.1165199351
  0
LINE
  5
56A
100
AcDbEntity
  8
KONSTRUKTIONSELEMENTE
100
AcDbLine
 62
7
  6
CONTINUOUS
 10
196.7034271414
 20
206.5335606427
 11
196.6621021496
 21
207.0059074607
  0
LINE
  5
56B
100
AcDbEntity
  8
KONSTRUKTIONSELEMENTE
100
AcDbLine
 62
7
  6
CONTINUOUS
 10
196.6104459079
 20
207.5963410044
 11
196.5587896663
 21
208.1867745481
  0
LINE
  5
56C
100
AcDbEntity
  8
KONSTRUKTIONSELEMENTE
100
AcDbLine
 62
7
  6
CONTINUOUS
 10
195.8455206665
 20
58.924372384
 11
195.8533054421
 21
57.2325716952
  0
LINE
  5
56D
100
AcDbEntity
  8
KONSTRUKTIONSELEMENTE
100
AcDbLine
 62
7
  6
CONTINUOUS
 10
195.3982249787
 20
172.6628686189
 11
194.6027184438
 21
157.4836996906
  0
LINE
  5
56E
100
AcDbEntity
  8
KONSTRUKTIONSELEMENTE
100
AcDbLine
 62
7
  6
CONTINUOUS
 10
196.5001145599
 20
157.3842613737
 11
197.2956210948
 21
172.563430302
  0
LINE
  5
56F
100
AcDbEntity
  8
KONSTRUKTIONSELEMENTE
100
AcDbLine
 62
7
  6
CONTINUOUS
 10
197.1232764125
 20
200.0258108099
 11
197.2096583264
 21
200.7473117202
  0
LINE
  5
570
100
AcDbEntity
  8
KONSTRUKTIONSELEMENTE
100
AcDbLine
 62
7
  6
CONTINUOUS
 10
155.7716896772
 20
39.6005740416
 11
155.5328159305
 21
38.7981411387
  0
LINE
  5
571
100
AcDbEntity
  8
KONSTRUKTIONSELEMENTE
100
AcDbLine
 62
7
  6
CONTINUOUS
 10
157.8781657911
 20
43.6085451724
 11
157.4246908818
 21
42.470805815
  0
LINE
  5
572
100
AcDbEntity
  8
KONSTRUKTIONSELEMENTE
100
AcDbLine
 62
7
  6
CONTINUOUS
 10
126.4683418779
 20
41.5183468346
 11
126.0349878809
 21
40.8019880764
  0
LINE
  5
573
100
AcDbEntity
  8
KONSTRUKTIONSELEMENTE
100
AcDbLine
 62
7
  6
CONTINUOUS
 10
118.4761637516
 20
43.0484915758
 11
117.983834938
 21
42.3713116399
  0
LINE
  5
574
100
AcDbEntity
  8
KONSTRUKTIONSELEMENTE
100
AcDbLine
 62
7
  6
CONTINUOUS
 10
75.1867981035
 20
66.7527017353
 11
74.2584137415
 21
66.2092136599
  0
LINE
  5
575
100
AcDbEntity
  8
KONSTRUKTIONSELEMENTE
100
AcDbLine
 62
7
  6
CONTINUOUS
 10
74.8644883534
 20
57.1744315663
 11
73.9361038733
 21
56.6309433565
  0
LINE
  5
576
100
AcDbEntity
  8
KONSTRUKTIONSELEMENTE
100
AcDbLine
 62
7
  6
CONTINUOUS
 10
68.1086511762
 20
64.9941809079
 11
67.1064967211
 21
64.4734859624
  0
LINE
  5
577
100
AcDbEntity
  8
KONSTRUKTIONSELEMENTE
100
AcDbLine
 62
7
  6
CONTINUOUS
 10
75.6109102349
 20
65.6994549761
 11
74.8511713903
 21
65.3476598229
  0
LINE
  5
578
100
AcDbEntity
  8
KONSTRUKTIONSELEMENTE
100
AcDbLine
 62
7
  6
CONTINUOUS
 10
71.9664576285
 20
76.6808840487
 11
70.5371051152
 21
76.1023342389
  0
LINE
  5
579
100
AcDbEntity
  8
0
100
AcDbLine
 62
7
  6
CONTINUOUS
 10
89.5283811414
 20
219.1523006999
 11
83.0823145178
 21
219.4901247367
  0
LINE
  5
57A
100
AcDbEntity
  8
KONSTRUKTIONSELEMENTE
100
AcDbLine
 62
7
  6
CONTINUOUS
 10
192.9689326966
 20
199.6623528304
 11
193.2760028277
 21
199.5702271802
  0
LINE
  5
57B
100
AcDbEntity
  8
KONSTRUKTIONSELEMENTE
100
AcDbLine
 62
7
  6
CONTINUOUS
 10
194.1662193643
 20
199.6481110352
 11
193.8591492851
 21
199.74023669
  0
LINE
  5
57C
100
AcDbEntity
  8
KONSTRUKTIONSELEMENTE
100
AcDbLine
 62
7
  6
CONTINUOUS
 10
194.6704476644
 20
202.4290087185
 11
194.0563075356
 21
202.6132596902
  0
LINE
  5
57D
100
AcDbEntity
  8
KONSTRUKTIONSELEMENTE
100
AcDbLine
 62
7
  6
CONTINUOUS
 10
195.8883968318
 20
202.1785940678
 11
196.195466911
 21
202.0864684129
  0
LINE
  5
57E
100
AcDbEntity
  8
KONSTRUKTIONSELEMENTE
100
AcDbLine
 62
7
  6
CONTINUOUS
 10
196.4405494691
 20
202.7028633653
 11
196.1334794195
 21
202.7949886823
  0
LINE
  5
57F
100
AcDbEntity
  8
KONSTRUKTIONSELEMENTE
100
AcDbLine
 62
7
  6
CONTINUOUS
 10
195.5887906429
 20
205.6031084776
 11
195.8958607072
 21
205.5109829917
  0
LINE
  5
580
100
AcDbEntity
  8
KONSTRUKTIONSELEMENTE
100
AcDbLine
 62
7
  6
CONTINUOUS
 10
192.7511119167
 20
197.0255030235
 11
194.7935581098
 21
195.8952977727
  0
LINE
  5
581
100
AcDbEntity
  8
KONSTRUKTIONSELEMENTE
100
AcDbLine
 62
7
  6
CONTINUOUS
 10
197.7262207946
 20
194.8429756921
 11
195.6837747502
 21
195.9731816368
  0
LINE
  5
582
100
AcDbEntity
  8
KONSTRUKTIONSELEMENTE
100
AcDbLine
 62
7
  6
CONTINUOUS
 10
198.3667581273
 20
187.5216004768
 11
199.4673318724
 21
186.9039447307
  0
LINE
  5
583
100
AcDbEntity
  8
KONSTRUKTIONSELEMENTE
100
AcDbLine
 62
7
  6
CONTINUOUS
 10
200.6542871159
 20
187.0077898587
 11
199.5537137864
 21
187.625445641
  0
LINE
  5
584
100
AcDbEntity
  8
KONSTRUKTIONSELEMENTE
100
AcDbLine
 62
7
  6
CONTINUOUS
 10
195.2696600718
 20
195.579979561
 11
197.788208286
 21
194.1344554228
  0
LINE
  5
585
100
AcDbEntity
  8
KONSTRUKTIONSELEMENTE
100
AcDbLine
 62
7
  6
CONTINUOUS
 10
195.2076725804
 20
196.2884998303
 11
192.6891244253
 21
197.7340232928
  0
LINE
  5
586
100
AcDbEntity
  8
KONSTRUKTIONSELEMENTE
100
AcDbLine
 62
7
  6
CONTINUOUS
 10
193.8591492851
 20
199.74023669
 11
193.3830472192
 21
200.0555548926
  0
LINE
  5
587
100
AcDbEntity
  8
KONSTRUKTIONSELEMENTE
100
AcDbLine
 62
7
  6
CONTINUOUS
 10
131.4926415835
 20
249.7630710078
 11
131.164612069
 21
250.1404257979
  0
LINE
  5
588
100
AcDbEntity
  8
KONSTRUKTIONSELEMENTE
100
AcDbLine
 62
7
  6
CONTINUOUS
 10
137.9231165941
 20
255.8380314324
 11
137.8352438119
 21
255.9391175049
  0
LINE
  5
589
100
AcDbEntity
  8
KONSTRUKTIONSELEMENTE
100
AcDbLine
 62
7
  6
CONTINUOUS
 10
201.3154869852
 20
179.4502407697
 11
201.2534994938
 21
180.158761039
  0
LINE
  5
58A
100
AcDbEntity
  8
KONSTRUKTIONSELEMENTE
100
AcDbLine
 62
7
  6
CONTINUOUS
 10
200.9228996182
 20
183.9375349078
 11
200.8609121268
 21
184.6460551771
  0
LINE
  5
58B
100
AcDbEntity
  8
KONSTRUKTIONSELEMENTE
100
AcDbLine
 62
7
  6
CONTINUOUS
 10
200.7162746073
 20
186.2992695893
 11
200.6542871159
 21
187.0077898587
  0
LINE
  5
58C
100
AcDbEntity
  8
BEZUGSACHSEN
100
AcDbLine
 62
7
  6
CONTINUOUS
 10
204.8280685322
 20
308.7496569647
 11
204.8280685322
 21
16.7496569647
  0
LINE
  5
58D
100
AcDbEntity
  8
KONSTRUKTIONSELEMENTE
100
AcDbLine
 62
7
  6
CONTINUOUS
 10
194.1376201374
 20
58.2700576584
 11
194.0151468765
 21
57.3443607598
  0
LINE
  5
58E
100
AcDbEntity
  8
KONSTRUKTIONSELEMENTE
100
AcDbLine
 62
7
  6
CONTINUOUS
 10
158.917104133
 20
33.653656736
 11
162.2477302867
 21
40.8679925213
  0
LINE
  5
58F
100
AcDbEntity
  8
KONSTRUKTIONSELEMENTE
100
AcDbLine
 62
7
  6
CONTINUOUS
 10
163.2313518422
 20
40.2905870842
 11
160.2408261898
 21
33.9295546329
  0
LINE
  5
590
100
AcDbEntity
  8
KONSTRUKTIONSELEMENTE
100
AcDbLine
 62
7
  6
CONTINUOUS
 10
150.4589284766
 20
42.5292324349
 11
149.9168517988
 21
41.4309366295
  0
LINE
  5
591
100
AcDbEntity
  8
KONSTRUKTIONSELEMENTE
100
AcDbLine
 62
7
  6
CONTINUOUS
 10
154.5979685885
 20
39.451559667
 11
150.7069995399
 21
32.5233512939
  0
LINE
  5
592
100
AcDbEntity
  8
KONSTRUKTIONSELEMENTE
100
AcDbLine
 62
7
  6
CONTINUOUS
 10
126.329268268
 20
43.0809392331
 11
125.5279637519
 21
42.1546555773
  0
LINE
  5
593
100
AcDbEntity
  8
KONSTRUKTIONSELEMENTE
100
AcDbLine
 62
7
  6
CONTINUOUS
 10
118.4696340763
 20
44.6172454141
 11
117.5929169576
 21
43.7619864508
  0
LINE
  5
594
100
AcDbEntity
  8
KONSTRUKTIONSELEMENTE
100
AcDbLine
 62
7
  6
CONTINUOUS
 10
91.0100894937
 20
51.5167617031
 11
90.0404280624
 21
50.9168663358
  0
LINE
  5
595
100
AcDbEntity
  8
KONSTRUKTIONSELEMENTE
100
AcDbLine
 62
7
  6
CONTINUOUS
 10
84.2755594294
 20
55.8046291046
 11
83.2600713177
 21
55.2860718388
  0
LINE
  5
596
100
AcDbEntity
  8
KONSTRUKTIONSELEMENTE
100
AcDbLine
 62
7
  6
CONTINUOUS
 10
81.0829413667
 20
51.4970731258
 11
80.0674532018
 21
50.9785157882
  0
LINE
  5
597
100
AcDbEntity
  8
KONSTRUKTIONSELEMENTE
100
AcDbLine
 62
7
  6
CONTINUOUS
 10
74.2717302322
 20
58.0359848662
 11
73.5119918601
 21
57.68419025
  0
LINE
  5
598
100
AcDbEntity
  8
KONSTRUKTIONSELEMENTE
100
AcDbLine
 62
7
  6
CONTINUOUS
 10
72.2298185662
 20
75.1766551747
 11
71.0879435398
 21
74.8295246409
  0
LINE
  5
599
100
AcDbEntity
  8
KONSTRUKTIONSELEMENTE
100
AcDbLine
 62
7
  6
CONTINUOUS
 10
194.2666644325
 20
201.9177200619
 11
194.5840657208
 21
201.707508146
  0
LINE
  5
59A
100
AcDbEntity
  8
KONSTRUKTIONSELEMENTE
100
AcDbLine
 62
7
  6
CONTINUOUS
 10
194.9878491901
 20
202.2187964829
 11
194.6704476644
 21
202.4290087185
  0
LINE
  5
59B
100
AcDbEntity
  8
KONSTRUKTIONSELEMENTE
100
AcDbLine
 62
7
  6
CONTINUOUS
 10
196.757950787
 20
202.4926511116
 11
196.4405494691
 21
202.7028633653
  0
LINE
  5
59C
100
AcDbEntity
  8
KONSTRUKTIONSELEMENTE
100
AcDbLine
 62
7
  6
CONTINUOUS
 10
195.8958607072
 20
205.5109829917
 11
196.0545613514
 21
205.4058770337
  0
LINE
  5
59D
100
AcDbEntity
  8
KONSTRUKTIONSELEMENTE
100
AcDbLine
 62
7
  6
CONTINUOUS
 10
196.6480389731
 20
205.4577995977
 11
196.1719370111
 21
205.7731178094
  0
LINE
  5
59E
100
AcDbEntity
  8
KONSTRUKTIONSELEMENTE
100
AcDbLine
 62
7
  6
CONTINUOUS
 10
195.5718600699
 20
207.5054765175
 11
195.8892613767
 21
207.2952643904
  0
LINE
  5
59F
100
AcDbEntity
  8
KONSTRUKTIONSELEMENTE
100
AcDbLine
 62
7
  6
CONTINUOUS
 10
196.4827389984
 20
207.3471869544
 11
196.1653376916
 21
207.5573990814
  0
LINE
  5
5A0
100
AcDbEntity
  8
KONSTRUKTIONSELEMENTE
100
AcDbLine
 62
7
  6
CONTINUOUS
 10
192.6412001011
 20
199.9906516797
 11
192.9689326966
 21
199.6623528304
  0
LINE
  5
5A1
100
AcDbEntity
  8
KONSTRUKTIONSELEMENTE
100
AcDbLine
 62
7
  6
CONTINUOUS
 10
194.5840657208
 20
201.707508146
 11
194.7530976628
 21
201.4843149134
  0
LINE
  5
5A2
100
AcDbEntity
  8
KONSTRUKTIONSELEMENTE
100
AcDbLine
 62
7
  6
CONTINUOUS
 10
195.3259129558
 20
201.7724113691
 11
194.9878491901
 21
202.2187964829
  0
LINE
  5
5A3
100
AcDbEntity
  8
KONSTRUKTIONSELEMENTE
100
AcDbLine
 62
7
  6
CONTINUOUS
 10
196.195466911
 20
202.0864684129
 11
196.3644987938
 21
201.8632758561
  0
LINE
  5
5A4
100
AcDbEntity
  8
KONSTRUKTIONSELEMENTE
100
AcDbLine
 62
7
  6
CONTINUOUS
 10
196.9269826698
 20
202.2694585547
 11
196.757950787
 21
202.4926511116
  0
LINE
  5
5A5
100
AcDbEntity
  8
KONSTRUKTIONSELEMENTE
100
AcDbLine
 62
7
  6
CONTINUOUS
 10
196.0545613514
 20
205.4058770337
 11
196.2235932491
 21
205.1826843079
  0
LINE
  5
5A6
100
AcDbEntity
  8
KONSTRUKTIONSELEMENTE
100
AcDbLine
 62
7
  6
CONTINUOUS
 10
193.3830472192
 20
200.0555548926
 11
193.0346521332
 21
200.6200269386
  0
LINE
  5
5A7
100
AcDbEntity
  8
KONSTRUKTIONSELEMENTE
100
AcDbLine
 62
7
  6
CONTINUOUS
 10
196.8274021391
 20
205.1165199351
 11
196.6480389731
 21
205.4577995977
  0
LINE
  5
5A8
100
AcDbEntity
  8
KONSTRUKTIONSELEMENTE
100
AcDbLine
 62
7
  6
CONTINUOUS
 10
195.8892613767
 20
207.2952643904
 11
196.0686245278
 21
206.9539848968
  0
LINE
  5
5A9
100
AcDbEntity
  8
KONSTRUKTIONSELEMENTE
100
AcDbLine
 62
7
  6
CONTINUOUS
 10
196.6621021496
 20
207.0059074607
 11
196.4827389984
 21
207.3471869544
  0
LINE
  5
5AA
100
AcDbEntity
  8
KONSTRUKTIONSELEMENTE
100
AcDbLine
 62
7
  6
CONTINUOUS
 10
194.7530976628
 20
201.4843149134
 11
194.9427920231
 21
201.0249491587
  0
LINE
  5
5AB
100
AcDbEntity
  8
KONSTRUKTIONSELEMENTE
100
AcDbLine
 62
7
  6
CONTINUOUS
 10
196.3644987938
 20
201.8632758561
 11
196.5541932133
 21
201.4039094256
  0
LINE
  5
5AC
100
AcDbEntity
  8
KONSTRUKTIONSELEMENTE
100
AcDbLine
 62
7
  6
CONTINUOUS
 10
192.4411744595
 20
200.5681043701
 11
192.6412001011
 21
199.9906516797
  0
LINE
  5
5AD
100
AcDbEntity
  8
KONSTRUKTIONSELEMENTE
100
AcDbLine
 62
7
  6
CONTINUOUS
 10
195.5362698527
 20
201.0768717408
 11
195.3259129558
 21
201.7724113691
  0
LINE
  5
5AE
100
AcDbEntity
  8
KONSTRUKTIONSELEMENTE
100
AcDbLine
 62
7
  6
CONTINUOUS
 10
197.147670835
 20
201.4558319896
 11
196.9269826698
 21
202.2694585547
  0
LINE
  5
5AF
100
AcDbEntity
  8
BEZUGSACHSEN
100
AcDbLine
 62
7
  6
CONTINUOUS
 10
224.8280685322
 20
308.7496569647
 11
224.8280685322
 21
16.7496569647
  0
LINE
  5
5B0
100
AcDbEntity
  8
KONSTRUKTIONSELEMENTE
100
AcDbLine
 62
7
  6
CONTINUOUS
 10
195.8533054421
 20
57.2325716952
 11
195.416862084
 21
55.6844318689
  0
LINE
  5
5B1
100
AcDbEntity
  8
KONSTRUKTIONSELEMENTE
100
AcDbLine
 62
7
  6
CONTINUOUS
 10
155.5328159305
 20
38.7981411387
 11
152.0483928769
 21
32.6936531579
  0
LINE
  5
5B2
100
AcDbEntity
  8
KONSTRUKTIONSELEMENTE
100
AcDbLine
 62
7
  6
CONTINUOUS
 10
158.8617797723
 20
43.0311381566
 11
158.4695761137
 21
42.4277810435
  0
LINE
  5
5B3
100
AcDbEntity
  8
KONSTRUKTIONSELEMENTE
100
AcDbLine
 62
7
  6
CONTINUOUS
 10
151.393768143
 20
41.8758129321
 11
150.9550575559
 21
41.30537754
  0
LINE
  5
5B4
100
AcDbEntity
  8
KONSTRUKTIONSELEMENTE
100
AcDbLine
 62
7
  6
CONTINUOUS
 10
130.3159519242
 20
33.0408963908
 11
129.5146397232
 21
32.1146136371
  0
LINE
  5
5B5
100
AcDbEntity
  8
KONSTRUKTIONSELEMENTE
100
AcDbLine
 62
7
  6
CONTINUOUS
 10
121.5936686536
 20
34.2762380294
 11
120.7169590783
 21
33.420977343
  0
LINE
  5
5B6
100
AcDbEntity
  8
KONSTRUKTIONSELEMENTE
100
AcDbLine
 62
7
  6
CONTINUOUS
 10
90.2834173322
 20
52.268814792
 11
89.7268034512
 21
52.0134648906
  0
LINE
  5
5B7
100
AcDbEntity
  8
KONSTRUKTIONSELEMENTE
100
AcDbLine
 62
7
  6
CONTINUOUS
 10
83.6128479531
 20
56.6136098077
 11
83.0372098588
 21
56.4046519911
  0
LINE
  5
5B8
100
AcDbEntity
  8
KONSTRUKTIONSELEMENTE
100
AcDbLine
 62
7
  6
CONTINUOUS
 10
80.4202299969
 20
52.3060539726
 11
79.8445917961
 21
52.0970960124
  0
LINE
  5
5B9
100
AcDbEntity
  8
KONSTRUKTIONSELEMENTE
100
AcDbLine
 62
7
  6
CONTINUOUS
 10
158.4358394408
 20
44.2463905093
 11
157.8781657911
 21
43.6085451724
  0
LINE
  5
5BA
100
AcDbEntity
  8
KONSTRUKTIONSELEMENTE
100
AcDbLine
 62
7
  6
CONTINUOUS
 10
151.0653113119
 20
43.1209553163
 11
150.4589284766
 21
42.5292324349
  0
LINE
  5
5BB
100
AcDbEntity
  8
KONSTRUKTIONSELEMENTE
100
AcDbLine
 62
7
  6
CONTINUOUS
 10
127.0366243727
 20
41.9598426124
 11
126.4683418779
 21
41.5183468346
  0
LINE
  5
5BC
100
AcDbEntity
  8
KONSTRUKTIONSELEMENTE
100
AcDbLine
 62
7
  6
CONTINUOUS
 10
129.3755738212
 20
33.6772053108
 11
128.8072913035
 21
33.2357093556
  0
LINE
  5
5BD
100
AcDbEntity
  8
KONSTRUKTIONSELEMENTE
100
AcDbLine
 62
7
  6
CONTINUOUS
 10
119.0797201442
 20
43.4403884967
 11
118.4761637516
 21
43.0484915758
  0
LINE
  5
5BE
100
AcDbEntity
  8
KONSTRUKTIONSELEMENTE
100
AcDbLine
 62
7
  6
CONTINUOUS
 10
120.7104218975
 20
34.9897330792
 11
120.106865467
 21
34.5978359836
  0
LINE
  5
5BF
100
AcDbEntity
  8
KONSTRUKTIONSELEMENTE
100
AcDbLine
 62
7
  6
CONTINUOUS
 10
127.0651848364
 20
43.5007884654
 11
126.329268268
 21
43.0809392331
  0
LINE
  5
5C0
100
AcDbEntity
  8
KONSTRUKTIONSELEMENTE
100
AcDbLine
 62
7
  6
CONTINUOUS
 10
119.2383883023
 20
44.9734097743
 11
118.4696340763
 21
44.6172454141
  0
LINE
  5
5C1
100
AcDbEntity
  8
KONSTRUKTIONSELEMENTE
100
AcDbLine
 62
7
  6
CONTINUOUS
 10
162.8103357575
 20
268.3400293785
 11
163.9023111382
 21
267.3217458623
  0
LINE
  5
5C2
100
AcDbEntity
  8
KONSTRUKTIONSELEMENTE
100
AcDbLine
 62
7
  6
CONTINUOUS
 10
169.5767166511
 20
262.0302771167
 11
167.9247564971
 21
263.5707548819
  0
LINE
  5
5C3
100
AcDbEntity
  8
KONSTRUKTIONSELEMENTE
100
AcDbLine
 62
7
  6
CONTINUOUS
 10
194.0151468765
 20
57.3443607598
 11
193.4484425895
 21
56.5623228971
  0
LINE
  5
5C4
100
AcDbEntity
  8
KONSTRUKTIONSELEMENTE
100
AcDbLine
 62
7
  6
CONTINUOUS
 10
129.5146397232
 20
32.1146136371
 11
128.7787308198
 21
31.6947633475
  0
LINE
  5
5C5
100
AcDbEntity
  8
KONSTRUKTIONSELEMENTE
100
AcDbLine
 62
7
  6
CONTINUOUS
 10
120.7169590783
 20
33.420977343
 11
119.9481972758
 21
33.0648145531
  0
LINE
  5
5C6
100
AcDbEntity
  8
KONSTRUKTIONSELEMENTE
100
AcDbLine
 62
7
  6
CONTINUOUS
 10
190.8209374766
 20
62.9625280218
 11
189.3657711374
 21
62.4678082312
  0
LINE
  5
5C7
100
AcDbEntity
  8
KONSTRUKTIONSELEMENTE
100
AcDbLine
 62
7
  6
CONTINUOUS
 10
170.6659947211
 20
263.7076182526
 11
168.5867855286
 21
264.5901901924
  0
LINE
  5
5C8
100
AcDbEntity
  8
KONSTRUKTIONSELEMENTE
100
AcDbLine
 62
7
  6
CONTINUOUS
 10
162.149614153
 20
267.322607329
 11
163.5240088346
 21
266.7392113991
  0
LINE
  5
5C9
100
AcDbEntity
  8
0
100
AcDbLine
 62
7
  6
CONTINUOUS
 10
164.682411723
 20
291.131047848
 11
177.440371825
 21
276.454693606
  0
LINE
  5
5CA
100
AcDbEntity
  8
KONSTRUKTIONSELEMENTE
100
AcDbLine
 62
7
  6
CONTINUOUS
 10
195.416862084
 20
55.6844318689
 11
194.3446894174
 21
54.5832041363
  0
LINE
  5
5CB
100
AcDbEntity
  8
KONSTRUKTIONSELEMENTE
100
AcDbLine
 62
7
  6
CONTINUOUS
 10
189.3657711374
 20
62.4678082312
 11
183.3001621509
 21
58.6375370979
  0
LINE
  5
5CC
100
AcDbEntity
  8
KONSTRUKTIONSELEMENTE
100
AcDbLine
 62
7
  6
CONTINUOUS
 10
190.5759895087
 20
61.1111333113
 11
185.774048579
 21
58.0788350264
  0
LINE
  5
5CD
100
AcDbEntity
  8
KONSTRUKTIONSELEMENTE
100
AcDbLine
 62
7
  6
CONTINUOUS
 10
193.4484425895
 20
56.5623228971
 11
188.6465016598
 21
53.5300246122
  0
LINE
  5
5CE
100
AcDbEntity
  8
KONSTRUKTIONSELEMENTE
100
AcDbLine
 62
7
  6
CONTINUOUS
 10
194.3446894174
 20
54.5832041363
 11
189.7954826775
 21
51.7105007864
  0
LINE
  5
5CF
100
AcDbEntity
  8
KONSTRUKTIONSELEMENTE
100
AcDbLine
 62
7
  6
CONTINUOUS
 10
159.6370114216
 20
43.453522339
 11
158.8617797723
 21
43.0311381566
  0
LINE
  5
5D0
100
AcDbEntity
  8
KONSTRUKTIONSELEMENTE
100
AcDbLine
 62
7
  6
CONTINUOUS
 10
181.1007620882
 20
57.6607595621
 11
179.4969254049
 21
56.8581888632
  0
LINE
  5
5D1
100
AcDbEntity
  8
KONSTRUKTIONSELEMENTE
100
AcDbLine
 62
7
  6
CONTINUOUS
 10
152.1999878186
 20
42.2355383027
 11
151.393768143
 21
41.8758129321
  0
LINE
  5
5D2
100
AcDbEntity
  8
KONSTRUKTIONSELEMENTE
100
AcDbLine
 62
7
  6
CONTINUOUS
 10
159.5419959235
 20
44.7377479819
 11
158.4358394408
 21
44.2463905093
  0
LINE
  5
5D3
100
AcDbEntity
  8
KONSTRUKTIONSELEMENTE
100
AcDbLine
 62
7
  6
CONTINUOUS
 10
177.4069160599
 20
55.6562088133
 11
175.728228958
 21
55.0250024705
  0
LINE
  5
5D4
100
AcDbEntity
  8
KONSTRUKTIONSELEMENTE
100
AcDbLine
 62
7
  6
CONTINUOUS
 10
167.8943560829
 20
52.0793729707
 11
166.215668981
 21
51.4481666278
  0
LINE
  5
5D5
100
AcDbEntity
  8
KONSTRUKTIONSELEMENTE
100
AcDbLine
 62
7
  6
CONTINUOUS
 10
152.206875484
 20
43.5232556656
 11
151.0653113119
 21
43.1209553163
  0
LINE
  5
5D6
100
AcDbEntity
  8
KONSTRUKTIONSELEMENTE
100
AcDbLine
 62
7
  6
CONTINUOUS
 10
193.816916776
 20
45.3421665463
 11
192.3005145294
 21
44.384598763
  0
LINE
  5
5D7
100
AcDbEntity
  8
KONSTRUKTIONSELEMENTE
100
AcDbLine
 62
7
  6
CONTINUOUS
 10
188.6442689021
 20
42.5860091806
 11
187.0404322188
 21
41.7834384817
  0
LINE
  5
5D8
100
AcDbEntity
  8
KONSTRUKTIONSELEMENTE
100
AcDbLine
 62
7
  6
CONTINUOUS
 10
178.8632396997
 20
38.1947090275
 11
176.624990364
 21
37.3531006205
  0
LINE
  5
5D9
100
AcDbEntity
  8
0
100
AcDbLine
 62
7
  6
CONTINUOUS
 10
169.7566394546
 20
294.7496569647
 11
204.8280685322
 21
294.7496569647
  0
LINE
  5
5DA
100
AcDbEntity
  8
BEZUGSACHSEN
100
AcDbLine
 62
7
  6
CONTINUOUS
 10
204.8280685322
 20
308.7496569647
 11
224.8280685322
 21
308.7496569647
  0
ARC
  5
5DB
100
AcDbEntity
  8
KONSTRUKTIONSELEMENTE
100
AcDbCircle
 62
7
  6
CONTINUOUS
 10
160.4455820873
 20
81.3719489636
 40
209.6455628331
100
AcDbArc
 50
346.2929338273
 51
346.4110123425
  0
ARC
  5
5DC
100
AcDbEntity
  8
KONSTRUKTIONSELEMENTE
100
AcDbCircle
 62
7
  6
CONTINUOUS
 10
191.3957920352
 20
57.5501070073
 40
174.4770756119
100
AcDbArc
 50
352.5121022551
 51
352.6420768871
  0
ARC
  5
5DD
100
AcDbEntity
  8
KONSTRUKTIONSELEMENTE
100
AcDbCircle
 62
7
  6
CONTINUOUS
 10
214.3878727675
 20
76.1156706209
 40
155.7986253108
100
AcDbArc
 50
343.959085096
 51
344.09532582
  0
ARC
  5
5DE
100
AcDbEntity
  8
KONSTRUKTIONSELEMENTE
100
AcDbCircle
 62
7
  6
CONTINUOUS
 10
230.6082115464
 20
49.3370231813
 40
134.4207623714
100
AcDbArc
 50
353.1546924281
 51
353.3384906972
  0
ARC
  5
5DF
100
AcDbEntity
  8
KONSTRUKTIONSELEMENTE
100
AcDbCircle
 62
7
  6
CONTINUOUS
 10
268.4581302786
 20
45.3426678065
 40
96.5747564501
100
AcDbArc
 50
351.9056471711
 51
352.1221853638
  0
ARC
  5
5E0
100
AcDbEntity
  8
KONSTRUKTIONSELEMENTE
100
AcDbCircle
 62
7
  6
CONTINUOUS
 10
313.5753766498
 20
53.5600417221
 40
53.9977639159
100
AcDbArc
 50
357.7585664653
 51
358.4286996491
  0
ARC
  5
5E1
100
AcDbEntity
  8
KONSTRUKTIONSELEMENTE
100
AcDbCircle
 62
7
  6
CONTINUOUS
 10
319.4136738193
 20
35.4804692157
 40
44.6574297249
100
AcDbArc
 50
359.7448864176
 51
0.2551135824
  0
ARC
  5
5E2
100
AcDbEntity
  8
KONSTRUKTIONSELEMENTE
100
AcDbCircle
 62
7
  6
CONTINUOUS
 10
331.0340230625
 20
43.3039657267
 40
34.8856244846
100
AcDbArc
 50
343.0108864209
 51
343.2253865578
  0
ARC
  5
5E3
100
AcDbEntity
  8
KONSTRUKTIONSELEMENTE
100
AcDbCircle
 62
7
  6
CONTINUOUS
 10
340.9951112671
 20
33.1904646354
 40
23.0759922643
100
AcDbArc
 50
359.5120169756
 51
0.3105255067
  0
ARC
  5
5E4
100
AcDbEntity
  8
KONSTRUKTIONSELEMENTE
100
AcDbCircle
 62
7
  6
CONTINUOUS
 10
341.6431146813
 20
34.687753545
 40
22.7422278008
100
AcDbArc
 50
359.5048551243
 51
0.3150827727
  0
ARC
  5
5E5
100
AcDbEntity
  8
KONSTRUKTIONSELEMENTE
100
AcDbCircle
 62
7
  6
CONTINUOUS
 10
342.2441184861
 20
36.1858869691
 40
22.4554711307
100
AcDbArc
 50
358.2196631689
 51
358.7668987333
  0
ARC
  5
5E6
100
AcDbEntity
  8
KONSTRUKTIONSELEMENTE
100
AcDbCircle
 62
7
  6
CONTINUOUS
 10
347.2288744376
 20
37.4565585517
 40
17.8472005119
100
AcDbArc
 50
340.6726987139
 51
341.1652197837
  0
ARC
  5
5E7
100
AcDbEntity
  8
0
100
AcDbCircle
 62
7
  6
CONTINUOUS
 10
337.419414631
 20
73.0996569647
 40
11.4
100
AcDbArc
 50
180.0
 51
236.4903306663
  0
ARC
  5
5E8
100
AcDbEntity
  8
0
100
AcDbCircle
 62
7
  6
CONTINUOUS
 10
334.0939166106
 20
83.8690069263
 40
8.0745620349
100
AcDbArc
 50
169.444805614
 51
178.8767428071
  0
ARC
  5
5E9
100
AcDbEntity
  8
0
100
AcDbCircle
 62
7
  6
CONTINUOUS
 10
334.0371938019
 20
83.8726468068
 40
8.0177791709
100
AcDbArc
 50
178.8948026078
 51
180.0000507666
  0
ARC
  5
5EA
100
AcDbEntity
  8
0
100
AcDbCircle
 62
7
  6
CONTINUOUS
 10
347.2877634395
 20
25.2345873008
 40
7.6
100
AcDbArc
 50
191.5921754103
 51
261.0
  0
ARC
  5
5EB
100
AcDbEntity
  8
0
100
AcDbCircle
 62
7
  6
CONTINUOUS
 10
165.2590875746
 20
185.8617605753
 40
214.9817186043
100
AcDbArc
 50
347.8430169549
 51
348.3520349123
  0
ARC
  5
5EC
100
AcDbEntity
  8
KONSTRUKTIONSELEMENTE
100
AcDbCircle
 62
7
  6
CONTINUOUS
 10
291.8094752757
 20
191.2581455035
 40
92.1088612981
100
AcDbArc
 50
1.5309889319
 51
1.9378124694
  0
ARC
  5
5ED
100
AcDbEntity
  8
KONSTRUKTIONSELEMENTE
100
AcDbCircle
 62
7
  6
CONTINUOUS
 10
336.9189764531
 20
192.4331548765
 40
48.0004396739
100
AcDbArc
 50
359.6195496667
 51
359.9534394676
  0
ARC
  5
5EE
100
AcDbEntity
  8
KONSTRUKTIONSELEMENTE
100
AcDbCircle
 62
7
  6
CONTINUOUS
 10
338.9236044134
 20
190.4281078695
 40
44.9588441011
100
AcDbArc
 50
353.9494459571
 51
354.8567225282
  0
ARC
  5
5EF
100
AcDbEntity
  8
KONSTRUKTIONSELEMENTE
100
AcDbCircle
 62
7
  6
CONTINUOUS
 10
345.9758373644
 20
189.5537813669
 40
37.851787408
100
AcDbArc
 50
350.8671829713
 51
351.6178824287
  0
ARC
  5
5F0
100
AcDbEntity
  8
KONSTRUKTIONSELEMENTE
100
AcDbCircle
 62
7
  6
CONTINUOUS
 10
327.495428878
 20
287.8507405595
 40
5.0000127834
100
AcDbArc
 50
93.1518968105
 51
176.0275718023
  0
ARC
  5
5F1
100
AcDbEntity
  8
KONSTRUKTIONSELEMENTE
100
AcDbCircle
 62
7
  6
CONTINUOUS
 10
327.4952249443
 20
287.8617636803
 40
4.9889951408
100
AcDbArc
 50
89.9978893118
 51
93.1565188536
  0
ARC
  5
5F2
100
AcDbEntity
  8
0
100
AcDbCircle
 62
7
  6
CONTINUOUS
 10
339.319414631
 20
284.0784827835
 40
1.9
100
AcDbArc
 50
165.5616413392
 51
180.0
  0
ARC
  5
5F3
100
AcDbEntity
  8
BEZUGSACHSEN
100
AcDbCircle
 62
7
  6
CONTINUOUS
 10
329.6239837213
 20
228.4946646122
 40
1.5126485634
100
AcDbArc
 50
16.6951420428
 51
20.2099392304
  0
ARC
  5
5F4
100
AcDbEntity
  8
BEZUGSACHSEN
100
AcDbCircle
 62
7
  6
CONTINUOUS
 10
328.8440872969
 20
232.6622603652
 40
1.5125571954
100
AcDbArc
 50
17.2066188743
 51
19.6742128384
  0
ARC
  5
5F5
100
AcDbEntity
  8
BEZUGSACHSEN
100
AcDbCircle
 62
7
  6
CONTINUOUS
 10
334.5021771591
 20
227.7925346908
 40
1.5098310604
100
AcDbArc
 50
172.4906528889
 51
178.1080969978
  0
ARC
  5
5F6
100
AcDbEntity
  8
BEZUGSACHSEN
100
AcDbCircle
 62
7
  6
CONTINUOUS
 10
333.7123859747
 20
231.3955660977
 40
1.5000006288
100
AcDbArc
 50
52.2971417736
 51
182.3888726152
  0
ARC
  5
5F7
100
AcDbEntity
  8
BEZUGSACHSEN
100
AcDbCircle
 62
7
  6
CONTINUOUS
 10
329.6358668072
 20
228.4992795245
 40
1.4999569844
100
AcDbArc
 50
20.2013197127
 51
190.3647407981
  0
ARC
  5
5F8
100
AcDbEntity
  8
BEZUGSACHSEN
100
AcDbCircle
 62
7
  6
CONTINUOUS
 10
328.8558983999
 20
232.6667412272
 40
1.4999556082
100
AcDbArc
 50
19.6649374513
 51
190.6013666337
  0
ARC
  5
5F9
100
AcDbEntity
  8
BEZUGSACHSEN
100
AcDbCircle
 62
7
  6
CONTINUOUS
 10
332.932387496
 20
236.1291969665
 40
1.4999129458
100
AcDbArc
 50
74.3962569535
 51
171.8125341944
  0
ARC
  5
5FA
100
AcDbEntity
  8
BEZUGSACHSEN
100
AcDbCircle
 62
7
  6
CONTINUOUS
 10
334.4923427542
 20
227.7942343162
 40
1.4999059515
100
AcDbArc
 50
51.8267721189
 51
172.5059259656
  0
ARC
  5
5FB
100
AcDbEntity
  8
BEZUGSACHSEN
100
AcDbCircle
 62
7
  6
CONTINUOUS
 10
328.0759888248
 20
237.8909011604
 40
1.4999021806
100
AcDbArc
 50
47.9772388353
 51
166.1445609117
  0
ARC
  5
5FC
100
AcDbEntity
  8
BEZUGSACHSEN
100
AcDbCircle
 62
7
  6
CONTINUOUS
 10
330.418133841
 20
225.3899836182
 40
1.4972254753
100
AcDbArc
 50
29.5894705575
 51
177.7128461231
  0
ARC
  5
5FD
100
AcDbEntity
  8
KONSTRUKTIONSELEMENTE
100
AcDbCircle
 62
7
  6
CONTINUOUS
 10
349.054530589
 20
41.8440437104
 40
17.0021109246
100
AcDbArc
 50
334.3758800771
 51
334.7736993638
  0
ARC
  5
5FE
100
AcDbEntity
  8
KONSTRUKTIONSELEMENTE
100
AcDbCircle
 62
7
  6
CONTINUOUS
 10
364.019414631
 20
73.0996569647
 40
11.4
100
AcDbArc
 50
303.5096693337
 51
360.0
  0
ARC
  5
5FF
100
AcDbEntity
  8
KONSTRUKTIONSELEMENTE
100
AcDbCircle
 62
7
  6
CONTINUOUS
 10
355.6027394748
 20
31.6688293139
 40
8.4683640326
100
AcDbArc
 50
359.1944776761
 51
0.5125886189
  0
ARC
  5
600
100
AcDbEntity
  8
KONSTRUKTIONSELEMENTE
100
AcDbCircle
 62
7
  6
CONTINUOUS
 10
356.0394453547
 20
33.1881298165
 40
8.3458971024
100
AcDbArc
 50
359.1826565339
 51
0.5201103172
  0
ARC
  5
601
100
AcDbEntity
  8
KONSTRUKTIONSELEMENTE
100
AcDbCircle
 62
7
  6
CONTINUOUS
 10
367.3449125521
 20
83.8690069174
 40
8.0745621343
100
AcDbArc
 50
1.1232572425
 51
10.5552085173
  0
ARC
  5
602
100
AcDbEntity
  8
KONSTRUKTIONSELEMENTE
100
AcDbCircle
 62
7
  6
CONTINUOUS
 10
357.0487290113
 20
36.7333287192
 40
8.0698389681
100
AcDbArc
 50
357.9236167627
 51
359.3072245321
  0
ARC
  5
603
100
AcDbEntity
  8
KONSTRUKTIONSELEMENTE
100
AcDbCircle
 62
7
  6
CONTINUOUS
 10
367.4016354601
 20
83.8726468068
 40
8.0177791709
100
AcDbArc
 50
359.9999492334
 51
1.1051973922
  0
ARC
  5
604
100
AcDbEntity
  8
KONSTRUKTIONSELEMENTE
100
AcDbCircle
 62
7
  6
CONTINUOUS
 10
357.4755290282
 20
38.2528772576
 40
7.9572801745
100
AcDbArc
 50
356.9563305564
 51
359.2956368995
  0
ARC
  5
605
100
AcDbEntity
  8
KONSTRUKTIONSELEMENTE
100
AcDbCircle
 62
7
  6
CONTINUOUS
 10
358.1166467137
 20
40.5324737537
 40
7.7875352414
100
AcDbArc
 50
356.8851629047
 51
357.841727329
  0
ARC
  5
606
100
AcDbEntity
  8
KONSTRUKTIONSELEMENTE
100
AcDbCircle
 62
7
  6
CONTINUOUS
 10
354.1510658224
 20
25.2345873008
 40
7.6
100
AcDbArc
 50
279.0
 51
348.4078245897
  0
ARC
  5
607
100
AcDbEntity
  8
KONSTRUKTIONSELEMENTE
100
AcDbCircle
 62
7
  6
CONTINUOUS
 10
358.6922836995
 20
36.8522136184
 40
6.6188402267
100
AcDbArc
 50
324.3435141376
 51
325.0951769592
  0
ARC
  5
608
100
AcDbEntity
  8
KONSTRUKTIONSELEMENTE
100
AcDbCircle
 62
7
  6
CONTINUOUS
 10
363.0953311253
 20
30.8921458783
 40
0.9758761672
100
AcDbArc
 50
6.1003119851
 51
8.6765490977
  0
ARC
  5
609
100
AcDbEntity
  8
KONSTRUKTIONSELEMENTE
100
AcDbCircle
 62
7
  6
CONTINUOUS
 10
362.074509113
 20
30.8921458783
 40
0.9758761674
100
AcDbArc
 50
6.1003119853
 51
8.6765490975
  0
ARC
  5
60A
100
AcDbEntity
  8
KONSTRUKTIONSELEMENTE
100
AcDbCircle
 62
7
  6
CONTINUOUS
 10
363.0953311253
 20
30.8965057522
 40
0.9758761672
100
AcDbArc
 50
351.3234509023
 51
353.8996880149
  0
ARC
  5
60B
100
AcDbEntity
  8
KONSTRUKTIONSELEMENTE
100
AcDbCircle
 62
7
  6
CONTINUOUS
 10
362.0745091129
 20
30.8965057522
 40
0.9758761674
100
AcDbArc
 50
351.3234509025
 51
353.8996880146
  0
ARC
  5
60C
100
AcDbEntity
  8
KONSTRUKTIONSELEMENTE
100
AcDbCircle
 62
7
  6
CONTINUOUS
 10
364.3145248173
 20
36.5061747108
 40
0.908751374
100
AcDbArc
 50
353.5855106311
 51
6.4144893689
  0
ARC
  5
60D
100
AcDbEntity
  8
KONSTRUKTIONSELEMENTE
100
AcDbCircle
 62
7
  6
CONTINUOUS
 10
364.6491058861
 20
38.0366787601
 40
0.8884435976
100
AcDbArc
 50
356.7245098011
 51
3.2754901281
  0
ARC
  5
60E
100
AcDbEntity
  8
0
100
AcDbCircle
 62
7
  6
CONTINUOUS
 10
536.1797416337
 20
185.8617605638
 40
214.9817185494
100
AcDbArc
 50
191.6479650876
 51
192.1569830452
  0
ARC
  5
60F
100
AcDbEntity
  8
0
100
AcDbCircle
 62
7
  6
CONTINUOUS
 10
364.5198528022
 20
192.4331548764
 40
48.0004396673
100
AcDbArc
 50
180.0465605324
 51
180.3804503333
  0
ARC
  5
610
100
AcDbEntity
  8
0
100
AcDbCircle
 62
7
  6
CONTINUOUS
 10
373.9433864458
 20
287.8506932264
 40
5.0000385448
100
AcDbArc
 50
3.972958224
 51
89.9996521385
  0
ARC
  5
611
100
AcDbEntity
  8
KONSTRUKTIONSELEMENTE
100
AcDbCircle
 62
7
  6
CONTINUOUS
 10
349.482359904
 20
250.1446326666
 40
4.1867702195
100
AcDbArc
 50
131.9108435001
 51
132.2408666606
  0
ARC
  5
612
100
AcDbEntity
  8
KONSTRUKTIONSELEMENTE
100
AcDbCircle
 62
7
  6
CONTINUOUS
 10
351.9565268104
 20
250.1446959664
 40
4.1866847347
100
AcDbArc
 50
47.7591330692
 51
48.0889138759
  0
ARC
  5
613
100
AcDbEntity
  8
KONSTRUKTIONSELEMENTE
100
AcDbCircle
 62
7
  6
CONTINUOUS
 10
380.5477292676
 20
187.19689024
 40
4.1028260696
100
AcDbArc
 50
355.9055452612
 51
0.9030369221
  0
ARC
  5
614
100
AcDbEntity
  8
KONSTRUKTIONSELEMENTE
100
AcDbCircle
 62
7
  6
CONTINUOUS
 10
380.400660436
 20
184.918989195
 40
3.9770338351
100
AcDbArc
 50
354.5637175184
 51
1.2848766857
  0
ARC
  5
615
100
AcDbEntity
  8
KONSTRUKTIONSELEMENTE
100
AcDbCircle
 62
7
  6
CONTINUOUS
 10
382.6154090313
 20
187.2835889649
 40
2.7569003007
100
AcDbArc
 50
309.6164629327
 51
310.3732950308
  0
ARC
  5
616
100
AcDbEntity
  8
KONSTRUKTIONSELEMENTE
100
AcDbCircle
 62
7
  6
CONTINUOUS
 10
362.119414631
 20
284.0784827835
 40
1.9
100
AcDbArc
 50
0.0
 51
14.4448055762
  0
ARC
  5
617
100
AcDbEntity
  8
KONSTRUKTIONSELEMENTE
100
AcDbCircle
 62
7
  6
CONTINUOUS
 10
383.4092541333
 20
188.5764433241
 40
1.6254398037
100
AcDbArc
 50
319.5368828111
 51
321.4077634069
  0
ARC
  5
618
100
AcDbEntity
  8
0
100
AcDbCircle
 62
7
  6
CONTINUOUS
 10
371.8148455406
 20
228.4946646122
 40
1.5126485634
100
AcDbArc
 50
159.7900607695
 51
163.3048579572
  0
ARC
  5
619
100
AcDbEntity
  8
0
100
AcDbCircle
 62
7
  6
CONTINUOUS
 10
372.5947419651
 20
232.6622603652
 40
1.5125571955
100
AcDbArc
 50
160.3257871616
 51
162.7933811256
  0
ARC
  5
61A
100
AcDbEntity
  8
0
100
AcDbCircle
 62
7
  6
CONTINUOUS
 10
366.9366521028
 20
227.7925346908
 40
1.5098310604
100
AcDbArc
 50
1.8919030022
 51
7.5093471111
  0
ARC
  5
61B
100
AcDbEntity
  8
0
100
AcDbCircle
 62
7
  6
CONTINUOUS
 10
367.7264432884
 20
231.3955660971
 40
1.5000006288
100
AcDbArc
 50
357.6111274062
 51
127.7028582447
  0
ARC
  5
61C
100
AcDbEntity
  8
0
100
AcDbCircle
 62
7
  6
CONTINUOUS
 10
371.8029625698
 20
228.4992793834
 40
1.4999569391
100
AcDbArc
 50
349.6352637132
 51
159.7986767466
  0
ARC
  5
61D
100
AcDbEntity
  8
0
100
AcDbCircle
 62
7
  6
CONTINUOUS
 10
372.5829310964
 20
232.6667411637
 40
1.4999556081
100
AcDbArc
 50
349.398634103
 51
160.3350632776
  0
ARC
  5
61E
100
AcDbEntity
  8
0
100
AcDbCircle
 62
7
  6
CONTINUOUS
 10
368.5064417032
 20
236.1291970074
 40
1.4999129458
100
AcDbArc
 50
8.1874639178
 51
105.6037411574
  0
ARC
  5
61F
100
AcDbEntity
  8
0
100
AcDbCircle
 62
7
  6
CONTINUOUS
 10
366.9464866606
 20
227.7942339329
 40
1.4999060965
100
AcDbArc
 50
7.4940893118
 51
128.1732234225
  0
ARC
  5
620
100
AcDbEntity
  8
0
100
AcDbCircle
 62
7
  6
CONTINUOUS
 10
373.3628404583
 20
237.8909011542
 40
1.4999021806
100
AcDbArc
 50
13.8554395095
 51
132.022761607
  0
ARC
  5
621
100
AcDbEntity
  8
0
100
AcDbCircle
 62
7
  6
CONTINUOUS
 10
371.0206954209
 20
225.3899836182
 40
1.4972254753
100
AcDbArc
 50
2.2871538769
 51
150.4105294425
  0
ARC
  5
622
100
AcDbEntity
  8
KONSTRUKTIONSELEMENTE
100
AcDbCircle
 62
7
  6
CONTINUOUS
 10
352.0693250845
 20
231.1841151143
 40
0.2539193073
100
AcDbArc
 50
79.6795228936
 51
89.9797942315
  0
ARC
  5
623
100
AcDbEntity
  8
0
100
AcDbCircle
 62
7
  6
CONTINUOUS
 10
-28.5115117535
 20
209.7505539961
 40
123.5
100
AcDbArc
 50
352.0
 51
357.2584896882
  0
ARC
  5
624
100
AcDbEntity
  8
0
100
AcDbCircle
 62
7
  6
CONTINUOUS
 10
140.5481039814
 20
136.6963321914
 40
119.7
100
AcDbArc
 50
227.7094416574
 51
302.4802524602
  0
ARC
  5
625
100
AcDbEntity
  8
0
100
AcDbCircle
 62
7
  6
CONTINUOUS
 10
123.9277056171
 20
118.424705055
 40
95.0
100
AcDbArc
 50
153.8973883721
 51
227.7094416574
  0
ARC
  5
626
100
AcDbEntity
  8
0
100
AcDbCircle
 62
7
  6
CONTINUOUS
 10
135.8280685322
 20
136.7496569647
 40
49.4
100
AcDbArc
 50
172.0
 51
5.0
  0
ARC
  5
627
100
AcDbEntity
  8
0
100
AcDbCircle
 62
7
  6
CONTINUOUS
 10
81.8890547155
 20
196.7213713443
 40
22.8
100
AcDbArc
 50
87.0
 51
153.8973883721
  0
ARC
  5
628
100
AcDbEntity
  8
0
100
AcDbCircle
 62
7
  6
CONTINUOUS
 10
97.6131966159
 20
193.8118589459
 40
10.0
100
AcDbArc
 50
121.568561937
 51
131.0
  0
ARC
  5
629
100
AcDbEntity
  8
0
100
AcDbCircle
 62
7
  6
CONTINUOUS
 10
89.3366520414
 20
202.5173244325
 40
2.0
100
AcDbArc
 50
221.0
 51
311.0
  0
ARC
  5
62A
100
AcDbEntity
  8
0
100
AcDbCircle
 62
7
  6
CONTINUOUS
 10
89.2300661908
 20
213.4601123518
 40
5.7
100
AcDbArc
 50
41.257722183
 51
87.0
  0
ARC
  5
62B
100
AcDbEntity
  8
KONSTRUKTIONSELEMENTE
100
AcDbCircle
 62
7
  6
CONTINUOUS
 10
100.7291097568
 20
225.6707667691
 40
2.0000001906
100
AcDbArc
 50
302.8051233383
 51
310.9998906087
  0
ARC
  5
62C
100
AcDbEntity
  8
0
100
AcDbCircle
 62
7
  6
CONTINUOUS
 10
100.7291097568
 20
225.6707667691
 40
2.0000001906
100
AcDbArc
 50
294.6103547198
 51
310.9998906087
  0
ARC
  5
62D
100
AcDbEntity
  8
0
100
AcDbCircle
 62
7
  6
CONTINUOUS
 10
90.4728707882
 20
211.4551022805
 40
2.0
100
AcDbArc
 50
131.0
 51
215.0
  0
ARC
  5
62E
100
AcDbEntity
  8
0
100
AcDbCircle
 62
7
  6
CONTINUOUS
 10
106.501248921
 20
225.38835882
 40
1.5
100
AcDbArc
 50
35.3071819303
 51
184.4211113762
  0
ARC
  5
62F
100
AcDbEntity
  8
0
100
AcDbCircle
 62
7
  6
CONTINUOUS
 10
109.3450127832
 20
227.7941543812
 40
1.5
100
AcDbArc
 50
54.124450924
 51
182.0010261142
  0
ARC
  5
630
100
AcDbEntity
  8
0
100
AcDbCircle
 62
7
  6
CONTINUOUS
 10
112.2138697341
 20
228.4992461403
 40
1.5
100
AcDbArc
 50
37.4721160249
 51
212.0590940844
  0
ARC
  5
631
100
AcDbEntity
  8
0
100
AcDbCircle
 62
7
  6
CONTINUOUS
 10
120.8836634385
 20
237.8908010179
 40
1.5
100
AcDbArc
 50
77.6805177748
 51
230.8277450725
  0
ARC
  5
632
100
AcDbEntity
  8
0
100
AcDbCircle
 62
7
  6
CONTINUOUS
 10
118.9332891282
 20
236.1291158465
 40
1.5
100
AcDbArc
 50
82.8535491333
 51
214.6048139732
  0
ARC
  5
633
100
AcDbEntity
  8
0
100
AcDbCircle
 62
7
  6
CONTINUOUS
 10
117.0080079066
 20
232.6667268729
 40
1.5
100
AcDbArc
 50
51.5332775236
 51
227.4411379564
  0
ARC
  5
634
100
AcDbEntity
  8
0
100
AcDbCircle
 62
7
  6
CONTINUOUS
 10
114.6311952275
 20
231.3956029287
 40
1.5
100
AcDbArc
 50
63.5524641098
 51
203.3194565869
  0
ARC
  5
635
100
AcDbEntity
  8
0
100
AcDbCircle
 62
7
  6
CONTINUOUS
 10
88.1053162328
 20
208.7345120077
 40
1.4999372689
100
AcDbArc
 50
321.4950436022
 51
34.999412303
  0
ARC
  5
636
100
AcDbEntity
  8
KONSTRUKTIONSELEMENTE
100
AcDbCircle
 62
7
  6
CONTINUOUS
 10
93.7807607846
 20
296.4814127721
 40
60.0
100
AcDbArc
 50
348.2039341771
 51
349.7778593594
  0
ARC
  5
637
100
AcDbEntity
  8
0
100
AcDbCircle
 62
7
  6
CONTINUOUS
 10
93.7807607846
 20
296.4814127721
 40
60.0
100
AcDbArc
 50
311.0
 51
351.4244498006
  0
ARC
  5
638
100
AcDbEntity
  8
0
100
AcDbCircle
 62
7
  6
CONTINUOUS
 10
171.6066060328
 20
240.1003984351
 40
4.75
100
AcDbArc
 50
4.9999992481
 51
103.5707652339
  0
ARC
  5
639
100
AcDbEntity
  8
KONSTRUKTIONSELEMENTE
100
AcDbCircle
 62
7
  6
CONTINUOUS
 10
158.0540674253
 20
286.7890418823
 40
5.0
100
AcDbArc
 50
114.1969254691
 51
171.4244498006
  0
ARC
  5
63A
100
AcDbEntity
  8
0
100
AcDbCircle
 62
7
  6
CONTINUOUS
 10
160.9088638218
 20
287.8507527031
 40
5.0
100
AcDbArc
 50
41.0
 51
106.6038347173
  0
ARC
  5
63B
100
AcDbEntity
  8
0
100
AcDbCircle
 62
7
  6
CONTINUOUS
 10
158.0540674253
 20
286.7890418823
 40
5.0
100
AcDbArc
 50
114.1969254691
 51
171.4244498006
  0
ARC
  5
63C
100
AcDbEntity
  8
KONSTRUKTIONSELEMENTE
100
AcDbCircle
 62
7
  6
CONTINUOUS
 10
167.4811714553
 20
265.8097733153
 40
28.0
100
AcDbArc
 50
106.6038347173
 51
114.1969254691
  0
ARC
  5
63D
100
AcDbEntity
  8
0
100
AcDbCircle
 62
7
  6
CONTINUOUS
 10
167.4811714553
 20
265.8097733153
 40
28.0
100
AcDbArc
 50
106.6038347173
 51
114.1969254691
  0
ARC
  5
63E
100
AcDbEntity
  8
0
100
AcDbCircle
 62
7
  6
CONTINUOUS
 10
165.3650185415
 20
265.9577491422
 40
21.85
100
AcDbArc
 50
126.5482515085
 51
187.22813417
  0
ARC
  5
63F
100
AcDbEntity
  8
0
100
AcDbCircle
 62
7
  6
CONTINUOUS
 10
165.3650185415
 20
265.9577491422
 40
21.85
100
AcDbArc
 50
258.6593777038
 51
283.5707652339
  0
ARC
  5
640
100
AcDbEntity
  8
0
100
AcDbCircle
 62
7
  6
CONTINUOUS
 10
165.3650185415
 20
265.9577491422
 40
16.0
100
AcDbArc
 50
301.568561937
 51
41.0
  0
CIRCLE
  5
641
100
AcDbEntity
  8
0
100
AcDbCircle
 62
7
  6
CONTINUOUS
 10
165.3650185415
 20
265.9577491422
 40
6.0
  0
ARC
  5
642
100
AcDbEntity
  8
KONSTRUKTIONSELEMENTE
100
AcDbCircle
 62
7
  6
CONTINUOUS
 10
165.3650185415
 20
265.9577491422
 40
5.5980762114
100
AcDbArc
 50
337.0
 51
317.0
  0
CIRCLE
  5
643
100
AcDbEntity
  8
KONSTRUKTIONSELEMENTE
100
AcDbCircle
 62
7
  6
CONTINUOUS
 10
165.3650185415
 20
265.9577491422
 40
3.5
  0
ARC
  5
644
100
AcDbEntity
  8
KONSTRUKTIONSELEMENTE
100
AcDbCircle
 62
7
  6
CONTINUOUS
 10
165.3650185415
 20
265.9577491422
 40
3.0980762114
100
AcDbArc
 50
157.0
 51
137.0
  0
ARC
  5
645
100
AcDbEntity
  8
KONSTRUKTIONSELEMENTE
100
AcDbCircle
 62
7
  6
CONTINUOUS
 10
165.3650185415
 20
265.9577491422
 40
2.0
100
AcDbArc
 50
157.0
 51
137.0
  0
ARC
  5
646
100
AcDbEntity
  8
0
100
AcDbCircle
 62
7
  6
CONTINUOUS
 10
165.5429199857
 20
292.5571542309
 40
4.75
100
AcDbArc
 50
291.4838968595
 51
27.4890782818
  0
SPLINE
  5
647
100
AcDbEntity
  8
KONSTRUKTIONSELEMENTE
100
AcDbSpline
 62
7
  6
CONTINUOUS
 70
0
 71
3
 72
8
 73
4
 74
0
 42
0.0000001
 43
0.0000001
 44
0.0000000001
 40
0.0
 40
0.0
 40
0.0
 40
0.0
 40
1.0
 40
1.0
 40
1.0
 40
1.0
 10
354.8953051376
 20
245.5181791028
 30
0.0
 10
354.8953051376
 20
245.4249606577
 30
0.0
 10
354.8838015456
 20
245.3311381372
 30
0.0
 10
354.8619247848
 20
245.2405230952
 30
0.0
  0
SPLINE
  5
648
100
AcDbEntity
  8
KONSTRUKTIONSELEMENTE
100
AcDbSpline
 62
7
  6
CONTINUOUS
 70
0
 71
3
 72
13
 73
9
 74
0
 42
0.0000001
 43
0.0000001
 44
0.0000000001
 40
0.0
 40
0.0
 40
0.0
 40
0.0
 40
0.0994874187
 40
0.2054223365
 40
0.319624326
 40
0.442668402
 40
0.7115759866
 40
1.0
 40
1.0
 40
1.0
 40
1.0
 10
354.8619247848
 20
245.2405230952
 30
0.0
 10
354.8364821949
 20
245.1351381452
 30
0.0
 10
354.7544196898
 20
244.9238597831
 30
0.0
 10
354.5536497095
 20
244.6360095809
 30
0.0
 10
354.2805845697
 20
244.37718502
 30
0.0
 10
353.8183611595
 20
244.0720801378
 30
0.0
 10
353.1135922439
 20
243.8118102214
 30
0.0
 10
352.504130639
 20
243.7432285935
 30
0.0
 10
352.1898313451
 20
243.7432285935
 30
0.0
  0
SPLINE
  5
649
100
AcDbEntity
  8
KONSTRUKTIONSELEMENTE
100
AcDbSpline
 62
7
  6
CONTINUOUS
 70
0
 71
3
 72
13
 73
9
 74
0
 42
0.0000001
 43
0.0000001
 44
0.0000000001
 40
0.0
 40
0.0
 40
0.0
 40
0.0
 40
0.0987439739
 40
0.2021955632
 40
0.313819552
 40
0.4352962012
 40
0.7055222804
 40
1.0
 40
1.0
 40
1.0
 40
1.0
 10
356.2552349602
 20
245.5181791028
 30
0.0
 10
356.2552349602
 20
245.6935659108
 30
0.0
 10
356.1997452681
 20
246.0547613356
 30
0.0
 10
355.9582471421
 20
246.5643577803
 30
0.0
 10
355.5726883267
 20
247.0282275333
 30
0.0
 10
354.8654386112
 20
247.5837240171
 30
0.0
 10
353.7200896134
 20
248.060335757
 30
0.0
 10
352.7128759954
 20
248.1853698915
 30
0.0
 10
352.1898313451
 20
248.1853698915
 30
0.0
  0
SPLINE
  5
64A
100
AcDbEntity
  8
KONSTRUKTIONSELEMENTE
100
AcDbSpline
 62
7
  6
CONTINUOUS
 70
0
 71
3
 72
11
 73
7
 74
0
 42
0.0000001
 43
0.0000001
 44
0.0000000001
 40
0.0
 40
0.0
 40
0.0
 40
0.0
 40
0.2006624802
 40
0.4333207955
 40
0.7048873094
 40
1.0
 40
1.0
 40
1.0
 40
1.0
 10
353.929414631
 20
232.0523905201
 30
0.0
 10
353.929414631
 20
232.0672421142
 30
0.0
 10
353.9185435438
 20
232.0995794293
 30
0.0
 10
353.8788471993
 20
232.1356761966
 30
0.0
 10
353.8234066423
 20
232.1585947775
 30
0.0
 10
353.7812567506
 20
232.163920555
 30
0.0
 10
353.759414631
 20
232.163920555
 30
0.0
  0
SPLINE
  5
64B
100
AcDbEntity
  8
KONSTRUKTIONSELEMENTE
100
AcDbSpline
 62
7
  6
CONTINUOUS
 70
0
 71
3
 72
11
 73
7
 74
0
 42
0.0000001
 43
0.0000001
 44
0.0000000001
 40
0.0
 40
0.0
 40
0.0
 40
0.0
 40
0.2006624802
 40
0.4333207955
 40
0.7048873094
 40
1.0
 40
1.0
 40
1.0
 40
1.0
 10
349.679414631
 20
232.0523905201
 30
0.0
 10
349.679414631
 20
232.0672421142
 30
0.0
 10
349.6685435438
 20
232.0995794293
 30
0.0
 10
349.6288471993
 20
232.1356761966
 30
0.0
 10
349.5734066423
 20
232.1585947775
 30
0.0
 10
349.5312567506
 20
232.163920555
 30
0.0
 10
349.509414631
 20
232.163920555
 30
0.0
  0
SPLINE
  5
64C
100
AcDbEntity
  8
KONSTRUKTIONSELEMENTE
100
AcDbSpline
 62
7
  6
CONTINUOUS
 70
0
 71
3
 72
11
 73
7
 74
0
 42
0.0000001
 43
0.0000001
 44
0.0000000001
 40
0.0
 40
0.0
 40
0.0
 40
0.0
 40
0.2006624802
 40
0.4333207955
 40
0.7048873094
 40
1.0
 40
1.0
 40
1.0
 40
1.0
 10
356.269414631
 20
233.8352309314
 30
0.0
 10
356.269414631
 20
233.909488902
 30
0.0
 10
356.2150591949
 20
234.0711754774
 30
0.0
 10
356.0165774727
 20
234.2516593141
 30
0.0
 10
355.7393746877
 20
234.3662522183
 30
0.0
 10
355.5286252292
 20
234.392881106
 30
0.0
 10
355.419414631
 20
234.392881106
 30
0.0
  0
SPLINE
  5
64D
100
AcDbEntity
  8
KONSTRUKTIONSELEMENTE
100
AcDbSpline
 62
7
  6
CONTINUOUS
 70
0
 71
3
 72
9
 73
5
 74
0
 42
0.0000001
 43
0.0000001
 44
0.0000000001
 40
0.0
 40
0.0
 40
0.0
 40
0.0
 40
0.2437080093
 40
1.0
 40
1.0
 40
1.0
 40
1.0
 10
356.269414631
 20
253.3344968895
 30
0.0
 10
356.269414631
 20
253.3530459201
 30
0.0
 10
356.2636984334
 20
253.4291614569
 30
0.0
 10
356.2338494391
 20
253.5025481581
 30
0.0
 10
356.2027479643
 20
253.550985324
 30
0.0
  0
SPLINE
  5
64E
100
AcDbEntity
  8
KONSTRUKTIONSELEMENTE
100
AcDbSpline
 62
7
  6
CONTINUOUS
 70
0
 71
3
 72
15
 73
11
 74
0
 42
0.0000001
 43
0.0000001
 44
0.0000000001
 40
0.0
 40
0.0
 40
0.0
 40
0.0
 40
0.2258815017
 40
0.2911597667
 40
0.3588302541
 40
0.4982929066
 40
0.6380378523
 40
0.706046955
 40
0.7717745298
 40
1.0
 40
1.0
 40
1.0
 40
1.0
 10
356.2027479643
 20
253.550985324
 30
0.0
 10
355.7047690433
 20
254.3265333577
 30
0.0
 10
354.6555385115
 20
255.0632883791
 30
0.0
 10
353.2882827842
 20
255.5713631513
 30
0.0
 10
352.2085042146
 20
255.8485800072
 30
0.0
 10
350.7916770783
 20
255.9919490772
 30
0.0
 10
349.3714360403
 20
255.870993809
 30
0.0
 10
348.2828715712
 20
255.6114760314
 30
0.0
 10
346.8942640579
 20
255.1242280256
 30
0.0
 10
345.8215181554
 20
254.4064905919
 30
0.0
 10
345.294414631
 20
253.638805291
 30
0.0
  0
SPLINE
  5
64F
100
AcDbEntity
  8
KONSTRUKTIONSELEMENTE
100
AcDbSpline
 62
7
  6
CONTINUOUS
 70
0
 71
3
 72
9
 73
5
 74
0
 42
0.0000001
 43
0.0000001
 44
0.0000000001
 40
0.0
 40
0.0
 40
0.0
 40
0.0
 40
0.2628271992
 40
1.0
 40
1.0
 40
1.0
 40
1.0
 10
345.294414631
 20
253.638805291
 30
0.0
 10
345.2823621543
 20
253.6212517959
 30
0.0
 10
345.2407341721
 20
253.5517348115
 30
0.0
 10
345.219414631
 20
253.4694930601
 30
0.0
 10
345.219414631
 20
253.4097711469
 30
0.0
  0
SPLINE
  5
650
100
AcDbEntity
  8
KONSTRUKTIONSELEMENTE
100
AcDbSpline
 62
7
  6
CONTINUOUS
 70
0
 71
3
 72
16
 73
12
 74
0
 42
0.0000001
 43
0.0000001
 44
0.0000000001
 40
0.0
 40
0.0
 40
0.0
 40
0.0
 40
0.2354978214
 40
0.3050522037
 40
0.3769635312
 40
0.5229017572
 40
0.6637652973
 40
0.7912285379
 40
0.901578851
 40
0.9517535576
 40
1.0
 40
1.0
 40
1.0
 40
1.0
 10
350.719414631
 20
240.3122975273
 30
0.0
 10
350.4564156548
 20
240.7709122232
 30
0.0
 10
349.8167958576
 20
241.184283993
 30
0.0
 10
349.0100050964
 20
241.4222428387
 30
0.0
 10
348.3713469111
 20
241.5307601936
 30
0.0
 10
347.5592611715
 20
241.5273687193
 30
0.0
 10
346.6450240367
 20
241.3135625628
 30
0.0
 10
345.8838148835
 20
240.911593122
 30
0.0
 10
345.4304222936
 20
240.4234341976
 30
0.0
 10
345.2497128418
 20
239.9862092207
 30
0.0
 10
345.219414631
 20
239.7642902358
 30
0.0
 10
345.219414631
 20
239.6559808429
 30
0.0
  0
SPLINE
  5
651
100
AcDbEntity
  8
KONSTRUKTIONSELEMENTE
100
AcDbSpline
 62
7
  6
CONTINUOUS
 70
0
 71
3
 72
11
 73
7
 74
0
 42
0.0000001
 43
0.0000001
 44
0.0000000001
 40
0.0
 40
0.0
 40
0.0
 40
0.0
 40
0.2951126906
 40
0.5666792045
 40
0.7993375198
 40
1.0
 40
1.0
 40
1.0
 40
1.0
 10
351.979414631
 20
232.163920555
 30
0.0
 10
351.9575725113
 20
232.163920555
 30
0.0
 10
351.9154226196
 20
232.1585947775
 30
0.0
 10
351.8599820626
 20
232.1356761966
 30
0.0
 10
351.8202857182
 20
232.0995794293
 30
0.0
 10
351.809414631
 20
232.0672421142
 30
0.0
 10
351.809414631
 20
232.0523905201
 30
0.0
  0
SPLINE
  5
652
100
AcDbEntity
  8
KONSTRUKTIONSELEMENTE
100
AcDbSpline
 62
7
  6
CONTINUOUS
 70
0
 71
3
 72
11
 73
7
 74
0
 42
0.0000001
 43
0.0000001
 44
0.0000000001
 40
0.0
 40
0.0
 40
0.0
 40
0.0
 40
0.2006624802
 40
0.4333207955
 40
0.7048873094
 40
1.0
 40
1.0
 40
1.0
 40
1.0
 10
352.239414631
 20
231.5086815998
 30
0.0
 10
352.239414631
 20
231.4938300057
 30
0.0
 10
352.2285435438
 20
231.4614926906
 30
0.0
 10
352.1888471993
 20
231.4253959233
 30
0.0
 10
352.1334066423
 20
231.4024773424
 30
0.0
 10
352.0912567506
 20
231.3971515649
 30
0.0
 10
352.069414631
 20
231.3971515649
 30
0.0
  0
SPLINE
  5
653
100
AcDbEntity
  8
KONSTRUKTIONSELEMENTE
100
AcDbSpline
 62
7
  6
CONTINUOUS
 70
0
 71
3
 72
9
 73
5
 74
0
 42
0.0000001
 43
0.0000001
 44
0.0000000001
 40
0.0
 40
0.0
 40
0.0
 40
0.0
 40
0.2899779286
 40
1.0
 40
1.0
 40
1.0
 40
1.0
 10
349.419414631
 20
231.3971515649
 30
0.0
 10
349.4012659701
 20
231.3971515649
 30
0.0
 10
349.3400810261
 20
231.4030481486
 30
0.0
 10
349.2729923155
 20
231.4379706482
 30
0.0
 10
349.2556764551
 20
231.4788958167
 30
0.0
  0
SPLINE
  5
654
100
AcDbEntity
  8
KONSTRUKTIONSELEMENTE
100
AcDbSpline
 62
7
  6
CONTINUOUS
 70
0
 71
3
 72
8
 73
4
 74
0
 42
0.0000001
 43
0.0000001
 44
0.0000000001
 40
0.0
 40
0.0
 40
0.0
 40
0.0
 40
1.0
 40
1.0
 40
1.0
 40
1.0
 10
349.2556764551
 20
231.4788958167
 30
0.0
 10
349.2517230495
 20
231.488239493
 30
0.0
 10
349.249414631
 20
231.4985359751
 30
0.0
 10
349.249414631
 20
231.5086815998
 30
0.0
  0
SPLINE
  5
655
100
AcDbEntity
  8
KONSTRUKTIONSELEMENTE
100
AcDbSpline
 62
7
  6
CONTINUOUS
 70
0
 71
3
 72
11
 73
7
 74
0
 42
0.0000001
 43
0.0000001
 44
0.0000000001
 40
0.0
 40
0.0
 40
0.0
 40
0.0
 40
0.2951126906
 40
0.5666792045
 40
0.7993375198
 40
1.0
 40
1.0
 40
1.0
 40
1.0
 10
347.729414631
 20
232.163920555
 30
0.0
 10
347.7075725113
 20
232.163920555
 30
0.0
 10
347.6654226196
 20
232.1585947775
 30
0.0
 10
347.6099820626
 20
232.1356761966
 30
0.0
 10
347.5702857182
 20
232.0995794293
 30
0.0
 10
347.559414631
 20
232.0672421142
 30
0.0
 10
347.559414631
 20
232.0523905201
 30
0.0
  0
SPLINE
  5
656
100
AcDbEntity
  8
KONSTRUKTIONSELEMENTE
100
AcDbSpline
 62
7
  6
CONTINUOUS
 70
0
 71
3
 72
11
 73
7
 74
0
 42
0.0000001
 43
0.0000001
 44
0.0000000001
 40
0.0
 40
0.0
 40
0.0
 40
0.0
 40
0.2006624802
 40
0.4333207955
 40
0.7048873094
 40
1.0
 40
1.0
 40
1.0
 40
1.0
 10
354.569414631
 20
230.9108478096
 30
0.0
 10
354.569414631
 20
230.8732820127
 30
0.0
 10
354.5419171751
 20
230.7914876275
 30
0.0
 10
354.4415087744
 20
230.7001840396
 30
0.0
 10
354.3012767773
 20
230.6422135115
 30
0.0
 10
354.1946623454
 20
230.6287424272
 30
0.0
 10
354.139414631
 20
230.6287424272
 30
0.0
  0
SPLINE
  5
657
100
AcDbEntity
  8
KONSTRUKTIONSELEMENTE
100
AcDbSpline
 62
7
  6
CONTINUOUS
 70
0
 71
3
 72
10
 73
6
 74
0
 42
0.0000001
 43
0.0000001
 44
0.0000000001
 40
0.0
 40
0.0
 40
0.0
 40
0.0
 40
0.2853462766
 40
0.5556344371
 40
1.0
 40
1.0
 40
1.0
 40
1.0
 10
351.599414631
 20
230.6287424272
 30
0.0
 10
351.5535091947
 20
230.6287424272
 30
0.0
 10
351.4635470573
 20
230.6386276599
 30
0.0
 10
351.3111197293
 20
230.6882897964
 30
0.0
 10
351.2131097561
 20
230.769670109
 30
0.0
 10
351.1852533627
 20
230.8355072995
 30
0.0
  0
SPLINE
  5
658
100
AcDbEntity
  8
KONSTRUKTIONSELEMENTE
100
AcDbSpline
 62
7
  6
CONTINUOUS
 70
0
 71
3
 72
8
 73
4
 74
0
 42
0.0000001
 43
0.0000001
 44
0.0000000001
 40
0.0
 40
0.0
 40
0.0
 40
0.0
 40
1.0
 40
1.0
 40
1.0
 40
1.0
 10
351.1852533627
 20
230.8355072995
 30
0.0
 10
351.1752535719
 20
230.8591413041
 30
0.0
 10
351.169414631
 20
230.885185347
 30
0.0
 10
351.169414631
 20
230.9108478096
 30
0.0
  0
SPLINE
  5
659
100
AcDbEntity
  8
KONSTRUKTIONSELEMENTE
100
AcDbSpline
 62
7
  6
CONTINUOUS
 70
0
 71
3
 72
11
 73
7
 74
0
 42
0.0000001
 43
0.0000001
 44
0.0000000001
 40
0.0
 40
0.0
 40
0.0
 40
0.0
 40
0.2006624802
 40
0.4333207955
 40
0.7048873094
 40
1.0
 40
1.0
 40
1.0
 40
1.0
 10
350.319414631
 20
230.9108478096
 30
0.0
 10
350.319414631
 20
230.8732820127
 30
0.0
 10
350.2919171751
 20
230.7914876275
 30
0.0
 10
350.1915087744
 20
230.7001840396
 30
0.0
 10
350.0512767773
 20
230.6422135115
 30
0.0
 10
349.9446623454
 20
230.6287424272
 30
0.0
 10
349.889414631
 20
230.6287424272
 30
0.0
  0
SPLINE
  5
65A
100
AcDbEntity
  8
KONSTRUKTIONSELEMENTE
100
AcDbSpline
 62
7
  6
CONTINUOUS
 70
0
 71
3
 72
10
 73
6
 74
0
 42
0.0000001
 43
0.0000001
 44
0.0000000001
 40
0.0
 40
0.0
 40
0.0
 40
0.0
 40
0.2853462766
 40
0.5556344371
 40
1.0
 40
1.0
 40
1.0
 40
1.0
 10
347.349414631
 20
230.6287424272
 30
0.0
 10
347.3035091947
 20
230.6287424272
 30
0.0
 10
347.2135470573
 20
230.6386276599
 30
0.0
 10
347.0611197293
 20
230.6882897964
 30
0.0
 10
346.9631097561
 20
230.769670109
 30
0.0
 10
346.9352533627
 20
230.8355072995
 30
0.0
  0
SPLINE
  5
65B
100
AcDbEntity
  8
KONSTRUKTIONSELEMENTE
100
AcDbSpline
 62
7
  6
CONTINUOUS
 70
0
 71
3
 72
8
 73
4
 74
0
 42
0.0000001
 43
0.0000001
 44
0.0000000001
 40
0.0
 40
0.0
 40
0.0
 40
0.0
 40
1.0
 40
1.0
 40
1.0
 40
1.0
 10
346.9352533627
 20
230.8355072995
 30
0.0
 10
346.9252535719
 20
230.8591413041
 30
0.0
 10
346.919414631
 20
230.885185347
 30
0.0
 10
346.919414631
 20
230.9108478096
 30
0.0
  0
SPLINE
  5
65C
100
AcDbEntity
  8
KONSTRUKTIONSELEMENTE
100
AcDbSpline
 62
7
  6
CONTINUOUS
 70
0
 71
3
 72
11
 73
7
 74
0
 42
0.0000001
 43
0.0000001
 44
0.0000000001
 40
0.0
 40
0.0
 40
0.0
 40
0.0
 40
0.2951126906
 40
0.5666792045
 40
0.7993375198
 40
1.0
 40
1.0
 40
1.0
 40
1.0
 10
346.069414631
 20
234.392881106
 30
0.0
 10
345.9602040327
 20
234.392881106
 30
0.0
 10
345.7494545743
 20
234.3662522183
 30
0.0
 10
345.4722517892
 20
234.2516593141
 30
0.0
 10
345.2737700671
 20
234.0711754774
 30
0.0
 10
345.219414631
 20
233.909488902
 30
0.0
 10
345.219414631
 20
233.8352309314
 30
0.0
  0
SPLINE
  5
65D
100
AcDbEntity
  8
KONSTRUKTIONSELEMENTE
100
AcDbSpline
 62
7
  6
CONTINUOUS
 70
0
 71
3
 72
9
 73
5
 74
0
 42
0.0000001
 43
0.0000001
 44
0.0000000001
 40
0.0
 40
0.0
 40
0.0
 40
0.0
 40
0.527765096
 40
1.0
 40
1.0
 40
1.0
 40
1.0
 10
354.7710206267
 20
253.5637964067
 30
0.0
 10
354.7973822107
 20
253.5411744221
 30
0.0
 10
354.8416363623
 20
253.4900022811
 30
0.0
 10
354.859414631
 20
253.4235414458
 30
0.0
 10
354.859414631
 20
253.3924590283
 30
0.0
  0
SPLINE
  5
65E
100
AcDbEntity
  8
KONSTRUKTIONSELEMENTE
100
AcDbSpline
 62
7
  6
CONTINUOUS
 70
0
 71
3
 72
13
 73
9
 74
0
 42
0.0000001
 43
0.0000001
 44
0.0000000001
 40
0.0
 40
0.0
 40
0.0
 40
0.0
 40
0.2944777196
 40
0.5647037988
 40
0.686180448
 40
0.7978044368
 40
0.9012560261
 40
1.0
 40
1.0
 40
1.0
 40
1.0
 10
352.1898313451
 20
242.850988314
 30
0.0
 10
352.7128759954
 20
242.850988314
 30
0.0
 10
353.7200896134
 20
242.9760224485
 30
0.0
 10
354.8654386112
 20
243.4526341884
 30
0.0
 10
355.5726883267
 20
244.0081306722
 30
0.0
 10
355.9582471421
 20
244.4720004252
 30
0.0
 10
356.1997452681
 20
244.9815968699
 30
0.0
 10
356.2552349602
 20
245.3427922947
 30
0.0
 10
356.2552349602
 20
245.5181791028
 30
0.0
  0
SPLINE
  5
65F
100
AcDbEntity
  8
KONSTRUKTIONSELEMENTE
100
AcDbSpline
 62
7
  6
CONTINUOUS
 70
0
 71
3
 72
13
 73
9
 74
0
 42
0.0000001
 43
0.0000001
 44
0.0000000001
 40
0.0
 40
0.0
 40
0.0
 40
0.0
 40
0.294484606
 40
0.5646941368
 40
0.6861834176
 40
0.7978066019
 40
0.9012517298
 40
1.0
 40
1.0
 40
1.0
 40
1.0
 10
352.1898313451
 20
247.293129612
 30
0.0
 10
352.5379114849
 20
247.293129612
 30
0.0
 10
353.208204173
 20
247.2099801862
 30
0.0
 10
353.9703048658
 20
246.8926454527
 30
0.0
 10
354.4410762668
 20
246.5231342683
 30
0.0
 10
354.6976035601
 20
246.214368026
 30
0.0
 10
354.8582417903
 20
245.8752432381
 30
0.0
 10
354.8953051376
 20
245.6348993353
 30
0.0
 10
354.8953051376
 20
245.5181791028
 30
0.0
  0
SPLINE
  5
660
100
AcDbEntity
  8
BEZUGSACHSEN
100
AcDbSpline
 62
7
  6
CONTINUOUS
 70
0
 71
3
 72
9
 73
5
 74
0
 42
0.0000001
 43
0.0000001
 44
0.0000000001
 40
0.0
 40
0.0
 40
0.0
 40
0.0
 40
0.2592919929
 40
1.0
 40
1.0
 40
1.0
 40
1.0
 10
332.9931536445
 20
227.8423896293
 30
0.0
 10
332.9929191516
 20
227.8338518101
 30
0.0
 10
332.9932468359
 20
227.8009123334
 30
0.0
 10
332.998905948
 20
227.7679471738
 30
0.0
 10
333.0063938772
 20
227.744725787
 30
0.0
  0
SPLINE
  5
661
100
AcDbEntity
  8
KONSTRUKTIONSELEMENTE
100
AcDbSpline
 62
7
  6
CONTINUOUS
 70
0
 71
3
 72
10
 73
6
 74
0
 42
0.0000001
 43
0.0000001
 44
0.0000000001
 40
0.0
 40
0.0
 40
0.0
 40
0.0
 40
0.4392560355
 40
0.710524381
 40
1.0
 40
1.0
 40
1.0
 40
1.0
 10
354.5607806517
 20
231.9803939972
 30
0.0
 10
354.5390646848
 20
232.0506241075
 30
0.0
 10
354.4398053345
 20
232.1411419726
 30
0.0
 10
354.2824385187
 20
232.1956771787
 30
0.0
 10
354.1878592965
 20
232.2064435435
 30
0.0
 10
354.139414631
 20
232.2064435435
 30
0.0
  0
SPLINE
  5
662
100
AcDbEntity
  8
BEZUGSACHSEN
100
AcDbSpline
 62
7
  6
CONTINUOUS
 70
0
 71
3
 72
9
 73
5
 74
0
 42
0.0000001
 43
0.0000001
 44
0.0000000001
 40
0.0
 40
0.0
 40
0.0
 40
0.0
 40
0.2530995572
 40
1.0
 40
1.0
 40
1.0
 40
1.0
 10
326.6196442748
 20
238.2501099616
 30
0.0
 10
326.6112721514
 20
238.2160508982
 30
0.0
 10
326.5838261319
 20
238.0801720469
 30
0.0
 10
326.5792738042
 20
237.9395801253
 30
0.0
 10
326.5896520321
 20
237.8366009631
 30
0.0
  0
SPLINE
  5
663
100
AcDbEntity
  8
KONSTRUKTIONSELEMENTE
100
AcDbSpline
 62
7
  6
CONTINUOUS
 70
0
 71
3
 72
15
 73
11
 74
0
 42
0.0000001
 43
0.0000001
 44
0.0000000001
 40
0.0
 40
0.0
 40
0.0
 40
0.0
 40
0.100416911
 40
0.2166979578
 40
0.3522817338
 40
0.5
 40
0.6477182662
 40
0.7833020422
 40
0.899583089
 40
1.0
 40
1.0
 40
1.0
 40
1.0
 10
346.7613756525
 20
239.6559808429
 30
0.0
 10
346.7613756525
 20
239.7695795966
 30
0.0
 10
346.8438117102
 20
240.017098599
 30
0.0
 10
347.1480209623
 20
240.2918325882
 30
0.0
 10
347.5712102487
 20
240.4681534545
 30
0.0
 10
348.0603951418
 20
240.5291026842
 30
0.0
 10
348.5495800348
 20
240.4681534545
 30
0.0
 10
348.9727693213
 20
240.2918325882
 30
0.0
 10
349.2769785733
 20
240.017098599
 30
0.0
 10
349.359414631
 20
239.7695795966
 30
0.0
 10
349.359414631
 20
239.6559808429
 30
0.0
  0
SPLINE
  5
664
100
AcDbEntity
  8
0
100
AcDbSpline
 62
7
  6
CONTINUOUS
 70
0
 71
3
 72
9
 73
5
 74
0
 42
0.0000001
 43
0.0000001
 44
0.0000000001
 40
0.0
 40
0.0
 40
0.0
 40
0.0
 40
0.254208399
 40
1.0
 40
1.0
 40
1.0
 40
1.0
 10
371.2665715051
 20
207.3075420818
 30
0.0
 10
371.2963621661
 20
207.350638356
 30
0.0
 10
371.4107014156
 20
207.5221147205
 30
0.0
 10
371.5133599645
 20
207.7014410485
 30
0.0
 10
371.5821040894
 20
207.8389135358
 30
0.0
  0
SPLINE
  5
665
100
AcDbEntity
  8
KONSTRUKTIONSELEMENTE
100
AcDbSpline
 62
7
  6
CONTINUOUS
 70
0
 71
3
 72
11
 73
7
 74
0
 42
0.0000001
 43
0.0000001
 44
0.0000000001
 40
0.0
 40
0.0
 40
0.0
 40
0.0
 40
0.2951126906
 40
0.5666792045
 40
0.7993375198
 40
1.0
 40
1.0
 40
1.0
 40
1.0
 10
353.759414631
 20
231.0486202057
 30
0.0
 10
353.7812567506
 20
231.0486202057
 30
0.0
 10
353.8234066423
 20
231.0539459833
 30
0.0
 10
353.8788471993
 20
231.0768645641
 30
0.0
 10
353.9185435438
 20
231.1129613315
 30
0.0
 10
353.929414631
 20
231.1452986465
 30
0.0
 10
353.929414631
 20
231.1601502407
 30
0.0
  0
SPLINE
  5
666
100
AcDbEntity
  8
KONSTRUKTIONSELEMENTE
100
AcDbSpline
 62
7
  6
CONTINUOUS
 70
0
 71
3
 72
9
 73
5
 74
0
 42
0.0000001
 43
0.0000001
 44
0.0000000001
 40
0.0
 40
0.0
 40
0.0
 40
0.0
 40
0.2305738714
 40
1.0
 40
1.0
 40
1.0
 40
1.0
 10
350.3107806517
 20
231.9803939972
 30
0.0
 10
350.3065233119
 20
231.994162366
 30
0.0
 10
350.2816592057
 20
232.0519769457
 30
0.0
 10
350.2336808081
 20
232.097436485
 30
0.0
 10
350.1934705469
 20
232.1238167899
 30
0.0
  0
SPLINE
  5
667
100
AcDbEntity
  8
KONSTRUKTIONSELEMENTE
100
AcDbSpline
 62
7
  6
CONTINUOUS
 70
0
 71
3
 72
9
 73
5
 74
0
 42
0.0000001
 43
0.0000001
 44
0.0000000001
 40
0.0
 40
0.0
 40
0.0
 40
0.0
 40
0.2329108821
 40
1.0
 40
1.0
 40
1.0
 40
1.0
 10
350.1934705469
 20
232.1238167899
 30
0.0
 10
350.1728550653
 20
232.1373417628
 30
0.0
 10
350.0789778221
 20
232.1871197158
 30
0.0
 10
349.9706191725
 20
232.2064435435
 30
0.0
 10
349.889414631
 20
232.2064435435
 30
0.0
  0
SPLINE
  5
668
100
AcDbEntity
  8
BEZUGSACHSEN
100
AcDbSpline
 62
7
  6
CONTINUOUS
 70
0
 71
3
 72
9
 73
5
 74
0
 42
0.0000001
 43
0.0000001
 44
0.0000000001
 40
0.0
 40
0.0
 40
0.0
 40
0.0
 40
0.2552720357
 40
1.0
 40
1.0
 40
1.0
 40
1.0
 10
331.4477633607
 20
236.3428124452
 30
0.0
 10
331.4442817893
 20
236.3183985444
 30
0.0
 10
331.4336874032
 20
236.2223634255
 30
0.0
 10
331.4355485834
 20
236.124851859
 30
0.0
 10
331.4447314124
 20
236.0534948497
 30
0.0
  0
SPLINE
  5
669
100
AcDbEntity
  8
KONSTRUKTIONSELEMENTE
100
AcDbSpline
 62
7
  6
CONTINUOUS
 70
0
 71
3
 72
11
 73
7
 74
0
 42
0.0000001
 43
0.0000001
 44
0.0000000001
 40
0.0
 40
0.0
 40
0.0
 40
0.0
 40
0.2951126906
 40
0.5666792045
 40
0.7993375198
 40
1.0
 40
1.0
 40
1.0
 40
1.0
 10
352.069414631
 20
231.8153891959
 30
0.0
 10
352.0912567506
 20
231.8153891959
 30
0.0
 10
352.1334066423
 20
231.8100634183
 30
0.0
 10
352.1888471993
 20
231.7871448375
 30
0.0
 10
352.2285435438
 20
231.7510480701
 30
0.0
 10
352.239414631
 20
231.7187107551
 30
0.0
 10
352.239414631
 20
231.7038591609
 30
0.0
  0
SPLINE
  5
66A
100
AcDbEntity
  8
KONSTRUKTIONSELEMENTE
100
AcDbSpline
 62
7
  6
CONTINUOUS
 70
0
 71
3
 72
9
 73
5
 74
0
 42
0.0000001
 43
0.0000001
 44
0.0000000001
 40
0.0
 40
0.0
 40
0.0
 40
0.0
 40
0.4634851989
 40
1.0
 40
1.0
 40
1.0
 40
1.0
 10
329.8569980109
 20
207.8385142703
 30
0.0
 10
329.7640896429
 20
208.0243321009
 30
0.0
 10
329.6245137356
 20
208.4552310782
 30
0.0
 10
329.5608945272
 20
208.9000181658
 30
0.0
 10
329.539806147
 20
209.1395765977
 30
0.0
  0
SPLINE
  5
66B
100
AcDbEntity
  8
KONSTRUKTIONSELEMENTE
100
AcDbSpline
 62
7
  6
CONTINUOUS
 70
0
 71
3
 72
9
 73
5
 74
0
 42
0.0000001
 43
0.0000001
 44
0.0000000001
 40
0.0
 40
0.0
 40
0.0
 40
0.0
 40
0.2443711288
 40
1.0
 40
1.0
 40
1.0
 40
1.0
 10
329.539806147
 20
209.1395765977
 30
0.0
 10
329.5278330892
 20
209.2755873736
 30
0.0
 10
329.4828068314
 20
209.8325152648
 30
0.0
 10
329.4491841933
 20
210.3902736583
 30
0.0
 10
329.4240705802
 20
210.8117163388
 30
0.0
  0
SPLINE
  5
66C
100
AcDbEntity
  8
KONSTRUKTIONSELEMENTE
100
AcDbSpline
 62
7
  6
CONTINUOUS
 70
0
 71
3
 72
9
 73
5
 74
0
 42
0.0000001
 43
0.0000001
 44
0.0000000001
 40
0.0
 40
0.0
 40
0.0
 40
0.0
 40
0.2542083232
 40
1.0
 40
1.0
 40
1.0
 40
1.0
 10
330.1722516746
 20
207.3075508807
 30
0.0
 10
330.1424616356
 20
207.3506464652
 30
0.0
 10
330.0281247095
 20
207.5221200977
 30
0.0
 10
329.9254681164
 20
207.7014434104
 30
0.0
 10
329.8567251726
 20
207.8389135358
 30
0.0
  0
SPLINE
  5
66D
100
AcDbEntity
  8
KONSTRUKTIONSELEMENTE
100
AcDbSpline
 62
7
  6
CONTINUOUS
 70
0
 71
3
 72
11
 73
7
 74
0
 42
0.0000001
 43
0.0000001
 44
0.0000000001
 40
0.0
 40
0.0
 40
0.0
 40
0.0
 40
0.2951126906
 40
0.5666792045
 40
0.7993375198
 40
1.0
 40
1.0
 40
1.0
 40
1.0
 10
349.509414631
 20
231.0486202057
 30
0.0
 10
349.5312567506
 20
231.0486202057
 30
0.0
 10
349.5734066423
 20
231.0539459833
 30
0.0
 10
349.6288471993
 20
231.0768645641
 30
0.0
 10
349.6685435438
 20
231.1129613315
 30
0.0
 10
349.679414631
 20
231.1452986465
 30
0.0
 10
349.679414631
 20
231.1601502407
 30
0.0
  0
SPLINE
  5
66E
100
AcDbEntity
  8
KONSTRUKTIONSELEMENTE
100
AcDbSpline
 62
7
  6
CONTINUOUS
 70
0
 71
3
 72
11
 73
7
 74
0
 42
0.0000001
 43
0.0000001
 44
0.0000000001
 40
0.0
 40
0.0
 40
0.0
 40
0.0
 40
0.2006624802
 40
0.4333207955
 40
0.7048873094
 40
1.0
 40
1.0
 40
1.0
 40
1.0
 10
349.249414631
 20
231.7038591609
 30
0.0
 10
349.249414631
 20
231.7187107551
 30
0.0
 10
349.2602857182
 20
231.7510480701
 30
0.0
 10
349.2999820626
 20
231.7871448375
 30
0.0
 10
349.3554226196
 20
231.8100634183
 30
0.0
 10
349.3975725113
 20
231.8153891959
 30
0.0
 10
349.419414631
 20
231.8153891959
 30
0.0
  0
SPLINE
  5
66F
100
AcDbEntity
  8
KONSTRUKTIONSELEMENTE
100
AcDbSpline
 62
7
  6
CONTINUOUS
 70
0
 71
3
 72
11
 73
7
 74
0
 42
0.0000001
 43
0.0000001
 44
0.0000000001
 40
0.0
 40
0.0
 40
0.0
 40
0.0
 40
0.2006624802
 40
0.4333207955
 40
0.7048873094
 40
1.0
 40
1.0
 40
1.0
 40
1.0
 10
346.919414631
 20
232.3016929511
 30
0.0
 10
346.919414631
 20
232.339258748
 30
0.0
 10
346.9469120869
 20
232.4210531332
 30
0.0
 10
347.0473204875
 20
232.5123567212
 30
0.0
 10
347.1875524846
 20
232.5703272492
 30
0.0
 10
347.2941669166
 20
232.5837983336
 30
0.0
 10
347.349414631
 20
232.5837983336
 30
0.0
  0
SPLINE
  5
670
100
AcDbEntity
  8
KONSTRUKTIONSELEMENTE
100
AcDbSpline
 62
7
  6
CONTINUOUS
 70
0
 71
3
 72
11
 73
7
 74
0
 42
0.0000001
 43
0.0000001
 44
0.0000000001
 40
0.0
 40
0.0
 40
0.0
 40
0.0
 40
0.2951126906
 40
0.5666792045
 40
0.7993375198
 40
1.0
 40
1.0
 40
1.0
 40
1.0
 10
349.889414631
 20
232.5837983336
 30
0.0
 10
349.9446623454
 20
232.5837983336
 30
0.0
 10
350.0512767773
 20
232.5703272492
 30
0.0
 10
350.1915087744
 20
232.5123567212
 30
0.0
 10
350.2919171751
 20
232.4210531332
 30
0.0
 10
350.319414631
 20
232.339258748
 30
0.0
 10
350.319414631
 20
232.3016929511
 30
0.0
  0
SPLINE
  5
671
100
AcDbEntity
  8
KONSTRUKTIONSELEMENTE
100
AcDbSpline
 62
7
  6
CONTINUOUS
 70
0
 71
3
 72
11
 73
7
 74
0
 42
0.0000001
 43
0.0000001
 44
0.0000000001
 40
0.0
 40
0.0
 40
0.0
 40
0.0
 40
0.2006624802
 40
0.4333207955
 40
0.7048873094
 40
1.0
 40
1.0
 40
1.0
 40
1.0
 10
351.169414631
 20
232.3016929511
 30
0.0
 10
351.169414631
 20
232.339258748
 30
0.0
 10
351.1969120869
 20
232.4210531332
 30
0.0
 10
351.2973204875
 20
232.5123567212
 30
0.0
 10
351.4375524846
 20
232.5703272492
 30
0.0
 10
351.5441669166
 20
232.5837983336
 30
0.0
 10
351.599414631
 20
232.5837983336
 30
0.0
  0
SPLINE
  5
672
100
AcDbEntity
  8
KONSTRUKTIONSELEMENTE
100
AcDbSpline
 62
7
  6
CONTINUOUS
 70
0
 71
3
 72
11
 73
7
 74
0
 42
0.0000001
 43
0.0000001
 44
0.0000000001
 40
0.0
 40
0.0
 40
0.0
 40
0.0
 40
0.2951126906
 40
0.5666792045
 40
0.7993375198
 40
1.0
 40
1.0
 40
1.0
 40
1.0
 10
354.139414631
 20
232.5837983336
 30
0.0
 10
354.1946623454
 20
232.5837983336
 30
0.0
 10
354.3012767773
 20
232.5703272492
 30
0.0
 10
354.4415087744
 20
232.5123567212
 30
0.0
 10
354.5419171751
 20
232.4210531332
 30
0.0
 10
354.569414631
 20
232.339258748
 30
0.0
 10
354.569414631
 20
232.3016929511
 30
0.0
  0
SPLINE
  5
673
100
AcDbEntity
  8
KONSTRUKTIONSELEMENTE
100
AcDbSpline
 62
7
  6
CONTINUOUS
 70
0
 71
3
 72
11
 73
7
 74
0
 42
0.0000001
 43
0.0000001
 44
0.0000000001
 40
0.0
 40
0.0
 40
0.0
 40
0.0
 40
0.2954365323
 40
0.5666040844
 40
0.799166178
 40
1.0
 40
1.0
 40
1.0
 40
1.0
 10
355.419414631
 20
228.4390245695
 30
0.0
 10
355.5287609505
 20
228.4390245695
 30
0.0
 10
355.739659562
 20
228.4652379753
 30
0.0
 10
356.0163838883
 20
228.580611715
 30
0.0
 10
356.2154810481
 20
228.7603810663
 30
0.0
 10
356.269414631
 20
228.9223425717
 30
0.0
 10
356.269414631
 20
228.9966747441
 30
0.0
  0
SPLINE
  5
674
100
AcDbEntity
  8
KONSTRUKTIONSELEMENTE
100
AcDbSpline
 62
7
  6
CONTINUOUS
 70
0
 71
3
 72
9
 73
5
 74
0
 42
0.0000001
 43
0.0000001
 44
0.0000000001
 40
0.0
 40
0.0
 40
0.0
 40
0.0
 40
0.7431280314
 40
1.0
 40
1.0
 40
1.0
 40
1.0
 10
345.219414631
 20
229.3740295342
 30
0.0
 10
345.219414631
 20
229.3361923033
 30
0.0
 10
345.2279175311
 20
229.2848924729
 30
0.0
 10
345.2456273343
 20
229.2371457464
 30
0.0
 10
345.2507237518
 20
229.2251006189
 30
0.0
  0
SPLINE
  5
675
100
AcDbEntity
  8
KONSTRUKTIONSELEMENTE
100
AcDbSpline
 62
7
  6
CONTINUOUS
 70
0
 71
3
 72
11
 73
7
 74
0
 42
0.0000001
 43
0.0000001
 44
0.0000000001
 40
0.0
 40
0.0
 40
0.0
 40
0.0
 40
0.2088894476
 40
0.4482219071
 40
0.7166341504
 40
1.0
 40
1.0
 40
1.0
 40
1.0
 10
345.2507237518
 20
229.2251006189
 30
0.0
 10
345.2767898583
 20
229.1634946819
 30
0.0
 10
345.3646956294
 20
229.0442547892
 30
0.0
 10
345.5589560788
 20
228.9161395881
 30
0.0
 10
345.8014258051
 20
228.8352805324
 30
0.0
 10
345.9786713267
 20
228.8163793596
 30
0.0
 10
346.069414631
 20
228.8163793596
 30
0.0
  0
SPLINE
  5
676
100
AcDbEntity
  8
KONSTRUKTIONSELEMENTE
100
AcDbSpline
 62
7
  6
CONTINUOUS
 70
0
 71
3
 72
10
 73
6
 74
0
 42
0.0000001
 43
0.0000001
 44
0.0000000001
 40
0.0
 40
0.0
 40
0.0
 40
0.0
 40
0.289475619
 40
0.5607439645
 40
1.0
 40
1.0
 40
1.0
 40
1.0
 10
347.349414631
 20
232.2064435435
 30
0.0
 10
347.3009699655
 20
232.2064435435
 30
0.0
 10
347.2063907433
 20
232.1956771787
 30
0.0
 10
347.0490239274
 20
232.1411419726
 30
0.0
 10
346.9497645771
 20
232.0506241075
 30
0.0
 10
346.9280486103
 20
231.9803939972
 30
0.0
  0
SPLINE
  5
677
100
AcDbEntity
  8
KONSTRUKTIONSELEMENTE
100
AcDbSpline
 62
7
  6
CONTINUOUS
 70
0
 71
3
 72
11
 73
7
 74
0
 42
0.0000001
 43
0.0000001
 44
0.0000000001
 40
0.0
 40
0.0
 40
0.0
 40
0.0
 40
0.2951126906
 40
0.5666792045
 40
0.7993375198
 40
1.0
 40
1.0
 40
1.0
 40
1.0
 10
355.419414631
 20
228.8163793596
 30
0.0
 10
355.5286252292
 20
228.8163793596
 30
0.0
 10
355.7393746877
 20
228.8430082473
 30
0.0
 10
356.0165774727
 20
228.9576011515
 30
0.0
 10
356.2150591949
 20
229.1380849882
 30
0.0
 10
356.269414631
 20
229.2997715636
 30
0.0
 10
356.269414631
 20
229.3740295342
 30
0.0
  0
SPLINE
  5
678
100
AcDbEntity
  8
KONSTRUKTIONSELEMENTE
100
AcDbSpline
 62
7
  6
CONTINUOUS
 70
0
 71
3
 72
9
 73
5
 74
0
 42
0.0000001
 43
0.0000001
 44
0.0000000001
 40
0.0
 40
0.0
 40
0.0
 40
0.0
 40
0.2643411843
 40
1.0
 40
1.0
 40
1.0
 40
1.0
 10
351.599414631
 20
232.2064435435
 30
0.0
 10
351.5714507056
 20
232.2064435435
 30
0.0
 10
351.466017696
 20
232.1996398299
 30
0.0
 10
351.3604284374
 20
232.1665063688
 30
0.0
 10
351.2953587151
 20
232.1238167899
 30
0.0
  0
SPLINE
  5
679
100
AcDbEntity
  8
KONSTRUKTIONSELEMENTE
100
AcDbSpline
 62
7
  6
CONTINUOUS
 70
0
 71
3
 72
9
 73
5
 74
0
 42
0.0000001
 43
0.0000001
 44
0.0000000001
 40
0.0
 40
0.0
 40
0.0
 40
0.0
 40
0.2752163842
 40
1.0
 40
1.0
 40
1.0
 40
1.0
 10
351.2953587151
 20
232.1238167899
 30
0.0
 10
351.280996388
 20
232.1143942556
 30
0.0
 10
351.2311657513
 20
232.0770887985
 30
0.0
 10
351.1914120159
 20
232.0236116655
 30
0.0
 10
351.1780486103
 20
231.9803939972
 30
0.0
  0
SPLINE
  5
67A
100
AcDbEntity
  8
KONSTRUKTIONSELEMENTE
100
AcDbSpline
 62
7
  6
CONTINUOUS
 70
0
 71
3
 72
11
 73
7
 74
0
 42
0.0000001
 43
0.0000001
 44
0.0000000001
 40
0.0
 40
0.0
 40
0.0
 40
0.0
 40
0.200833822
 40
0.4333959156
 40
0.7045634677
 40
1.0
 40
1.0
 40
1.0
 40
1.0
 10
345.219414631
 20
228.9966747441
 30
0.0
 10
345.219414631
 20
228.9223425717
 30
0.0
 10
345.2733482138
 20
228.7603810663
 30
0.0
 10
345.4724453736
 20
228.580611715
 30
0.0
 10
345.7491697
 20
228.4652379753
 30
0.0
 10
345.9600683115
 20
228.4390245695
 30
0.0
 10
346.069414631
 20
228.4390245695
 30
0.0
  0
SPLINE
  5
67B
100
AcDbEntity
  8
KONSTRUKTIONSELEMENTE
100
AcDbSpline
 62
7
  6
CONTINUOUS
 70
0
 71
3
 72
9
 73
5
 74
0
 42
0.0000001
 43
0.0000001
 44
0.0000000001
 40
0.0
 40
0.0
 40
0.0
 40
0.0
 40
0.4761721782
 40
1.0
 40
1.0
 40
1.0
 40
1.0
 10
346.579414631
 20
253.0633326719
 30
0.0
 10
346.579414631
 20
253.0960077868
 30
0.0
 10
346.5968213628
 20
253.1652938976
 30
0.0
 10
346.6411975371
 20
253.2200403181
 30
0.0
 10
346.6678086353
 20
253.2442045768
 30
0.0
  0
SPLINE
  5
67C
100
AcDbEntity
  8
KONSTRUKTIONSELEMENTE
100
AcDbSpline
 62
7
  6
CONTINUOUS
 70
0
 71
3
 72
11
 73
7
 74
0
 42
0.0000001
 43
0.0000001
 44
0.0000000001
 40
0.0
 40
0.0
 40
0.0
 40
0.0
 40
0.2006624802
 40
0.4333207955
 40
0.7048873094
 40
1.0
 40
1.0
 40
1.0
 40
1.0
 10
351.809414631
 20
231.1601502407
 30
0.0
 10
351.809414631
 20
231.1452986465
 30
0.0
 10
351.8202857182
 20
231.1129613315
 30
0.0
 10
351.8599820626
 20
231.0768645641
 30
0.0
 10
351.9154226196
 20
231.0539459833
 30
0.0
 10
351.9575725113
 20
231.0486202057
 30
0.0
 10
351.979414631
 20
231.0486202057
 30
0.0
  0
SPLINE
  5
67D
100
AcDbEntity
  8
KONSTRUKTIONSELEMENTE
100
AcDbSpline
 62
7
  6
CONTINUOUS
 70
0
 71
3
 72
11
 73
7
 74
0
 42
0.0000001
 43
0.0000001
 44
0.0000000001
 40
0.0
 40
0.0
 40
0.0
 40
0.0
 40
0.2951126906
 40
0.5666792045
 40
0.7993375198
 40
1.0
 40
1.0
 40
1.0
 40
1.0
 10
349.509414631
 20
230.6712654156
 30
0.0
 10
349.5312567506
 20
230.6712654156
 30
0.0
 10
349.5734066423
 20
230.6765911932
 30
0.0
 10
349.6288471993
 20
230.699509774
 30
0.0
 10
349.6685435438
 20
230.7356065413
 30
0.0
 10
349.679414631
 20
230.7679438564
 30
0.0
 10
349.679414631
 20
230.7827954505
 30
0.0
  0
SPLINE
  5
67E
100
AcDbEntity
  8
KONSTRUKTIONSELEMENTE
100
AcDbSpline
 62
7
  6
CONTINUOUS
 70
0
 71
3
 72
11
 73
7
 74
0
 42
0.0000001
 43
0.0000001
 44
0.0000000001
 40
0.0
 40
0.0
 40
0.0
 40
0.0
 40
0.2006624802
 40
0.4333207955
 40
0.7048873094
 40
1.0
 40
1.0
 40
1.0
 40
1.0
 10
351.809414631
 20
230.7827954505
 30
0.0
 10
351.809414631
 20
230.7679438564
 30
0.0
 10
351.8202857182
 20
230.7356065413
 30
0.0
 10
351.8599820626
 20
230.699509774
 30
0.0
 10
351.9154226196
 20
230.6765911932
 30
0.0
 10
351.9575725113
 20
230.6712654156
 30
0.0
 10
351.979414631
 20
230.6712654156
 30
0.0
  0
SPLINE
  5
67F
100
AcDbEntity
  8
KONSTRUKTIONSELEMENTE
100
AcDbSpline
 62
7
  6
CONTINUOUS
 70
0
 71
3
 72
9
 73
5
 74
0
 42
0.0000001
 43
0.0000001
 44
0.0000000001
 40
0.0
 40
0.0
 40
0.0
 40
0.0
 40
0.7598557766
 40
1.0
 40
1.0
 40
1.0
 40
1.0
 10
349.419414631
 20
231.4380344058
 30
0.0
 10
349.3943532681
 20
231.4380344058
 30
0.0
 10
349.360998521
 20
231.4332341733
 30
0.0
 10
349.3300919509
 20
231.4215815522
 30
0.0
 10
349.3228744069
 20
231.4183197469
 30
0.0
  0
SPLINE
  5
680
100
AcDbEntity
  8
KONSTRUKTIONSELEMENTE
100
AcDbSpline
 62
7
  6
CONTINUOUS
 70
0
 71
3
 72
11
 73
7
 74
0
 42
0.0000001
 43
0.0000001
 44
0.0000000001
 40
0.0
 40
0.0
 40
0.0
 40
0.0
 40
0.2374360684
 40
0.4999998705
 40
0.7625637751
 40
1.0
 40
1.0
 40
1.0
 40
1.0
 10
346.6857087318
 20
253.2603648586
 30
0.0
 10
347.1967201929
 20
253.7190472249
 30
0.0
 10
348.5060400687
 20
254.4305269425
 30
0.0
 10
350.7194229614
 20
254.7801075444
 30
0.0
 10
352.9328056174
 20
254.4305219553
 30
0.0
 10
354.2421242168
 20
253.7190375296
 30
0.0
 10
354.7531340745
 20
253.2603526995
 30
0.0
  0
SPLINE
  5
681
100
AcDbEntity
  8
KONSTRUKTIONSELEMENTE
100
AcDbSpline
 62
7
  6
CONTINUOUS
 70
0
 71
3
 72
9
 73
5
 74
0
 42
0.0000001
 43
0.0000001
 44
0.0000000001
 40
0.0
 40
0.0
 40
0.0
 40
0.0
 40
0.2693140593
 40
1.0
 40
1.0
 40
1.0
 40
1.0
 10
354.7710206267
 20
253.2442045768
 30
0.0
 10
354.7825339894
 20
253.2337498457
 30
0.0
 10
354.8226315249
 20
253.1922844975
 30
0.0
 10
354.8502181824
 20
253.1374497068
 30
0.0
 10
354.856838464
 20
253.0957781027
 30
0.0
  0
SPLINE
  5
682
100
AcDbEntity
  8
KONSTRUKTIONSELEMENTE
100
AcDbSpline
 62
7
  6
CONTINUOUS
 70
0
 71
3
 72
11
 73
7
 74
0
 42
0.0000001
 43
0.0000001
 44
0.0000000001
 40
0.0
 40
0.0
 40
0.0
 40
0.0
 40
0.2951126906
 40
0.5666792045
 40
0.7993375198
 40
1.0
 40
1.0
 40
1.0
 40
1.0
 10
353.759414631
 20
230.6712654156
 30
0.0
 10
353.7812567506
 20
230.6712654156
 30
0.0
 10
353.8234066423
 20
230.6765911932
 30
0.0
 10
353.8788471993
 20
230.699509774
 30
0.0
 10
353.9185435438
 20
230.7356065413
 30
0.0
 10
353.929414631
 20
230.7679438564
 30
0.0
 10
353.929414631
 20
230.7827954505
 30
0.0
  0
SPLINE
  5
683
100
AcDbEntity
  8
0
100
AcDbSpline
 62
7
  6
CONTINUOUS
 70
0
 71
3
 72
8
 73
4
 74
0
 42
0.0000001
 43
0.0000001
 44
0.0000000001
 40
0.0
 40
0.0
 40
0.0
 40
0.0
 40
1.0
 40
1.0
 40
1.0
 40
1.0
 10
369.2144652191
 20
231.238516018
 30
0.0
 10
369.2045656749
 20
231.1857397841
 30
0.0
 10
369.187589103
 20
231.1337927936
 30
0.0
 10
369.1641276912
 20
231.0854927522
 30
0.0
  0
SPLINE
  5
684
100
AcDbEntity
  8
0
100
AcDbSpline
 62
7
  6
CONTINUOUS
 70
0
 71
3
 72
16
 73
12
 74
0
 42
0.0000001
 43
0.0000001
 44
0.0000000001
 40
0.0
 40
0.0
 40
0.0
 40
0.0
 40
0.0481864484
 40
0.0983283001
 40
0.2100427609
 40
0.3407549188
 40
0.4852887041
 40
0.633194494
 40
0.7729214962
 40
0.8957196861
 40
1.0
 40
1.0
 40
1.0
 40
1.0
 10
369.1641276912
 20
231.0854927522
 30
0.0
 10
369.1393438109
 20
231.0344701431
 30
0.0
 10
369.0732300377
 20
230.9371628619
 30
0.0
 10
368.880437954
 20
230.7779307837
 30
0.0
 10
368.5416205359
 20
230.6689284976
 30
0.0
 10
368.0805259994
 20
230.6849687172
 30
0.0
 10
367.5990017233
 20
230.8308290562
 30
0.0
 10
367.155278306
 20
231.0889611779
 30
0.0
 10
366.803885623
 20
231.4284230592
 30
0.0
 10
366.5863821454
 20
231.8099029476
 30
0.0
 10
366.5557716398
 20
232.0879162696
 30
0.0
 10
366.5781120195
 20
232.2086214713
 30
0.0
  0
SPLINE
  5
685
100
AcDbEntity
  8
0
100
AcDbSpline
 62
7
  6
CONTINUOUS
 70
0
 71
3
 72
9
 73
5
 74
0
 42
0.0000001
 43
0.0000001
 44
0.0000000001
 40
0.0
 40
0.0
 40
0.0
 40
0.0
 40
0.4954125409
 40
1.0
 40
1.0
 40
1.0
 40
1.0
 10
366.5781120195
 20
232.2086214713
 30
0.0
 10
366.5915465035
 20
232.2812080662
 30
0.0
 10
366.6457912337
 20
232.4242942456
 30
0.0
 10
366.7495826057
 20
232.5364036289
 30
0.0
 10
366.8090805343
 20
232.5823710519
 30
0.0
  0
SPLINE
  5
686
100
AcDbEntity
  8
0
100
AcDbSpline
 62
7
  6
CONTINUOUS
 70
0
 71
3
 72
15
 73
11
 74
0
 42
0.0000001
 43
0.0000001
 44
0.0000000001
 40
0.0
 40
0.0
 40
0.0
 40
0.0
 40
0.106489858
 40
0.2215203281
 40
0.3492901494
 40
0.4870904558
 40
0.6279266681
 40
0.7636029491
 40
0.8879097727
 40
1.0
 40
1.0
 40
1.0
 40
1.0
 10
374.0558239497
 20
232.383143043
 30
0.0
 10
374.0300006842
 20
232.2460429716
 30
0.0
 10
373.8999151355
 20
231.9711649984
 30
0.0
 10
373.5271645524
 20
231.6837779083
 30
0.0
 10
373.0404383973
 20
231.539171236
 30
0.0
 10
372.5008485443
 20
231.5468718703
 30
0.0
 10
371.9738878656
 20
231.7029205892
 30
0.0
 10
371.5246416564
 20
231.9892859837
 30
0.0
 10
371.208980538
 20
232.3732600117
 30
0.0
 10
371.1184810418
 20
232.6821388206
 30
0.0
 10
371.1133462155
 20
232.8288968076
 30
0.0
  0
SPLINE
  5
687
100
AcDbEntity
  8
0
100
AcDbSpline
 62
7
  6
CONTINUOUS
 70
0
 71
3
 72
8
 73
4
 74
0
 42
0.0000001
 43
0.0000001
 44
0.0000000001
 40
0.0
 40
0.0
 40
0.0
 40
0.0
 40
1.0
 40
1.0
 40
1.0
 40
1.0
 10
371.1133462155
 20
232.8288968076
 30
0.0
 10
371.1110072857
 20
232.8957455393
 30
0.0
 10
371.1162166313
 20
232.9633434529
 30
0.0
 10
371.1293878465
 20
233.0289235002
 30
0.0
  0
SPLINE
  5
688
100
AcDbEntity
  8
0
100
AcDbSpline
 62
7
  6
CONTINUOUS
 70
0
 71
3
 72
15
 73
11
 74
0
 42
0.0000001
 43
0.0000001
 44
0.0000000001
 40
0.0
 40
0.0
 40
0.0
 40
0.0
 40
0.1125195235
 40
0.225583334
 40
0.3467019493
 40
0.4777923691
 40
0.6150333322
 40
0.7515432161
 40
0.8807625709
 40
1.0
 40
1.0
 40
1.0
 40
1.0
 10
369.9940978496
 20
236.0534948497
 30
0.0
 10
369.975155484
 20
235.90629941
 30
0.0
 10
369.8669792977
 20
235.6139942397
 30
0.0
 10
369.5062170565
 20
235.3048282335
 30
0.0
 10
369.0261257562
 20
235.1804561916
 30
0.0
 10
368.5060889805
 20
235.2455170107
 30
0.0
 10
368.0176350175
 20
235.4828191088
 30
0.0
 10
367.6284796428
 20
235.8583526288
 30
0.0
 10
367.3938694014
 20
236.3204342879
 30
0.0
 10
367.3693719719
 20
236.6594481074
 30
0.0
 10
367.3956140556
 20
236.8145132206
 30
0.0
  0
SPLINE
  5
689
100
AcDbEntity
  8
0
100
AcDbSpline
 62
7
  6
CONTINUOUS
 70
0
 71
3
 72
9
 73
5
 74
0
 42
0.0000001
 43
0.0000001
 44
0.0000000001
 40
0.0
 40
0.0
 40
0.0
 40
0.0
 40
0.489430842
 40
1.0
 40
1.0
 40
1.0
 40
1.0
 10
367.4514451123
 20
237.0129000351
 30
0.0
 10
367.5055056871
 20
237.1464925158
 30
0.0
 10
367.6852297038
 20
237.3962187786
 30
0.0
 10
367.9581844367
 20
237.5334200025
 30
0.0
 10
368.1029893084
 20
237.5738407883
 30
0.0
  0
SPLINE
  5
68A
100
AcDbEntity
  8
0
100
AcDbSpline
 62
7
  6
CONTINUOUS
 70
0
 71
3
 72
15
 73
11
 74
0
 42
0.0000001
 43
0.0000001
 44
0.0000000001
 40
0.0
 40
0.0
 40
0.0
 40
0.0
 40
0.1184031231
 40
0.239471763
 40
0.366049902
 40
0.4972057715
 40
0.629215974
 40
0.7578923067
 40
0.8810126811
 40
1.0
 40
1.0
 40
1.0
 40
1.0
 10
374.8491772298
 20
237.8366009631
 30
0.0
 10
374.8311024562
 20
237.6572519408
 30
0.0
 10
374.7068852782
 20
237.2976309118
 30
0.0
 10
374.2936150154
 20
236.8970910564
 30
0.0
 10
373.7358286387
 20
236.6965662898
 30
0.0
 10
373.1289871806
 20
236.7219754127
 30
0.0
 10
372.5691948783
 20
236.9649768287
 30
0.0
 10
372.1457463562
 20
237.3892493714
 30
0.0
 10
371.9317446144
 20
237.9300493181
 30
0.0
 10
371.9622453824
 20
238.313193107
 30
0.0
 10
372.0184077899
 20
238.4854138376
 30
0.0
  0
SPLINE
  5
68B
100
AcDbEntity
  8
0
100
AcDbSpline
 62
7
  6
CONTINUOUS
 70
0
 71
3
 72
9
 73
5
 74
0
 42
0.0000001
 43
0.0000001
 44
0.0000000001
 40
0.0
 40
0.0
 40
0.0
 40
0.0
 40
0.496161914
 40
1.0
 40
1.0
 40
1.0
 40
1.0
 10
372.0184077899
 20
238.4854138376
 30
0.0
 10
372.0505372574
 20
238.5839381106
 30
0.0
 10
372.1424362613
 20
238.7745902458
 30
0.0
 10
372.2805920185
 20
238.9346883497
 30
0.0
 10
372.3587560754
 20
239.0051481575
 30
0.0
  0
SPLINE
  5
68C
100
AcDbEntity
  8
0
100
AcDbSpline
 62
7
  6
CONTINUOUS
 70
0
 71
3
 72
18
 73
14
 74
0
 42
0.0000001
 43
0.0000001
 44
0.0000000001
 40
0.0
 40
0.0
 40
0.0
 40
0.0
 40
0.0433586689
 40
0.0893586081
 40
0.1402439334
 40
0.1972348636
 40
0.3289916623
 40
0.4783190491
 40
0.6323115286
 40
0.7767761092
 40
0.8418283863
 40
0.9007382941
 40
1.0
 40
1.0
 40
1.0
 40
1.0
 10
373.2780540082
 20
228.2272406104
 30
0.0
 10
373.2685020313
 20
228.1764362817
 30
0.0
 10
373.2305978032
 20
228.0744081084
 30
0.0
 10
373.1244773355
 20
227.942221814
 30
0.0
 10
372.9746766257
 20
227.8333206283
 30
0.0
 10
372.7121103753
 20
227.7167128626
 30
0.0
 10
372.3081689279
 20
227.6512978738
 30
0.0
 10
371.7873652089
 20
227.6881132403
 30
0.0
 10
371.2696564522
 20
227.8320986652
 30
0.0
 10
370.8809343624
 20
228.0331741414
 30
0.0
 10
370.6310082247
 20
228.2354225902
 30
0.0
 10
370.4527285813
 20
228.4328296661
 30
0.0
 10
370.3658448466
 20
228.6115795735
 30
0.0
 10
370.3508040029
 20
228.72896492
 30
0.0
  0
SPLINE
  5
68D
100
AcDbEntity
  8
0
100
AcDbSpline
 62
7
  6
CONTINUOUS
 70
0
 71
3
 72
9
 73
5
 74
0
 42
0.0000001
 43
0.0000001
 44
0.0000000001
 40
0.0
 40
0.0
 40
0.0
 40
0.0
 40
0.2554198815
 40
1.0
 40
1.0
 40
1.0
 40
1.0
 10
370.3508040029
 20
228.72896492
 30
0.0
 10
370.3492450011
 20
228.7411320545
 30
0.0
 10
370.3447522244
 20
228.7889539152
 30
0.0
 10
370.3470398485
 20
228.8374637776
 30
0.0
 10
370.3528847135
 20
228.8727415193
 30
0.0
  0
SPLINE
  5
68E
100
AcDbEntity
  8
0
100
AcDbSpline
 62
7
  6
CONTINUOUS
 70
0
 71
3
 72
9
 73
5
 74
0
 42
0.0000001
 43
0.0000001
 44
0.0000000001
 40
0.0
 40
0.0
 40
0.0
 40
0.0
 40
0.5081608257
 40
1.0
 40
1.0
 40
1.0
 40
1.0
 10
365.9160033247
 20
228.6942372684
 30
0.0
 10
365.9075594008
 20
228.746050314
 30
0.0
 10
365.9118613147
 20
228.8552537635
 30
0.0
 10
365.9794873559
 20
228.9420404542
 30
0.0
 10
366.0194668402
 20
228.9733987405
 30
0.0
  0
SPLINE
  5
68F
100
AcDbEntity
  8
0
100
AcDbSpline
 62
7
  6
CONTINUOUS
 70
0
 71
3
 72
9
 73
5
 74
0
 42
0.0000001
 43
0.0000001
 44
0.0000000001
 40
0.0
 40
0.0
 40
0.0
 40
0.0
 40
0.4598829541
 40
1.0
 40
1.0
 40
1.0
 40
1.0
 10
368.4324353848
 20
227.744725787
 30
0.0
 10
368.4174918692
 20
227.6983833145
 30
0.0
 10
368.3530384705
 20
227.6066818195
 30
0.0
 10
368.2545749881
 20
227.5594448136
 30
0.0
 10
368.200255656
 20
227.5415616554
 30
0.0
  0
SPLINE
  5
690
100
AcDbEntity
  8
0
100
AcDbSpline
 62
7
  6
CONTINUOUS
 70
0
 71
3
 72
15
 73
11
 74
0
 42
0.0000001
 43
0.0000001
 44
0.0000000001
 40
0.0
 40
0.0
 40
0.0
 40
0.0
 40
0.099902007
 40
0.2243728676
 40
0.3668850479
 40
0.5175795075
 40
0.6654266136
 40
0.7999119376
 40
0.9126576658
 40
1.0
 40
1.0
 40
1.0
 40
1.0
 10
368.200255656
 20
227.5415616554
 30
0.0
 10
368.1137728541
 20
227.513089552
 30
0.0
 10
367.9066452207
 20
227.4906881909
 30
0.0
 10
367.5732462868
 20
227.5283576232
 30
0.0
 10
367.2049645215
 20
227.6304082254
 30
0.0
 10
366.8342664161
 20
227.7885847931
 30
0.0
 10
366.4929890388
 20
227.9889465162
 30
0.0
 10
366.2102187399
 20
228.2147111224
 30
0.0
 10
366.0087550631
 20
228.4453941777
 30
0.0
 10
365.9288071404
 20
228.6156713445
 30
0.0
 10
365.9160033247
 20
228.6942372684
 30
0.0
  0
SPLINE
  5
691
100
AcDbEntity
  8
0
100
AcDbSpline
 62
7
  6
CONTINUOUS
 70
0
 71
3
 72
9
 73
5
 74
0
 42
0.0000001
 43
0.0000001
 44
0.0000000001
 40
0.0
 40
0.0
 40
0.0
 40
0.0
 40
0.2600129863
 40
1.0
 40
1.0
 40
1.0
 40
1.0
 10
369.7013890762
 20
226.0161191836
 30
0.0
 10
369.6994526109
 20
226.0259755608
 30
0.0
 10
369.6947773182
 20
226.064403221
 30
0.0
 10
369.7047520918
 20
226.1043809995
 30
0.0
 10
369.7188345986
 20
226.1292588358
 30
0.0
  0
SPLINE
  5
692
100
AcDbEntity
  8
0
100
AcDbSpline
 62
7
  6
CONTINUOUS
 70
0
 71
3
 72
10
 73
6
 74
0
 42
0.0000001
 43
0.0000001
 44
0.0000000001
 40
0.0
 40
0.0
 40
0.0
 40
0.0
 40
0.1985566617
 40
0.5532205738
 40
1.0
 40
1.0
 40
1.0
 40
1.0
 10
372.5054263708
 20
225.3734333218
 30
0.0
 10
372.4968687044
 20
225.3561757564
 30
0.0
 10
372.4641686788
 20
225.3123559076
 30
0.0
 10
372.3817507474
 20
225.2578637539
 30
0.0
 10
372.3079497676
 20
225.2319699765
 30
0.0
 10
372.2661514128
 20
225.2204982181
 30
0.0
  0
SPLINE
  5
693
100
AcDbEntity
  8
0
100
AcDbSpline
 62
7
  6
CONTINUOUS
 70
0
 71
3
 72
13
 73
9
 74
0
 42
0.0000001
 43
0.0000001
 44
0.0000000001
 40
0.0
 40
0.0
 40
0.0
 40
0.0
 40
0.0989894716
 40
0.2213490009
 40
0.5075431243
 40
0.7894743214
 40
0.9069632496
 40
1.0
 40
1.0
 40
1.0
 40
1.0
 10
372.2661514128
 20
225.2204982181
 30
0.0
 10
372.1831925687
 20
225.1977297666
 30
0.0
 10
371.99098666
 20
225.172288498
 30
0.0
 10
371.5492671076
 20
225.1771196381
 30
0.0
 10
370.9545470975
 20
225.2796613719
 30
0.0
 10
370.3858456329
 20
225.4699769908
 30
0.0
 10
370.0081563
 20
225.6726187326
 30
0.0
 10
369.8608977767
 20
225.7843282587
 30
0.0
 10
369.8050185001
 20
225.8427643385
 30
0.0
  0
SPLINE
  5
694
100
AcDbEntity
  8
0
100
AcDbSpline
 62
7
  6
CONTINUOUS
 70
0
 71
3
 72
9
 73
5
 74
0
 42
0.0000001
 43
0.0000001
 44
0.0000000001
 40
0.0
 40
0.0
 40
0.0
 40
0.0
 40
0.2934762139
 40
1.0
 40
1.0
 40
1.0
 40
1.0
 10
369.8050185001
 20
225.8427643385
 30
0.0
 10
369.7912753131
 20
225.8571363566
 30
0.0
 10
369.7468391042
 20
225.9078286114
 30
0.0
 10
369.7106181268
 20
225.9691444176
 30
0.0
 10
369.7013890762
 20
226.0161191836
 30
0.0
  0
SPLINE
  5
695
100
AcDbEntity
  8
0
100
AcDbSpline
 62
7
  6
CONTINUOUS
 70
0
 71
3
 72
9
 73
5
 74
0
 42
0.0000001
 43
0.0000001
 44
0.0000000001
 40
0.0
 40
0.0
 40
0.0
 40
0.0
 40
0.2592919929
 40
1.0
 40
1.0
 40
1.0
 40
1.0
 10
368.4456756174
 20
227.8423896293
 30
0.0
 10
368.4459101103
 20
227.8338518101
 30
0.0
 10
368.4455824261
 20
227.8009123334
 30
0.0
 10
368.439923314
 20
227.7679471738
 30
0.0
 10
368.4324353848
 20
227.744725787
 30
0.0
  0
SPLINE
  5
696
100
AcDbEntity
  8
KONSTRUKTIONSELEMENTE
100
AcDbSpline
 62
7
  6
CONTINUOUS
 70
0
 71
3
 72
9
 73
5
 74
0
 42
0.0000001
 43
0.0000001
 44
0.0000000001
 40
0.0
 40
0.0
 40
0.0
 40
0.0
 40
0.246862891
 40
1.0
 40
1.0
 40
1.0
 40
1.0
 10
354.8677673154
 20
245.3934261073
 30
0.0
 10
354.8631698897
 20
245.4144032517
 30
0.0
 10
354.842278304
 20
245.4988709843
 30
0.0
 10
354.8124310576
 20
245.5810759654
 30
0.0
 10
354.7856664479
 20
245.6408764137
 30
0.0
  0
SPLINE
  5
697
100
AcDbEntity
  8
KONSTRUKTIONSELEMENTE
100
AcDbSpline
 62
7
  6
CONTINUOUS
 70
0
 71
3
 72
11
 73
7
 74
0
 42
0.0000001
 43
0.0000001
 44
0.0000000001
 40
0.0
 40
0.0
 40
0.0
 40
0.0
 40
0.2091754266
 40
0.4489769744
 40
0.7164837406
 40
1.0
 40
1.0
 40
1.0
 40
1.0
 10
354.7856664479
 20
245.6408764137
 30
0.0
 10
354.6993392138
 20
245.8337582584
 30
0.0
 10
354.4145039698
 20
246.2045781698
 30
0.0
 10
353.7997061684
 20
246.6038678162
 30
0.0
 10
353.0348463941
 20
246.8583437651
 30
0.0
 10
352.4762532516
 20
246.9157748219
 30
0.0
 10
352.1898313451
 20
246.9157748219
 30
0.0
  0
SPLINE
  5
698
100
AcDbEntity
  8
KONSTRUKTIONSELEMENTE
100
AcDbSpline
 62
7
  6
CONTINUOUS
 70
0
 71
3
 72
11
 73
7
 74
0
 42
0.0000001
 43
0.0000001
 44
0.0000000001
 40
0.0
 40
0.0
 40
0.0
 40
0.0
 40
0.2006624802
 40
0.4333207955
 40
0.7048873094
 40
1.0
 40
1.0
 40
1.0
 40
1.0
 10
347.559414631
 20
231.1601502407
 30
0.0
 10
347.559414631
 20
231.1452986465
 30
0.0
 10
347.5702857182
 20
231.1129613315
 30
0.0
 10
347.6099820626
 20
231.0768645641
 30
0.0
 10
347.6654226196
 20
231.0539459833
 30
0.0
 10
347.7075725113
 20
231.0486202057
 30
0.0
 10
347.729414631
 20
231.0486202057
 30
0.0
  0
SPLINE
  5
699
100
AcDbEntity
  8
0
100
AcDbSpline
 62
7
  6
CONTINUOUS
 70
0
 71
3
 72
9
 73
5
 74
0
 42
0.0000001
 43
0.0000001
 44
0.0000000001
 40
0.0
 40
0.0
 40
0.0
 40
0.0
 40
0.2530995572
 40
1.0
 40
1.0
 40
1.0
 40
1.0
 10
374.8191849872
 20
238.2501099616
 30
0.0
 10
374.8275571106
 20
238.2160508982
 30
0.0
 10
374.8550031301
 20
238.0801720469
 30
0.0
 10
374.8595554578
 20
237.9395801253
 30
0.0
 10
374.8491772298
 20
237.8366009631
 30
0.0
  0
SPLINE
  5
69A
100
AcDbEntity
  8
KONSTRUKTIONSELEMENTE
100
AcDbSpline
 62
7
  6
CONTINUOUS
 70
0
 71
3
 72
11
 73
7
 74
0
 42
0.0000001
 43
0.0000001
 44
0.0000000001
 40
0.0
 40
0.0
 40
0.0
 40
0.0
 40
0.2006624802
 40
0.4333207955
 40
0.7048873094
 40
1.0
 40
1.0
 40
1.0
 40
1.0
 10
347.559414631
 20
230.7827954505
 30
0.0
 10
347.559414631
 20
230.7679438564
 30
0.0
 10
347.5702857182
 20
230.7356065413
 30
0.0
 10
347.6099820626
 20
230.699509774
 30
0.0
 10
347.6654226196
 20
230.6765911932
 30
0.0
 10
347.7075725113
 20
230.6712654156
 30
0.0
 10
347.729414631
 20
230.6712654156
 30
0.0
  0
SPLINE
  5
69B
100
AcDbEntity
  8
KONSTRUKTIONSELEMENTE
100
AcDbSpline
 62
7
  6
CONTINUOUS
 70
0
 71
3
 72
13
 73
9
 74
0
 42
0.0000001
 43
0.0000001
 44
0.0000000001
 40
0.0
 40
0.0
 40
0.0
 40
0.0
 40
0.2944689225
 40
0.5647082019
 40
0.686183047
 40
0.7978026577
 40
0.9012531917
 40
1.0
 40
1.0
 40
1.0
 40
1.0
 10
352.1898313451
 20
242.4736335239
 30
0.0
 10
352.7128621472
 20
242.4736335239
 30
0.0
 10
353.72007833
 20
242.5986925611
 30
0.0
 10
354.8654632815
 20
243.0752338376
 30
0.0
 10
355.5727313194
 20
243.6307495857
 30
0.0
 10
355.9581987389
 20
244.0946795914
 30
0.0
 10
356.1997281108
 20
244.6042386965
 30
0.0
 10
356.2553051376
 20
244.9654318742
 30
0.0
 10
356.2553051376
 20
245.1408243126
 30
0.0
  0
SPLINE
  5
69C
100
AcDbEntity
  8
0
100
AcDbSpline
 62
7
  6
CONTINUOUS
 70
0
 71
3
 72
9
 73
5
 74
0
 42
0.0000001
 43
0.0000001
 44
0.0000000001
 40
0.0
 40
0.0
 40
0.0
 40
0.0
 40
0.2552720357
 40
1.0
 40
1.0
 40
1.0
 40
1.0
 10
369.9910659013
 20
236.3428124452
 30
0.0
 10
369.9945474727
 20
236.3183985444
 30
0.0
 10
370.0051418588
 20
236.2223634255
 30
0.0
 10
370.0032806786
 20
236.124851859
 30
0.0
 10
369.9940978496
 20
236.0534948497
 30
0.0
  0
SPLINE
  5
69D
100
AcDbEntity
  8
KONSTRUKTIONSELEMENTE
100
AcDbSpline
 62
7
  6
CONTINUOUS
 70
0
 71
3
 72
15
 73
11
 74
0
 42
0.0000001
 43
0.0000001
 44
0.0000000001
 40
0.0
 40
0.0
 40
0.0
 40
0.0
 40
0.1026374094
 40
0.2212909287
 40
0.3559197495
 40
0.5
 40
0.6440802505
 40
0.7787090713
 40
0.8973625906
 40
1.0
 40
1.0
 40
1.0
 40
1.0
 10
349.3389719266
 20
239.4287991916
 30
0.0
 10
349.3110580873
 20
239.5310414392
 30
0.0
 10
349.1891904179
 20
239.7356052088
 30
0.0
 10
348.8878668089
 20
239.9568542693
 30
0.0
 10
348.4980294151
 20
240.0987680804
 30
0.0
 10
348.0603951418
 20
240.1473941715
 30
0.0
 10
347.6227608684
 20
240.0987680804
 30
0.0
 10
347.2329234746
 20
239.9568542693
 30
0.0
 10
346.9315998656
 20
239.7356052088
 30
0.0
 10
346.8097321962
 20
239.5310414392
 30
0.0
 10
346.7818183569
 20
239.4287991916
 30
0.0
  0
SPLINE
  5
69E
100
AcDbEntity
  8
BEZUGSACHSEN
100
AcDbSpline
 62
7
  6
CONTINUOUS
 70
0
 71
3
 72
8
 73
4
 74
0
 42
0.0000001
 43
0.0000001
 44
0.0000000001
 40
0.0
 40
0.0
 40
0.0
 40
0.0
 40
1.0
 40
1.0
 40
1.0
 40
1.0
 10
332.2243640428
 20
231.238516018
 30
0.0
 10
332.234263587
 20
231.1857397841
 30
0.0
 10
332.251240159
 20
231.1337927936
 30
0.0
 10
332.2747015708
 20
231.0854927522
 30
0.0
  0
SPLINE
  5
69F
100
AcDbEntity
  8
BEZUGSACHSEN
100
AcDbSpline
 62
7
  6
CONTINUOUS
 70
0
 71
3
 72
16
 73
12
 74
0
 42
0.0000001
 43
0.0000001
 44
0.0000000001
 40
0.0
 40
0.0
 40
0.0
 40
0.0
 40
0.0481864484
 40
0.0983283001
 40
0.2100427609
 40
0.3407549188
 40
0.4852887041
 40
0.633194494
 40
0.7729214962
 40
0.8957196861
 40
1.0
 40
1.0
 40
1.0
 40
1.0
 10
332.2747015708
 20
231.0854927522
 30
0.0
 10
332.2994854511
 20
231.0344701431
 30
0.0
 10
332.3655992242
 20
230.9371628619
 30
0.0
 10
332.558391308
 20
230.7779307837
 30
0.0
 10
332.897208726
 20
230.6689284976
 30
0.0
 10
333.3583032625
 20
230.6849687172
 30
0.0
 10
333.8398275387
 20
230.8308290562
 30
0.0
 10
334.2835509559
 20
231.0889611779
 30
0.0
 10
334.6349436389
 20
231.4284230592
 30
0.0
 10
334.8524471166
 20
231.8099029476
 30
0.0
 10
334.8830576222
 20
232.0879162696
 30
0.0
 10
334.8607172424
 20
232.2086214713
 30
0.0
  0
SPLINE
  5
6A0
100
AcDbEntity
  8
BEZUGSACHSEN
100
AcDbSpline
 62
7
  6
CONTINUOUS
 70
0
 71
3
 72
9
 73
5
 74
0
 42
0.0000001
 43
0.0000001
 44
0.0000000001
 40
0.0
 40
0.0
 40
0.0
 40
0.0
 40
0.4954125409
 40
1.0
 40
1.0
 40
1.0
 40
1.0
 10
334.8607172424
 20
232.2086214713
 30
0.0
 10
334.8472827585
 20
232.2812080662
 30
0.0
 10
334.7930380283
 20
232.4242942456
 30
0.0
 10
334.6892466562
 20
232.5364036289
 30
0.0
 10
334.6297487276
 20
232.5823710519
 30
0.0
  0
SPLINE
  5
6A1
100
AcDbEntity
  8
BEZUGSACHSEN
100
AcDbSpline
 62
7
  6
CONTINUOUS
 70
0
 71
3
 72
15
 73
11
 74
0
 42
0.0000001
 43
0.0000001
 44
0.0000000001
 40
0.0
 40
0.0
 40
0.0
 40
0.0
 40
0.106489858
 40
0.2215203281
 40
0.3492901494
 40
0.4870904558
 40
0.6279266681
 40
0.7636029491
 40
0.8879097727
 40
1.0
 40
1.0
 40
1.0
 40
1.0
 10
327.3830053122
 20
232.383143043
 30
0.0
 10
327.4088285778
 20
232.2460429716
 30
0.0
 10
327.5389141265
 20
231.9711649984
 30
0.0
 10
327.9116647095
 20
231.6837779083
 30
0.0
 10
328.3983908647
 20
231.539171236
 30
0.0
 10
328.9379807177
 20
231.5468718703
 30
0.0
 10
329.4649413964
 20
231.7029205892
 30
0.0
 10
329.9141876055
 20
231.9892859837
 30
0.0
 10
330.2298487239
 20
232.3732600117
 30
0.0
 10
330.3203482202
 20
232.6821388206
 30
0.0
 10
330.3254830465
 20
232.8288968076
 30
0.0
  0
SPLINE
  5
6A2
100
AcDbEntity
  8
BEZUGSACHSEN
100
AcDbSpline
 62
7
  6
CONTINUOUS
 70
0
 71
3
 72
8
 73
4
 74
0
 42
0.0000001
 43
0.0000001
 44
0.0000000001
 40
0.0
 40
0.0
 40
0.0
 40
0.0
 40
1.0
 40
1.0
 40
1.0
 40
1.0
 10
330.3254830465
 20
232.8288968076
 30
0.0
 10
330.3278219763
 20
232.8957455393
 30
0.0
 10
330.3226126307
 20
232.9633434529
 30
0.0
 10
330.3094414154
 20
233.0289235002
 30
0.0
  0
SPLINE
  5
6A3
100
AcDbEntity
  8
BEZUGSACHSEN
100
AcDbSpline
 62
7
  6
CONTINUOUS
 70
0
 71
3
 72
15
 73
11
 74
0
 42
0.0000001
 43
0.0000001
 44
0.0000000001
 40
0.0
 40
0.0
 40
0.0
 40
0.0
 40
0.1125195235
 40
0.225583334
 40
0.3467019493
 40
0.4777923691
 40
0.6150333322
 40
0.7515432161
 40
0.8807625709
 40
1.0
 40
1.0
 40
1.0
 40
1.0
 10
331.4447314124
 20
236.0534948497
 30
0.0
 10
331.463673778
 20
235.90629941
 30
0.0
 10
331.5718499642
 20
235.6139942397
 30
0.0
 10
331.9326122055
 20
235.3048282335
 30
0.0
 10
332.4127035057
 20
235.1804561916
 30
0.0
 10
332.9327402815
 20
235.2455170107
 30
0.0
 10
333.4211942445
 20
235.4828191088
 30
0.0
 10
333.8103496191
 20
235.8583526288
 30
0.0
 10
334.0449598606
 20
236.3204342879
 30
0.0
 10
334.06945729
 20
236.6594481074
 30
0.0
 10
334.0432152064
 20
236.8145132206
 30
0.0
  0
SPLINE
  5
6A4
100
AcDbEntity
  8
BEZUGSACHSEN
100
AcDbSpline
 62
7
  6
CONTINUOUS
 70
0
 71
3
 72
9
 73
5
 74
0
 42
0.0000001
 43
0.0000001
 44
0.0000000001
 40
0.0
 40
0.0
 40
0.0
 40
0.0
 40
0.489430842
 40
1.0
 40
1.0
 40
1.0
 40
1.0
 10
333.9873841496
 20
237.0129000351
 30
0.0
 10
333.9333235749
 20
237.1464925158
 30
0.0
 10
333.7535995581
 20
237.3962187786
 30
0.0
 10
333.4806448252
 20
237.5334200025
 30
0.0
 10
333.3358399536
 20
237.5738407883
 30
0.0
  0
SPLINE
  5
6A5
100
AcDbEntity
  8
BEZUGSACHSEN
100
AcDbSpline
 62
7
  6
CONTINUOUS
 70
0
 71
3
 72
15
 73
11
 74
0
 42
0.0000001
 43
0.0000001
 44
0.0000000001
 40
0.0
 40
0.0
 40
0.0
 40
0.0
 40
0.1184031231
 40
0.239471763
 40
0.366049902
 40
0.4972057715
 40
0.629215974
 40
0.7578923067
 40
0.8810126811
 40
1.0
 40
1.0
 40
1.0
 40
1.0
 10
326.5896520321
 20
237.8366009631
 30
0.0
 10
326.6077268057
 20
237.6572519408
 30
0.0
 10
326.7319439838
 20
237.2976309118
 30
0.0
 10
327.1452142466
 20
236.8970910564
 30
0.0
 10
327.7030006233
 20
236.6965662898
 30
0.0
 10
328.3098420814
 20
236.7219754127
 30
0.0
 10
328.8696343836
 20
236.9649768287
 30
0.0
 10
329.2930829057
 20
237.3892493714
 30
0.0
 10
329.5070846475
 20
237.9300493181
 30
0.0
 10
329.4765838796
 20
238.313193107
 30
0.0
 10
329.420421472
 20
238.4854138376
 30
0.0
  0
SPLINE
  5
6A6
100
AcDbEntity
  8
BEZUGSACHSEN
100
AcDbSpline
 62
7
  6
CONTINUOUS
 70
0
 71
3
 72
9
 73
5
 74
0
 42
0.0000001
 43
0.0000001
 44
0.0000000001
 40
0.0
 40
0.0
 40
0.0
 40
0.0
 40
0.496161914
 40
1.0
 40
1.0
 40
1.0
 40
1.0
 10
329.420421472
 20
238.4854138376
 30
0.0
 10
329.3882920045
 20
238.5839381106
 30
0.0
 10
329.2963930007
 20
238.7745902458
 30
0.0
 10
329.1582372434
 20
238.9346883497
 30
0.0
 10
329.0800731866
 20
239.0051481575
 30
0.0
  0
SPLINE
  5
6A7
100
AcDbEntity
  8
BEZUGSACHSEN
100
AcDbSpline
 62
7
  6
CONTINUOUS
 70
0
 71
3
 72
18
 73
14
 74
0
 42
0.0000001
 43
0.0000001
 44
0.0000000001
 40
0.0
 40
0.0
 40
0.0
 40
0.0
 40
0.0433586689
 40
0.0893586081
 40
0.1402439334
 40
0.1972348636
 40
0.3289916623
 40
0.4783190491
 40
0.6323115286
 40
0.7767761092
 40
0.8418283863
 40
0.9007382941
 40
1.0
 40
1.0
 40
1.0
 40
1.0
 10
328.1607752537
 20
228.2272406104
 30
0.0
 10
328.1703272306
 20
228.1764362817
 30
0.0
 10
328.2082314588
 20
228.0744081084
 30
0.0
 10
328.3143519264
 20
227.942221814
 30
0.0
 10
328.4641526362
 20
227.8333206283
 30
0.0
 10
328.7267188867
 20
227.7167128626
 30
0.0
 10
329.1306603341
 20
227.6512978738
 30
0.0
 10
329.6514640531
 20
227.6881132403
 30
0.0
 10
330.1691728097
 20
227.8320986652
 30
0.0
 10
330.5578948996
 20
228.0331741414
 30
0.0
 10
330.8078210373
 20
228.2354225902
 30
0.0
 10
330.9861006806
 20
228.4328296661
 30
0.0
 10
331.0729844153
 20
228.6115795735
 30
0.0
 10
331.0880252591
 20
228.72896492
 30
0.0
  0
SPLINE
  5
6A8
100
AcDbEntity
  8
BEZUGSACHSEN
100
AcDbSpline
 62
7
  6
CONTINUOUS
 70
0
 71
3
 72
9
 73
5
 74
0
 42
0.0000001
 43
0.0000001
 44
0.0000000001
 40
0.0
 40
0.0
 40
0.0
 40
0.0
 40
0.2554198815
 40
1.0
 40
1.0
 40
1.0
 40
1.0
 10
331.0880252591
 20
228.72896492
 30
0.0
 10
331.0895842609
 20
228.7411320545
 30
0.0
 10
331.0940770376
 20
228.7889539152
 30
0.0
 10
331.0917894135
 20
228.8374637776
 30
0.0
 10
331.0859445485
 20
228.8727415193
 30
0.0
  0
SPLINE
  5
6A9
100
AcDbEntity
  8
BEZUGSACHSEN
100
AcDbSpline
 62
7
  6
CONTINUOUS
 70
0
 71
3
 72
9
 73
5
 74
0
 42
0.0000001
 43
0.0000001
 44
0.0000000001
 40
0.0
 40
0.0
 40
0.0
 40
0.0
 40
0.5081608257
 40
1.0
 40
1.0
 40
1.0
 40
1.0
 10
335.5228259372
 20
228.6942372684
 30
0.0
 10
335.5312698611
 20
228.746050314
 30
0.0
 10
335.5269679473
 20
228.8552537635
 30
0.0
 10
335.459341906
 20
228.9420404542
 30
0.0
 10
335.4193624217
 20
228.9733987405
 30
0.0
  0
SPLINE
  5
6AA
100
AcDbEntity
  8
BEZUGSACHSEN
100
AcDbSpline
 62
7
  6
CONTINUOUS
 70
0
 71
3
 72
9
 73
5
 74
0
 42
0.0000001
 43
0.0000001
 44
0.0000000001
 40
0.0
 40
0.0
 40
0.0
 40
0.0
 40
0.4598829541
 40
1.0
 40
1.0
 40
1.0
 40
1.0
 10
333.0063938772
 20
227.744725787
 30
0.0
 10
333.0213373928
 20
227.6983833145
 30
0.0
 10
333.0857907915
 20
227.6066818195
 30
0.0
 10
333.1842542738
 20
227.5594448136
 30
0.0
 10
333.2385736059
 20
227.5415616554
 30
0.0
  0
SPLINE
  5
6AB
100
AcDbEntity
  8
BEZUGSACHSEN
100
AcDbSpline
 62
7
  6
CONTINUOUS
 70
0
 71
3
 72
15
 73
11
 74
0
 42
0.0000001
 43
0.0000001
 44
0.0000000001
 40
0.0
 40
0.0
 40
0.0
 40
0.0
 40
0.099902007
 40
0.2243728676
 40
0.3668850479
 40
0.5175795075
 40
0.6654266136
 40
0.7999119376
 40
0.9126576658
 40
1.0
 40
1.0
 40
1.0
 40
1.0
 10
333.2385736059
 20
227.5415616554
 30
0.0
 10
333.3250564079
 20
227.513089552
 30
0.0
 10
333.5321840412
 20
227.4906881909
 30
0.0
 10
333.8655829751
 20
227.5283576232
 30
0.0
 10
334.2338647405
 20
227.6304082254
 30
0.0
 10
334.6045628458
 20
227.7885847931
 30
0.0
 10
334.9458402231
 20
227.9889465162
 30
0.0
 10
335.2286105221
 20
228.2147111224
 30
0.0
 10
335.4300741988
 20
228.4453941777
 30
0.0
 10
335.5100221216
 20
228.6156713445
 30
0.0
 10
335.5228259372
 20
228.6942372684
 30
0.0
  0
SPLINE
  5
6AC
100
AcDbEntity
  8
BEZUGSACHSEN
100
AcDbSpline
 62
7
  6
CONTINUOUS
 70
0
 71
3
 72
9
 73
5
 74
0
 42
0.0000001
 43
0.0000001
 44
0.0000000001
 40
0.0
 40
0.0
 40
0.0
 40
0.0
 40
0.2600129863
 40
1.0
 40
1.0
 40
1.0
 40
1.0
 10
331.7374401858
 20
226.0161191836
 30
0.0
 10
331.7393766511
 20
226.0259755608
 30
0.0
 10
331.7440519437
 20
226.064403221
 30
0.0
 10
331.7340771701
 20
226.1043809995
 30
0.0
 10
331.7199946633
 20
226.1292588358
 30
0.0
  0
SPLINE
  5
6AD
100
AcDbEntity
  8
BEZUGSACHSEN
100
AcDbSpline
 62
7
  6
CONTINUOUS
 70
0
 71
3
 72
10
 73
6
 74
0
 42
0.0000001
 43
0.0000001
 44
0.0000000001
 40
0.0
 40
0.0
 40
0.0
 40
0.0
 40
0.1985566617
 40
0.5532205738
 40
1.0
 40
1.0
 40
1.0
 40
1.0
 10
328.9334028912
 20
225.3734333218
 30
0.0
 10
328.9419605576
 20
225.3561757564
 30
0.0
 10
328.9746605831
 20
225.3123559076
 30
0.0
 10
329.0570785146
 20
225.2578637539
 30
0.0
 10
329.1308794944
 20
225.2319699765
 30
0.0
 10
329.1726778491
 20
225.2204982181
 30
0.0
  0
SPLINE
  5
6AE
100
AcDbEntity
  8
BEZUGSACHSEN
100
AcDbSpline
 62
7
  6
CONTINUOUS
 70
0
 71
3
 72
13
 73
9
 74
0
 42
0.0000001
 43
0.0000001
 44
0.0000000001
 40
0.0
 40
0.0
 40
0.0
 40
0.0
 40
0.0989894716
 40
0.2213490009
 40
0.5075431243
 40
0.7894743214
 40
0.9069632496
 40
1.0
 40
1.0
 40
1.0
 40
1.0
 10
329.1726778491
 20
225.2204982181
 30
0.0
 10
329.2556366933
 20
225.1977297666
 30
0.0
 10
329.4478426019
 20
225.172288498
 30
0.0
 10
329.8895621544
 20
225.1771196381
 30
0.0
 10
330.4842821645
 20
225.2796613719
 30
0.0
 10
331.052983629
 20
225.4699769908
 30
0.0
 10
331.430672962
 20
225.6726187326
 30
0.0
 10
331.5779314852
 20
225.7843282587
 30
0.0
 10
331.6338107618
 20
225.8427643385
 30
0.0
  0
SPLINE
  5
6AF
100
AcDbEntity
  8
BEZUGSACHSEN
100
AcDbSpline
 62
7
  6
CONTINUOUS
 70
0
 71
3
 72
9
 73
5
 74
0
 42
0.0000001
 43
0.0000001
 44
0.0000000001
 40
0.0
 40
0.0
 40
0.0
 40
0.0
 40
0.2934762139
 40
1.0
 40
1.0
 40
1.0
 40
1.0
 10
331.6338107618
 20
225.8427643385
 30
0.0
 10
331.6475539488
 20
225.8571363566
 30
0.0
 10
331.6919901578
 20
225.9078286114
 30
0.0
 10
331.7282111352
 20
225.9691444176
 30
0.0
 10
331.7374401858
 20
226.0161191836
 30
0.0
  0
SPLINE
  5
6B0
100
AcDbEntity
  8
0
100
AcDbSpline
 62
7
  6
CONTINUOUS
 70
0
 71
3
 72
9
 73
5
 74
0
 42
0.0000001
 43
0.0000001
 44
0.0000000001
 40
0.0
 40
0.0
 40
0.0
 40
0.0
 40
0.2443711288
 40
1.0
 40
1.0
 40
1.0
 40
1.0
 10
371.8990231149
 20
209.1395765977
 30
0.0
 10
371.9109961727
 20
209.2755873736
 30
0.0
 10
371.9560224306
 20
209.8325152648
 30
0.0
 10
371.9896450687
 20
210.3902736583
 30
0.0
 10
372.0147586818
 20
210.8117163388
 30
0.0
  0
SPLINE
  5
6B1
100
AcDbEntity
  8
0
100
AcDbSpline
 62
7
  6
CONTINUOUS
 70
0
 71
3
 72
9
 73
5
 74
0
 42
0.0000001
 43
0.0000001
 44
0.0000000001
 40
0.0
 40
0.0
 40
0.0
 40
0.0
 40
0.4634851989
 40
1.0
 40
1.0
 40
1.0
 40
1.0
 10
371.5818312511
 20
207.8385142703
 30
0.0
 10
371.6747396191
 20
208.0243321009
 30
0.0
 10
371.8143155264
 20
208.4552310782
 30
0.0
 10
371.8779347347
 20
208.9000181658
 30
0.0
 10
371.8990231149
 20
209.1395765977
 30
0.0
  0
SPLINE
  5
6B2
100
AcDbEntity
  8
KONSTRUKTIONSELEMENTE
100
AcDbSpline
 62
7
  6
CONTINUOUS
 70
0
 71
3
 72
9
 73
5
 74
0
 42
0.0000001
 43
0.0000001
 44
0.0000000001
 40
0.0
 40
0.0
 40
0.0
 40
0.0
 40
0.472234904
 40
1.0
 40
1.0
 40
1.0
 40
1.0
 10
346.579414631
 20
253.3924590283
 30
0.0
 10
346.579414631
 20
253.4235414458
 30
0.0
 10
346.5971928997
 20
253.4900022811
 30
0.0
 10
346.6414470513
 20
253.5411744221
 30
0.0
 10
346.6678086353
 20
253.5637964067
 30
0.0
  0
SPLINE
  5
6B3
100
AcDbEntity
  8
KONSTRUKTIONSELEMENTE
100
AcDbSpline
 62
7
  6
CONTINUOUS
 70
0
 71
3
 72
13
 73
9
 74
0
 42
0.0000001
 43
0.0000001
 44
0.0000000001
 40
0.0
 40
0.0
 40
0.0
 40
0.0
 40
0.2352014811
 40
0.3656095738
 40
0.5
 40
0.6343904262
 40
0.7647985189
 40
1.0
 40
1.0
 40
1.0
 40
1.0
 10
346.6678086353
 20
253.5637964067
 30
0.0
 10
347.1829755824
 20
254.0058828443
 30
0.0
 10
348.1580767176
 20
254.495140554
 30
0.0
 10
349.5653885002
 20
254.8201532632
 30
0.0
 10
350.719414631
 20
254.9066896963
 30
0.0
 10
351.8734407618
 20
254.8201532632
 30
0.0
 10
353.2807525444
 20
254.495140554
 30
0.0
 10
354.2558536795
 20
254.0058828443
 30
0.0
 10
354.7710206267
 20
253.5637964067
 30
0.0
  0
LINE
  5
6B4
100
AcDbEntity
  8
0
100
AcDbLine
 62
7
  6
CONTINUOUS
 10
375.8135961182
 20
142.4574028907
 11
375.8287302233
 21
142.5309570101
  0
LINE
  5
6B5
100
AcDbEntity
  8
KONSTRUKTIONSELEMENTE
100
AcDbLine
 62
7
  6
CONTINUOUS
 10
366.2795823944
 20
46.2537684314
 11
366.2932602685
 21
46.3102919252
  0
LINE
  5
6B6
100
AcDbEntity
  8
KONSTRUKTIONSELEMENTE
100
AcDbLine
 62
7
  6
CONTINUOUS
 10
366.2932602685
 20
46.3102919252
 11
366.6111627716
 21
47.6252709061
  0
LINE
  5
6B7
100
AcDbEntity
  8
KONSTRUKTIONSELEMENTE
100
AcDbLine
 62
7
  6
CONTINUOUS
 10
366.6111627716
 20
47.6252709061
 11
366.6788708958
 21
47.9056582528
  0
LINE
  5
6B8
100
AcDbEntity
  8
KONSTRUKTIONSELEMENTE
100
AcDbLine
 62
7
  6
CONTINUOUS
 10
366.6788708958
 20
47.9056582528
 11
367.5318266025
 21
51.4481666278
  0
LINE
  5
6B9
100
AcDbEntity
  8
0
100
AcDbLine
 62
7
  6
CONTINUOUS
 10
325.6100990387
 20
142.5309570096
 11
325.6252331438
 21
142.4574028907
  0
LINE
  5
6BA
100
AcDbEntity
  8
KONSTRUKTIONSELEMENTE
100
AcDbLine
 62
7
  6
CONTINUOUS
 10
365.5317372479
 20
37.9351528387
 11
365.5360980777
 21
37.9859157989
  0
LINE
  5
6BB
100
AcDbEntity
  8
KONSTRUKTIONSELEMENTE
100
AcDbLine
 62
7
  6
CONTINUOUS
 10
365.5360980778
 20
38.0874417203
 11
365.5317372479
 21
38.1382046816
  0
LINE
  5
6BC
100
AcDbEntity
  8
KONSTRUKTIONSELEMENTE
100
AcDbLine
 62
7
  6
CONTINUOUS
 10
365.5344990266
 20
37.9345861296
 11
365.5094157462
 21
37.812346207
  0
LINE
  5
6BD
100
AcDbEntity
  8
KONSTRUKTIONSELEMENTE
100
AcDbLine
 62
7
  6
CONTINUOUS
 10
365.5094157462
 20
37.812346207
 11
365.2604204183
 21
36.5989111564
  0
LINE
  5
6BE
100
AcDbEntity
  8
KONSTRUKTIONSELEMENTE
100
AcDbLine
 62
7
  6
CONTINUOUS
 10
364.6364035999
 20
34.0321178789
 11
364.5844809454
 21
33.7850230321
  0
LINE
  5
6BF
100
AcDbEntity
  8
KONSTRUKTIONSELEMENTE
100
AcDbLine
 62
7
  6
CONTINUOUS
 10
364.5844809454
 20
33.7850230321
 11
364.5324537561
 21
33.5374545028
  0
LINE
  5
6C0
100
AcDbEntity
  8
KONSTRUKTIONSELEMENTE
100
AcDbLine
 62
7
  6
CONTINUOUS
 10
364.5324537561
 20
33.5374545028
 11
364.4803220398
 21
33.2894122895
  0
LINE
  5
6C1
100
AcDbEntity
  8
KONSTRUKTIONSELEMENTE
100
AcDbLine
 62
7
  6
CONTINUOUS
 10
364.4803220398
 20
33.2894122895
 11
364.4711514408
 21
33.2457811069
  0
LINE
  5
6C2
100
AcDbEntity
  8
KONSTRUKTIONSELEMENTE
100
AcDbLine
 62
7
  6
CONTINUOUS
 10
364.4711514408
 20
33.2457811069
 11
364.428085804
 21
33.0408963908
  0
LINE
  5
6C3
100
AcDbEntity
  8
KONSTRUKTIONSELEMENTE
100
AcDbLine
 62
7
  6
CONTINUOUS
 10
364.428085804
 20
33.0408963908
 11
364.4187308544
 21
32.9986794717
  0
SPLINE
  5
6C4
100
AcDbEntity
  8
KONSTRUKTIONSELEMENTE
100
AcDbSpline
 62
7
  6
CONTINUOUS
 70
0
 71
3
 72
8
 73
4
 74
0
 42
0.0000001
 43
0.0000001
 44
0.0000000001
 40
0.0
 40
0.0
 40
0.0
 40
0.0
 40
1.0
 40
1.0
 40
1.0
 40
1.0
 10
364.4187308544
 20
32.9986794717
 30
0.0
 10
364.3534160501
 20
32.7039596337
 30
0.0
 10
364.2879591762
 20
32.4092712467
 30
0.0
 10
364.2223642097
 20
32.1146136371
 30
0.0
  0
LINE
  5
6C5
100
AcDbEntity
  8
KONSTRUKTIONSELEMENTE
100
AcDbLine
 62
7
  6
CONTINUOUS
 10
365.892676906
 20
40.1093194266
 11
365.9585727116
 21
40.4321027924
  0
LINE
  5
6C6
100
AcDbEntity
  8
KONSTRUKTIONSELEMENTE
100
AcDbLine
 62
7
  6
CONTINUOUS
 10
365.9585727116
 20
40.4321027924
 11
366.090010562
 21
41.0759677134
  0
LINE
  5
6C7
100
AcDbEntity
  8
KONSTRUKTIONSELEMENTE
100
AcDbLine
 62
7
  6
CONTINUOUS
 10
366.090010562
 20
41.0759677134
 11
366.1555525877
 21
41.3970492726
  0
LINE
  5
6C8
100
AcDbEntity
  8
KONSTRUKTIONSELEMENTE
100
AcDbLine
 62
7
  6
CONTINUOUS
 10
365.8994430017
 20
40.8019880764
 11
365.689222311
 21
39.8107667656
  0
LINE
  5
6C9
100
AcDbEntity
  8
KONSTRUKTIONSELEMENTE
100
AcDbLine
 62
7
  6
CONTINUOUS
 10
364.903829868
 20
36.0125156652
 11
365.231642409
 21
37.5978468271
  0
LINE
  5
6CA
100
AcDbEntity
  8
KONSTRUKTIONSELEMENTE
100
AcDbLine
 62
7
  6
CONTINUOUS
 10
365.231642409
 20
37.5978468271
 11
365.689222311
 21
39.8107667656
  0
LINE
  5
6CB
100
AcDbEntity
  8
KONSTRUKTIONSELEMENTE
100
AcDbLine
 62
7
  6
CONTINUOUS
 10
364.6951299525
 20
34.978003245
 11
364.7474576178
 21
35.2373542832
  0
LINE
  5
6CC
100
AcDbEntity
  8
KONSTRUKTIONSELEMENTE
100
AcDbLine
 62
7
  6
CONTINUOUS
 10
364.7474576178
 20
35.2373542832
 11
364.7996834976
 21
35.4962233649
  0
LINE
  5
6CD
100
AcDbEntity
  8
KONSTRUKTIONSELEMENTE
100
AcDbLine
 62
7
  6
CONTINUOUS
 10
364.7996834976
 20
35.4962233649
 11
364.8518075837
 21
35.7546104917
  0
LINE
  5
6CE
100
AcDbEntity
  8
KONSTRUKTIONSELEMENTE
100
AcDbLine
 62
7
  6
CONTINUOUS
 10
364.8518075837
 20
35.7546104917
 11
364.903829868
 21
36.0125156652
  0
LINE
  5
6CF
100
AcDbEntity
  8
KONSTRUKTIONSELEMENTE
100
AcDbLine
 62
7
  6
CONTINUOUS
 10
364.5393441473
 20
34.1750609957
 11
364.5784517313
 21
34.3765077599
  0
LINE
  5
6D0
100
AcDbEntity
  8
KONSTRUKTIONSELEMENTE
100
AcDbLine
 62
7
  6
CONTINUOUS
 10
364.5784517313
 20
34.3765077599
 11
364.6174518779
 21
34.5774803924
  0
LINE
  5
6D1
100
AcDbEntity
  8
KONSTRUKTIONSELEMENTE
100
AcDbLine
 62
7
  6
CONTINUOUS
 10
364.6174518779
 20
34.5774803924
 11
364.6951299525
 21
34.978003245
  0
LINE
  5
6D2
100
AcDbEntity
  8
KONSTRUKTIONSELEMENTE
100
AcDbLine
 62
7
  6
CONTINUOUS
 10
364.4361326613
 20
33.6036897306
 11
364.5136441642
 21
34.032516508
  0
LINE
  5
6D3
100
AcDbEntity
  8
KONSTRUKTIONSELEMENTE
100
AcDbLine
 62
7
  6
CONTINUOUS
 10
364.5136441642
 20
34.032516508
 11
364.5393441473
 21
34.1750609957
  0
LINE
  5
6D4
100
AcDbEntity
  8
KONSTRUKTIONSELEMENTE
100
AcDbLine
 62
7
  6
CONTINUOUS
 10
364.3849985939
 20
33.2638898046
 11
364.4106792372
 21
33.4337926291
  0
LINE
  5
6D5
100
AcDbEntity
  8
KONSTRUKTIONSELEMENTE
100
AcDbLine
 62
7
  6
CONTINUOUS
 10
364.4106792372
 20
33.4337926291
 11
364.4234344007
 21
33.5187418936
  0
LINE
  5
6D6
100
AcDbEntity
  8
KONSTRUKTIONSELEMENTE
100
AcDbLine
 62
7
  6
CONTINUOUS
 10
364.4234344007
 20
33.5187418936
 11
364.4361326613
 21
33.6036897306
  0
LINE
  5
6D7
100
AcDbEntity
  8
KONSTRUKTIONSELEMENTE
100
AcDbLine
 62
7
  6
CONTINUOUS
 10
365.4215843094
 20
37.8303689792
 11
365.0399804173
 21
35.9843705415
  0
LINE
  5
6D8
100
AcDbEntity
  8
KONSTRUKTIONSELEMENTE
100
AcDbLine
 62
7
  6
CONTINUOUS
 10
365.0399804173
 20
35.9843705415
 11
365.0301808094
 21
35.9369656883
  0
LINE
  5
6D9
100
AcDbEntity
  8
KONSTRUKTIONSELEMENTE
100
AcDbLine
 62
7
  6
CONTINUOUS
 10
365.0301808094
 20
35.9369656883
 11
364.9272293151
 21
35.4389471463
  0
LINE
  5
6DA
100
AcDbEntity
  8
KONSTRUKTIONSELEMENTE
100
AcDbLine
 62
7
  6
CONTINUOUS
 10
364.9272293151
 20
35.4389471463
 11
364.8335889003
 21
34.9859723521
  0
LINE
  5
6DB
100
AcDbEntity
  8
KONSTRUKTIONSELEMENTE
100
AcDbLine
 62
7
  6
CONTINUOUS
 10
364.8335889003
 20
34.9859723521
 11
364.8263344821
 21
34.9508800226
  0
LINE
  5
6DC
100
AcDbEntity
  8
KONSTRUKTIONSELEMENTE
100
AcDbLine
 62
7
  6
CONTINUOUS
 10
364.8263344821
 20
34.9508800226
 11
364.6607646593
 21
34.1499603721
  0
LINE
  5
6DD
100
AcDbEntity
  8
KONSTRUKTIONSELEMENTE
100
AcDbLine
 62
7
  6
CONTINUOUS
 10
364.6607646593
 20
34.1499603721
 11
364.6364035999
 21
34.0321178789
  0
LINE
  5
6DE
100
AcDbEntity
  8
KONSTRUKTIONSELEMENTE
100
AcDbLine
 62
7
  6
CONTINUOUS
 10
364.6887499404
 20
35.4882462408
 11
364.6238056479
 21
35.1862376209
  0
LINE
  5
6DF
100
AcDbEntity
  8
KONSTRUKTIONSELEMENTE
100
AcDbLine
 62
7
  6
CONTINUOUS
 10
364.6238056479
 20
35.1862376209
 11
364.6194277404
 21
35.1658800668
  0
LINE
  5
6E0
100
AcDbEntity
  8
KONSTRUKTIONSELEMENTE
100
AcDbLine
 62
7
  6
CONTINUOUS
 10
364.6194277404
 20
35.1658800668
 11
364.5587135185
 21
34.8835667142
  0
LINE
  5
6E1
100
AcDbEntity
  8
KONSTRUKTIONSELEMENTE
100
AcDbLine
 62
7
  6
CONTINUOUS
 10
364.5587135185
 20
34.8835667142
 11
364.493473566
 21
34.5802335179
  0
LINE
  5
6E2
100
AcDbEntity
  8
KONSTRUKTIONSELEMENTE
100
AcDbLine
 62
7
  6
CONTINUOUS
 10
364.493473566
 20
34.5802335179
 11
364.428085804
 21
34.2762380294
  0
SPLINE
  5
6E3
100
AcDbEntity
  8
KONSTRUKTIONSELEMENTE
100
AcDbSpline
 62
7
  6
CONTINUOUS
 70
0
 71
3
 72
8
 73
4
 74
0
 42
0.0000001
 43
0.0000001
 44
0.0000000001
 40
0.0
 40
0.0
 40
0.0
 40
0.0
 40
1.0
 40
1.0
 40
1.0
 40
1.0
 10
364.428085804
 20
34.2762380294
 30
0.0
 10
364.3596653252
 20
33.9911142797
 30
0.0
 10
364.2910899265
 20
33.7060276638
 30
0.0
 10
364.2223641727
 20
33.420977343
 30
0.0
  0
LINE
  5
6E4
100
AcDbEntity
  8
KONSTRUKTIONSELEMENTE
100
AcDbLine
 62
7
  6
CONTINUOUS
 10
364.903829868
 20
37.665631217
 11
364.9466777203
 21
37.8698444609
  0
LINE
  5
6E5
100
AcDbEntity
  8
KONSTRUKTIONSELEMENTE
100
AcDbLine
 62
7
  6
CONTINUOUS
 10
364.9466777203
 20
37.8698444609
 11
365.689222311
 21
41.4088533585
  0
LINE
  5
6E6
100
AcDbEntity
  8
KONSTRUKTIONSELEMENTE
100
AcDbLine
 62
7
  6
CONTINUOUS
 10
364.6951299851
 20
36.6317045427
 11
364.903829868
 21
37.665631217
  0
LINE
  5
6E7
100
AcDbEntity
  8
KONSTRUKTIONSELEMENTE
100
AcDbLine
 62
7
  6
CONTINUOUS
 10
364.5393441473
 20
35.8115950628
 11
364.6951299851
 21
36.6317045427
  0
LINE
  5
6E8
100
AcDbEntity
  8
KONSTRUKTIONSELEMENTE
100
AcDbLine
 62
7
  6
CONTINUOUS
 10
364.4361326613
 20
35.205299331
 11
364.5393441473
 21
35.8115950628
  0
SPLINE
  5
6E9
100
AcDbEntity
  8
KONSTRUKTIONSELEMENTE
100
AcDbSpline
 62
7
  6
CONTINUOUS
 70
0
 71
3
 72
8
 73
4
 74
0
 42
0.0000001
 43
0.0000001
 44
0.0000000001
 40
0.0
 40
0.0
 40
0.0
 40
0.0
 40
1.0
 40
1.0
 40
1.0
 40
1.0
 10
364.3853425049
 20
36.9446314895
 30
0.0
 10
364.9860585869
 20
39.9382957136
 30
0.0
 10
365.5855432501
 20
42.9322074769
 30
0.0
 10
366.1834220427
 20
45.9264396401
 30
0.0
  0
LINE
  5
6EA
100
AcDbEntity
  8
KONSTRUKTIONSELEMENTE
100
AcDbLine
 62
7
  6
CONTINUOUS
 10
366.1834220427
 20
45.9264396401
 11
366.2019136159
 21
46.0190498347
  0
LINE
  5
6EB
100
AcDbEntity
  8
KONSTRUKTIONSELEMENTE
100
AcDbLine
 62
7
  6
CONTINUOUS
 10
366.2019136159
 20
46.0190498347
 11
366.5265269635
 21
47.6456829735
  0
SPLINE
  5
6EC
100
AcDbEntity
  8
KONSTRUKTIONSELEMENTE
100
AcDbSpline
 62
7
  6
CONTINUOUS
 70
0
 71
3
 72
8
 73
4
 74
0
 42
0.0000001
 43
0.0000001
 44
0.0000000001
 40
0.0
 40
0.0
 40
0.0
 40
0.0
 40
1.0
 40
1.0
 40
1.0
 40
1.0
 10
366.5201643871
 20
45.9555370212
 30
0.0
 10
366.1926022332
 20
44.5225916987
 30
0.0
 10
365.8644902891
 20
43.0897719735
 30
0.0
 10
365.5359055651
 20
41.657060788
 30
0.0
  0
SPLINE
  5
6ED
100
AcDbEntity
  8
KONSTRUKTIONSELEMENTE
100
AcDbSpline
 62
7
  6
CONTINUOUS
 70
0
 71
3
 72
8
 73
4
 74
0
 42
0.0000001
 43
0.0000001
 44
0.0000000001
 40
0.0
 40
0.0
 40
0.0
 40
0.0
 40
1.0
 40
1.0
 40
1.0
 40
1.0
 10
365.5359055651
 20
41.657060788
 30
0.0
 10
365.2509727303
 20
40.4146827047
 30
0.0
 10
364.9656836076
 20
39.1723862926
 30
0.0
 10
364.680080512
 20
37.9301621204
 30
0.0
  0
LINE
  5
6EE
100
AcDbEntity
  8
KONSTRUKTIONSELEMENTE
100
AcDbLine
 62
7
  6
CONTINUOUS
 10
364.680080512
 20
37.9301621204
 11
364.4980559035
 21
37.1386437534
  0
LINE
  5
6EF
100
AcDbEntity
  8
KONSTRUKTIONSELEMENTE
100
AcDbLine
 62
7
  6
CONTINUOUS
 10
364.4980559035
 20
37.1386437534
 11
364.4500023926
 21
36.9297510452
  0
LINE
  5
6F0
100
AcDbEntity
  8
KONSTRUKTIONSELEMENTE
100
AcDbLine
 62
7
  6
CONTINUOUS
 10
364.4500023926
 20
36.9297510452
 11
364.3866269272
 21
36.6542926918
  0
LINE
  5
6F1
100
AcDbEntity
  8
KONSTRUKTIONSELEMENTE
100
AcDbLine
 62
7
  6
CONTINUOUS
 10
364.3866269272
 20
36.6542926918
 11
364.1576193788
 21
35.6592972809
  0
LINE
  5
6F2
100
AcDbEntity
  8
KONSTRUKTIONSELEMENTE
100
AcDbLine
 62
7
  6
CONTINUOUS
 10
364.1576193788
 20
35.6592972809
 11
364.142380593
 21
35.5931080804
  0
LINE
  5
6F3
100
AcDbEntity
  8
KONSTRUKTIONSELEMENTE
100
AcDbLine
 62
7
  6
CONTINUOUS
 10
364.142380593
 20
35.5931080804
 11
364.0706608693
 21
35.2816294525
  0
SPLINE
  5
6F4
100
AcDbEntity
  8
KONSTRUKTIONSELEMENTE
100
AcDbSpline
 62
7
  6
CONTINUOUS
 70
0
 71
3
 72
9
 73
5
 74
0
 42
0.0000001
 43
0.0000001
 44
0.0000000001
 40
0.0
 40
0.0
 40
0.0
 40
0.0
 40
0.3945061836
 40
1.0
 40
1.0
 40
1.0
 40
1.0
 10
383.809955074
 20
184.148995466
 30
0.0
 10
383.7638779956
 20
184.122596679
 30
0.0
 10
383.6343605021
 20
184.0803475953
 30
0.0
 10
383.5033367935
 20
184.0512954404
 30
0.0
 10
383.4232873747
 20
184.0359649779
 30
0.0
  0
SPLINE
  5
6F5
100
AcDbEntity
  8
KONSTRUKTIONSELEMENTE
100
AcDbSpline
 62
7
  6
CONTINUOUS
 70
0
 71
3
 72
11
 73
7
 74
0
 42
0.0000001
 43
0.0000001
 44
0.0000000001
 40
0.0
 40
0.0
 40
0.0
 40
0.0
 40
0.1452271226
 40
0.360283082
 40
0.6458676499
 40
1.0
 40
1.0
 40
1.0
 40
1.0
 10
384.2815243576
 20
186.5551284602
 30
0.0
 10
384.2582632605
 20
186.5373838048
 30
0.0
 10
384.1913425939
 20
186.5065960653
 30
0.0
 10
384.0672102345
 20
186.4683356025
 30
0.0
 10
383.8988725761
 20
186.4307730675
 30
0.0
 10
383.7719031271
 20
186.4087834671
 30
0.0
 10
383.7014278594
 20
186.3976996594
 30
0.0
  0
LINE
  5
6F6
100
AcDbEntity
  8
KONSTRUKTIONSELEMENTE
100
AcDbLine
 62
7
  6
CONTINUOUS
 10
364.0600390869
 20
31.0393628696
 11
364.1609628161
 21
31.5311645241
  0
LINE
  5
6F7
100
AcDbEntity
  8
KONSTRUKTIONSELEMENTE
100
AcDbLine
 62
7
  6
CONTINUOUS
 10
364.1609628161
 20
31.5311645241
 11
364.1915401723
 21
31.6801685427
  0
LINE
  5
6F8
100
AcDbEntity
  8
KONSTRUKTIONSELEMENTE
100
AcDbLine
 62
7
  6
CONTINUOUS
 10
364.1915401723
 20
31.6801685427
 11
364.278336045
 21
32.1031276128
  0
LINE
  5
6F9
100
AcDbEntity
  8
KONSTRUKTIONSELEMENTE
100
AcDbLine
 62
7
  6
CONTINUOUS
 10
364.278336045
 20
32.1031276128
 11
364.4690501974
 21
33.0324900551
  0
LINE
  5
6FA
100
AcDbEntity
  8
KONSTRUKTIONSELEMENTE
100
AcDbLine
 62
7
  6
CONTINUOUS
 10
364.4690501974
 20
33.0324900551
 11
364.4766497543
 21
33.0695233703
  0
LINE
  5
6FB
100
AcDbEntity
  8
KONSTRUKTIONSELEMENTE
100
AcDbLine
 62
7
  6
CONTINUOUS
 10
364.4766497543
 20
33.0695233703
 11
364.5112201863
 21
33.2379883285
  0
LINE
  5
6FC
100
AcDbEntity
  8
KONSTRUKTIONSELEMENTE
100
AcDbLine
 62
7
  6
CONTINUOUS
 10
364.5112201863
 20
33.2379883285
 11
364.5355814368
 21
33.3567031621
  0
LINE
  5
6FD
100
AcDbEntity
  8
KONSTRUKTIONSELEMENTE
100
AcDbLine
 62
7
  6
CONTINUOUS
 10
364.5355814368
 20
33.3567031621
 11
364.5801984032
 21
33.5741265214
  0
LINE
  5
6FE
100
AcDbEntity
  8
KONSTRUKTIONSELEMENTE
100
AcDbLine
 62
7
  6
CONTINUOUS
 10
364.5801984032
 20
33.5741265214
 11
364.6726549341
 21
34.0246788742
  0
LINE
  5
6FF
100
AcDbEntity
  8
KONSTRUKTIONSELEMENTE
100
AcDbLine
 62
7
  6
CONTINUOUS
 10
364.6726549341
 20
34.0246788742
 11
364.6968805126
 21
34.1427335287
  0
LINE
  5
700
100
AcDbEntity
  8
KONSTRUKTIONSELEMENTE
100
AcDbLine
 62
7
  6
CONTINUOUS
 10
364.6968805126
 20
34.1427335287
 11
364.71230798
 21
34.2179138258
  0
LINE
  5
701
100
AcDbEntity
  8
KONSTRUKTIONSELEMENTE
100
AcDbLine
 62
7
  6
CONTINUOUS
 10
364.71230798
 20
34.2179138258
 11
364.861285695
 21
34.9439070266
  0
LINE
  5
702
100
AcDbEntity
  8
KONSTRUKTIONSELEMENTE
100
AcDbLine
 62
7
  6
CONTINUOUS
 10
364.861285695
 20
34.9439070266
 11
364.8906340916
 21
35.0869273131
  0
LINE
  5
703
100
AcDbEntity
  8
KONSTRUKTIONSELEMENTE
100
AcDbLine
 62
7
  6
CONTINUOUS
 10
364.8906340916
 20
35.0869273131
 11
365.0734264607
 21
35.9777141041
  0
LINE
  5
704
100
AcDbEntity
  8
KONSTRUKTIONSELEMENTE
100
AcDbLine
 62
7
  6
CONTINUOUS
 10
365.0734264607
 20
35.9777141041
 11
365.4522982229
 21
37.8240665678
  0
LINE
  5
705
100
AcDbEntity
  8
KONSTRUKTIONSELEMENTE
100
AcDbLine
 62
7
  6
CONTINUOUS
 10
365.4522982229
 20
37.8240665678
 11
365.5166607371
 21
38.1377277655
  0
LINE
  5
706
100
AcDbEntity
  8
KONSTRUKTIONSELEMENTE
100
AcDbLine
 62
7
  6
CONTINUOUS
 10
365.5166607371
 20
38.1377277655
 11
365.8530618682
 21
39.7771481632
  0
LINE
  5
707
100
AcDbEntity
  8
KONSTRUKTIONSELEMENTE
100
AcDbLine
 62
7
  6
CONTINUOUS
 10
365.8530618682
 20
39.7771481632
 11
365.9200677196
 21
40.1036990452
  0
LINE
  5
708
100
AcDbEntity
  8
KONSTRUKTIONSELEMENTE
100
AcDbLine
 62
7
  6
CONTINUOUS
 10
365.9200677196
 20
40.1036990452
 11
366.0567283299
 21
40.7697143506
  0
LINE
  5
709
100
AcDbEntity
  8
KONSTRUKTIONSELEMENTE
100
AcDbLine
 62
7
  6
CONTINUOUS
 10
366.0567283299
 20
40.7697143506
 11
366.1167744128
 21
41.0623506534
  0
LINE
  5
70A
100
AcDbEntity
  8
KONSTRUKTIONSELEMENTE
100
AcDbLine
 62
7
  6
CONTINUOUS
 10
366.1167744128
 20
41.0623506534
 11
366.1403080088
 21
41.1770426096
  0
LINE
  5
70B
100
AcDbEntity
  8
KONSTRUKTIONSELEMENTE
100
AcDbLine
 62
7
  6
CONTINUOUS
 10
366.1403080088
 20
41.1770426096
 11
366.1842430587
 21
41.3911623559
  0
LINE
  5
70C
100
AcDbEntity
  8
KONSTRUKTIONSELEMENTE
100
AcDbLine
 62
7
  6
CONTINUOUS
 10
366.1842430587
 20
41.3911623559
 11
366.2041821828
 21
41.4883369101
  0
LINE
  5
70D
100
AcDbEntity
  8
KONSTRUKTIONSELEMENTE
100
AcDbLine
 62
7
  6
CONTINUOUS
 10
366.2041821828
 20
41.4883369101
 11
366.295409836
 21
41.9329421092
  0
LINE
  5
70E
100
AcDbEntity
  8
KONSTRUKTIONSELEMENTE
100
AcDbLine
 62
7
  6
CONTINUOUS
 10
366.295409836
 20
41.9329421092
 11
366.3303898545
 21
42.103420699
  0
LINE
  5
70F
100
AcDbEntity
  8
KONSTRUKTIONSELEMENTE
100
AcDbLine
 62
7
  6
CONTINUOUS
 10
366.3303898545
 20
42.103420699
 11
366.403641777
 21
42.4604224735
  0
LINE
  5
710
100
AcDbEntity
  8
KONSTRUKTIONSELEMENTE
100
AcDbLine
 62
7
  6
CONTINUOUS
 10
366.403641777
 20
42.4604224735
 11
366.4093464755
 21
42.4882250581
  0
LINE
  5
711
100
AcDbEntity
  8
KONSTRUKTIONSELEMENTE
100
AcDbLine
 62
7
  6
CONTINUOUS
 10
366.4093464755
 20
42.4882250581
 11
366.5201644156
 21
43.0283126853
  0
LINE
  5
712
100
AcDbEntity
  8
KONSTRUKTIONSELEMENTE
100
AcDbLine
 62
7
  6
CONTINUOUS
 10
363.0392170748
 20
31.0393628696
 11
363.1401408039
 21
31.5311645241
  0
LINE
  5
713
100
AcDbEntity
  8
KONSTRUKTIONSELEMENTE
100
AcDbLine
 62
7
  6
CONTINUOUS
 10
366.5265269835
 20
42.7817497095
 11
366.4639782603
 21
42.4770090698
  0
LINE
  5
714
100
AcDbEntity
  8
KONSTRUKTIONSELEMENTE
100
AcDbLine
 62
7
  6
CONTINUOUS
 10
366.4639782603
 20
42.4770090698
 11
366.4582690924
 21
42.4491937375
  0
LINE
  5
715
100
AcDbEntity
  8
KONSTRUKTIONSELEMENTE
100
AcDbLine
 62
7
  6
CONTINUOUS
 10
366.4582690924
 20
42.4491937375
 11
366.3849961904
 21
42.0922051962
  0
LINE
  5
716
100
AcDbEntity
  8
KONSTRUKTIONSELEMENTE
100
AcDbLine
 62
7
  6
CONTINUOUS
 10
366.3849961904
 20
42.0922051962
 11
366.3500051314
 21
41.9217276399
  0
LINE
  5
717
100
AcDbEntity
  8
KONSTRUKTIONSELEMENTE
100
AcDbLine
 62
7
  6
CONTINUOUS
 10
366.3500051314
 20
41.9217276399
 11
366.2791070532
 21
41.5763105262
  0
LINE
  5
718
100
AcDbEntity
  8
KONSTRUKTIONSELEMENTE
100
AcDbLine
 62
7
  6
CONTINUOUS
 10
366.2791070532
 20
41.5763105262
 11
366.2587492404
 21
41.4771269247
  0
LINE
  5
719
100
AcDbEntity
  8
KONSTRUKTIONSELEMENTE
100
AcDbLine
 62
7
  6
CONTINUOUS
 10
366.2587492404
 20
41.4771269247
 11
366.2388055951
 21
41.379961216
  0
LINE
  5
71A
100
AcDbEntity
  8
KONSTRUKTIONSELEMENTE
100
AcDbLine
 62
7
  6
CONTINUOUS
 10
366.2388055951
 20
41.379961216
 11
366.1948542862
 21
41.1658300627
  0
LINE
  5
71B
100
AcDbEntity
  8
KONSTRUKTIONSELEMENTE
100
AcDbLine
 62
7
  6
CONTINUOUS
 10
366.1948542862
 20
41.1658300627
 11
366.11125072
 21
40.7585135834
  0
LINE
  5
71C
100
AcDbEntity
  8
KONSTRUKTIONSELEMENTE
100
AcDbLine
 62
7
  6
CONTINUOUS
 10
366.11125072
 20
40.7585135834
 11
366.03083542
 21
40.3667313269
  0
LINE
  5
71D
100
AcDbEntity
  8
KONSTRUKTIONSELEMENTE
100
AcDbLine
 62
7
  6
CONTINUOUS
 10
366.03083542
 20
40.3667313269
 11
365.9745508632
 21
40.0925142986
  0
LINE
  5
71E
100
AcDbEntity
  8
KONSTRUKTIONSELEMENTE
100
AcDbLine
 62
7
  6
CONTINUOUS
 10
365.9745508632
 20
40.0925142986
 11
365.9075234876
 21
39.7659591204
  0
LINE
  5
71F
100
AcDbEntity
  8
KONSTRUKTIONSELEMENTE
100
AcDbLine
 62
7
  6
CONTINUOUS
 10
365.9075234876
 20
39.7659591204
 11
365.5717303677
 21
38.1299957884
  0
LINE
  5
720
100
AcDbEntity
  8
KONSTRUKTIONSELEMENTE
100
AcDbLine
 62
7
  6
CONTINUOUS
 10
365.5717303677
 20
38.1299957884
 11
365.5317372479
 21
37.9351528387
  0
LINE
  5
721
100
AcDbEntity
  8
KONSTRUKTIONSELEMENTE
100
AcDbLine
 62
7
  6
CONTINUOUS
 10
365.2175871335
 20
36.4046487893
 11
365.127667043
 21
35.9665706356
  0
LINE
  5
722
100
AcDbEntity
  8
KONSTRUKTIONSELEMENTE
100
AcDbLine
 62
7
  6
CONTINUOUS
 10
365.127667043
 20
35.9665706356
 11
364.9312112516
 21
35.0094690311
  0
LINE
  5
723
100
AcDbEntity
  8
KONSTRUKTIONSELEMENTE
100
AcDbLine
 62
7
  6
CONTINUOUS
 10
364.9312112516
 20
35.0094690311
 11
364.9154690862
 21
34.9327758995
  0
LINE
  5
724
100
AcDbEntity
  8
KONSTRUKTIONSELEMENTE
100
AcDbLine
 62
7
  6
CONTINUOUS
 10
364.9154690862
 20
34.9327758995
 11
364.7664505084
 21
34.2067844688
  0
LINE
  5
725
100
AcDbEntity
  8
KONSTRUKTIONSELEMENTE
100
AcDbLine
 62
7
  6
CONTINUOUS
 10
364.7664505084
 20
34.2067844688
 11
364.7510203747
 21
34.1316118194
  0
LINE
  5
726
100
AcDbEntity
  8
KONSTRUKTIONSELEMENTE
100
AcDbLine
 62
7
  6
CONTINUOUS
 10
364.7510203747
 20
34.1316118194
 11
364.7267897643
 21
34.0135649955
  0
LINE
  5
727
100
AcDbEntity
  8
KONSTRUKTIONSELEMENTE
100
AcDbLine
 62
7
  6
CONTINUOUS
 10
364.7267897643
 20
34.0135649955
 11
364.6437682724
 21
33.6091009706
  0
LINE
  5
728
100
AcDbEntity
  8
KONSTRUKTIONSELEMENTE
100
AcDbLine
 62
7
  6
CONTINUOUS
 10
364.6437682724
 20
33.6091009706
 11
364.6343078049
 21
33.5630115275
  0
LINE
  5
729
100
AcDbEntity
  8
KONSTRUKTIONSELEMENTE
100
AcDbLine
 62
7
  6
CONTINUOUS
 10
364.6343078049
 20
33.5630115275
 11
364.5896773283
 21
33.3455812117
  0
LINE
  5
72A
100
AcDbEntity
  8
KONSTRUKTIONSELEMENTE
100
AcDbLine
 62
7
  6
CONTINUOUS
 10
364.5896773283
 20
33.3455812117
 11
364.5653118867
 21
33.2268779947
  0
LINE
  5
72B
100
AcDbEntity
  8
KONSTRUKTIONSELEMENTE
100
AcDbLine
 62
7
  6
CONTINUOUS
 10
364.5653118867
 20
33.2268779947
 11
364.523132011
 21
33.0213868356
  0
LINE
  5
72C
100
AcDbEntity
  8
KONSTRUKTIONSELEMENTE
100
AcDbLine
 62
7
  6
CONTINUOUS
 10
364.523132011
 20
33.0213868356
 11
364.355258257
 21
32.2035445954
  0
LINE
  5
72D
100
AcDbEntity
  8
KONSTRUKTIONSELEMENTE
100
AcDbLine
 62
7
  6
CONTINUOUS
 10
364.355258257
 20
32.2035445954
 11
364.33236896
 21
32.092033472
  0
LINE
  5
72E
100
AcDbEntity
  8
KONSTRUKTIONSELEMENTE
100
AcDbLine
 62
7
  6
CONTINUOUS
 10
364.33236896
 20
32.092033472
 11
364.2455510405
 21
31.6690781007
  0
LINE
  5
72F
100
AcDbEntity
  8
KONSTRUKTIONSELEMENTE
100
AcDbLine
 62
7
  6
CONTINUOUS
 10
364.2455510405
 20
31.6690781007
 11
364.2149658062
 21
31.520074631
  0
LINE
  5
730
100
AcDbEntity
  8
KONSTRUKTIONSELEMENTE
100
AcDbLine
 62
7
  6
CONTINUOUS
 10
364.2149658062
 20
31.520074631
 11
364.1056757621
 21
30.9876422512
  0
LINE
  5
731
100
AcDbEntity
  8
KONSTRUKTIONSELEMENTE
100
AcDbLine
 62
7
  6
CONTINUOUS
 10
364.1056757621
 20
30.9876422512
 11
364.0656812625
 21
30.7927998938
  0
LINE
  5
732
100
AcDbEntity
  8
KONSTRUKTIONSELEMENTE
100
AcDbLine
 62
7
  6
CONTINUOUS
 10
363.08485375
 20
30.9876422512
 11
363.0448592503
 21
30.7927998938
  0
SPLINE
  5
733
100
AcDbEntity
  8
KONSTRUKTIONSELEMENTE
100
AcDbSpline
 62
7
  6
CONTINUOUS
 70
0
 71
3
 72
8
 73
4
 74
0
 42
0.0000001
 43
0.0000001
 44
0.0000000001
 40
0.0
 40
0.0
 40
0.0
 40
0.0
 40
1.0
 40
1.0
 40
1.0
 40
1.0
 10
364.1214729491
 20
32.1060348319
 30
0.0
 10
364.1557521338
 20
32.3036819192
 30
0.0
 10
364.1898848403
 20
32.5013544687
 30
0.0
 10
364.2238688002
 20
32.6990525316
 30
0.0
  0
SPLINE
  5
734
100
AcDbEntity
  8
KONSTRUKTIONSELEMENTE
100
AcDbSpline
 62
7
  6
CONTINUOUS
 70
0
 71
3
 72
9
 73
5
 74
0
 42
0.0000001
 43
0.0000001
 44
0.0000000001
 40
0.0
 40
0.0
 40
0.0
 40
0.0
 40
0.2144163018
 40
1.0
 40
1.0
 40
1.0
 40
1.0
 10
384.3598062531
 20
184.5422100492
 30
0.0
 10
384.3570609626
 20
184.535937569
 30
0.0
 10
384.3414690164
 20
184.5078848786
 30
0.0
 10
384.3173992814
 20
184.4855247446
 30
0.0
 10
384.2975505216
 20
184.4701841452
 30
0.0
  0
LINE
  5
735
100
AcDbEntity
  8
KONSTRUKTIONSELEMENTE
100
AcDbLine
 62
7
  6
CONTINUOUS
 10
364.2238688002
 20
32.6990525316
 11
364.2721425546
 21
32.9560062385
  0
LINE
  5
736
100
AcDbEntity
  8
KONSTRUKTIONSELEMENTE
100
AcDbLine
 62
7
  6
CONTINUOUS
 10
364.2721425546
 20
32.9560062385
 11
364.2758014501
 21
32.9754932468
  0
LINE
  5
737
100
AcDbEntity
  8
KONSTRUKTIONSELEMENTE
100
AcDbLine
 62
7
  6
CONTINUOUS
 10
364.2758014501
 20
32.9754932468
 11
364.2867118637
 21
33.033610781
  0
LINE
  5
738
100
AcDbEntity
  8
KONSTRUKTIONSELEMENTE
100
AcDbLine
 62
7
  6
CONTINUOUS
 10
364.2867118637
 20
33.033610781
 11
364.3274765417
 21
33.250881871
  0
LINE
  5
739
100
AcDbEntity
  8
KONSTRUKTIONSELEMENTE
100
AcDbLine
 62
7
  6
CONTINUOUS
 10
364.3274765417
 20
33.250881871
 11
364.4300550464
 21
33.7985026955
  0
LINE
  5
73A
100
AcDbEntity
  8
KONSTRUKTIONSELEMENTE
100
AcDbLine
 62
7
  6
CONTINUOUS
 10
364.4300550464
 20
33.7985026955
 11
364.4821437089
 21
34.0635946572
  0
LINE
  5
73B
100
AcDbEntity
  8
KONSTRUKTIONSELEMENTE
100
AcDbLine
 62
7
  6
CONTINUOUS
 10
364.4821437089
 20
34.0635946572
 11
364.5340779309
 21
34.3279851696
  0
LINE
  5
73C
100
AcDbEntity
  8
KONSTRUKTIONSELEMENTE
100
AcDbLine
 62
7
  6
CONTINUOUS
 10
364.5340779309
 20
34.3279851696
 11
364.5858577231
 21
34.5916742307
  0
LINE
  5
73D
100
AcDbEntity
  8
KONSTRUKTIONSELEMENTE
100
AcDbLine
 62
7
  6
CONTINUOUS
 10
364.5858577231
 20
34.5916742307
 11
364.6202070449
 21
34.7666454878
  0
LINE
  5
73E
100
AcDbEntity
  8
KONSTRUKTIONSELEMENTE
100
AcDbLine
 62
7
  6
CONTINUOUS
 10
364.6202070449
 20
34.7666454878
 11
364.6374830958
 21
34.8546618386
  0
LINE
  5
73F
100
AcDbEntity
  8
KONSTRUKTIONSELEMENTE
100
AcDbLine
 62
7
  6
CONTINUOUS
 10
364.6374830958
 20
34.8546618386
 11
364.7028669837
 21
35.1776463849
  0
LINE
  5
740
100
AcDbEntity
  8
KONSTRUKTIONSELEMENTE
100
AcDbLine
 62
7
  6
CONTINUOUS
 10
364.7028669837
 20
35.1776463849
 11
364.7681034331
 21
35.4999294211
  0
LINE
  5
741
100
AcDbEntity
  8
KONSTRUKTIONSELEMENTE
100
AcDbLine
 62
7
  6
CONTINUOUS
 10
364.7681034331
 20
35.4999294211
 11
364.8331924296
 21
35.8215109502
  0
LINE
  5
742
100
AcDbEntity
  8
KONSTRUKTIONSELEMENTE
100
AcDbLine
 62
7
  6
CONTINUOUS
 10
364.8331924296
 20
35.8215109502
 11
364.8981339586
 21
36.1423909751
  0
LINE
  5
743
100
AcDbEntity
  8
KONSTRUKTIONSELEMENTE
100
AcDbLine
 62
7
  6
CONTINUOUS
 10
364.8981339586
 20
36.1423909751
 11
365.2003491218
 21
37.6043347876
  0
LINE
  5
744
100
AcDbEntity
  8
KONSTRUKTIONSELEMENTE
100
AcDbLine
 62
7
  6
CONTINUOUS
 10
365.2003491218
 20
37.6043347876
 11
365.6833039563
 21
39.9406420755
  0
LINE
  5
745
100
AcDbEntity
  8
KONSTRUKTIONSELEMENTE
100
AcDbLine
 62
7
  6
CONTINUOUS
 10
365.9461705648
 20
41.185080812
 11
365.6833039563
 21
39.9406420755
  0
SPLINE
  5
746
100
AcDbEntity
  8
KONSTRUKTIONSELEMENTE
100
AcDbSpline
 62
7
  6
CONTINUOUS
 70
0
 71
3
 72
9
 73
5
 74
0
 42
0.0000001
 43
0.0000001
 44
0.0000000001
 40
0.0
 40
0.0
 40
0.0
 40
0.0
 40
0.2270489993
 40
1.0
 40
1.0
 40
1.0
 40
1.0
 10
384.640083686
 20
186.9039447307
 30
0.0
 10
384.6387622878
 20
186.8991772403
 30
0.0
 10
384.6313618709
 20
186.8786036175
 30
0.0
 10
384.6182022499
 20
186.8605180936
 30
0.0
 10
384.6068552816
 20
186.8480722098
 30
0.0
  0
LINE
  5
747
100
AcDbEntity
  8
KONSTRUKTIONSELEMENTE
100
AcDbLine
 62
7
  6
CONTINUOUS
 10
364.3972490276
 20
33.1107351844
 11
364.3844932774
 21
33.0690768398
  0
LINE
  5
748
100
AcDbEntity
  8
KONSTRUKTIONSELEMENTE
100
AcDbLine
 62
7
  6
CONTINUOUS
 10
364.5380433993
 20
33.6772053108
 11
364.5124279134
 21
33.5670548639
  0
LINE
  5
749
100
AcDbEntity
  8
KONSTRUKTIONSELEMENTE
100
AcDbLine
 62
7
  6
CONTINUOUS
 10
364.5124279134
 20
33.5670548639
 11
364.4867448403
 21
33.4567553883
  0
LINE
  5
74A
100
AcDbEntity
  8
KONSTRUKTIONSELEMENTE
100
AcDbLine
 62
7
  6
CONTINUOUS
 10
364.4867448403
 20
33.4567553883
 11
364.460994166
 21
33.3463068851
  0
LINE
  5
74B
100
AcDbEntity
  8
KONSTRUKTIONSELEMENTE
100
AcDbLine
 62
7
  6
CONTINUOUS
 10
364.460994166
 20
33.3463068851
 11
364.4388232551
 21
33.2513250674
  0
LINE
  5
74C
100
AcDbEntity
  8
KONSTRUKTIONSELEMENTE
100
AcDbLine
 62
7
  6
CONTINUOUS
 10
364.4388232551
 20
33.2513250674
 11
364.4351758769
 21
33.2357093556
  0
LINE
  5
74D
100
AcDbEntity
  8
KONSTRUKTIONSELEMENTE
100
AcDbLine
 62
7
  6
CONTINUOUS
 10
364.694389326
 20
34.4152099052
 11
364.6547810836
 21
34.2282153628
  0
LINE
  5
74E
100
AcDbEntity
  8
KONSTRUKTIONSELEMENTE
100
AcDbLine
 62
7
  6
CONTINUOUS
 10
364.6547810836
 20
34.2282153628
 11
364.6163492879
 21
34.0467948132
  0
LINE
  5
74F
100
AcDbEntity
  8
KONSTRUKTIONSELEMENTE
100
AcDbLine
 62
7
  6
CONTINUOUS
 10
364.6163492879
 20
34.0467948132
 11
364.5772295734
 21
33.8621468635
  0
LINE
  5
750
100
AcDbEntity
  8
KONSTRUKTIONSELEMENTE
100
AcDbLine
 62
7
  6
CONTINUOUS
 10
364.5772295734
 20
33.8621468635
 11
364.5380433993
 21
33.6772053108
  0
LINE
  5
751
100
AcDbEntity
  8
KONSTRUKTIONSELEMENTE
100
AcDbLine
 62
7
  6
CONTINUOUS
 10
365.1132694286
 20
36.4409439909
 11
365.0197242769
 21
35.9885511783
  0
LINE
  5
752
100
AcDbEntity
  8
KONSTRUKTIONSELEMENTE
100
AcDbLine
 62
7
  6
CONTINUOUS
 10
365.0197242769
 20
35.9885511783
 11
365.0087578987
 21
35.93551685
  0
LINE
  5
753
100
AcDbEntity
  8
KONSTRUKTIONSELEMENTE
100
AcDbLine
 62
7
  6
CONTINUOUS
 10
365.0087578987
 20
35.93551685
 11
364.9041073698
 21
35.4294187891
  0
LINE
  5
754
100
AcDbEntity
  8
KONSTRUKTIONSELEMENTE
100
AcDbLine
 62
7
  6
CONTINUOUS
 10
364.9041073698
 20
35.4294187891
 11
364.8060223017
 21
34.9550729615
  0
LINE
  5
755
100
AcDbEntity
  8
KONSTRUKTIONSELEMENTE
100
AcDbLine
 62
7
  6
CONTINUOUS
 10
364.8060223017
 20
34.9550729615
 11
364.7993178446
 21
34.9226498077
  0
LINE
  5
756
100
AcDbEntity
  8
KONSTRUKTIONSELEMENTE
100
AcDbLine
 62
7
  6
CONTINUOUS
 10
364.7993178446
 20
34.9226498077
 11
364.694389326
 21
34.4152099052
  0
LINE
  5
757
100
AcDbEntity
  8
KONSTRUKTIONSELEMENTE
100
AcDbLine
 62
7
  6
CONTINUOUS
 10
384.6459275432
 20
187.5216004768
 11
384.6500457602
 21
187.2615520714
  0
SPLINE
  5
758
100
AcDbEntity
  8
KONSTRUKTIONSELEMENTE
100
AcDbSpline
 62
7
  6
CONTINUOUS
 70
0
 71
3
 72
9
 73
5
 74
0
 42
0.0000001
 43
0.0000001
 44
0.0000000001
 40
0.0
 40
0.0
 40
0.0
 40
0.0
 40
0.2686156235
 40
1.0
 40
1.0
 40
1.0
 40
1.0
 10
384.2815243576
 20
186.5551284602
 30
0.0
 10
384.3127123444
 20
186.5789201201
 30
0.0
 10
384.4271629934
 20
186.6695844164
 30
0.0
 10
384.5348968962
 20
186.7691447903
 30
0.0
 10
384.6068552816
 20
186.8480722098
 30
0.0
  0
LINE
  5
759
100
AcDbEntity
  8
KONSTRUKTIONSELEMENTE
100
AcDbLine
 62
7
  6
CONTINUOUS
 10
365.4322079223
 20
38.155057254
 11
365.1179780918
 21
36.6357569557
  0
LINE
  5
75A
100
AcDbEntity
  8
KONSTRUKTIONSELEMENTE
100
AcDbLine
 62
7
  6
CONTINUOUS
 10
384.3733337073
 20
185.1598657952
 11
384.3766942971
 21
185.0081680108
  0
SPLINE
  5
75B
100
AcDbEntity
  8
KONSTRUKTIONSELEMENTE
100
AcDbSpline
 62
7
  6
CONTINUOUS
 70
0
 71
3
 72
9
 73
5
 74
0
 42
0.0000001
 43
0.0000001
 44
0.0000000001
 40
0.0
 40
0.0
 40
0.0
 40
0.0
 40
0.2691915426
 40
1.0
 40
1.0
 40
1.0
 40
1.0
 10
383.809955074
 20
184.148995466
 30
0.0
 10
383.8554333331
 20
184.1750511721
 30
0.0
 10
384.0229973549
 20
184.274177382
 30
0.0
 10
384.1849637927
 20
184.3831688058
 30
0.0
 10
384.2975505216
 20
184.4701841452
 30
0.0
  0
LINE
  5
75C
100
AcDbEntity
  8
KONSTRUKTIONSELEMENTE
100
AcDbLine
 62
7
  6
CONTINUOUS
 10
383.3477798343
 20
183.5458094959
 11
383.3124449073
 21
183.3274447086
  0
SPLINE
  5
75D
100
AcDbEntity
  8
KONSTRUKTIONSELEMENTE
100
AcDbSpline
 62
7
  6
CONTINUOUS
 70
0
 71
3
 72
9
 73
5
 74
0
 42
0.0000001
 43
0.0000001
 44
0.0000000001
 40
0.0
 40
0.0
 40
0.0
 40
0.0
 40
0.2252527883
 40
1.0
 40
1.0
 40
1.0
 40
1.0
 10
384.4580293902
 20
185.2637109595
 30
0.0
 10
384.4568072171
 20
185.2585594597
 30
0.0
 10
384.4493981562
 20
185.2361416666
 30
0.0
 10
384.4349775649
 20
185.2166247912
 30
0.0
 10
384.4225040619
 20
185.2033574487
 30
0.0
  0
SPLINE
  5
75E
100
AcDbEntity
  8
KONSTRUKTIONSELEMENTE
100
AcDbSpline
 62
7
  6
CONTINUOUS
 70
0
 71
3
 72
8
 73
4
 74
0
 42
0.0000001
 43
0.0000001
 44
0.0000000001
 40
0.0
 40
0.0
 40
0.0
 40
0.0
 40
1.0
 40
1.0
 40
1.0
 40
1.0
 10
384.4225040619
 20
185.2033574487
 30
0.0
 10
384.415824059
 20
185.1962523166
 30
0.0
 10
384.4086684191
 20
185.1895805973
 30
0.0
 10
384.4012322391
 20
185.1832711941
 30
0.0
  0
SPLINE
  5
75F
100
AcDbEntity
  8
KONSTRUKTIONSELEMENTE
100
AcDbSpline
 62
7
  6
CONTINUOUS
 70
0
 71
3
 72
8
 73
4
 74
0
 42
0.0000001
 43
0.0000001
 44
0.0000000001
 40
0.0
 40
0.0
 40
0.0
 40
0.0
 40
1.0
 40
1.0
 40
1.0
 40
1.0
 10
364.1214729491
 20
33.7437430221
 30
0.0
 10
364.1557527738
 20
33.9577287816
 30
0.0
 10
364.1898854859
 20
34.1717381615
 30
0.0
 10
364.223868832
 20
34.3857712054
 30
0.0
  0
LINE
  5
760
100
AcDbEntity
  8
KONSTRUKTIONSELEMENTE
100
AcDbLine
 62
7
  6
CONTINUOUS
 10
364.223868832
 20
34.3857712054
 11
364.3788943313
 21
35.2432537895
  0
LINE
  5
761
100
AcDbEntity
  8
KONSTRUKTIONSELEMENTE
100
AcDbLine
 62
7
  6
CONTINUOUS
 10
364.3788943313
 20
35.2432537895
 11
364.4300550464
 21
35.5268972851
  0
SPLINE
  5
762
100
AcDbEntity
  8
KONSTRUKTIONSELEMENTE
100
AcDbSpline
 62
7
  6
CONTINUOUS
 70
0
 71
3
 72
9
 73
5
 74
0
 42
0.0000001
 43
0.0000001
 44
0.0000000001
 40
0.0
 40
0.0
 40
0.0
 40
0.0
 40
0.2302962888
 40
1.0
 40
1.0
 40
1.0
 40
1.0
 10
384.7076413382
 20
187.625445641
 30
0.0
 10
384.7071584508
 20
187.6201377515
 30
0.0
 10
384.7030180825
 20
187.59724742
 30
0.0
 10
384.6908105715
 20
187.576465409
 30
0.0
 10
384.6797060096
 20
187.562536728
 30
0.0
  0
LINE
  5
763
100
AcDbEntity
  8
KONSTRUKTIONSELEMENTE
100
AcDbLine
 62
7
  6
CONTINUOUS
 10
364.4300550464
 20
35.5268972851
 11
364.6374831439
 21
36.5965550593
  0
LINE
  5
764
100
AcDbEntity
  8
KONSTRUKTIONSELEMENTE
100
AcDbLine
 62
7
  6
CONTINUOUS
 10
364.6374831439
 20
36.5965550593
 11
364.8981339586
 21
37.8800298531
  0
LINE
  5
765
100
AcDbEntity
  8
KONSTRUKTIONSELEMENTE
100
AcDbLine
 62
7
  6
CONTINUOUS
 10
364.8981339586
 20
37.8800298531
 11
365.6404776804
 21
41.4190777655
  0
LINE
  5
766
100
AcDbEntity
  8
KONSTRUKTIONSELEMENTE
100
AcDbLine
 62
7
  6
CONTINUOUS
 10
365.6404776804
 20
41.4190777655
 11
365.6833039563
 21
41.6232519946
  0
LINE
  5
767
100
AcDbEntity
  8
KONSTRUKTIONSELEMENTE
100
AcDbLine
 62
7
  6
CONTINUOUS
 10
364.5380433993
 20
34.9897330792
 11
364.4867448403
 21
34.7940491022
  0
LINE
  5
768
100
AcDbEntity
  8
KONSTRUKTIONSELEMENTE
100
AcDbLine
 62
7
  6
CONTINUOUS
 10
364.4867448403
 20
34.7940491022
 11
364.460994166
 21
34.696008685
  0
LINE
  5
769
100
AcDbEntity
  8
KONSTRUKTIONSELEMENTE
100
AcDbLine
 62
7
  6
CONTINUOUS
 10
364.460994166
 20
34.696008685
 11
364.4351758769
 21
34.5978359836
  0
LINE
  5
76A
100
AcDbEntity
  8
KONSTRUKTIONSELEMENTE
100
AcDbLine
 62
7
  6
CONTINUOUS
 10
364.694389326
 20
35.7026448768
 11
364.6554025398
 21
35.5248423569
  0
LINE
  5
76B
100
AcDbEntity
  8
KONSTRUKTIONSELEMENTE
100
AcDbLine
 62
7
  6
CONTINUOUS
 10
364.6554025398
 20
35.5248423569
 11
364.5772295734
 21
35.1683864587
  0
LINE
  5
76C
100
AcDbEntity
  8
KONSTRUKTIONSELEMENTE
100
AcDbLine
 62
7
  6
CONTINUOUS
 10
364.5772295734
 20
35.1683864587
 11
364.5380433993
 21
34.9897330792
  0
LINE
  5
76D
100
AcDbEntity
  8
KONSTRUKTIONSELEMENTE
100
AcDbLine
 62
7
  6
CONTINUOUS
 10
364.0706608693
 20
35.679308979
 11
364.326522347
 21
36.9564133539
  0
SPLINE
  5
76E
100
AcDbEntity
  8
KONSTRUKTIONSELEMENTE
100
AcDbSpline
 62
7
  6
CONTINUOUS
 70
0
 71
3
 72
8
 73
4
 74
0
 42
0.0000001
 43
0.0000001
 44
0.0000000001
 40
0.0
 40
0.0
 40
0.0
 40
0.0
 40
1.0
 40
1.0
 40
1.0
 40
1.0
 10
364.326522347
 20
36.9564133539
 30
0.0
 10
364.9323045073
 20
39.9810911968
 30
0.0
 10
365.536736591
 20
43.0060399571
 30
0.0
 10
366.139405826
 20
46.0313395905
 30
0.0
  0
LINE
  5
76F
100
AcDbEntity
  8
KONSTRUKTIONSELEMENTE
100
AcDbLine
 62
7
  6
CONTINUOUS
 10
366.139405826
 20
46.0313395905
 11
366.4633243634
 21
47.6582655786
  0
LINE
  5
770
100
AcDbEntity
  8
KONSTRUKTIONSELEMENTE
100
AcDbLine
 62
7
  6
CONTINUOUS
 10
366.4633243634
 20
47.6582655786
 11
366.5201643871
 21
47.9439437562
  0
LINE
  5
771
100
AcDbEntity
  8
KONSTRUKTIONSELEMENTE
100
AcDbLine
 62
7
  6
CONTINUOUS
 10
366.5265269635
 20
46.2537978039
 11
366.4612351433
 21
45.9690574327
  0
SPLINE
  5
772
100
AcDbEntity
  8
KONSTRUKTIONSELEMENTE
100
AcDbSpline
 62
7
  6
CONTINUOUS
 70
0
 71
3
 72
8
 73
4
 74
0
 42
0.0000001
 43
0.0000001
 44
0.0000000001
 40
0.0
 40
0.0
 40
0.0
 40
0.0
 40
1.0
 40
1.0
 40
1.0
 40
1.0
 10
366.4612351433
 20
45.9690574327
 30
0.0
 10
365.771279341
 20
42.9604541619
 30
0.0
 10
365.0791194714
 20
39.9523559069
 30
0.0
 10
364.3853425049
 20
36.9446314895
 30
0.0
  0
SPLINE
  5
773
100
AcDbEntity
  8
0
100
AcDbSpline
 62
7
  6
CONTINUOUS
 70
0
 71
3
 72
15
 73
11
 74
0
 42
0.0000001
 43
0.0000001
 44
0.0000000001
 40
0.0
 40
0.0
 40
0.0
 40
0.0
 40
0.0674432266
 40
0.1396073561
 40
0.2323625167
 40
0.3506090406
 40
0.4925864653
 40
0.6530551463
 40
0.8249305669
 40
1.0
 40
1.0
 40
1.0
 40
1.0
 10
110.2242792304
 20
229.0094277208
 30
0.0
 10
110.2580273466
 20
228.9849962873
 30
0.0
 10
110.3162880811
 20
228.9123258113
 30
0.0
 10
110.3164845484
 20
228.761251864
 30
0.0
 10
110.2459209523
 20
228.5987615961
 30
0.0
 10
110.1158269455
 20
228.4222747207
 30
0.0
 10
109.9305156735
 20
228.2389968249
 30
0.0
 10
109.699496023
 20
228.0579011689
 30
0.0
 10
109.4348935005
 20
227.889066541
 30
0.0
 10
109.2443865051
 20
227.7901310076
 30
0.0
 10
109.1462297954
 20
227.744725787
 30
0.0
  0
SPLINE
  5
774
100
AcDbEntity
  8
0
100
AcDbSpline
 62
7
  6
CONTINUOUS
 70
0
 71
3
 72
15
 73
11
 74
0
 42
0.0000001
 43
0.0000001
 44
0.0000000001
 40
0.0
 40
0.0
 40
0.0
 40
0.0
 40
0.0394264093
 40
0.0681504445
 40
0.1043568304
 40
0.1997308331
 40
0.323935764
 40
0.4725233276
 40
0.6394436289
 40
1.0
 40
1.0
 40
1.0
 40
1.0
 10
113.4055636936
 20
229.410174842
 30
0.0
 10
113.4192462656
 20
229.3920505568
 30
0.0
 10
113.4198773123
 20
229.3467655288
 30
0.0
 10
113.3987177989
 20
229.2914683777
 30
0.0
 10
113.3542585394
 20
229.2097648329
 30
0.0
 10
113.2633515167
 20
229.0933130023
 30
0.0
 10
113.1174337688
 20
228.9391798962
 30
0.0
 10
112.9306556604
 20
228.7678716499
 30
0.0
 10
112.6303564425
 20
228.5198163548
 30
0.0
 10
112.3834410129
 20
228.3419658797
 30
0.0
 10
112.2103303986
 20
228.2272406104
 30
0.0
  0
SPLINE
  5
775
100
AcDbEntity
  8
0
100
AcDbSpline
 62
7
  6
CONTINUOUS
 70
0
 71
3
 72
15
 73
11
 74
0
 42
0.0000001
 43
0.0000001
 44
0.0000000001
 40
0.0
 40
0.0
 40
0.0
 40
0.0
 40
0.0284643816
 40
0.0535097
 40
0.0871391566
 40
0.1800886901
 40
0.3046806429
 40
0.4558663914
 40
0.6271884388
 40
1.0
 40
1.0
 40
1.0
 40
1.0
 10
121.1971465368
 20
239.3576612125
 30
0.0
 10
121.2122574396
 20
239.354306498
 30
0.0
 10
121.2264396163
 20
239.319454872
 30
0.0
 10
121.2259431476
 20
239.274357767
 30
0.0
 10
121.2180869337
 20
239.1910217226
 30
0.0
 10
121.186236471
 20
239.0585482029
 30
0.0
 10
121.1272478534
 20
238.8665816759
 30
0.0
 10
121.0439168827
 20
238.6381702067
 30
0.0
 10
120.9018681964
 20
238.2876758287
 30
0.0
 10
120.7783163968
 20
238.0185831896
 30
0.0
 10
120.6889672629
 20
237.8366009631
 30
0.0
  0
SPLINE
  5
776
100
AcDbEntity
  8
0
100
AcDbSpline
 62
7
  6
CONTINUOUS
 70
0
 71
3
 72
15
 73
11
 74
0
 42
0.0000001
 43
0.0000001
 44
0.0000000001
 40
0.0
 40
0.0
 40
0.0
 40
0.0
 40
0.0577199783
 40
0.1245429035
 40
0.2159449283
 40
0.3351504553
 40
0.4794987491
 40
0.6433289029
 40
0.8196693175
 40
1.0
 40
1.0
 40
1.0
 40
1.0
 10
119.1190166174
 20
237.6175731002
 30
0.0
 10
119.1523533293
 20
237.6134144635
 30
0.0
 10
119.2240299869
 20
237.5781976392
 30
0.0
 10
119.272795973
 20
237.454838744
 30
0.0
 10
119.2764737304
 20
237.2927037475
 30
0.0
 10
119.241645362
 20
237.0879423902
 30
0.0
 10
119.1684281233
 20
236.8498078521
 30
0.0
 10
119.0602913233
 20
236.5889493988
 30
0.0
 10
118.9222717654
 20
236.3189717639
 30
0.0
 10
118.8146249507
 20
236.1412153637
 30
0.0
 10
118.7569926008
 20
236.0534948497
 30
0.0
  0
SPLINE
  5
777
100
AcDbEntity
  8
0
100
AcDbSpline
 62
7
  6
CONTINUOUS
 70
0
 71
3
 72
14
 73
10
 74
0
 42
0.0000001
 43
0.0000001
 44
0.0000000001
 40
0.0
 40
0.0
 40
0.0
 40
0.0
 40
0.358495826
 40
0.5168706135
 40
0.6548455092
 40
0.7696401415
 40
0.8609290823
 40
0.9334851332
 40
1.0
 40
1.0
 40
1.0
 40
1.0
 10
114.5256620606
 20
231.238516018
 30
0.0
 10
114.3927409177
 20
231.1235626827
 30
0.0
 10
114.1899697985
 20
230.9694117646
 30
0.0
 10
113.9108971573
 20
230.8099729833
 30
0.0
 10
113.7257178715
 20
230.7291512818
 30
0.0
 10
113.5621641319
 20
230.684603416
 30
0.0
 10
113.4242388799
 20
230.6776897204
 30
0.0
 10
113.3126211284
 20
230.7138922759
 30
0.0
 10
113.2674450025
 20
230.7706301339
 30
0.0
 10
113.2543508995
 20
230.8004907453
 30
0.0
  0
SPLINE
  5
778
100
AcDbEntity
  8
0
100
AcDbSpline
 62
7
  6
CONTINUOUS
 70
0
 71
3
 72
15
 73
11
 74
0
 42
0.0000001
 43
0.0000001
 44
0.0000000001
 40
0.0
 40
0.0
 40
0.0
 40
0.0
 40
0.3790018685
 40
0.5463290683
 40
0.6919009408
 40
0.8115765467
 40
0.9022692406
 40
0.9364296107
 40
0.9633678255
 40
1.0
 40
1.0
 40
1.0
 40
1.0
 10
117.0148903548
 20
232.383143043
 30
0.0
 10
116.901948683
 20
232.2567873737
 30
0.0
 10
116.734140745
 20
232.0789139105
 30
0.0
 10
116.5094577982
 20
231.8661212753
 30
0.0
 10
116.3630157561
 20
231.7395980649
 30
0.0
 10
116.2360421871
 20
231.6434013869
 30
0.0
 10
116.1431233968
 20
231.5853231565
 30
0.0
 10
116.0801462262
 20
231.5586428434
 30
0.0
 10
116.0387177689
 20
231.5471950726
 30
0.0
 10
116.006029132
 20
231.550371162
 30
0.0
 10
115.993946732
 20
231.5614316469
 30
0.0
  0
SPLINE
  5
779
100
AcDbEntity
  8
0
100
AcDbSpline
 62
7
  6
CONTINUOUS
 70
0
 71
3
 72
14
 73
10
 74
0
 42
0.0000001
 43
0.0000001
 44
0.0000000001
 40
0.0
 40
0.0
 40
0.0
 40
0.0
 40
0.3663180523
 40
0.5276218055
 40
0.6671780469
 40
0.7816362077
 40
0.8702544481
 40
0.9380539918
 40
1.0
 40
1.0
 40
1.0
 40
1.0
 10
118.7569926008
 20
236.0534948497
 30
0.0
 10
118.6607865186
 20
235.907062386
 30
0.0
 10
118.5095062043
 20
235.7036476417
 30
0.0
 10
118.289318173
 20
235.4721981367
 30
0.0
 10
118.1383579128
 20
235.3424162156
 30
0.0
 10
117.9998295669
 20
235.2533830242
 30
0.0
 10
117.8774925825
 20
235.2069712748
 30
0.0
 10
117.7679169743
 20
235.2093201133
 30
0.0
 10
117.7161524246
 20
235.2519054262
 30
0.0
 10
117.6993200705
 20
235.2762882807
 30
0.0
  0
SPLINE
  5
77A
100
AcDbEntity
  8
0
100
AcDbSpline
 62
7
  6
CONTINUOUS
 70
0
 71
3
 72
14
 73
10
 74
0
 42
0.0000001
 43
0.0000001
 44
0.0000000001
 40
0.0
 40
0.0
 40
0.0
 40
0.0
 40
0.0349228347
 40
0.0626845203
 40
0.0985621768
 40
0.1944655213
 40
0.3201411433
 40
0.6388348663
 40
1.0
 40
1.0
 40
1.0
 40
1.0
 10
117.9394561639
 20
233.8424489324
 30
0.0
 10
117.9555034342
 20
233.8296544948
 30
0.0
 10
117.961373659
 20
233.7860617077
 30
0.0
 10
117.9500299005
 20
233.7309452664
 30
0.0
 10
117.920548432
 20
233.6409254717
 30
0.0
 10
117.8535453704
 20
233.50526826
 30
0.0
 10
117.6906346019
 20
233.2323182902
 30
0.0
 10
117.4121606644
 20
232.8486546551
 30
0.0
 10
117.1563384293
 20
232.5413907992
 30
0.0
 10
117.0148903548
 20
232.383143043
 30
0.0
  0
SPLINE
  5
77B
100
AcDbEntity
  8
0
100
AcDbSpline
 62
7
  6
CONTINUOUS
 70
0
 71
3
 72
16
 73
12
 74
0
 42
0.0000001
 43
0.0000001
 44
0.0000000001
 40
0.0
 40
0.0
 40
0.0
 40
0.0
 40
0.3859374692
 40
0.5568472901
 40
0.7049484277
 40
0.8254406605
 40
0.8740895233
 40
0.9145603683
 40
0.9467834169
 40
0.9709448838
 40
1.0
 40
1.0
 40
1.0
 40
1.0
 10
120.6889672629
 20
237.8366009631
 30
0.0
 10
120.6114475246
 20
237.678712308
 30
0.0
 10
120.494406694
 20
237.4533416546
 30
0.0
 10
120.3334618234
 20
237.1752166429
 30
0.0
 10
120.2265511374
 20
237.0057630654
 30
0.0
 10
120.1433485836
 20
236.8873952558
 30
0.0
 10
120.0830449953
 20
236.81317093
 30
0.0
 10
120.0459011003
 20
236.7723344332
 30
0.0
 10
120.0125062046
 20
236.7426499409
 30
0.0
 10
119.9821850688
 20
236.7202975744
 30
0.0
 10
119.952140266
 20
236.7149572874
 30
0.0
 10
119.941895535
 20
236.7233474828
 30
0.0
  0
SPLINE
  5
77C
100
AcDbEntity
  8
0
100
AcDbSpline
 62
7
  6
CONTINUOUS
 70
0
 71
3
 72
15
 73
11
 74
0
 42
0.0000001
 43
0.0000001
 44
0.0000000001
 40
0.0
 40
0.0
 40
0.0
 40
0.0
 40
0.3726612275
 40
0.5384079764
 40
0.6833954523
 40
0.8033100574
 40
0.895220948
 40
0.9303993462
 40
0.958798401
 40
1.0
 40
1.0
 40
1.0
 40
1.0
 10
112.2103303986
 20
228.2272406104
 30
0.0
 10
112.0640204532
 20
228.1302768974
 30
0.0
 10
111.8478486488
 20
227.9970062872
 30
0.0
 10
111.5631396212
 20
227.8466656247
 30
0.0
 10
111.3788085355
 20
227.7616321362
 30
0.0
 10
111.2212494309
 20
227.7027770798
 30
0.0
 10
111.1081698448
 20
227.6734904627
 30
0.0
 10
111.0346890657
 20
227.6677708568
 30
0.0
 10
110.985900601
 20
227.6711174583
 30
0.0
 10
110.9525801013
 20
227.6872866475
 30
0.0
 10
110.9422249442
 20
227.7036989226
 30
0.0
  0
SPLINE
  5
77D
100
AcDbEntity
  8
0
100
AcDbSpline
 62
7
  6
CONTINUOUS
 70
0
 71
3
 72
14
 73
10
 74
0
 42
0.0000001
 43
0.0000001
 44
0.0000000001
 40
0.0
 40
0.0
 40
0.0
 40
0.0
 40
0.3569327759
 40
0.5135770637
 40
0.6493943523
 40
0.7620396453
 40
0.8522604427
 40
0.9268394134
 40
1.0
 40
1.0
 40
1.0
 40
1.0
 10
109.1462297954
 20
227.744725787
 30
0.0
 10
108.9888943
 20
227.6719457103
 30
0.0
 10
108.7541838799
 20
227.5826901252
 30
0.0
 10
108.4455840207
 20
227.5151935555
 30
0.0
 10
108.24897766
 20
227.4970320399
 30
0.0
 10
108.0839655493
 20
227.5095528514
 30
0.0
 10
107.9541054364
 20
227.5535620728
 30
0.0
 10
107.8657435342
 20
227.6355212366
 30
0.0
 10
107.8469937037
 20
227.7089298832
 30
0.0
 10
107.8458386332
 20
227.7444433849
 30
0.0
  0
SPLINE
  5
77E
100
AcDbEntity
  8
0
100
AcDbSpline
 62
7
  6
CONTINUOUS
 70
0
 71
3
 72
16
 73
12
 74
0
 42
0.0000001
 43
0.0000001
 44
0.0000000001
 40
0.0
 40
0.0
 40
0.0
 40
0.0
 40
0.1944572944
 40
0.3777537073
 40
0.5435300567
 40
0.6869452698
 40
0.8041935114
 40
0.8929280828
 40
0.9269312458
 40
0.9548900348
 40
1.0
 40
1.0
 40
1.0
 40
1.0
 10
106.2730397951
 20
225.3734333218
 30
0.0
 10
106.1907552348
 20
225.3473597847
 30
0.0
 10
106.0298458173
 20
225.2999887669
 30
0.0
 10
105.7954966553
 20
225.2422270682
 30
0.0
 10
105.5806863761
 20
225.2011377073
 30
0.0
 10
105.3925765415
 20
225.1778336956
 30
0.0
 10
105.2374585908
 20
225.172988057
 30
0.0
 10
105.1305705374
 20
225.1841971342
 30
0.0
 10
105.0669595718
 20
225.2060485539
 30
0.0
 10
105.0255939796
 20
225.2299017236
 30
0.0
 10
105.0068876281
 20
225.2612344988
 30
0.0
 10
105.0051469203
 20
225.281182343
 30
0.0
  0
SPLINE
  5
77F
100
AcDbEntity
  8
0
100
AcDbSpline
 62
7
  6
CONTINUOUS
 70
0
 71
3
 72
17
 73
13
 74
0
 42
0.0000001
 43
0.0000001
 44
0.0000000001
 40
0.0
 40
0.0
 40
0.0
 40
0.0
 40
0.0202636668
 40
0.0425749598
 40
0.0704358769
 40
0.1055033506
 40
0.199045315
 40
0.3225881527
 40
0.471516825
 40
0.6392906004
 40
0.8184460868
 40
1.0
 40
1.0
 40
1.0
 40
1.0
 10
107.7294372306
 20
226.2494191381
 30
0.0
 10
107.7363255891
 20
226.2396145656
 30
0.0
 10
107.745884047
 20
226.2149226632
 30
0.0
 10
107.7396256164
 20
226.1724728147
 30
0.0
 10
107.7164753193
 20
226.1271708766
 30
0.0
 10
107.6587990101
 20
226.054342176
 30
0.0
 10
107.5438965719
 20
225.9576491318
 30
0.0
 10
107.3627410053
 20
225.8390295008
 30
0.0
 10
107.1335044979
 20
225.7150129722
 30
0.0
 10
106.8673405139
 20
225.5916996167
 30
0.0
 10
106.5771027466
 20
225.475484896
 30
0.0
 10
106.3753824305
 20
225.4058626682
 30
0.0
 10
106.2730397951
 20
225.3734333218
 30
0.0
  0
SPLINE
  5
780
100
AcDbEntity
  8
0
100
AcDbSpline
 62
7
  6
CONTINUOUS
 70
0
 71
3
 72
15
 73
11
 74
0
 42
0.0000001
 43
0.0000001
 44
0.0000000001
 40
0.0
 40
0.0
 40
0.0
 40
0.0
 40
0.0618252964
 40
0.1331722419
 40
0.2273635511
 40
0.3472788373
 40
0.4904459193
 40
0.651654546
 40
0.8242791184
 40
1.0
 40
1.0
 40
1.0
 40
1.0
 10
115.298909138
 20
232.7387165061
 30
0.0
 10
115.3326800128
 20
232.7215594296
 30
0.0
 10
115.3950233907
 20
232.6587239407
 30
0.0
 10
115.4133496214
 20
232.5144192147
 30
0.0
 10
115.3755097068
 20
232.342439645
 30
0.0
 10
115.2869661372
 20
232.1410414302
 30
0.0
 10
115.1508271764
 20
231.9189850315
 30
0.0
 10
114.9732491069
 20
231.6863200484
 30
0.0
 10
114.762902713
 20
231.4551865429
 30
0.0
 10
114.6070945555
 20
231.3089407577
 30
0.0
 10
114.5256620606
 20
231.238516018
 30
0.0
  0
SPLINE
  5
781
100
AcDbEntity
  8
0
100
AcDbSpline
 62
7
  6
CONTINUOUS
 70
0
 71
3
 72
9
 73
5
 74
0
 42
0.0000001
 43
0.0000001
 44
0.0000000001
 40
0.0
 40
0.0
 40
0.0
 40
0.0
 40
0.2459537298
 40
1.0
 40
1.0
 40
1.0
 40
1.0
 10
89.3609683728
 20
207.8385142703
 30
0.0
 10
89.4586929772
 20
207.9234807466
 30
0.0
 10
89.8306322191
 20
208.2976982573
 30
0.0
 10
90.1016989526
 20
208.7674462637
 30
0.0
 10
90.2400367169
 20
209.1395765977
 30
0.0
  0
SPLINE
  5
782
100
AcDbEntity
  8
0
100
AcDbSpline
 62
7
  6
CONTINUOUS
 70
0
 71
3
 72
8
 73
4
 74
0
 42
0.0000001
 43
0.0000001
 44
0.0000000001
 40
0.0
 40
0.0
 40
0.0
 40
0.0
 40
1.0
 40
1.0
 40
1.0
 40
1.0
 10
90.2400367169
 20
209.1395765977
 30
0.0
 10
90.4390649214
 20
209.6749649826
 30
0.0
 10
90.5308085711
 20
210.246695861
 30
0.0
 10
90.6145033056
 20
210.8117163388
 30
0.0
  0
ELLIPSE
  5
783
100
AcDbEntity
  8
AUSFORMSCHRAEGEN
100
AcDbEllipse
 62
7
  6
CONTINUOUS
 10
321.469414631
 20
265.9577491422
 30
0.0
 11
0.2375961375
 21
5.9999944561
 31
0.0
 40
0.0343288289
 41
-3.4417661949
 42
0.2210079578
  0
ELLIPSE
  5
784
100
AcDbEntity
  8
0
100
AcDbEllipse
 62
7
  6
CONTINUOUS
 10
379.969414631
 20
265.9577491422
 30
0.0
 11
-0.2375961375
 21
5.9999944561
 31
0.0
 40
0.0343288289
 41
-0.2210079578
 42
3.4417661949
  0
ELLIPSE
  5
785
100
AcDbEntity
  8
KONSTRUKTIONSELEMENTE
100
AcDbEllipse
 62
7
  6
CONTINUOUS
 10
388.149414631
 20
166.303666446
 30
0.0
 11
-0.0
 21
21.909243167
 31
0.0
 40
0.8672138903
 41
1.3213394486
 42
1.5290429519
  0
ELLIPSE
  5
786
100
AcDbEntity
  8
KONSTRUKTIONSELEMENTE
100
AcDbEllipse
 62
7
  6
CONTINUOUS
 10
388.149414631
 20
169.5979989137
 30
0.0
 11
19.0
 21
0.0
 31
0.0
 40
0.5242230745
 41
2.9751255632
 42
3.1415926536
  0
ELLIPSE
  5
787
100
AcDbEntity
  8
KONSTRUKTIONSELEMENTE
100
AcDbEllipse
 62
7
  6
CONTINUOUS
 10
376.3678833896
 20
167.4198480659
 30
0.0
 11
6.4943424731
 21
7.3716000287
 31
0.0
 40
0.9664232102
 41
-3.957021039
 42
-3.8926958446
  0
ELLIPSE
  5
788
100
AcDbEntity
  8
KONSTRUKTIONSELEMENTE
100
AcDbEllipse
 62
7
  6
CONTINUOUS
 10
388.149414631
 20
167.4985669212
 30
0.0
 11
-0.0
 21
21.909243167
 31
0.0
 40
0.8672138903
 41
1.3213394486
 42
1.4751873549
  0
ELLIPSE
  5
789
100
AcDbEntity
  8
KONSTRUKTIONSELEMENTE
100
AcDbEllipse
 62
7
  6
CONTINUOUS
 10
374.9176472422
 20
166.1493065413
 30
0.0
 11
6.4943424731
 21
7.3716000287
 31
0.0
 40
0.9664232102
 41
-4.1930279479
 42
-4.0883688956
  0
ELLIPSE
  5
78A
100
AcDbEntity
  8
KONSTRUKTIONSELEMENTE
100
AcDbEllipse
 62
7
  6
CONTINUOUS
 10
388.149414631
 20
172.7921278013
 30
0.0
 11
0.0
 21
21.909243167
 31
0.0
 40
0.8672138903
 41
1.4043292364
 42
1.5707963091
  0
ELLIPSE
  5
78B
100
AcDbEntity
  8
KONSTRUKTIONSELEMENTE
100
AcDbEllipse
 62
7
  6
CONTINUOUS
 10
380.169414631
 20
206.1842927841
 30
0.0
 11
4.75
 21
0.0
 31
0.0
 40
0.0872316905
 41
-0.8176524487
 42
0.0
  0
ELLIPSE
  5
78C
100
AcDbEntity
  8
KONSTRUKTIONSELEMENTE
100
AcDbEllipse
 62
7
  6
CONTINUOUS
 10
380.169414631
 20
123.1359305244
 30
0.0
 11
0.0
 21
113.4219081606
 31
0.0
 40
0.0418790345
 41
-0.7607245996
 42
-0.7531438781
  0
ELLIPSE
  5
78D
100
AcDbEntity
  8
KONSTRUKTIONSELEMENTE
100
AcDbEllipse
 62
7
  6
CONTINUOUS
 10
380.169414631
 20
204.2880030724
 30
0.0
 11
4.75
 21
-0.0
 31
0.0
 40
0.0872316905
 41
-0.7936024435
 42
0.0
  0
ELLIPSE
  5
78E
100
AcDbEntity
  8
KONSTRUKTIONSELEMENTE
100
AcDbEllipse
 62
7
  6
CONTINUOUS
 10
380.169414631
 20
123.1359305244
 30
0.0
 11
0.0
 21
113.4219081605
 31
0.0
 40
0.0418790345
 41
-0.7845891861
 42
-0.7771938833
  0
ELLIPSE
  5
78F
100
AcDbEntity
  8
KONSTRUKTIONSELEMENTE
100
AcDbEllipse
 62
7
  6
CONTINUOUS
 10
380.169414631
 20
208.0805824957
 30
0.0
 11
4.75
 21
-0.0
 31
0.0
 40
0.0872316905
 41
-0.842336051
 42
0.0
  0
ELLIPSE
  5
790
100
AcDbEntity
  8
KONSTRUKTIONSELEMENTE
100
AcDbEllipse
 62
7
  6
CONTINUOUS
 10
380.169414631
 20
123.1359305244
 30
0.0
 11
-0.0
 21
113.4219081606
 31
0.0
 40
0.0418790345
 41
-0.7362459279
 42
-0.7284602758
  0
ELLIPSE
  5
791
100
AcDbEntity
  8
KONSTRUKTIONSELEMENTE
100
AcDbEllipse
 62
7
  6
CONTINUOUS
 10
380.169414631
 20
202.7472678407
 30
0.0
 11
4.75
 21
-0.0
 31
0.0
 40
0.0872316905
 41
-0.4305827059
 42
-0.3293387109
  0
ELLIPSE
  5
792
100
AcDbEntity
  8
KONSTRUKTIONSELEMENTE
100
AcDbEllipse
 62
7
  6
CONTINUOUS
 10
380.169414631
 20
203.1453495028
 30
0.0
 11
4.75
 21
0.0
 31
0.0
 40
0.2880141226
 41
-0.5724225472
 42
-0.4305827059
  0
ELLIPSE
  5
793
100
AcDbEntity
  8
KONSTRUKTIONSELEMENTE
100
AcDbEllipse
 62
7
  6
CONTINUOUS
 10
380.169414631
 20
204.7484283337
 30
0.0
 11
4.75
 21
0.0
 31
0.0
 40
0.9110692579
 41
-0.6848149303
 42
-0.5724225472
  0
ELLIPSE
  5
794
100
AcDbEntity
  8
KONSTRUKTIONSELEMENTE
100
AcDbEllipse
 62
7
  6
CONTINUOUS
 10
380.169414631
 20
207.3998866563
 30
0.0
 11
-0.0
 21
8.519411248
 31
0.0
 40
0.5575502651
 41
-2.2939803715
 42
-2.2556112571
  0
ELLIPSE
  5
795
100
AcDbEntity
  8
KONSTRUKTIONSELEMENTE
100
AcDbEllipse
 62
7
  6
CONTINUOUS
 10
380.169414631
 20
213.585970119
 30
0.0
 11
-0.0
 21
17.8671237607
 31
0.0
 40
0.2658514075
 41
-2.3308195503
 42
-2.2939803715
  0
ELLIPSE
  5
796
100
AcDbEntity
  8
KONSTRUKTIONSELEMENTE
100
AcDbEllipse
 62
7
  6
CONTINUOUS
 10
380.169414631
 20
123.1359305244
 30
0.0
 11
0.0
 21
113.4219081606
 31
0.0
 40
0.0418790345
 41
-0.819356565
 42
-0.8107731033
  0
ELLIPSE
  5
797
100
AcDbEntity
  8
KONSTRUKTIONSELEMENTE
100
AcDbEllipse
 62
7
  6
CONTINUOUS
 10
380.169414631
 20
189.7773510788
 30
0.0
 11
0.0
 21
15.8061922843
 31
0.0
 40
0.3005151345
 41
-0.8682564787
 42
-0.819356565
  0
ELLIPSE
  5
798
100
AcDbEntity
  8
KONSTRUKTIONSELEMENTE
100
AcDbEllipse
 62
7
  6
CONTINUOUS
 10
380.169414631
 20
196.7657046948
 30
0.0
 11
0.0
 21
4.9909558272
 31
0.0
 40
0.9517215067
 41
-0.9516017722
 42
-0.8682564787
  0
ELLIPSE
  5
799
100
AcDbEntity
  8
KONSTRUKTIONSELEMENTE
100
AcDbEllipse
 62
7
  6
CONTINUOUS
 10
380.169414631
 20
198.8229372949
 30
0.0
 11
4.75
 21
-0.0
 31
0.0
 40
0.3044888373
 41
0.5429721265
 42
0.6191945546
  0
ELLIPSE
  5
79A
100
AcDbEntity
  8
KONSTRUKTIONSELEMENTE
100
AcDbEllipse
 62
7
  6
CONTINUOUS
 10
380.169414631
 20
200.443178531
 30
0.0
 11
4.75
 21
0.0
 31
0.0
 40
0.3556905386
 41
-0.6555872676
 42
-0.5429721265
  0
ELLIPSE
  5
79B
100
AcDbEntity
  8
KONSTRUKTIONSELEMENTE
100
AcDbEllipse
 62
7
  6
CONTINUOUS
 10
380.169414631
 20
200.8384439167
 30
0.0
 11
4.75
 21
0.0
 31
0.0
 40
0.4921904906
 41
-0.7358791894
 42
-0.6555872676
  0
ELLIPSE
  5
79C
100
AcDbEntity
  8
KONSTRUKTIONSELEMENTE
100
AcDbEllipse
 62
7
  6
CONTINUOUS
 10
380.169414631
 20
123.1359305244
 30
0.0
 11
0.0
 21
113.4219081605
 31
0.0
 40
0.0418790345
 41
-0.8419178725
 42
-0.8349171374
  0
ELLIPSE
  5
79D
100
AcDbEntity
  8
KONSTRUKTIONSELEMENTE
100
AcDbEllipse
 62
7
  6
CONTINUOUS
 10
380.169414631
 20
123.1359305244
 30
0.0
 11
-0.0
 21
113.4219081606
 31
0.0
 40
0.0418790345
 41
-0.8612921543
 42
-0.8530290688
  0
ELLIPSE
  5
79E
100
AcDbEntity
  8
KONSTRUKTIONSELEMENTE
100
AcDbEllipse
 62
7
  6
CONTINUOUS
 10
380.169414631
 20
195.2670619784
 30
0.0
 11
4.75
 21
-0.0
 31
0.0
 40
0.5682611924
 41
0.2348996372
 42
0.7095041725
  0
ELLIPSE
  5
79F
100
AcDbEntity
  8
KONSTRUKTIONSELEMENTE
100
AcDbEllipse
 62
7
  6
CONTINUOUS
 10
380.169414631
 20
196.75834616
 30
0.0
 11
4.75
 21
0.0
 31
0.0
 40
0.7806573744
 41
-0.6796911732
 42
-0.2348996372
  0
ELLIPSE
  5
7A0
100
AcDbEntity
  8
KONSTRUKTIONSELEMENTE
100
AcDbEllipse
 62
7
  6
CONTINUOUS
 10
380.169414631
 20
123.1359305244
 30
0.0
 11
0.0
 21
113.4219081606
 31
0.0
 40
0.0418790345
 41
-0.8917263214
 42
-0.8911051536
  0
ELLIPSE
  5
7A1
100
AcDbEntity
  8
KONSTRUKTIONSELEMENTE
100
AcDbEllipse
 62
7
  6
CONTINUOUS
 10
346.919414631
 20
183.9713063464
 30
0.0
 11
38.0
 21
0.0
 31
0.0
 40
0.1415643925
 41
-0.2617993878
 42
-0.249624958
  0
ELLIPSE
  5
7A2
100
AcDbEntity
  8
KONSTRUKTIONSELEMENTE
100
AcDbEllipse
 62
7
  6
CONTINUOUS
 10
377.896364508
 20
179.6339859788
 30
0.0
 11
4.8875729838
 21
0.0186239158
 31
0.0
 40
0.0861262635
 41
-0.2480991017
 42
-0.1630712497
  0
ELLIPSE
  5
7A3
100
AcDbEntity
  8
KONSTRUKTIONSELEMENTE
100
AcDbEllipse
 62
7
  6
CONTINUOUS
 10
376.644385591
 20
174.4036870419
 30
0.0
 11
6.1789193905
 21
25.3855613092
 31
0.0
 40
0.1817675604
 41
-1.3510905407
 42
-1.3226972251
  0
ENDSEC
  0
SECTION
  2
OBJECTS
  0
DICTIONARY
  5
C
100
AcDbDictionary
280
0
281
1
  3
ACAD_GROUP
350
D
  3
ACAD_MLINESTYLE
350
17
  3
ACAD_LAYOUT
350
1A
  3
ACAD_PLOTSETTINGS
350
19
  3
ACAD_PLOTSTYLENAME
350
E
  0
DICTIONARY
  5
D
102
{ACAD_REACTORS
330
C
102
}
100
AcDbDictionary
280
0
281
1
  0
ACDBDICTIONARYWDFLT
  5
E
102
{ACAD_REACTORS
330
C
102
}
100
AcDbDictionary
281
1
  3
Normal
350
F
100
AcDbDictionaryWithDefault
340
F
  0
DICTIONARY
  5
17
102
{ACAD_REACTORS
330
C
102
}
100
AcDbDictionary
280
0
281
1
  3
Standard
350
18
  0
DICTIONARY
  5
19
102
{ACAD_REACTORS
330
C
102
}
100
AcDbDictionary
281
1
  0
DICTIONARY
  5
1A
102
{ACAD_REACTORS
330
C
102
}
100
AcDbDictionary
281
1
  3
Model
350
7A4
  3
Layout1
350
7A5
  0
ACDBPLACEHOLDER
  5
F
102
{ACAD_REACTORS
330
E
102
}
  0
MLINESTYLE
  5
18
102
{ACAD_REACTORS
330
17
102
}
100
AcDbMlineStyle
  2
STANDARD
 70
0
  3

 62
256
 51
90.0
 52
90.0
 71
2
 49
0.5
 62
256
  6
BYLAYER
 49
-0.5
 62
256
  6
BYLAYER
  0
LAYOUT
  5
7A4
102
{ACAD_REACTORS
330
1A
102
}
100
AcDbPlotSettings
  1

  2
none_device
  4
ISO_A3_(420.00_x_297.00_MM)
  6

 40
0.0
 41
0.0
 42
0.0
 43
0.0
 44
420.0
 45
297.0
 46
0.0
 47
0.0
 48
0.0
 49
0.0
140
0.0
141
0.0
142
1.0
143
1.0
 70
1024
 72
1
 73
0
 74
0
  7

 75
0
147
1.0
148
0.0
149
0.0
100
AcDbLayout
  1
Model
 70
0
 71
0
 10
0.0
 20
0.0
 11
420.0
 21
297.0
 12
0.0
 22
0.0
 32
0.0
 14
0.0
 24
0.0
 34
0.0
 15
0.0
 25
0.0
 35
0.0
146
0.0
 13
0.0
 23
0.0
 33
0.0
 16
1.0
 26
0.0
 36
0.0
 17
0.0
 27
1.0
 37
0.0
 76
0
330
20D
345
0
346
0
  0
LAYOUT
  5
7A5
102
{ACAD_REACTORS
330
1A
102
}
100
AcDbPlotSettings
  1

  2
none_device
  4
ISO_A3_(420.00_x_297.00_MM)
  6

 40
0.0
 41
0.0
 42
0.0
 43
0.0
 44
420.0
 45
297.0
 46
0.0
 47
0.0
 48
0.0
 49
0.0
140
0.0
141
0.0
142
1.0
143
1.0
 70
0
 72
1
 73
0
 74
0
  7

 75
0
147
1.0
148
0.0
149
0.0
100
AcDbLayout
  1
Layout1
 70
0
 71
1
 10
0.0
 20
0.0
 11
420.0
 21
297.0
 12
0.0
 22
0.0
 32
0.0
 14
0.0
 24
0.0
 34
0.0
 15
0.0
 25
0.0
 35
0.0
146
0.0
 13
0.0
 23
0.0
 33
0.0
 16
1.0
 26
0.0
 36
0.0
 17
0.0
 27
1.0
 37
0.0
 76
0
330
20E
345
0
346
0
  0
ENDSEC
  0
EOF
