999
DXF file: vcgh-s20-dxf.dxf
999
Pro/ENGINEER 2010140 by Parametric Technology Corporation
  0
SECTION
  2
HEADER
  9
$ACADVER
  1
AC1021
  9
$DWGCODEPAGE
  3
ANSI_1252
  9
$EXTMAX
 10
420.0
 20
297.0
 30
0.0
  9
$EXTMIN
 10
0.0
 20
0.0
 30
0.0
  9
$LIMMIN
 10
0.0
 20
0.0
  9
$LIMMAX
 10
420.0
 20
297.0
  9
$VIEWCTR
 10
210.0
 20
148.5
  9
$VIEWSIZE
 40
297.0
  9
$CLAYER
  8
0
  9
$LTSCALE
 40
23.1
  9
$CELTYPE
  6
BYLAYER
  9
$DIMSCALE
 40
1.0
  9
$DIMASZ
 40
3.5
  9
$DIMEXO
 40
2.625
  9
$DIMDLI
 40
15.96
  9
$DIMEXE
 40
7.56
  9
$DIMCEN
 40
3.78
  9
$DIMLFAC
 40
1.0
  9
$DIMBLK
  1
_FILLED
  9
$DIMTXT
 40
3.5
  9
$DIMTOL
 70
1
  9
$DIMLIM
 70
0
  9
$DIMTFAC
 40
1.0
  9
$DIMTP
 40
0.005
  9
$DIMTM
 40
0.005
  9
$PDMODE
 70
3
  9
$PDSIZE
 40
0.3125
  9
$HANDSEED
  5
70C
  9
$TILEMODE
 70
1
  9
$MEASUREMENT
 70
1
  9
$INSUNITS
 70
4
  0
ENDSEC
  0
SECTION
  2
CLASSES
  0
CLASS
  1
ACDBDICTIONARYWDFLT
  2
AcDbDictionaryWithDefault
  3
AutoCAD 2000
 90
0
 91
1
280
0
281
0
  0
CLASS
  1
ACDBPLACEHOLDER
  2
AcDbPlaceHolder
  3
AutoCAD 2000
 90
0
 91
1
280
0
281
0
  0
CLASS
  1
LAYOUT
  2
AcDbLayout
  3
AutoCAD 2000
 90
0
 91
0
280
0
281
0
  0
ENDSEC
  0
SECTION
  2
TABLES
  0
TABLE
  2
VPORT
  5
8
100
AcDbSymbolTable
 70
2
  0
VPORT
  5
1F4
100
AcDbSymbolTableRecord
100
AcDbViewportTableRecord
  2
*ACTIVE
 70
0
 10
0.0
 20
0.0
 11
1.0
 21
1.0
 12
210.0
 22
148.5
 13
0.0
 23
0.0
 14
1.0
 24
1.0
 15
0.0
 25
0.0
 16
0.0
 26
0.0
 36
1.0
 17
0.0
 27
0.0
 37
0.0
 40
297.0
 41
1.4141414141
 42
50.0
 43
0.0
 44
0.0
 50
0.0
 51
0.0
 71
0
 72
100
 73
1
 74
1
 75
0
 76
0
 77
0
 78
0
  0
ENDTAB
  0
TABLE
  2
LTYPE
  5
5
100
AcDbSymbolTable
 70
6
  0
LTYPE
  5
14
100
AcDbSymbolTableRecord
100
AcDbLinetypeTableRecord
  2
BYBLOCK
 70
0
  3

 72
65
 73
0
 40
0.0
  0
LTYPE
  5
15
100
AcDbSymbolTableRecord
100
AcDbLinetypeTableRecord
  2
BYLAYER
 70
0
  3

 72
65
 73
0
 40
0.0
  0
LTYPE
  5
16
100
AcDbSymbolTableRecord
100
AcDbLinetypeTableRecord
  2
CONTINUOUS
 70
64
  3
Solid line
 72
65
 73
0
 40
0.0
  0
LTYPE
  5
1F5
100
AcDbSymbolTableRecord
100
AcDbLinetypeTableRecord
  2
CENTER
 70
64
  3
____ _ ____ _ ____ _ ____ _ ____ _ ____ _ ____
 72
65
 73
4
 40
0.6
 49
0.375
 74
0
 49
-0.075
 74
0
 49
0.075
 74
0
 49
-0.075
 74
0
  0
LTYPE
  5
1F6
100
AcDbSymbolTableRecord
100
AcDbLinetypeTableRecord
  2
HIDDEN
 70
64
  3
- - - - - - - - - - - - - - - - - - - -
 72
65
 73
2
 40
0.2
 49
0.1
 74
0
 49
-0.1
 74
0
  0
LTYPE
  5
1F7
100
AcDbSymbolTableRecord
100
AcDbLinetypeTableRecord
  2
PHANTOM
 70
64
  3
_____ _ _ _____ _ _ _____ _ _ _____
 72
65
 73
6
 40
0.8
 49
0.45
 74
0
 49
-0.05
 74
0
 49
0.1
 74
0
 49
-0.05
 74
0
 49
0.1
 74
0
 49
-0.05
 74
0
  0
LTYPE
  5
1F8
100
AcDbSymbolTableRecord
100
AcDbLinetypeTableRecord
  2
DOT
 70
64
  3
. . . . . . . . . . . . . . . . . . . .
 72
65
 73
2
 40
0.2
 49
0.1
 74
0
 49
-0.1
 74
0
  0
LTYPE
  5
1F9
100
AcDbSymbolTableRecord
100
AcDbLinetypeTableRecord
  2
DASHED
 70
64
  3
- - - - - - - - - - - - - - - - - - - -
 72
65
 73
2
 40
0.2
 49
0.1
 74
0
 49
-0.1
 74
0
  0
ENDTAB
  0
TABLE
  2
LAYER
  5
2
100
AcDbSymbolTable
 70
36
  0
LAYER
  5
10
100
AcDbSymbolTableRecord
100
AcDbLayerTableRecord
  2
0
 70
0
 62
7
  6
CONTINUOUS
370
-3
390
F
  0
LAYER
  5
1FA
100
AcDbSymbolTableRecord
100
AcDbLayerTableRecord
  2
DEFAULT_1
 70
0
 62
7
  6
CENTER
370
-3
390
F
  0
LAYER
  5
1FB
100
AcDbSymbolTableRecord
100
AcDbLayerTableRecord
  2
DEFAULT_2
 70
0
 62
8
  6
HIDDEN
370
-3
390
F
  0
LAYER
  5
1FC
100
AcDbSymbolTableRecord
100
AcDbLayerTableRecord
  2
DEFAULT_3
 70
0
 62
7
  6
PHANTOM
370
-3
390
F
  0
LAYER
  5
1FD
100
AcDbSymbolTableRecord
100
AcDbLayerTableRecord
  2
AUSFORMSCHRAEGEN
 70
0
 62
7
  6
CONTINUOUS
370
-3
390
F
  0
LAYER
  5
1FE
100
AcDbSymbolTableRecord
100
AcDbLayerTableRecord
  2
BEZUGSACHSEN
 70
0
 62
7
  6
CONTINUOUS
370
-3
390
F
  0
LAYER
  5
1FF
100
AcDbSymbolTableRecord
100
AcDbLayerTableRecord
  2
BEZUGSEBENEN
 70
0
 62
7
  6
CONTINUOUS
370
-3
390
F
  0
LAYER
  5
200
100
AcDbSymbolTableRecord
100
AcDbLayerTableRecord
  2
BG_STARTBEZUEGE
 70
0
 62
7
  6
CONTINUOUS
370
-3
390
F
  0
LAYER
  5
201
100
AcDbSymbolTableRecord
100
AcDbLayerTableRecord
  2
BOHRUNGEN
 70
0
 62
7
  6
CONTINUOUS
370
-3
390
F
  0
LAYER
  5
202
100
AcDbSymbolTableRecord
100
AcDbLayerTableRecord
  2
FASEN
 70
0
 62
7
  6
CONTINUOUS
370
-3
390
F
  0
LAYER
  5
203
100
AcDbSymbolTableRecord
100
AcDbLayerTableRecord
  2
FLAECHEN
 70
0
 62
7
  6
CONTINUOUS
370
-3
390
F
  0
LAYER
  5
204
100
AcDbSymbolTableRecord
100
AcDbLayerTableRecord
  2
HILFEN
 70
0
 62
7
  6
CONTINUOUS
370
-3
390
F
  0
LAYER
  5
205
100
AcDbSymbolTableRecord
100
AcDbLayerTableRecord
  2
KONSTRUKTIONSELEMENTE
 70
0
 62
7
  6
CONTINUOUS
370
-3
390
F
  0
LAYER
  5
206
100
AcDbSymbolTableRecord
100
AcDbLayerTableRecord
  2
PLATZIERUNG
 70
0
 62
7
  6
CONTINUOUS
370
-3
390
F
  0
LAYER
  5
207
100
AcDbSymbolTableRecord
100
AcDbLayerTableRecord
  2
PLAZIERUNG
 70
0
 62
7
  6
CONTINUOUS
370
-3
390
F
  0
LAYER
  5
208
100
AcDbSymbolTableRecord
100
AcDbLayerTableRecord
  2
RUNDUNGEN
 70
0
 62
7
  6
CONTINUOUS
370
-3
390
F
  0
LAYER
  5
209
100
AcDbSymbolTableRecord
100
AcDbLayerTableRecord
  2
TEIL_STARTBEZUEGE
 70
0
 62
7
  6
CONTINUOUS
370
-3
390
F
  0
LAYER
  5
20A
100
AcDbSymbolTableRecord
100
AcDbLayerTableRecord
  2
T_STARTBEZUEGE
 70
0
 62
7
  6
CONTINUOUS
370
-3
390
F
  0
ENDTAB
  0
TABLE
  2
STYLE
  5
3
100
AcDbSymbolTable
 70
1
  0
STYLE
  5
11
100
AcDbSymbolTableRecord
100
AcDbTextStyleTableRecord
  2
STANDARD
 70
0
 40
0.0
 41
0.7
 50
0.0
 71
0
 42
0.2
  3
txt
  4

  0
STYLE
  5
20B
100
AcDbSymbolTableRecord
100
AcDbTextStyleTableRecord
  2
TEXTSTYLE_1
 70
0
 40
0.0
 41
0.8
 50
0.0
 71
0
 42
0.2
  3
gdt
  4

  0
ENDTAB
  0
TABLE
  2
VIEW
  5
6
100
AcDbSymbolTable
 70
0
  0
ENDTAB
  0
TABLE
  2
UCS
  5
7
100
AcDbSymbolTable
 70
0
  0
ENDTAB
  0
TABLE
  2
APPID
  5
9
100
AcDbSymbolTable
 70
1
  0
APPID
  5
20C
100
AcDbSymbolTableRecord
100
AcDbRegAppTableRecord
  2
ACAD
 70
0
  0
ENDTAB
  0
TABLE
  2
BLOCK_RECORD
  5
1
100
AcDbSymbolTable
 70
0
  0
BLOCK_RECORD
  5
20D
100
AcDbSymbolTableRecord
100
AcDbBlockTableRecord
  2
*Model_Space
  0
BLOCK_RECORD
  5
20E
100
AcDbSymbolTableRecord
100
AcDbBlockTableRecord
  2
*Paper_Space
  0
ENDTAB
  0
TABLE
  2
DIMSTYLE
  5
A
100
AcDbSymbolTable
 70
1
100
AcDbDimStyleTable
 71
0
  0
DIMSTYLE
105
20F
100
AcDbSymbolTableRecord
100
AcDbDimStyleTableRecord
  2
STANDARD
 70
0
  3

  4

 40
1.0
 41
3.5
 42
0.0625
 43
0.38
 44
0.18
 45
0.0
 46
0.0
 47
0.005
 48
0.005
140
3.5
141
0.09
142
0.0
143
25.4
144
1.0
145
0.0
146
1.0
147
0.09
 71
1.0
 72
0.0
 73
0
 74
0
 75
0
 76
0
 77
1
 78
8
170
0
171
2
172
0
173
0
174
0
175
0
176
0
177
0
178
5
270
2
271
3
272
3
273
2
274
2
275
0
280
0
281
0
282
0
283
1
284
8
285
0
286
0
287
3
288
0
340
11
  0
ENDTAB
  0
ENDSEC
  0
SECTION
  2
BLOCKS
  0
BLOCK
  5
20
100
AcDbEntity
  8
0
100
AcDbBlockBegin
  2
*Model_Space
 70
0
 10
0.0
 20
0.0
 30
0.0
  3
*Model_Space
  1

  0
ENDBLK
  5
21
100
AcDbEntity
  8
0
100
AcDbBlockEnd
  0
BLOCK
  5
1C
100
AcDbEntity
  8
0
100
AcDbBlockBegin
  2
*Paper_Space
 70
0
 10
0.0
 20
0.0
 30
0.0
  3
*Paper_Space
  1

  0
ENDBLK
  5
1D
100
AcDbEntity
  8
0
100
AcDbBlockEnd
  0
ENDSEC
  0
SECTION
  2
ENTITIES
  0
LINE
  5
210
100
AcDbEntity
  8
0
100
AcDbLine
 62
7
  6
CONTINUOUS
 10
0.0
 20
0.0
 11
0.0
 21
297.0
  0
LINE
  5
211
100
AcDbEntity
  8
0
100
AcDbLine
 62
7
  6
CONTINUOUS
 10
0.0
 20
0.0
 11
420.0
 21
0.0
  0
LINE
  5
212
100
AcDbEntity
  8
0
100
AcDbLine
 62
7
  6
CONTINUOUS
 10
0.0
 20
297.0
 11
420.0
 21
297.0
  0
LINE
  5
213
100
AcDbEntity
  8
0
100
AcDbLine
 62
7
  6
CONTINUOUS
 10
420.0
 20
0.0
 11
420.0
 21
297.0
  0
LINE
  5
214
100
AcDbEntity
  8
KONSTRUKTIONSELEMENTE
100
AcDbLine
 62
7
  6
CONTINUOUS
 10
323.215815681
 20
12.9946172608
 11
318.5952625552
 21
12.26279354
  0
LINE
  5
215
100
AcDbEntity
  8
BEZUGSACHSEN
100
AcDbLine
 62
7
  6
CONTINUOUS
 10
258.5952625552
 20
14.0161183132
 11
311.2090662553
 21
14.0161183132
  0
LINE
  5
216
100
AcDbEntity
  8
BEZUGSACHSEN
100
AcDbLine
 62
7
  6
CONTINUOUS
 10
325.9814588552
 20
14.0161183132
 11
378.5952625552
 21
14.0161183132
  0
LINE
  5
217
100
AcDbEntity
  8
0
100
AcDbLine
 62
7
  6
CONTINUOUS
 10
318.5952625552
 20
12.26279354
 11
313.9747094295
 21
12.9946172608
  0
LINE
  5
218
100
AcDbEntity
  8
KONSTRUKTIONSELEMENTE
100
AcDbLine
 62
7
  6
CONTINUOUS
 10
330.915064999
 20
26.0157501095
 11
331.9358870112
 21
26.0157501095
  0
LINE
  5
219
100
AcDbEntity
  8
KONSTRUKTIONSELEMENTE
100
AcDbLine
 62
7
  6
CONTINUOUS
 10
330.9207071745
 20
26.0592612424
 11
331.9415291867
 21
26.0592612424
  0
LINE
  5
21A
100
AcDbEntity
  8
KONSTRUKTIONSELEMENTE
100
AcDbLine
 62
7
  6
CONTINUOUS
 10
330.925790529
 20
27.0110506776
 11
331.9466125412
 21
27.0110506776
  0
LINE
  5
21B
100
AcDbEntity
  8
KONSTRUKTIONSELEMENTE
100
AcDbLine
 62
7
  6
CONTINUOUS
 10
330.925292508
 20
28.2603921999
 11
331.9461145202
 21
28.2603921999
  0
LINE
  5
21C
100
AcDbEntity
  8
KONSTRUKTIONSELEMENTE
100
AcDbLine
 62
7
  6
CONTINUOUS
 10
332.2608465181
 20
28.5021707042
 11
332.3110238011
 21
28.5021707042
  0
LINE
  5
21D
100
AcDbEntity
  8
KONSTRUKTIONSELEMENTE
100
AcDbLine
 62
7
  6
CONTINUOUS
 10
332.3119805856
 20
28.9436666593
 11
332.4138913236
 21
28.9436666593
  0
LINE
  5
21E
100
AcDbEntity
  8
KONSTRUKTIONSELEMENTE
100
AcDbLine
 62
7
  6
CONTINUOUS
 10
332.189134612
 20
29.064964044
 11
332.3059029707
 21
29.064964044
  0
LINE
  5
21F
100
AcDbEntity
  8
KONSTRUKTIONSELEMENTE
100
AcDbLine
 62
7
  6
CONTINUOUS
 10
332.4618100681
 20
29.6816712538
 11
332.5702372502
 21
29.6816712538
  0
LINE
  5
220
100
AcDbEntity
  8
KONSTRUKTIONSELEMENTE
100
AcDbLine
 62
7
  6
CONTINUOUS
 10
332.2603411875
 20
29.8642973321
 11
332.3110238011
 21
29.8642973321
  0
LINE
  5
221
100
AcDbEntity
  8
KONSTRUKTIONSELEMENTE
100
AcDbLine
 62
7
  6
CONTINUOUS
 10
332.4283446734
 20
30.1211231872
 11
332.51333102
 21
30.1211231872
  0
LINE
  5
222
100
AcDbEntity
  8
KONSTRUKTIONSELEMENTE
100
AcDbLine
 62
7
  6
CONTINUOUS
 10
332.2840033701
 20
30.2561944278
 11
332.4138913236
 21
30.2561944278
  0
LINE
  5
223
100
AcDbEntity
  8
KONSTRUKTIONSELEMENTE
100
AcDbLine
 62
7
  6
CONTINUOUS
 10
332.0029578395
 20
30.7933586337
 11
332.3059029707
 21
30.7933586337
  0
LINE
  5
224
100
AcDbEntity
  8
KONSTRUKTIONSELEMENTE
100
AcDbLine
 62
7
  6
CONTINUOUS
 10
332.4151920716
 20
30.9691062254
 11
332.5702372502
 21
30.9691062254
  0
LINE
  5
225
100
AcDbEntity
  8
KONSTRUKTIONSELEMENTE
100
AcDbLine
 62
7
  6
CONTINUOUS
 10
332.4780570226
 20
31.4088523237
 11
332.7739818829
 21
31.4088523237
  0
LINE
  5
226
100
AcDbEntity
  8
KONSTRUKTIONSELEMENTE
100
AcDbLine
 62
7
  6
CONTINUOUS
 10
333.0517564449
 20
31.6711101379
 11
333.0934350578
 21
31.6711101379
  0
LINE
  5
227
100
AcDbEntity
  8
KONSTRUKTIONSELEMENTE
100
AcDbLine
 62
7
  6
CONTINUOUS
 10
332.8682677444
 20
31.7074053395
 11
332.9891173529
 21
31.7074053395
  0
LINE
  5
228
100
AcDbEntity
  8
KONSTRUKTIONSELEMENTE
100
AcDbLine
 62
7
  6
CONTINUOUS
 10
332.2491424294
 20
31.8630164079
 11
332.5133310681
 21
31.8630164079
  0
LINE
  5
229
100
AcDbEntity
  8
KONSTRUKTIONSELEMENTE
100
AcDbLine
 62
7
  6
CONTINUOUS
 10
332.9085509615
 20
31.9022183043
 11
332.993826016
 21
31.9022183043
  0
LINE
  5
22A
100
AcDbEntity
  8
KONSTRUKTIONSELEMENTE
100
AcDbLine
 62
7
  6
CONTINUOUS
 10
332.5443455796
 20
33.1464912017
 11
332.7739818829
 21
33.1464912017
  0
LINE
  5
22B
100
AcDbEntity
  8
KONSTRUKTIONSELEMENTE
100
AcDbLine
 62
7
  6
CONTINUOUS
 10
333.2227087863
 20
33.4215186026
 11
333.3080558465
 21
33.4215186026
  0
LINE
  5
22C
100
AcDbEntity
  8
KONSTRUKTIONSELEMENTE
100
AcDbLine
 62
7
  6
CONTINUOUS
 10
333.2570159874
 20
35.207103424
 11
333.5591518805
 21
35.207103424
  0
LINE
  5
22D
100
AcDbEntity
  8
KONSTRUKTIONSELEMENTE
100
AcDbLine
 62
7
  6
CONTINUOUS
 10
333.6283925143
 20
35.3757807752
 11
333.7685248303
 21
35.3757807752
  0
LINE
  5
22E
100
AcDbEntity
  8
KONSTRUKTIONSELEMENTE
100
AcDbLine
 62
7
  6
CONTINUOUS
 10
333.6559375279
 20
35.5056560851
 11
333.7745054677
 21
35.5056560851
  0
LINE
  5
22F
100
AcDbEntity
  8
KONSTRUKTIONSELEMENTE
100
AcDbLine
 62
7
  6
CONTINUOUS
 10
333.823653422
 20
36.2869524983
 11
333.9323729487
 21
36.2869524983
  0
LINE
  5
230
100
AcDbEntity
  8
KONSTRUKTIONSELEMENTE
100
AcDbLine
 62
7
  6
CONTINUOUS
 10
333.5181192563
 20
36.4515421606
 11
333.822018489
 21
36.4515421606
  0
LINE
  5
231
100
AcDbEntity
  8
KONSTRUKTIONSELEMENTE
100
AcDbLine
 62
7
  6
CONTINUOUS
 10
333.527093601
 20
36.4943146866
 11
333.7685248303
 21
36.4943146866
  0
LINE
  5
232
100
AcDbEntity
  8
KONSTRUKTIONSELEMENTE
100
AcDbLine
 62
7
  6
CONTINUOUS
 10
333.5650702352
 20
36.7087133226
 11
333.7745054677
 21
36.7087133226
  0
LINE
  5
233
100
AcDbEntity
  8
KONSTRUKTIONSELEMENTE
100
AcDbLine
 62
7
  6
CONTINUOUS
 10
333.9337737747
 20
36.858323586
 11
334.039114485
 21
36.858323586
  0
LINE
  5
234
100
AcDbEntity
  8
KONSTRUKTIONSELEMENTE
100
AcDbLine
 62
7
  6
CONTINUOUS
 10
333.4039366397
 20
36.8897133432
 11
333.5591518805
 21
36.8897133432
  0
LINE
  5
235
100
AcDbEntity
  8
KONSTRUKTIONSELEMENTE
100
AcDbLine
 62
7
  6
CONTINUOUS
 10
334.040155499
 20
37.1981245029
 11
334.0933222786
 21
37.1981245029
  0
LINE
  5
236
100
AcDbEntity
  8
KONSTRUKTIONSELEMENTE
100
AcDbLine
 62
7
  6
CONTINUOUS
 10
333.9583518501
 20
37.4211169258
 11
334.0335429932
 21
37.4211169258
  0
LINE
  5
237
100
AcDbEntity
  8
KONSTRUKTIONSELEMENTE
100
AcDbLine
 62
7
  6
CONTINUOUS
 10
333.7436919529
 20
37.4930909409
 11
333.9323729487
 21
37.4930909409
  0
LINE
  5
238
100
AcDbEntity
  8
KONSTRUKTIONSELEMENTE
100
AcDbLine
 62
7
  6
CONTINUOUS
 10
334.3606979165
 20
38.0482110581
 11
334.4023749077
 21
38.0482110581
  0
LINE
  5
239
100
AcDbEntity
  8
KONSTRUKTIONSELEMENTE
100
AcDbLine
 62
7
  6
CONTINUOUS
 10
333.8833466286
 20
38.0993864978
 11
334.039114485
 21
38.0993864978
  0
LINE
  5
23A
100
AcDbEntity
  8
KONSTRUKTIONSELEMENTE
100
AcDbLine
 62
7
  6
CONTINUOUS
 10
333.6818145382
 20
38.1017204431
 11
333.8220185403
 21
38.1017204431
  0
LINE
  5
23B
100
AcDbEntity
  8
KONSTRUKTIONSELEMENTE
100
AcDbLine
 62
7
  6
CONTINUOUS
 10
334.3526861652
 20
38.2947740339
 11
334.3960123399
 21
38.2947740339
  0
LINE
  5
23C
100
AcDbEntity
  8
KONSTRUKTIONSELEMENTE
100
AcDbLine
 62
7
  6
CONTINUOUS
 10
334.1380665135
 20
38.3474005817
 11
334.2465348769
 21
38.3474005817
  0
LINE
  5
23D
100
AcDbEntity
  8
KONSTRUKTIONSELEMENTE
100
AcDbLine
 62
7
  6
CONTINUOUS
 10
333.981860784
 20
38.4918664961
 11
334.0933222631
 21
38.4918664961
  0
LINE
  5
23E
100
AcDbEntity
  8
KONSTRUKTIONSELEMENTE
100
AcDbLine
 62
7
  6
CONTINUOUS
 10
335.1623055165
 20
46.7146279764
 11
335.4076745267
 21
46.7146279764
  0
LINE
  5
23F
100
AcDbEntity
  8
KONSTRUKTIONSELEMENTE
100
AcDbLine
 62
7
  6
CONTINUOUS
 10
335.2917837407
 20
47.3458343193
 11
335.4286840174
 21
47.3458343193
  0
LINE
  5
240
100
AcDbEntity
  8
0
100
AcDbLine
 62
7
  6
CONTINUOUS
 10
299.0016348263
 20
58.8608435222
 11
299.0015968344
 21
58.8608686167
  0
LWPOLYLINE
  5
241
100
AcDbEntity
  8
0
100
AcDbPolyline
 62
7
  6
CONTINUOUS
 90
15
 70
0
 10
299.0016343827
 20
58.86084401
 10
299.1226922166
 20
58.7735382801
 10
299.2772823391
 20
58.6379497982
 10
299.4032966862
 20
58.5013631064
 10
299.4996460015
 20
58.3749487435
 10
299.5721925684
 20
58.2618150188
 10
299.6242372207
 20
58.1669461584
 10
299.6617210547
 20
58.0883548946
 10
299.688722685
 20
58.0240575516
 10
299.7078667738
 20
57.9728513682
 10
299.7214912999
 20
57.9322957092
 10
299.7308113067
 20
57.9016661989
 10
299.7370224345
 20
57.8792918925
 10
299.7407649273
 20
57.8646102984
 10
299.7425110975
 20
57.8572284728
  0
LINE
  5
242
100
AcDbEntity
  8
KONSTRUKTIONSELEMENTE
100
AcDbLine
 62
7
  6
CONTINUOUS
 10
324.1452625552
 20
237.6809648822
 11
318.5952625552
 21
235.5787588759
  0
LINE
  5
243
100
AcDbEntity
  8
KONSTRUKTIONSELEMENTE
100
AcDbLine
 62
7
  6
CONTINUOUS
 10
318.5952625552
 20
234.5484885449
 11
324.1452625552
 21
236.6506945512
  0
LINE
  5
244
100
AcDbEntity
  8
KONSTRUKTIONSELEMENTE
100
AcDbLine
 62
7
  6
CONTINUOUS
 10
318.5952625552
 20
234.1711337548
 11
324.1452625552
 21
236.2733397611
  0
LWPOLYLINE
  5
245
100
AcDbEntity
  8
0
100
AcDbPolyline
 62
7
  6
CONTINUOUS
 90
7
 70
0
 10
285.1168209474
 20
269.0238552558
 10
284.961152653
 20
268.6083719926
 10
284.7374717838
 20
267.8828567961
 10
284.569626646
 20
267.1477623998
 10
284.457803346
 20
266.4084329562
 10
284.402144267
 20
265.6708823282
 10
284.3952574119
 20
265.3066908425
  0
LINE
  5
246
100
AcDbEntity
  8
BEZUGSACHSEN
100
AcDbLine
 62
7
  6
CONTINUOUS
 10
258.5952625552
 20
302.0161183132
 11
258.5952625552
 21
14.0161183132
  0
LINE
  5
247
100
AcDbEntity
  8
0
100
AcDbLine
 62
7
  6
CONTINUOUS
 10
290.1124943748
 20
286.0216761723
 11
288.7521481359
 21
280.1767493575
  0
LWPOLYLINE
  5
248
100
AcDbEntity
  8
0
100
AcDbPolyline
 62
7
  6
CONTINUOUS
 90
9
 70
0
 10
288.752117334
 20
280.1766204028
 10
288.5158925392
 20
279.2055247947
 10
288.1765457851
 20
277.9287709884
 10
287.7837920408
 20
276.5716729241
 10
287.3366429886
 20
275.1380054002
 10
286.8344553478
 20
273.6318030736
 10
286.2769316104
 20
272.0574727189
 10
285.6641648816
 20
270.4199508776
 10
285.1168249456
 20
269.0238499088
  0
LWPOLYLINE
  5
249
100
AcDbEntity
  8
0
100
AcDbPolyline
 62
7
  6
CONTINUOUS
 90
7
 70
0
 10
284.5514866569
 20
183.5848834258
 10
284.6235045142
 20
182.7037711583
 10
284.7433429698
 20
181.4907224298
 10
284.8963764517
 20
180.2158224487
 10
285.0862882804
 20
178.8834719815
 10
285.3179175534
 20
177.4956560297
 10
285.5351988841
 20
176.3511882201
  0
LWPOLYLINE
  5
24A
100
AcDbEntity
  8
0
100
AcDbPolyline
 62
7
  6
CONTINUOUS
 90
7
 70
0
 10
284.3961938664
 20
187.3847097817
 10
284.4014305009
 20
186.8911691379
 10
284.4185167204
 20
186.1271486898
 10
284.4454658078
 20
185.3839051114
 10
284.4812101306
 20
184.6616159353
 10
284.5247105851
 20
183.9603699439
 10
284.551493168
 20
183.5848917508
  0
LINE
  5
24B
100
AcDbEntity
  8
0
100
AcDbLine
 62
7
  6
CONTINUOUS
 10
284.3953694024
 20
187.5918980629
 11
284.3961931736
 21
187.3847386088
  0
LINE
  5
24C
100
AcDbEntity
  8
0
100
AcDbLine
 62
7
  6
CONTINUOUS
 10
284.3953694024
 20
187.5918980629
 11
284.3952625552
 21
265.3061427648
  0
LINE
  5
24D
100
AcDbEntity
  8
KONSTRUKTIONSELEMENTE
100
AcDbLine
 62
7
  6
CONTINUOUS
 10
288.5952625552
 20
255.6265036929
 11
288.5952625552
 21
266.8222837805
  0
LWPOLYLINE
  5
24E
100
AcDbEntity
  8
KONSTRUKTIONSELEMENTE
100
AcDbPolyline
 62
7
  6
CONTINUOUS
 90
6
 70
0
 10
288.6810985534
 20
254.408261623
 10
288.6574775068
 20
253.4213333616
 10
288.6386084206
 20
252.4578230989
 10
288.625255108
 20
251.5322143586
 10
288.6182178616
 20
250.6596846029
 10
288.6183337524
 20
249.8570338061
  0
LINE
  5
24F
100
AcDbEntity
  8
KONSTRUKTIONSELEMENTE
100
AcDbLine
 62
7
  6
CONTINUOUS
 10
288.7146127419
 20
255.5941544932
 11
288.6810985534
 21
254.408261623
  0
LINE
  5
250
100
AcDbEntity
  8
KONSTRUKTIONSELEMENTE
100
AcDbLine
 62
7
  6
CONTINUOUS
 10
289.337506813
 20
268.3973884389
 11
289.2459805397
 21
266.9966460605
  0
LINE
  5
251
100
AcDbEntity
  8
KONSTRUKTIONSELEMENTE
100
AcDbLine
 62
7
  6
CONTINUOUS
 10
290.3832765352
 20
283.4635848896
 11
289.337506813
 21
268.3973884389
  0
LWPOLYLINE
  5
252
100
AcDbEntity
  8
0
100
AcDbPolyline
 62
7
  6
CONTINUOUS
 90
5
 70
0
 10
297.0122198159
 20
200.2833726956
 10
296.9612798899
 20
200.1124607372
 10
296.8418308781
 20
199.6004080216
 10
296.7697510507
 20
199.0825889291
 10
296.7452626037
 20
198.5552797864
  0
LINE
  5
253
100
AcDbEntity
  8
0
100
AcDbLine
 62
7
  6
CONTINUOUS
 10
297.0122198159
 20
200.2833726956
 11
297.0123103121
 21
200.2836599854
  0
LWPOLYLINE
  5
254
100
AcDbEntity
  8
0
100
AcDbPolyline
 62
7
  6
CONTINUOUS
 90
5
 70
0
 10
297.2730054983
 20
200.960825855
 10
297.226495464
 20
200.8569597592
 10
297.138992661
 20
200.644492448
 10
297.0604299619
 20
200.4298278854
 10
297.0123107086
 20
200.2836603264
  0
LINE
  5
255
100
AcDbEntity
  8
0
100
AcDbLine
 62
7
  6
CONTINUOUS
 10
297.2730054983
 20
200.960825855
 11
297.2730862586
 21
200.9610016111
  0
LINE
  5
256
100
AcDbEntity
  8
0
100
AcDbLine
 62
7
  6
CONTINUOUS
 10
299.7425110975
 20
57.8572284728
 11
299.7431083393
 21
57.8545453426
  0
LINE
  5
257
100
AcDbEntity
  8
0
100
AcDbLine
 62
7
  6
CONTINUOUS
 10
307.7186308389
 20
18.9738731571
 11
299.743020568
 21
57.8549732275
  0
LWPOLYLINE
  5
258
100
AcDbEntity
  8
KONSTRUKTIONSELEMENTE
100
AcDbPolyline
 62
7
  6
CONTINUOUS
 90
4
 70
0
 10
288.8677603209
 20
234.5201405644
 10
288.8872215347
 20
234.1939223322
 10
288.9219169511
 20
233.8670401552
 10
288.9719310016
 20
233.5401144587
  0
LINE
  5
259
100
AcDbEntity
  8
KONSTRUKTIONSELEMENTE
100
AcDbLine
 62
7
  6
CONTINUOUS
 10
288.8640097456
 20
234.6618571575
 11
288.8677603209
 21
234.5201405644
  0
LINE
  5
25A
100
AcDbEntity
  8
KONSTRUKTIONSELEMENTE
100
AcDbLine
 62
7
  6
CONTINUOUS
 10
288.6259682306
 20
249.2648761874
 11
288.8648929752
 21
234.6628601055
  0
LINE
  5
25B
100
AcDbEntity
  8
KONSTRUKTIONSELEMENTE
100
AcDbLine
 62
7
  6
CONTINUOUS
 10
288.6183337524
 20
249.8570338061
 11
288.6244964963
 21
249.2634414855
  0
LWPOLYLINE
  5
25C
100
AcDbEntity
  8
0
100
AcDbPolyline
 62
7
  6
CONTINUOUS
 90
4
 70
0
 10
296.7452622844
 20
190.2794740556
 10
296.7478109219
 20
189.934595793
 10
296.7913099366
 20
188.836738541
 10
296.8595186908
 20
188.0322396829
  0
LINE
  5
25D
100
AcDbEntity
  8
0
100
AcDbLine
 62
7
  6
CONTINUOUS
 10
293.8952625552
 20
139.3045892941
 11
293.8952625552
 21
79.2937561801
  0
LINE
  5
25E
100
AcDbEntity
  8
0
100
AcDbLine
 62
7
  6
CONTINUOUS
 10
293.8952625552
 20
68.3664180987
 11
293.8952625552
 21
79.1391001518
  0
LINE
  5
25F
100
AcDbEntity
  8
0
100
AcDbLine
 62
7
  6
CONTINUOUS
 10
296.7452625552
 20
190.2789919797
 11
296.7452625552
 21
198.5553258063
  0
LWPOLYLINE
  5
260
100
AcDbEntity
  8
KONSTRUKTIONSELEMENTE
100
AcDbPolyline
 62
7
  6
CONTINUOUS
 90
14
 70
0
 10
303.6603558932
 20
278.0430712448
 10
303.6663826278
 20
278.1153311818
 10
303.7109122886
 20
278.3702783028
 10
303.7870739293
 20
278.6082386786
 10
303.890250319
 20
278.8273387101
 10
304.0161663487
 20
279.0260026673
 10
304.1607308625
 20
279.2029975318
 10
304.3205252191
 20
279.3580070178
 10
304.4915391115
 20
279.4902363094
 10
304.6707791354
 20
279.6000189807
 10
304.8542187088
 20
279.6872419412
 10
305.0396318411
 20
279.7530755678
 10
305.2237813611
 20
279.7983698204
 10
305.4037584263
 20
279.8252711862
  0
LINE
  5
261
100
AcDbEntity
  8
0
100
AcDbLine
 62
7
  6
CONTINUOUS
 10
291.5511582546
 20
147.5085164336
 11
293.8952625552
 21
137.0773452088
  0
LINE
  5
262
100
AcDbEntity
  8
0
100
AcDbLine
 62
7
  6
CONTINUOUS
 10
287.552077078
 20
166.6012234134
 11
289.0721347883
 21
159.2621283603
  0
LINE
  5
263
100
AcDbEntity
  8
0
100
AcDbLine
 62
7
  6
CONTINUOUS
 10
289.0721347883
 20
159.2621283603
 11
290.0503927614
 21
154.5155608528
  0
LWPOLYLINE
  5
264
100
AcDbEntity
  8
0
100
AcDbPolyline
 62
7
  6
CONTINUOUS
 90
3
 70
0
 10
285.5351650317
 20
176.3513692676
 10
286.1342413654
 20
173.4107655102
 10
287.552077078
 20
166.6012234134
  0
LWPOLYLINE
  5
265
100
AcDbEntity
  8
0
100
AcDbPolyline
 62
7
  6
CONTINUOUS
 90
4
 70
0
 10
297.1803955058
 20
184.9174770784
 10
297.2910202375
 20
183.8862081252
 10
297.4043473381
 20
182.8842582213
 10
297.4900614775
 20
182.1656333548
  0
LINE
  5
266
100
AcDbEntity
  8
0
100
AcDbLine
 62
7
  6
CONTINUOUS
 10
296.8594959581
 20
188.0324556855
 11
297.1803955058
 21
184.9174770784
  0
LINE
  5
267
100
AcDbEntity
  8
BEZUGSACHSEN
100
AcDbLine
 62
7
  6
CONTINUOUS
 10
300.0910712085
 20
226.5998838459
 11
300.1002119671
 21
226.5049773666
  0
LINE
  5
268
100
AcDbEntity
  8
0
100
AcDbLine
 62
7
  6
CONTINUOUS
 10
305.2952625552
 20
279.8090541915
 11
305.2952625552
 21
252.8535872252
  0
LWPOLYLINE
  5
269
100
AcDbEntity
  8
KONSTRUKTIONSELEMENTE
100
AcDbPolyline
 62
7
  6
CONTINUOUS
 90
9
 70
0
 10
302.5416750299
 20
254.3225457063
 10
302.6157530668
 20
256.8348674073
 10
302.7139326075
 20
259.6543803837
 10
302.8305465771
 20
262.5713761306
 10
302.9652798455
 20
265.5772737697
 10
303.1177850832
 20
268.6635810559
 10
303.2876410769
 20
271.8211119593
 10
303.4743789653
 20
275.0405266629
 10
303.660277482
 20
278.0431643911
  0
LINE
  5
26A
100
AcDbEntity
  8
0
100
AcDbLine
 62
7
  6
CONTINUOUS
 10
301.7456466234
 20
162.2900349362
 11
301.7350340075
 21
161.9371849273
  0
LWPOLYLINE
  5
26B
100
AcDbEntity
  8
0
100
AcDbPolyline
 62
7
  6
CONTINUOUS
 90
4
 70
0
 10
301.73503619
 20
161.9372345598
 10
301.6401506454
 20
159.7403612106
 10
301.5325938363
 20
157.1431755746
 10
301.1911136052
 20
148.585496849
  0
LWPOLYLINE
  5
26C
100
AcDbEntity
  8
0
100
AcDbPolyline
 62
7
  6
CONTINUOUS
 90
6
 70
0
 10
301.1911136052
 20
148.585496849
 10
301.0418791849
 20
145.0331149986
 10
300.9923779134
 20
144.0821554321
 10
300.9380581238
 20
143.1726356537
 10
300.8800005311
 20
142.3044002332
 10
300.8384053418
 20
141.7376848073
  0
LINE
  5
26D
100
AcDbEntity
  8
0
100
AcDbLine
 62
7
  6
CONTINUOUS
 10
301.6888946095
 20
150.4958352619
 11
301.3514303263
 21
147.0534849153
  0
LWPOLYLINE
  5
26E
100
AcDbEntity
  8
0
100
AcDbPolyline
 62
7
  6
CONTINUOUS
 90
3
 70
0
 10
301.3514303263
 20
147.0534849153
 10
299.7891245548
 20
130.7876941986
 10
298.4725143356
 20
117.5218935782
  0
LWPOLYLINE
  5
26F
100
AcDbEntity
  8
0
100
AcDbPolyline
 62
7
  6
CONTINUOUS
 90
16
 70
0
 10
298.4725143356
 20
117.5218935782
 10
298.1485791671
 20
114.2854898158
 10
297.8271109303
 20
111.1091239273
 10
297.5082874194
 20
108.0058989964
 10
297.1922940568
 20
104.9885682532
 10
296.8793552573
 20
102.0692731288
 10
296.5696853898
 20
99.2593503697
 10
296.2635901824
 20
96.5699404536
 10
295.9613828449
 20
94.0111403301
 10
295.6634607599
 20
91.5925132896
 10
295.3702448338
 20
89.3223694486
 10
295.0823207669
 20
87.2086850796
 10
294.8002590498
 20
85.2575735143
 10
294.5252042442
 20
83.4770359524
 10
294.2588240326
 20
81.8754051784
 10
294.0322884553
 20
80.6145390842
  0
LINE
  5
270
100
AcDbEntity
  8
0
100
AcDbLine
 62
7
  6
CONTINUOUS
 10
302.0873310464
 20
154.4900771544
 11
301.6888946095
 21
150.4958352619
  0
LINE
  5
271
100
AcDbEntity
  8
0
100
AcDbLine
 62
7
  6
CONTINUOUS
 10
298.1491905895
 20
178.6183846484
 11
298.6918973786
 21
176.4646468693
  0
LINE
  5
272
100
AcDbEntity
  8
KONSTRUKTIONSELEMENTE
100
AcDbLine
 62
7
  6
CONTINUOUS
 10
289.075517812
 20
233.0517106115
 11
297.1211597887
 21
200.5957659433
  0
LWPOLYLINE
  5
273
100
AcDbEntity
  8
0
100
AcDbPolyline
 62
7
  6
CONTINUOUS
 90
3
 70
0
 10
298.6918973786
 20
176.4646468693
 10
299.2118742979
 20
174.3651082402
 10
299.7523460158
 20
172.1450394446
  0
LINE
  5
274
100
AcDbEntity
  8
0
100
AcDbLine
 62
7
  6
CONTINUOUS
 10
299.7523460158
 20
172.1450394446
 11
301.4414260123
 21
165.1108321718
  0
LINE
  5
275
100
AcDbEntity
  8
KONSTRUKTIONSELEMENTE
100
AcDbLine
 62
7
  6
CONTINUOUS
 10
289.0372847136
 20
233.2137511066
 11
289.075517983
 21
233.0517106541
  0
LWPOLYLINE
  5
276
100
AcDbEntity
  8
0
100
AcDbPolyline
 62
7
  6
CONTINUOUS
 90
6
 70
0
 10
301.4414283128
 20
165.1108226236
 10
301.524312223
 20
164.7378749187
 10
301.629774116
 20
164.1326513693
 10
301.7015043132
 20
163.519917273
 10
301.7397557766
 20
162.9041533085
 10
301.7456466234
 20
162.2900349362
  0
LINE
  5
277
100
AcDbEntity
  8
KONSTRUKTIONSELEMENTE
100
AcDbLine
 62
7
  6
CONTINUOUS
 10
288.9719310016
 20
233.5401144587
 11
289.0372847136
 21
233.2137511066
  0
LINE
  5
278
100
AcDbEntity
  8
BEZUGSACHSEN
100
AcDbLine
 62
7
  6
CONTINUOUS
 10
296.0362374155
 20
223.4958782985
 11
296.036623178
 21
223.4937019589
  0
LWPOLYLINE
  5
279
100
AcDbEntity
  8
0
100
AcDbPolyline
 62
7
  6
CONTINUOUS
 90
7
 70
0
 10
297.5231097939
 20
181.90744137
 10
297.590964928
 20
181.4339766068
 10
297.6734416125
 20
180.9235864265
 10
297.7703443867
 20
180.3826880035
 10
297.8797538775
 20
179.8252816872
 10
298.0048490387
 20
179.2397286362
 10
298.1491905895
 20
178.6183846484
  0
LINE
  5
27A
100
AcDbEntity
  8
0
100
AcDbLine
 62
7
  6
CONTINUOUS
 10
297.4900614583
 20
182.1656334801
 11
297.5231097939
 21
181.90744137
  0
LINE
  5
27B
100
AcDbEntity
  8
KONSTRUKTIONSELEMENTE
100
AcDbLine
 62
7
  6
CONTINUOUS
 10
313.0952625552
 20
224.2631360927
 11
313.0952625552
 21
229.10169228
  0
LINE
  5
27C
100
AcDbEntity
  8
KONSTRUKTIONSELEMENTE
100
AcDbLine
 62
7
  6
CONTINUOUS
 10
313.0952625552
 20
231.0482927768
 11
313.0952625552
 21
234.9224421914
  0
LINE
  5
27D
100
AcDbEntity
  8
KONSTRUKTIONSELEMENTE
100
AcDbLine
 62
7
  6
CONTINUOUS
 10
313.0952625552
 20
237.7400948725
 11
313.0952625552
 21
239.0096899421
  0
LINE
  5
27E
100
AcDbEntity
  8
KONSTRUKTIONSELEMENTE
100
AcDbLine
 62
7
  6
CONTINUOUS
 10
313.0952625552
 20
242.1822361705
 11
313.0952625552
 21
243.4518312401
  0
LINE
  5
27F
100
AcDbEntity
  8
KONSTRUKTIONSELEMENTE
100
AcDbLine
 62
7
  6
CONTINUOUS
 10
313.0952625552
 20
245.0295323563
 11
313.0952625552
 21
248.6762324955
  0
LINE
  5
280
100
AcDbEntity
  8
KONSTRUKTIONSELEMENTE
100
AcDbLine
 62
7
  6
CONTINUOUS
 10
314.4552625552
 20
245.0295323563
 11
314.4552625552
 21
248.6589203768
  0
LINE
  5
281
100
AcDbEntity
  8
KONSTRUKTIONSELEMENTE
100
AcDbLine
 62
7
  6
CONTINUOUS
 10
314.6372235768
 20
231.0482927768
 11
314.6372235768
 21
234.9224421914
  0
LINE
  5
282
100
AcDbEntity
  8
KONSTRUKTIONSELEMENTE
100
AcDbLine
 62
7
  6
CONTINUOUS
 10
314.7952625552
 20
226.1773091582
 11
314.7952625552
 21
227.5681542997
  0
LINE
  5
283
100
AcDbEntity
  8
KONSTRUKTIONSELEMENTE
100
AcDbLine
 62
7
  6
CONTINUOUS
 10
315.4352625552
 20
226.0492567991
 11
315.4352625552
 21
227.3188518687
  0
LINE
  5
284
100
AcDbEntity
  8
KONSTRUKTIONSELEMENTE
100
AcDbLine
 62
7
  6
CONTINUOUS
 10
315.6452625552
 20
245.0295323563
 11
315.6452625552
 21
246.2991274259
  0
LINE
  5
285
100
AcDbEntity
  8
KONSTRUKTIONSELEMENTE
100
AcDbLine
 62
7
  6
CONTINUOUS
 10
315.8272235768
 20
231.0482927768
 11
315.8272235768
 21
232.3178878463
  0
LINE
  5
286
100
AcDbEntity
  8
KONSTRUKTIONSELEMENTE
100
AcDbLine
 62
7
  6
CONTINUOUS
 10
317.1252625552
 20
226.7751429484
 11
317.1252625552
 21
226.9703205095
  0
LINE
  5
287
100
AcDbEntity
  8
KONSTRUKTIONSELEMENTE
100
AcDbLine
 62
7
  6
CONTINUOUS
 10
317.2352625552
 20
234.9224421914
 11
317.2352625552
 21
232.3178878463
  0
LINE
  5
288
100
AcDbEntity
  8
KONSTRUKTIONSELEMENTE
100
AcDbLine
 62
7
  6
CONTINUOUS
 10
317.5552625552
 20
226.0492567991
 11
317.5552625552
 21
226.6636129135
  0
LINE
  5
289
100
AcDbEntity
  8
KONSTRUKTIONSELEMENTE
100
AcDbLine
 62
7
  6
CONTINUOUS
 10
317.5552625552
 20
226.7044957543
 11
317.5552625552
 21
227.3188518687
  0
LINE
  5
28A
100
AcDbEntity
  8
KONSTRUKTIONSELEMENTE
100
AcDbLine
 62
7
  6
CONTINUOUS
 10
318.1952625552
 20
226.6636129135
 11
318.1952625552
 21
226.1773091582
  0
LINE
  5
28B
100
AcDbEntity
  8
KONSTRUKTIONSELEMENTE
100
AcDbLine
 62
7
  6
CONTINUOUS
 10
318.1952625552
 20
226.7044957543
 11
318.1952625552
 21
227.5681542997
  0
LINE
  5
28C
100
AcDbEntity
  8
BG_STARTBEZUEGE
100
AcDbLine
 62
7
  6
CENTER
 10
318.5952625552
 20
304.3932772057
 11
318.5952625552
 21
5.8095466151
  0
LINE
  5
28D
100
AcDbEntity
  8
KONSTRUKTIONSELEMENTE
100
AcDbLine
 62
7
  6
CONTINUOUS
 10
318.5952625552
 20
232.3178878463
 11
318.5952625552
 21
234.5484885449
  0
LINE
  5
28E
100
AcDbEntity
  8
KONSTRUKTIONSELEMENTE
100
AcDbLine
 62
7
  6
CONTINUOUS
 10
319.0452625552
 20
226.1773091582
 11
319.0452625552
 21
226.6636129135
  0
LINE
  5
28F
100
AcDbEntity
  8
KONSTRUKTIONSELEMENTE
100
AcDbLine
 62
7
  6
CONTINUOUS
 10
319.0452625552
 20
226.7044957543
 11
319.0452625552
 21
227.5681542997
  0
LINE
  5
290
100
AcDbEntity
  8
KONSTRUKTIONSELEMENTE
100
AcDbLine
 62
7
  6
CONTINUOUS
 10
319.6852625552
 20
226.0492567991
 11
319.6852625552
 21
226.6636129135
  0
LINE
  5
291
100
AcDbEntity
  8
KONSTRUKTIONSELEMENTE
100
AcDbLine
 62
7
  6
CONTINUOUS
 10
319.6852625552
 20
226.7044957543
 11
319.6852625552
 21
227.3188518687
  0
LINE
  5
292
100
AcDbEntity
  8
0
100
AcDbLine
 62
7
  6
CONTINUOUS
 10
335.271457301
 20
232.0809717694
 11
335.3272930366
 21
232.2793613837
  0
LINE
  5
293
100
AcDbEntity
  8
KONSTRUKTIONSELEMENTE
100
AcDbLine
 62
7
  6
CONTINUOUS
 10
345.8714554228
 20
152.6507227223
 11
347.8384801656
 21
152.6507227223
  0
LINE
  5
294
100
AcDbEntity
  8
KONSTRUKTIONSELEMENTE
100
AcDbLine
 62
7
  6
CONTINUOUS
 10
345.61690369
 20
152.7501610392
 11
347.5839284328
 21
152.7501610392
  0
LINE
  5
295
100
AcDbEntity
  8
0
100
AcDbLine
 62
7
  6
CONTINUOUS
 10
349.6470293514
 20
156.5892736037
 11
348.7536783255
 21
156.5892736037
  0
LINE
  5
296
100
AcDbEntity
  8
BEZUGSACHSEN
100
AcDbLine
 62
7
  6
CONTINUOUS
 10
298.1852893397
 20
228.2953848488
 11
298.164795623
 21
228.376160951
  0
LINE
  5
297
100
AcDbEntity
  8
BEZUGSACHSEN
100
AcDbLine
 62
7
  6
CONTINUOUS
 10
298.9617924727
 20
224.1392028679
 11
298.948943103
 21
224.1957469519
  0
LINE
  5
298
100
AcDbEntity
  8
BEZUGSACHSEN
100
AcDbLine
 62
7
  6
CONTINUOUS
 10
296.7931693624
 20
220.7155840404
 11
296.8092508154
 21
220.6398946704
  0
LINE
  5
299
100
AcDbEntity
  8
KONSTRUKTIONSELEMENTE
100
AcDbLine
 62
7
  6
CONTINUOUS
 10
320.1152625552
 20
226.9703205095
 11
320.1152625552
 21
226.7751429484
  0
LINE
  5
29A
100
AcDbEntity
  8
KONSTRUKTIONSELEMENTE
100
AcDbLine
 62
7
  6
CONTINUOUS
 10
321.8052625552
 20
226.0492567991
 11
321.8052625552
 21
227.3188518687
  0
LINE
  5
29B
100
AcDbEntity
  8
KONSTRUKTIONSELEMENTE
100
AcDbLine
 62
7
  6
CONTINUOUS
 10
322.4452625552
 20
227.5681542997
 11
322.4452625552
 21
226.1773091582
  0
LINE
  5
29C
100
AcDbEntity
  8
KONSTRUKTIONSELEMENTE
100
AcDbLine
 62
7
  6
CONTINUOUS
 10
322.7352625552
 20
248.6589203768
 11
322.7352625552
 21
246.2991274259
  0
LINE
  5
29D
100
AcDbEntity
  8
KONSTRUKTIONSELEMENTE
100
AcDbLine
 62
7
  6
CONTINUOUS
 10
324.1452625552
 20
224.2631360927
 11
324.1452625552
 21
229.10169228
  0
LINE
  5
29E
100
AcDbEntity
  8
KONSTRUKTIONSELEMENTE
100
AcDbLine
 62
7
  6
CONTINUOUS
 10
324.1452625552
 20
236.2733397611
 11
324.1452625552
 21
237.6809648822
  0
LINE
  5
29F
100
AcDbEntity
  8
KONSTRUKTIONSELEMENTE
100
AcDbLine
 62
7
  6
CONTINUOUS
 10
324.1452625552
 20
245.0295323563
 11
324.1452625552
 21
248.6009582381
  0
LINE
  5
2A0
100
AcDbEntity
  8
KONSTRUKTIONSELEMENTE
100
AcDbLine
 62
7
  6
CONTINUOUS
 10
324.4072235768
 20
231.0482927768
 11
324.4072235768
 21
232.3178878463
  0
LINE
  5
2A1
100
AcDbEntity
  8
0
100
AcDbLine
 62
7
  6
CONTINUOUS
 10
337.099453902
 20
226.5998838459
 11
337.0903131434
 21
226.5049773666
  0
LINE
  5
2A2
100
AcDbEntity
  8
0
100
AcDbLine
 62
7
  6
CONTINUOUS
 10
341.1542876949
 20
223.4958782985
 11
341.1539019325
 21
223.4937019589
  0
LINE
  5
2A3
100
AcDbEntity
  8
0
100
AcDbLine
 62
7
  6
CONTINUOUS
 10
340.3973557481
 20
220.7155840404
 11
340.381274295
 21
220.6398946704
  0
LINE
  5
2A4
100
AcDbEntity
  8
0
100
AcDbLine
 62
7
  6
CONTINUOUS
 10
338.2287326377
 20
224.1392028679
 11
338.2415820075
 21
224.1957469519
  0
LINE
  5
2A5
100
AcDbEntity
  8
0
100
AcDbLine
 62
7
  6
CONTINUOUS
 10
348.1150071274
 20
233.0517106541
 11
348.1532403969
 21
233.2137511066
  0
LINE
  5
2A6
100
AcDbEntity
  8
0
100
AcDbLine
 62
7
  6
CONTINUOUS
 10
340.0693653217
 20
200.5957659433
 11
348.1149836517
 21
233.0516152069
  0
LINE
  5
2A7
100
AcDbEntity
  8
0
100
AcDbLine
 62
7
  6
CONTINUOUS
 10
339.0052357708
 20
228.2953848488
 11
339.0257294875
 21
228.376160951
  0
LINE
  5
2A8
100
AcDbEntity
  8
KONSTRUKTIONSELEMENTE
100
AcDbLine
 62
7
  6
CONTINUOUS
 10
335.2083443784
 20
158.8158983677
 11
337.0252625552
 21
158.8158983677
  0
LINE
  5
2A9
100
AcDbEntity
  8
KONSTRUKTIONSELEMENTE
100
AcDbLine
 62
7
  6
CONTINUOUS
 10
334.8498568164
 20
158.9153366846
 11
337.0252625552
 21
158.9153366846
  0
LINE
  5
2AA
100
AcDbEntity
  8
KONSTRUKTIONSELEMENTE
100
AcDbLine
 62
7
  6
CONTINUOUS
 10
349.6192635373
 20
160.3143154013
 11
349.6470293514
 21
160.3143154013
  0
LINE
  5
2AB
100
AcDbEntity
  8
KONSTRUKTIONSELEMENTE
100
AcDbLine
 62
7
  6
CONTINUOUS
 10
333.217383532
 20
162.2019552329
 11
337.0252625552
 21
162.2019552329
  0
LINE
  5
2AC
100
AcDbEntity
  8
0
100
AcDbLine
 62
7
  6
CONTINUOUS
 10
351.1409102974
 20
163.2369846405
 11
350.2984020302
 21
163.2369846405
  0
LINE
  5
2AD
100
AcDbEntity
  8
KONSTRUKTIONSELEMENTE
100
AcDbLine
 62
7
  6
CONTINUOUS
 10
349.144075965
 20
167.9293299674
 11
351.1111007078
 21
167.9293299674
  0
LINE
  5
2AE
100
AcDbEntity
  8
KONSTRUKTIONSELEMENTE
100
AcDbLine
 62
7
  6
CONTINUOUS
 10
334.8498568164
 20
158.9153366846
 11
335.2083443784
 21
158.8158983677
  0
LINE
  5
2AF
100
AcDbEntity
  8
KONSTRUKTIONSELEMENTE
100
AcDbLine
 62
7
  6
CONTINUOUS
 10
345.61690369
 20
152.7501610392
 11
345.8714554228
 21
152.6507227223
  0
LINE
  5
2B0
100
AcDbEntity
  8
KONSTRUKTIONSELEMENTE
100
AcDbLine
 62
7
  6
CONTINUOUS
 10
347.5839284328
 20
152.7501610392
 11
347.8384801656
 21
152.6507227223
  0
LINE
  5
2B1
100
AcDbEntity
  8
BEZUGSACHSEN
100
AcDbLine
 62
7
  6
CONTINUOUS
 10
301.9190678094
 20
232.0809717694
 11
301.8632320739
 21
232.2793613837
  0
LWPOLYLINE
  5
2B2
100
AcDbEntity
  8
KONSTRUKTIONSELEMENTE
100
AcDbPolyline
 62
7
  6
CONTINUOUS
 90
15
 70
0
 10
343.1582362874
 20
80.6145410511
 10
342.9311196457
 20
81.8787636737
 10
342.6640851037
 20
83.484753675
 10
342.3883012065
 20
85.2707362988
 10
342.1054538386
 20
87.2283074873
 10
341.8166996262
 20
89.3493945688
 10
341.522618562
 20
91.6277992742
 10
341.2238057683
 20
94.0554342452
 10
340.9206917756
 20
96.6238478383
 10
340.61368379
 20
99.3233134691
 10
340.3031033755
 20
102.1435652821
 10
339.9892648299
 20
105.0732773502
 10
339.6723908531
 20
108.100920581
 10
339.352713943
 20
111.2141512674
 10
339.0304296082
 20
114.4000091404
  0
LINE
  5
2B3
100
AcDbEntity
  8
KONSTRUKTIONSELEMENTE
100
AcDbLine
 62
7
  6
CONTINUOUS
 10
335.501630501
 20
150.4958352619
 11
335.103194064
 21
154.4900771544
  0
LWPOLYLINE
  5
2B4
100
AcDbEntity
  8
KONSTRUKTIONSELEMENTE
100
AcDbPolyline
 62
7
  6
CONTINUOUS
 90
3
 70
0
 10
339.0304296082
 20
114.4000091404
 10
338.3788016891
 20
120.9356946918
 10
337.2789080969
 20
132.0127365683
  0
LINE
  5
2B5
100
AcDbEntity
  8
KONSTRUKTIONSELEMENTE
100
AcDbLine
 62
7
  6
CONTINUOUS
 10
335.8390947841
 20
147.0534849153
 11
335.501630501
 21
150.4958352619
  0
LINE
  5
2B6
100
AcDbEntity
  8
KONSTRUKTIONSELEMENTE
100
AcDbLine
 62
7
  6
CONTINUOUS
 10
337.278917129
 20
132.0127374716
 11
335.8390947841
 21
147.0534849153
  0
LINE
  5
2B7
100
AcDbEntity
  8
KONSTRUKTIONSELEMENTE
100
AcDbLine
 62
7
  6
CONTINUOUS
 10
334.6349794407
 20
161.5813598201
 11
334.8498568164
 21
158.9153366846
  0
LWPOLYLINE
  5
2B8
100
AcDbEntity
  8
KONSTRUKTIONSELEMENTE
100
AcDbPolyline
 62
7
  6
CONTINUOUS
 90
5
 70
0
 10
336.3521197686
 20
141.7376848073
 10
336.3105245793
 20
142.3044002332
 10
336.2524669866
 20
143.1726356537
 10
336.198147197
 20
144.0821554321
 10
336.1486459256
 20
145.0331149986
  0
LINE
  5
2B9
100
AcDbEntity
  8
KONSTRUKTIONSELEMENTE
100
AcDbLine
 62
7
  6
CONTINUOUS
 10
336.1486459256
 20
145.0331149986
 11
335.9994115052
 21
148.585496849
  0
LWPOLYLINE
  5
2BA
100
AcDbEntity
  8
KONSTRUKTIONSELEMENTE
100
AcDbPolyline
 62
7
  6
CONTINUOUS
 90
3
 70
0
 10
335.9994115052
 20
148.585496849
 10
335.7672436556
 20
154.4199920888
 10
335.5886590883
 20
158.8158983677
  0
LINE
  5
2BB
100
AcDbEntity
  8
KONSTRUKTIONSELEMENTE
100
AcDbLine
 62
7
  6
CONTINUOUS
 10
331.8952625552
 20
279.8090107618
 11
331.8952625552
 21
252.8535872252
  0
LINE
  5
2BC
100
AcDbEntity
  8
KONSTRUKTIONSELEMENTE
100
AcDbLine
 62
7
  6
CONTINUOUS
 10
337.0252625552
 20
158.8158983677
 11
337.0252625552
 21
168.0585895367
  0
LINE
  5
2BD
100
AcDbEntity
  8
KONSTRUKTIONSELEMENTE
100
AcDbLine
 62
7
  6
CONTINUOUS
 10
337.2879124589
 20
171.6889358131
 11
337.2879124589
 21
166.5148649804
  0
LINE
  5
2BE
100
AcDbEntity
  8
KONSTRUKTIONSELEMENTE
100
AcDbLine
 62
7
  6
CONTINUOUS
 10
340.4452625552
 20
198.5553258063
 11
340.4452625552
 21
190.2789919797
  0
LWPOLYLINE
  5
2BF
100
AcDbEntity
  8
0
100
AcDbPolyline
 62
7
  6
CONTINUOUS
 90
15
 70
0
 10
334.6488191666
 20
254.3237427525
 10
334.6481531971
 20
254.2572859591
 10
334.6263734848
 20
254.1004821179
 10
334.5765848746
 20
253.9452615596
 10
334.4974246598
 20
253.7890726297
 10
334.3861359325
 20
253.6317681122
 10
334.2425103239
 20
253.4780700384
 10
334.0673032266
 20
253.332434327
 10
333.8632171055
 20
253.1997811429
 10
333.634221313
 20
253.0844831313
 10
333.3852192429
 20
252.9900864155
 10
333.1217711813
 20
252.919305223
 10
332.8499978348
 20
252.8738418397
 10
332.5758452198
 20
252.8544268533
 10
332.5075896419
 20
252.8536232579
  0
LWPOLYLINE
  5
2C0
100
AcDbEntity
  8
KONSTRUKTIONSELEMENTE
100
AcDbPolyline
 62
7
  6
CONTINUOUS
 90
4
 70
0
 10
340.3310064196
 20
188.0322396829
 10
340.3992151738
 20
188.836738541
 10
340.4427141886
 20
189.934595793
 10
340.4452628261
 20
190.2794740556
  0
LINE
  5
2C1
100
AcDbEntity
  8
KONSTRUKTIONSELEMENTE
100
AcDbLine
 62
7
  6
CONTINUOUS
 10
340.0101296046
 20
184.9174770784
 11
340.3310291727
 21
188.0324556419
  0
LWPOLYLINE
  5
2C2
100
AcDbEntity
  8
KONSTRUKTIONSELEMENTE
100
AcDbPolyline
 62
7
  6
CONTINUOUS
 90
4
 70
0
 10
339.7004636329
 20
182.1656333548
 10
339.7861777723
 20
182.8842582213
 10
339.899504873
 20
183.8862081252
 10
340.0101296046
 20
184.9174770784
  0
LWPOLYLINE
  5
2C3
100
AcDbEntity
  8
KONSTRUKTIONSELEMENTE
100
AcDbPolyline
 62
7
  6
CONTINUOUS
 90
3
 70
0
 10
339.5995601825
 20
181.4339766068
 10
339.6674153165
 20
181.90744137
 10
339.7004636521
 20
182.1656334801
  0
LWPOLYLINE
  5
2C4
100
AcDbEntity
  8
0
100
AcDbPolyline
 62
7
  6
CONTINUOUS
 90
4
 70
0
 10
348.2185941088
 20
233.5401144587
 10
348.2686081593
 20
233.8670401552
 10
348.3033035758
 20
234.1939223322
 10
348.3227647895
 20
234.5201405644
  0
LINE
  5
2C5
100
AcDbEntity
  8
0
100
AcDbLine
 62
7
  6
CONTINUOUS
 10
348.1532403969
 20
233.2137511066
 11
348.2185941088
 21
233.5401144587
  0
LINE
  5
2C6
100
AcDbEntity
  8
KONSTRUKTIONSELEMENTE
100
AcDbLine
 62
7
  6
CONTINUOUS
 10
335.259741933
 20
171.6889358131
 11
333.3855087263
 21
163.2057251844
  0
LINE
  5
2C7
100
AcDbEntity
  8
KONSTRUKTIONSELEMENTE
100
AcDbLine
 62
7
  6
CONTINUOUS
 10
336.9607448922
 20
174.0945056129
 11
336.4292717275
 21
171.6889358131
  0
LINE
  5
2C8
100
AcDbEntity
  8
KONSTRUKTIONSELEMENTE
100
AcDbLine
 62
7
  6
CONTINUOUS
 10
338.921434815
 20
174.0945056129
 11
337.6133762187
 21
168.1739315096
  0
LINE
  5
2C9
100
AcDbEntity
  8
KONSTRUKTIONSELEMENTE
100
AcDbLine
 62
7
  6
CONTINUOUS
 10
339.1634601099
 20
173.995067296
 11
337.6133762187
 21
166.9790310344
  0
LWPOLYLINE
  5
2CA
100
AcDbEntity
  8
KONSTRUKTIONSELEMENTE
100
AcDbPolyline
 62
7
  6
CONTINUOUS
 90
6
 70
0
 10
339.0413345209
 20
178.6183846484
 10
339.1856760718
 20
179.2397286362
 10
339.310771233
 20
179.8252816872
 10
339.4201807237
 20
180.3826880035
 10
339.517083498
 20
180.9235864265
 10
339.5995601825
 20
181.4339766068
  0
LWPOLYLINE
  5
2CB
100
AcDbEntity
  8
KONSTRUKTIONSELEMENTE
100
AcDbPolyline
 62
7
  6
CONTINUOUS
 90
3
 70
0
 10
337.9127730942
 20
174.0945056129
 10
338.4986277319
 20
176.4646468693
 10
339.0413345209
 20
178.6183846484
  0
LINE
  5
2CC
100
AcDbEntity
  8
KONSTRUKTIONSELEMENTE
100
AcDbLine
 62
7
  6
CONTINUOUS
 10
335.259741933
 20
171.6889358131
 11
337.2879124589
 21
171.6889358131
  0
LINE
  5
2CD
100
AcDbEntity
  8
KONSTRUKTIONSELEMENTE
100
AcDbLine
 62
7
  6
CONTINUOUS
 10
336.9607448922
 20
174.0945056129
 11
338.921434815
 21
174.0945056129
  0
LINE
  5
2CE
100
AcDbEntity
  8
KONSTRUKTIONSELEMENTE
100
AcDbLine
 62
7
  6
CONTINUOUS
 10
351.3656524406
 20
167.8298916506
 11
351.1111007078
 21
167.9293299674
  0
LWPOLYLINE
  5
2CF
100
AcDbEntity
  8
0
100
AcDbPolyline
 62
7
  6
CONTINUOUS
 90
9
 70
0
 10
333.5302476285
 20
278.0431643911
 10
333.7161461452
 20
275.0405266629
 10
333.9028840335
 20
271.8211119593
 10
334.0727400272
 20
268.6635810559
 10
334.2252452649
 20
265.5772737697
 10
334.3599785334
 20
262.5713761306
 10
334.4765925029
 20
259.6543803837
 10
334.5747720437
 20
256.8348674073
 10
334.6489136648
 20
254.3225471562
  0
LWPOLYLINE
  5
2D0
100
AcDbEntity
  8
KONSTRUKTIONSELEMENTE
100
AcDbPolyline
 62
7
  6
CONTINUOUS
 90
5
 70
0
 10
340.4452625055
 20
198.5554336025
 10
340.4229683566
 20
199.0584322895
 10
340.3516442005
 20
199.5844115687
 10
340.2314550252
 20
200.1045896201
 10
340.1783069802
 20
200.2833673298
  0
LINE
  5
2D1
100
AcDbEntity
  8
KONSTRUKTIONSELEMENTE
100
AcDbLine
 62
7
  6
CONTINUOUS
 10
343.2952625552
 20
139.3045892941
 11
343.2952625552
 21
79.2937561801
  0
LINE
  5
2D2
100
AcDbEntity
  8
KONSTRUKTIONSELEMENTE
100
AcDbLine
 62
7
  6
CONTINUOUS
 10
343.2952625552
 20
68.3664180987
 11
343.2952625552
 21
79.1391001518
  0
LINE
  5
2D3
100
AcDbEntity
  8
KONSTRUKTIONSELEMENTE
100
AcDbLine
 62
7
  6
CONTINUOUS
 10
348.5952625552
 20
255.6265036929
 11
348.5952625552
 21
266.8222837805
  0
LINE
  5
2D4
100
AcDbEntity
  8
0
100
AcDbLine
 62
7
  6
CONTINUOUS
 10
349.6470293514
 20
160.3143154013
 11
349.6470293514
 21
156.5892736037
  0
LWPOLYLINE
  5
2D5
100
AcDbEntity
  8
0
100
AcDbPolyline
 62
7
  6
CONTINUOUS
 90
8
 70
0
 10
348.5660286141
 20
249.2634414837
 10
348.5721913576
 20
249.8570337215
 10
348.5723072492
 20
250.6596845218
 10
348.5652700033
 20
251.5322142838
 10
348.5519166909
 20
252.4578230332
 10
348.5330476048
 20
253.4213333073
 10
348.5094265581
 20
254.4082615818
 10
348.4817479485
 20
255.4066357373
  0
LINE
  5
2D6
100
AcDbEntity
  8
0
100
AcDbLine
 62
7
  6
CONTINUOUS
 10
348.3256321352
 20
234.6628601055
 11
348.5645562573
 21
249.2648381405
  0
LINE
  5
2D7
100
AcDbEntity
  8
0
100
AcDbLine
 62
7
  6
CONTINUOUS
 10
348.3227647895
 20
234.5201405644
 11
348.3265153648
 21
234.6618571575
  0
LWPOLYLINE
  5
2D8
100
AcDbEntity
  8
KONSTRUKTIONSELEMENTE
100
AcDbPolyline
 62
7
  6
CONTINUOUS
 90
7
 70
0
 10
352.6390319425
 20
183.5848917508
 10
352.6658145253
 20
183.9603699439
 10
352.7093149798
 20
184.6616159353
 10
352.7450593026
 20
185.3839051114
 10
352.7720083901
 20
186.1271486898
 10
352.7890946096
 20
186.8911691379
 10
352.7943312441
 20
187.3847097817
  0
LINE
  5
2D9
100
AcDbEntity
  8
KONSTRUKTIONSELEMENTE
100
AcDbLine
 62
7
  6
CONTINUOUS
 10
352.5670205963
 20
182.7037711583
 11
352.6390384536
 21
183.5848834258
  0
LWPOLYLINE
  5
2DA
100
AcDbEntity
  8
KONSTRUKTIONSELEMENTE
100
AcDbPolyline
 62
7
  6
CONTINUOUS
 90
6
 70
0
 10
351.6553262264
 20
176.3511882201
 10
351.872607557
 20
177.4956560297
 10
352.1042368301
 20
178.8834719815
 10
352.2941486588
 20
180.2158224487
 10
352.4471821406
 20
181.4907224298
 10
352.5670205963
 20
182.7037711583
  0
LINE
  5
2DB
100
AcDbEntity
  8
0
100
AcDbLine
 62
7
  6
CONTINUOUS
 10
351.6553262264
 20
176.3511882201
 11
351.6553622801
 21
176.3513682575
  0
LINE
  5
2DC
100
AcDbEntity
  8
KONSTRUKTIONSELEMENTE
100
AcDbLine
 62
7
  6
CONTINUOUS
 10
351.056283745
 20
173.4107655099
 11
351.6553600788
 21
176.3513692676
  0
LINE
  5
2DD
100
AcDbEntity
  8
KONSTRUKTIONSELEMENTE
100
AcDbLine
 62
7
  6
CONTINUOUS
 10
349.9151916328
 20
167.9293299674
 11
351.056283745
 21
173.4107655099
  0
LINE
  5
2DE
100
AcDbEntity
  8
0
100
AcDbLine
 62
7
  6
CONTINUOUS
 10
345.6393668559
 20
147.5085164336
 11
343.2952625552
 21
137.0773452088
  0
LINE
  5
2DF
100
AcDbEntity
  8
0
100
AcDbLine
 62
7
  6
CONTINUOUS
 10
349.6470293514
 20
156.5892736037
 11
351.1409102974
 21
163.2369846405
  0
LINE
  5
2E0
100
AcDbEntity
  8
KONSTRUKTIONSELEMENTE
100
AcDbLine
 62
7
  6
CONTINUOUS
 10
345.61690369
 20
152.7501610392
 11
349.144075965
 21
167.9293299674
  0
LINE
  5
2E1
100
AcDbEntity
  8
KONSTRUKTIONSELEMENTE
100
AcDbLine
 62
7
  6
CONTINUOUS
 10
351.1111007078
 20
167.9293299674
 11
347.5839284328
 21
152.7501610392
  0
LINE
  5
2E2
100
AcDbEntity
  8
KONSTRUKTIONSELEMENTE
100
AcDbLine
 62
7
  6
CONTINUOUS
 10
347.8384801656
 20
152.6507227223
 11
351.3656524406
 21
167.8298916506
  0
LINE
  5
2E3
100
AcDbEntity
  8
0
100
AcDbLine
 62
7
  6
CONTINUOUS
 10
351.1409102974
 20
163.2369846405
 11
349.6470293514
 21
160.3143154013
  0
LINE
  5
2E4
100
AcDbEntity
  8
KONSTRUKTIONSELEMENTE
100
AcDbLine
 62
7
  6
CONTINUOUS
 10
339.1634601099
 20
173.995067296
 11
338.921434815
 21
174.0945056129
  0
LWPOLYLINE
  5
2E5
100
AcDbEntity
  8
0
100
AcDbPolyline
 62
7
  6
CONTINUOUS
 90
3
 70
0
 10
347.9445445707
 20
266.9966460605
 10
347.9311833646
 20
267.2094521745
 10
346.8072485752
 20
283.4635848896
  0
LINE
  5
2E6
100
AcDbEntity
  8
0
100
AcDbLine
 62
7
  6
CONTINUOUS
 10
348.4817479485
 20
255.4066357373
 11
348.4759123685
 21
255.5941544932
  0
LWPOLYLINE
  5
2E7
100
AcDbEntity
  8
KONSTRUKTIONSELEMENTE
100
AcDbPolyline
 62
7
  6
CONTINUOUS
 90
7
 70
0
 10
352.7952676985
 20
265.3066908425
 10
352.7883808435
 20
265.6708823282
 10
352.7327217645
 20
266.4084329562
 10
352.6208984644
 20
267.1477623998
 10
352.4530533267
 20
267.8828567961
 10
352.2293724575
 20
268.6083719926
 10
352.0737041631
 20
269.0238552558
  0
LINE
  5
2E8
100
AcDbEntity
  8
KONSTRUKTIONSELEMENTE
100
AcDbLine
 62
7
  6
CONTINUOUS
 10
352.7948776476
 20
187.4963316158
 11
352.7952625552
 21
265.3061427648
  0
LINE
  5
2E9
100
AcDbEntity
  8
KONSTRUKTIONSELEMENTE
100
AcDbLine
 62
7
  6
CONTINUOUS
 10
352.7943319368
 20
187.3847386088
 11
352.7948776476
 21
187.4963316158
  0
LINE
  5
2EA
100
AcDbEntity
  8
KONSTRUKTIONSELEMENTE
100
AcDbLine
 62
7
  6
CONTINUOUS
 10
337.4475045424
 20
57.8549732275
 11
334.4006880146
 21
43.0017426544
  0
LINE
  5
2EB
100
AcDbEntity
  8
KONSTRUKTIONSELEMENTE
100
AcDbLine
 62
7
  6
CONTINUOUS
 10
330.9163286789
 20
26.0154908931
 11
329.4718942715
 21
18.9738731571
  0
LWPOLYLINE
  5
2EC
100
AcDbEntity
  8
KONSTRUKTIONSELEMENTE
100
AcDbPolyline
 62
7
  6
CONTINUOUS
 90
15
 70
0
 10
337.4475050129
 20
57.8549757257
 10
337.4491448839
 20
57.862063104
 10
337.4524298135
 20
57.8752007972
 10
337.4580756278
 20
57.8959508402
 10
337.4666927648
 20
57.9248656837
 10
337.4794269925
 20
57.9635979779
 10
337.497434589
 20
58.0128570229
 10
337.5229781801
 20
58.075120102
 10
337.5585599667
 20
58.1515670438
 10
337.608247577
 20
58.2444797984
 10
337.6778780567
 20
58.3559942376
 10
337.7710698723
 20
58.481696395
 10
337.8941668277
 20
58.6189796916
 10
338.0464029763
 20
58.7564864431
 10
338.1888860433
 20
58.8608409238
  0
LWPOLYLINE
  5
2ED
100
AcDbEntity
  8
KONSTRUKTIONSELEMENTE
100
AcDbPolyline
 62
7
  6
CONTINUOUS
 90
20
 70
0
 10
339.9174388759
 20
200.9610015344
 10
339.4303534702
 20
201.9934236801
 10
338.8299274858
 20
203.1985374633
 10
338.229522001
 20
204.3352650891
 10
337.6342153392
 20
205.3991054693
 10
337.0480122555
 20
206.3875282885
 10
336.4739964912
 20
207.2994970338
 10
335.9145532235
 20
208.1349641586
 10
335.3715006332
 20
208.8945970099
 10
334.8461397719
 20
209.5796571913
 10
334.33843328
 20
210.192903869
 10
333.8481143517
 20
210.7369510661
 10
333.372976082
 20
211.2159636777
 10
332.9107290761
 20
211.6332308544
 10
332.4563245869
 20
211.9932248638
 10
332.0043817676
 20
212.2986223302
 10
331.5478353722
 20
212.5507476435
 10
331.0778803863
 20
212.74833564
 10
330.5925123365
 20
212.8839568573
 10
330.4373777406
 20
212.9122258664
  0
LINE
  5
2EE
100
AcDbEntity
  8
KONSTRUKTIONSELEMENTE
100
AcDbLine
 62
7
  6
CONTINUOUS
 10
339.9175196122
 20
200.960825855
 11
339.9174388856
 21
200.9610015378
  0
LINE
  5
2EF
100
AcDbEntity
  8
KONSTRUKTIONSELEMENTE
100
AcDbLine
 62
7
  6
CONTINUOUS
 10
340.1783069802
 20
200.2833673298
 11
340.1782147983
 21
200.2836599854
  0
LINE
  5
2F0
100
AcDbEntity
  8
BEZUGSACHSEN
100
AcDbLine
 62
7
  6
CONTINUOUS
 10
378.5952625552
 20
14.0161183132
 11
378.5952625552
 21
302.0161183132
  0
LWPOLYLINE
  5
2F1
100
AcDbEntity
  8
0
100
AcDbPolyline
 62
7
  6
CONTINUOUS
 90
20
 70
0
 10
306.753156716
 20
212.9122273436
 10
306.5965481613
 20
212.8836547109
 10
306.1103048049
 20
212.7475114443
 10
305.639469779
 20
212.5491742547
 10
305.1821217025
 20
212.2961454025
 10
304.7294316236
 20
211.9897167382
 10
304.2743486399
 20
211.6286066301
 10
303.8115489475
 20
211.2102240423
 10
303.3360849305
 20
210.7302465187
 10
302.845636601
 20
210.1854189536
 10
302.3380078345
 20
209.5716435955
 10
301.8129163712
 20
208.8863400429
 10
301.2703100145
 20
208.1267752907
 10
300.7114696303
 20
207.2917008177
 10
300.1381868302
 20
206.380445774
 10
299.5528148341
 20
205.3930381188
 10
298.9583995348
 20
204.3304764643
 10
298.3589042205
 20
203.195237275
 10
297.7593472069
 20
201.991719206
 10
297.2730862682
 20
200.9610016077
  0
LINE
  5
2F2
100
AcDbEntity
  8
0
100
AcDbLine
 62
7
  6
CONTINUOUS
 10
306.7513775105
 20
212.9119455888
 11
318.5952625552
 21
214.7878326929
  0
LINE
  5
2F3
100
AcDbEntity
  8
KONSTRUKTIONSELEMENTE
100
AcDbLine
 62
7
  6
CONTINUOUS
 10
318.5952625552
 20
214.7878326929
 11
330.4391476
 21
212.9119455888
  0
LINE
  5
2F4
100
AcDbEntity
  8
KONSTRUKTIONSELEMENTE
100
AcDbLine
 62
7
  6
CONTINUOUS
 10
348.4384070231
 20
280.1766202276
 11
347.0780307357
 21
286.0216761723
  0
LINE
  5
2F5
100
AcDbEntity
  8
KONSTRUKTIONSELEMENTE
100
AcDbLine
 62
7
  6
CONTINUOUS
 10
313.9452625552
 20
223.7054859181
 11
323.2952625552
 21
223.7054859181
  0
LINE
  5
2F6
100
AcDbEntity
  8
KONSTRUKTIONSELEMENTE
100
AcDbLine
 62
7
  6
CONTINUOUS
 10
313.9452625552
 20
224.0828407082
 11
323.2952625552
 21
224.0828407082
  0
LINE
  5
2F7
100
AcDbEntity
  8
KONSTRUKTIONSELEMENTE
100
AcDbLine
 62
7
  6
CONTINUOUS
 10
322.0152625552
 20
225.8952037758
 11
319.4752625552
 21
225.8952037758
  0
LINE
  5
2F8
100
AcDbEntity
  8
KONSTRUKTIONSELEMENTE
100
AcDbLine
 62
7
  6
CONTINUOUS
 10
317.7652625552
 20
225.8952037758
 11
315.2252625552
 21
225.8952037758
  0
LINE
  5
2F9
100
AcDbEntity
  8
KONSTRUKTIONSELEMENTE
100
AcDbLine
 62
7
  6
CONTINUOUS
 10
315.6052625552
 20
225.9377267642
 11
317.3852625552
 21
225.9377267642
  0
LINE
  5
2FA
100
AcDbEntity
  8
KONSTRUKTIONSELEMENTE
100
AcDbLine
 62
7
  6
CONTINUOUS
 10
319.8552625552
 20
225.9377267642
 11
321.6352625552
 21
225.9377267642
  0
LINE
  5
2FB
100
AcDbEntity
  8
KONSTRUKTIONSELEMENTE
100
AcDbLine
 62
7
  6
CONTINUOUS
 10
315.6052625552
 20
226.3150815543
 11
317.3852625552
 21
226.3150815543
  0
LINE
  5
2FC
100
AcDbEntity
  8
KONSTRUKTIONSELEMENTE
100
AcDbLine
 62
7
  6
CONTINUOUS
 10
319.8552625552
 20
226.3150815543
 11
321.6352625552
 21
226.3150815543
  0
LINE
  5
2FD
100
AcDbEntity
  8
KONSTRUKTIONSELEMENTE
100
AcDbLine
 62
7
  6
CONTINUOUS
 10
319.9452625552
 20
226.6636129135
 11
319.6852625552
 21
226.6636129135
  0
LINE
  5
2FE
100
AcDbEntity
  8
KONSTRUKTIONSELEMENTE
100
AcDbLine
 62
7
  6
CONTINUOUS
 10
319.0452625552
 20
226.6636129135
 11
318.1952625552
 21
226.6636129135
  0
LINE
  5
2FF
100
AcDbEntity
  8
KONSTRUKTIONSELEMENTE
100
AcDbLine
 62
7
  6
CONTINUOUS
 10
317.5552625552
 20
226.6636129135
 11
317.2952625552
 21
226.6636129135
  0
LINE
  5
300
100
AcDbEntity
  8
KONSTRUKTIONSELEMENTE
100
AcDbLine
 62
7
  6
CONTINUOUS
 10
317.2952625552
 20
226.7044957543
 11
317.5552625552
 21
226.7044957543
  0
LINE
  5
301
100
AcDbEntity
  8
KONSTRUKTIONSELEMENTE
100
AcDbLine
 62
7
  6
CONTINUOUS
 10
318.1952625552
 20
226.7044957543
 11
319.0452625552
 21
226.7044957543
  0
LINE
  5
302
100
AcDbEntity
  8
KONSTRUKTIONSELEMENTE
100
AcDbLine
 62
7
  6
CONTINUOUS
 10
319.6852625552
 20
226.7044957543
 11
319.9452625552
 21
226.7044957543
  0
LINE
  5
303
100
AcDbEntity
  8
KONSTRUKTIONSELEMENTE
100
AcDbLine
 62
7
  6
CONTINUOUS
 10
317.2952625552
 20
227.0818505445
 11
317.5552625552
 21
227.0818505445
  0
LINE
  5
304
100
AcDbEntity
  8
KONSTRUKTIONSELEMENTE
100
AcDbLine
 62
7
  6
CONTINUOUS
 10
318.1952625552
 20
227.0818505445
 11
319.0452625552
 21
227.0818505445
  0
LINE
  5
305
100
AcDbEntity
  8
KONSTRUKTIONSELEMENTE
100
AcDbLine
 62
7
  6
CONTINUOUS
 10
319.6852625552
 20
227.0818505445
 11
319.9452625552
 21
227.0818505445
  0
LINE
  5
306
100
AcDbEntity
  8
KONSTRUKTIONSELEMENTE
100
AcDbLine
 62
7
  6
CONTINUOUS
 10
321.6352625552
 20
227.4303819036
 11
319.8552625552
 21
227.4303819036
  0
LINE
  5
307
100
AcDbEntity
  8
KONSTRUKTIONSELEMENTE
100
AcDbLine
 62
7
  6
CONTINUOUS
 10
317.3852625552
 20
227.4303819036
 11
315.6052625552
 21
227.4303819036
  0
LINE
  5
308
100
AcDbEntity
  8
KONSTRUKTIONSELEMENTE
100
AcDbLine
 62
7
  6
CONTINUOUS
 10
315.2252625552
 20
227.472904892
 11
317.7652625552
 21
227.472904892
  0
LINE
  5
309
100
AcDbEntity
  8
KONSTRUKTIONSELEMENTE
100
AcDbLine
 62
7
  6
CONTINUOUS
 10
319.4752625552
 20
227.472904892
 11
322.0152625552
 21
227.472904892
  0
LINE
  5
30A
100
AcDbEntity
  8
KONSTRUKTIONSELEMENTE
100
AcDbLine
 62
7
  6
CONTINUOUS
 10
315.2252625552
 20
227.8502596822
 11
317.7652625552
 21
227.8502596822
  0
LINE
  5
30B
100
AcDbEntity
  8
KONSTRUKTIONSELEMENTE
100
AcDbLine
 62
7
  6
CONTINUOUS
 10
319.4752625552
 20
227.8502596822
 11
322.0152625552
 21
227.8502596822
  0
LINE
  5
30C
100
AcDbEntity
  8
KONSTRUKTIONSELEMENTE
100
AcDbLine
 62
7
  6
CONTINUOUS
 10
323.2952625552
 20
229.6593424546
 11
313.9452625552
 21
229.6593424546
  0
LINE
  5
30D
100
AcDbEntity
  8
KONSTRUKTIONSELEMENTE
100
AcDbLine
 62
7
  6
CONTINUOUS
 10
313.0952625552
 20
231.0482927768
 11
314.6372235768
 21
231.0482927768
  0
LINE
  5
30E
100
AcDbEntity
  8
KONSTRUKTIONSELEMENTE
100
AcDbLine
 62
7
  6
CONTINUOUS
 10
315.8272235768
 20
231.0482927768
 11
324.4072235768
 21
231.0482927768
  0
LINE
  5
30F
100
AcDbEntity
  8
KONSTRUKTIONSELEMENTE
100
AcDbLine
 62
7
  6
CONTINUOUS
 10
313.0952625552
 20
231.4256475669
 11
314.6372235768
 21
231.4256475669
  0
LINE
  5
310
100
AcDbEntity
  8
KONSTRUKTIONSELEMENTE
100
AcDbLine
 62
7
  6
CONTINUOUS
 10
315.8272235768
 20
231.4256475669
 11
324.4072235768
 21
231.4256475669
  0
LWPOLYLINE
  5
311
100
AcDbEntity
  8
KONSTRUKTIONSELEMENTE
100
AcDbPolyline
 62
7
  6
CONTINUOUS
 90
9
 70
0
 10
352.0737001649
 20
269.0238499088
 10
351.5263602289
 20
270.4199508776
 10
350.9135935001
 20
272.0574727189
 10
350.3560697627
 20
273.6318030736
 10
349.8538821218
 20
275.1380054002
 10
349.4067330696
 20
276.5716729241
 10
349.0139793253
 20
277.9287709884
 10
348.6746325713
 20
279.2055247947
 10
348.4384077764
 20
280.1766204028
  0
LINE
  5
312
100
AcDbEntity
  8
KONSTRUKTIONSELEMENTE
100
AcDbLine
 62
7
  6
CONTINUOUS
 10
324.4072235768
 20
232.3178878463
 11
318.5952625552
 21
232.3178878463
  0
LINE
  5
313
100
AcDbEntity
  8
KONSTRUKTIONSELEMENTE
100
AcDbLine
 62
7
  6
CONTINUOUS
 10
317.2352625552
 20
232.3178878463
 11
315.8272235768
 21
232.3178878463
  0
LINE
  5
314
100
AcDbEntity
  8
KONSTRUKTIONSELEMENTE
100
AcDbLine
 62
7
  6
CONTINUOUS
 10
313.0952625552
 20
237.7400948725
 11
320.0656792693
 21
237.7400948725
  0
LINE
  5
315
100
AcDbEntity
  8
KONSTRUKTIONSELEMENTE
100
AcDbLine
 62
7
  6
CONTINUOUS
 10
313.0952625552
 20
238.1174496626
 11
320.0656792693
 21
238.1174496626
  0
LINE
  5
316
100
AcDbEntity
  8
KONSTRUKTIONSELEMENTE
100
AcDbLine
 62
7
  6
CONTINUOUS
 10
320.0656792693
 20
239.0096899421
 11
313.0952625552
 21
239.0096899421
  0
LINE
  5
317
100
AcDbEntity
  8
KONSTRUKTIONSELEMENTE
100
AcDbLine
 62
7
  6
CONTINUOUS
 10
313.0952625552
 20
242.1822361705
 11
320.0656792693
 21
242.1822361705
  0
LINE
  5
318
100
AcDbEntity
  8
KONSTRUKTIONSELEMENTE
100
AcDbLine
 62
7
  6
CONTINUOUS
 10
338.1888856003
 20
58.8608404363
 11
338.188928276
 21
58.8608686167
  0
LINE
  5
319
100
AcDbEntity
  8
KONSTRUKTIONSELEMENTE
100
AcDbLine
 62
7
  6
CONTINUOUS
 10
348.0164720451
 20
255.4710478296
 11
348.5952625552
 21
255.6261342794
  0
LINE
  5
31A
100
AcDbEntity
  8
KONSTRUKTIONSELEMENTE
100
AcDbLine
 62
7
  6
CONTINUOUS
 10
313.0952625552
 20
242.5595909606
 11
320.0656792693
 21
242.5595909606
  0
LINE
  5
31B
100
AcDbEntity
  8
KONSTRUKTIONSELEMENTE
100
AcDbLine
 62
7
  6
CONTINUOUS
 10
320.0656792693
 20
243.4518312401
 11
313.0952625552
 21
243.4518312401
  0
LINE
  5
31C
100
AcDbEntity
  8
KONSTRUKTIONSELEMENTE
100
AcDbLine
 62
7
  6
CONTINUOUS
 10
313.0952625552
 20
245.0295323563
 11
314.4552625552
 21
245.0295323563
  0
LINE
  5
31D
100
AcDbEntity
  8
KONSTRUKTIONSELEMENTE
100
AcDbLine
 62
7
  6
CONTINUOUS
 10
315.6452625552
 20
245.0295323563
 11
324.1452625552
 21
245.0295323563
  0
LINE
  5
31E
100
AcDbEntity
  8
KONSTRUKTIONSELEMENTE
100
AcDbLine
 62
7
  6
CONTINUOUS
 10
313.0952625552
 20
245.4068871465
 11
314.4552625552
 21
245.4068871465
  0
LINE
  5
31F
100
AcDbEntity
  8
KONSTRUKTIONSELEMENTE
100
AcDbLine
 62
7
  6
CONTINUOUS
 10
315.6452625552
 20
245.4068871465
 11
324.1452625552
 21
245.4068871465
  0
LINE
  5
320
100
AcDbEntity
  8
KONSTRUKTIONSELEMENTE
100
AcDbLine
 62
7
  6
CONTINUOUS
 10
322.7352625552
 20
246.2991274259
 11
315.6452625552
 21
246.2991274259
  0
LINE
  5
321
100
AcDbEntity
  8
KONSTRUKTIONSELEMENTE
100
AcDbLine
 62
7
  6
CONTINUOUS
 10
288.5952625552
 20
255.6261342794
 11
289.1740530653
 21
255.4710478296
  0
LINE
  5
322
100
AcDbEntity
  8
0
100
AcDbLine
 62
7
  6
CONTINUOUS
 10
304.6829354812
 20
252.8535872252
 11
332.5075896293
 21
252.8535872252
  0
LINE
  5
323
100
AcDbEntity
  8
KONSTRUKTIONSELEMENTE
100
AcDbLine
 62
7
  6
CONTINUOUS
 10
302.5682206254
 20
255.2242104907
 11
305.2952625552
 21
255.2242104907
  0
LINE
  5
324
100
AcDbEntity
  8
KONSTRUKTIONSELEMENTE
100
AcDbLine
 62
7
  6
CONTINUOUS
 10
331.8952625552
 20
255.2242104907
 11
334.622304485
 21
255.2242104907
  0
LWPOLYLINE
  5
325
100
AcDbEntity
  8
KONSTRUKTIONSELEMENTE
100
AcDbPolyline
 62
7
  6
CONTINUOUS
 90
15
 70
0
 10
304.6829354686
 20
252.8536232579
 10
304.6146799602
 20
252.8544268517
 10
304.3405273337
 20
252.8738418328
 10
304.0687539747
 20
252.9193052132
 10
303.8053059005
 20
252.9900864049
 10
303.5563038185
 20
253.0844831221
 10
303.3273080154
 20
253.199781137
 10
303.1232218857
 20
253.3324343256
 10
302.9480147822
 20
253.4780700426
 10
302.8043891698
 20
253.6317681222
 10
302.6931004412
 20
253.7890726453
 10
302.6139402273
 20
253.9452615801
 10
302.5641516198
 20
254.1004821433
 10
302.5423719119
 20
254.2572859902
 10
302.5417059439
 20
254.3237427528
  0
LINE
  5
326
100
AcDbEntity
  8
KONSTRUKTIONSELEMENTE
100
AcDbLine
 62
7
  6
CONTINUOUS
 10
288.5952625552
 20
266.8222867021
 11
289.6167593203
 21
267.0959959354
  0
LINE
  5
327
100
AcDbEntity
  8
KONSTRUKTIONSELEMENTE
100
AcDbLine
 62
7
  6
CONTINUOUS
 10
303.0466607492
 20
267.2242104907
 11
305.2952625552
 21
267.2242104907
  0
LINE
  5
328
100
AcDbEntity
  8
KONSTRUKTIONSELEMENTE
100
AcDbLine
 62
7
  6
CONTINUOUS
 10
331.8952625552
 20
267.2242104907
 11
334.1438643612
 21
267.2242104907
  0
LINE
  5
329
100
AcDbEntity
  8
KONSTRUKTIONSELEMENTE
100
AcDbLine
 62
7
  6
CONTINUOUS
 10
347.5737657902
 20
267.0959959354
 11
348.5952625552
 21
266.8222867021
  0
LINE
  5
32A
100
AcDbEntity
  8
KONSTRUKTIONSELEMENTE
100
AcDbLine
 62
7
  6
CONTINUOUS
 10
305.4037584263
 20
279.8252711862
 11
305.4790741523
 21
279.8316959648
  0
LINE
  5
32B
100
AcDbEntity
  8
KONSTRUKTIONSELEMENTE
100
AcDbLine
 62
7
  6
CONTINUOUS
 10
305.475957646
 20
279.831489055
 11
305.4702651623
 21
279.8310834751
  0
LINE
  5
32C
100
AcDbEntity
  8
KONSTRUKTIONSELEMENTE
100
AcDbLine
 62
7
  6
CONTINUOUS
 10
305.4713471762
 20
279.8311678326
 11
305.6118525955
 21
279.8361605295
  0
LINE
  5
32D
100
AcDbEntity
  8
0
100
AcDbLine
 62
7
  6
CONTINUOUS
 10
305.6132857965
 20
279.8361435981
 11
331.5772393139
 21
279.8361435981
  0
LINE
  5
32E
100
AcDbEntity
  8
0
100
AcDbLine
 62
7
  6
CONTINUOUS
 10
331.578673368
 20
279.8361605301
 11
331.7192045718
 21
279.8311659379
  0
LINE
  5
32F
100
AcDbEntity
  8
0
100
AcDbLine
 62
7
  6
CONTINUOUS
 10
331.7154891315
 20
279.8314240072
 11
331.7202871516
 21
279.8310815147
  0
LINE
  5
330
100
AcDbEntity
  8
0
100
AcDbLine
 62
7
  6
CONTINUOUS
 10
331.712576831
 20
279.8316197837
 11
331.7946358894
 21
279.8244414239
  0
LWPOLYLINE
  5
331
100
AcDbEntity
  8
0
100
AcDbPolyline
 62
7
  6
CONTINUOUS
 90
14
 70
0
 10
331.7946358894
 20
279.8244414239
 10
331.9740276583
 20
279.7969324754
 10
332.1575364758
 20
279.7510768561
 10
332.3422903068
 20
279.6847582852
 10
332.5250438234
 20
279.5971423564
 10
332.7035463056
 20
279.4870860269
 10
332.873780344
 20
279.3547272108
 10
333.0327811237
 20
279.1997430768
 10
333.1765760364
 20
279.0229286435
 10
333.3017779727
 20
278.8246064253
 10
333.4043329333
 20
278.6060020398
 10
333.4800085781
 20
278.3686787338
 10
333.5242290671
 20
278.1144900885
 10
333.5301691838
 20
278.0430717621
  0
LINE
  5
332
100
AcDbEntity
  8
0
100
AcDbLine
 62
7
  6
CONTINUOUS
 10
347.0792834508
 20
286.0161183132
 11
345.8814615887
 21
286.0161183132
  0
LINE
  5
333
100
AcDbEntity
  8
0
100
AcDbLine
 62
7
  6
CONTINUOUS
 10
290.1112416597
 20
286.0161183132
 11
291.305284931
 21
286.0161183132
  0
LINE
  5
334
100
AcDbEntity
  8
KONSTRUKTIONSELEMENTE
100
AcDbLine
 62
7
  6
CONTINUOUS
 10
341.8192602791
 20
288.1172140516
 11
295.3712648314
 21
288.1172140516
  0
LINE
  5
335
100
AcDbEntity
  8
BEZUGSACHSEN
100
AcDbLine
 62
7
  6
CONTINUOUS
 10
378.5952625552
 20
302.0161183132
 11
258.5952625552
 21
302.0161183132
  0
LINE
  5
336
100
AcDbEntity
  8
BEZUGSACHSEN
100
AcDbLine
 62
7
  6
CONTINUOUS
 10
211.2358249966
 20
14.0161183132
 11
191.2358249966
 21
14.0161183132
  0
LINE
  5
337
100
AcDbEntity
  8
KONSTRUKTIONSELEMENTE
100
AcDbLine
 62
7
  6
CONTINUOUS
 10
156.6909403814
 20
34.2578495513
 11
154.4076436642
 21
33.6366716274
  0
LINE
  5
338
100
AcDbEntity
  8
KONSTRUKTIONSELEMENTE
100
AcDbLine
 62
7
  6
CONTINUOUS
 10
156.3558188148
 20
35.489673709
 11
154.0725220976
 21
34.8684957851
  0
LINE
  5
339
100
AcDbEntity
  8
KONSTRUKTIONSELEMENTE
100
AcDbLine
 62
7
  6
CONTINUOUS
 10
117.2150477679
 20
28.5021707042
 11
116.5118290102
 21
28.3355381883
  0
LINE
  5
33A
100
AcDbEntity
  8
KONSTRUKTIONSELEMENTE
100
AcDbLine
 62
7
  6
CONTINUOUS
 10
117.1864872842
 20
26.9612246961
 11
116.3156421236
 21
26.8162377127
  0
LINE
  5
33B
100
AcDbEntity
  8
KONSTRUKTIONSELEMENTE
100
AcDbLine
 62
7
  6
CONTINUOUS
 10
108.5146219314
 20
29.8642973321
 11
107.7998453706
 21
29.7576810915
  0
LINE
  5
33C
100
AcDbEntity
  8
KONSTRUKTIONSELEMENTE
100
AcDbLine
 62
7
  6
CONTINUOUS
 10
145.3118336525
 20
27.289743903
 11
139.2755406097
 21
26.5233825915
  0
LINE
  5
33D
100
AcDbEntity
  8
KONSTRUKTIONSELEMENTE
100
AcDbLine
 62
7
  6
CONTINUOUS
 10
145.1510490472
 20
28.556173954
 11
140.4561493413
 21
27.9601145065
  0
LINE
  5
33E
100
AcDbEntity
  8
KONSTRUKTIONSELEMENTE
100
AcDbLine
 62
7
  6
CONTINUOUS
 10
139.1239402735
 20
35.7694059857
 11
138.2855636813
 21
35.6629665898
  0
LINE
  5
33F
100
AcDbEntity
  8
KONSTRUKTIONSELEMENTE
100
AcDbLine
 62
7
  6
CONTINUOUS
 10
141.2784409515
 20
37.5871505833
 11
140.607744283
 21
37.5019996513
  0
LINE
  5
340
100
AcDbEntity
  8
KONSTRUKTIONSELEMENTE
100
AcDbLine
 62
7
  6
CONTINUOUS
 10
108.3559537402
 20
28.3312759017
 11
107.4759793414
 21
28.2603921999
  0
LINE
  5
341
100
AcDbEntity
  8
KONSTRUKTIONSELEMENTE
100
AcDbLine
 62
7
  6
CONTINUOUS
 10
150.56371507
 20
28.2911495743
 11
149.5188222592
 21
28.3341727891
  0
LINE
  5
342
100
AcDbEntity
  8
KONSTRUKTIONSELEMENTE
100
AcDbLine
 62
7
  6
CONTINUOUS
 10
127.7895292901
 20
26.0157501095
 11
126.7763386822
 21
26.0592612424
  0
LINE
  5
343
100
AcDbEntity
  8
KONSTRUKTIONSELEMENTE
100
AcDbLine
 62
7
  6
CONTINUOUS
 10
122.048118422
 20
26.2623130853
 11
121.0349278141
 21
26.3058242182
  0
LINE
  5
344
100
AcDbEntity
  8
KONSTRUKTIONSELEMENTE
100
AcDbLine
 62
7
  6
CONTINUOUS
 10
127.0173376622
 20
31.6711101379
 11
122.289117402
 21
31.8741619808
  0
LINE
  5
345
100
AcDbEntity
  8
KONSTRUKTIONSELEMENTE
100
AcDbLine
 62
7
  6
CONTINUOUS
 10
127.0830646484
 20
33.2016141873
 11
122.3548443882
 21
33.4046660302
  0
LINE
  5
346
100
AcDbEntity
  8
KONSTRUKTIONSELEMENTE
100
AcDbLine
 62
7
  6
CONTINUOUS
 10
150.3032371188
 20
29.5408887472
 11
149.4238143035
 21
29.6184001639
  0
LINE
  5
347
100
AcDbEntity
  8
KONSTRUKTIONSELEMENTE
100
AcDbLine
 62
7
  6
CONTINUOUS
 10
116.3156421236
 20
26.8162377127
 11
114.8069815028
 21
27.0110506776
  0
LINE
  5
348
100
AcDbEntity
  8
KONSTRUKTIONSELEMENTE
100
AcDbLine
 62
7
  6
CONTINUOUS
 10
116.5118290102
 20
28.3355381883
 11
115.0031683894
 21
28.5303511532
  0
LINE
  5
349
100
AcDbEntity
  8
KONSTRUKTIONSELEMENTE
100
AcDbLine
 62
7
  6
CONTINUOUS
 10
118.3106326482
 20
31.7074053395
 11
116.8019720275
 21
31.9022183043
  0
LINE
  5
34A
100
AcDbEntity
  8
KONSTRUKTIONSELEMENTE
100
AcDbLine
 62
7
  6
CONTINUOUS
 10
119.5125932591
 20
33.0968303278
 11
116.9981588912
 21
33.4215186026
  0
LINE
  5
34B
100
AcDbEntity
  8
KONSTRUKTIONSELEMENTE
100
AcDbLine
 62
7
  6
CONTINUOUS
 10
119.8068735547
 20
35.3757807752
 11
118.8010998075
 21
35.5056560851
  0
LINE
  5
34C
100
AcDbEntity
  8
KONSTRUKTIONSELEMENTE
100
AcDbLine
 62
7
  6
CONTINUOUS
 10
117.6562525421
 20
37.1981245029
 11
116.1475919214
 21
37.3929374677
  0
LINE
  5
34D
100
AcDbEntity
  8
KONSTRUKTIONSELEMENTE
100
AcDbLine
 62
7
  6
CONTINUOUS
 10
107.4759793414
 20
28.2603921999
 11
105.9891761548
 21
28.5819901541
  0
LINE
  5
34E
100
AcDbEntity
  8
KONSTRUKTIONSELEMENTE
100
AcDbLine
 62
7
  6
CONTINUOUS
 10
107.7998453706
 20
29.7576810915
 11
106.313042184
 21
30.0792790456
  0
LINE
  5
34F
100
AcDbEntity
  8
KONSTRUKTIONSELEMENTE
100
AcDbLine
 62
7
  6
CONTINUOUS
 10
110.4365113153
 20
30.7547075893
 11
109.4453091909
 21
30.9691062254
  0
LINE
  5
350
100
AcDbEntity
  8
KONSTRUKTIONSELEMENTE
100
AcDbLine
 62
7
  6
CONTINUOUS
 10
111.6779976912
 20
36.4943146866
 11
110.6867955668
 21
36.7087133226
  0
LINE
  5
351
100
AcDbEntity
  8
KONSTRUKTIONSELEMENTE
100
AcDbLine
 62
7
  6
CONTINUOUS
 10
109.6890639183
 20
38.4918664961
 11
108.2022607317
 21
38.8134644502
  0
LINE
  5
352
100
AcDbEntity
  8
KONSTRUKTIONSELEMENTE
100
AcDbLine
 62
7
  6
CONTINUOUS
 10
98.4562818081
 20
30.5480908011
 11
97.1639235747
 21
30.9457703276
  0
LINE
  5
353
100
AcDbEntity
  8
KONSTRUKTIONSELEMENTE
100
AcDbLine
 62
7
  6
CONTINUOUS
 10
67.4759597461
 20
46.0321854461
 11
66.6449806085
 21
46.3302788095
  0
LINE
  5
354
100
AcDbEntity
  8
KONSTRUKTIONSELEMENTE
100
AcDbLine
 62
7
  6
CONTINUOUS
 10
61.2017541708
 20
52.902194466
 11
60.5255044719
 21
53.1570750855
  0
LINE
  5
355
100
AcDbEntity
  8
KONSTRUKTIONSELEMENTE
100
AcDbLine
 62
7
  6
CONTINUOUS
 10
114.8069815028
 20
27.0110506776
 11
114.0015396426
 21
27.3724961805
  0
LINE
  5
356
100
AcDbEntity
  8
KONSTRUKTIONSELEMENTE
100
AcDbLine
 62
7
  6
CONTINUOUS
 10
60.3167768766
 20
51.6403919895
 11
59.513628414
 21
52.0069141954
  0
LINE
  5
357
100
AcDbEntity
  8
KONSTRUKTIONSELEMENTE
100
AcDbLine
 62
7
  6
CONTINUOUS
 10
83.8824531041
 20
36.0747113623
 11
82.9789000142
 21
36.535189636
  0
LINE
  5
358
100
AcDbEntity
  8
KONSTRUKTIONSELEMENTE
100
AcDbLine
 62
7
  6
CONTINUOUS
 10
78.7623177795
 20
38.6840888321
 11
77.8587646897
 21
39.1445671057
  0
LINE
  5
359
100
AcDbEntity
  8
KONSTRUKTIONSELEMENTE
100
AcDbLine
 62
7
  6
CONTINUOUS
 10
83.7677041057
 20
39.5719537342
 11
80.755861622
 21
41.1068807276
  0
LINE
  5
35A
100
AcDbEntity
  8
KONSTRUKTIONSELEMENTE
100
AcDbLine
 62
7
  6
CONTINUOUS
 10
84.0808399724
 20
40.5586242493
 11
81.370180703
 21
41.9400590703
  0
LINE
  5
35B
100
AcDbEntity
  8
KONSTRUKTIONSELEMENTE
100
AcDbLine
 62
7
  6
CONTINUOUS
 10
54.5201375265
 20
59.7978019528
 11
53.6737805324
 21
60.2606418186
  0
LINE
  5
35C
100
AcDbEntity
  8
KONSTRUKTIONSELEMENTE
100
AcDbLine
 62
7
  6
CONTINUOUS
 10
105.9891761548
 20
28.5819901541
 11
105.2171495336
 21
29.0102043707
  0
LINE
  5
35D
100
AcDbEntity
  8
KONSTRUKTIONSELEMENTE
100
AcDbLine
 62
7
  6
CONTINUOUS
 10
75.7975514914
 20
40.3155547313
 11
74.7925740324
 21
40.9399318488
  0
LINE
  5
35E
100
AcDbEntity
  8
KONSTRUKTIONSELEMENTE
100
AcDbLine
 62
7
  6
CONTINUOUS
 10
71.2033599024
 20
43.1698556668
 11
70.3419487741
 21
43.7050372197
  0
LINE
  5
35F
100
AcDbEntity
  8
KONSTRUKTIONSELEMENTE
100
AcDbLine
 62
7
  6
CONTINUOUS
 10
76.4735423505
 20
46.2078114761
 11
74.0328785823
 21
47.7241585291
  0
LINE
  5
360
100
AcDbEntity
  8
KONSTRUKTIONSELEMENTE
100
AcDbLine
 62
7
  6
CONTINUOUS
 10
77.5691153847
 20
47.3306454798
 11
74.841312383
 21
49.0253877447
  0
LINE
  5
361
100
AcDbEntity
  8
KONSTRUKTIONSELEMENTE
100
AcDbLine
 62
7
  6
CONTINUOUS
 10
52.9349868389
 20
58.2357178573
 11
51.9489103535
 21
58.8721223903
  0
LINE
  5
362
100
AcDbEntity
  8
KONSTRUKTIONSELEMENTE
100
AcDbLine
 62
7
  6
CONTINUOUS
 10
66.6449806085
 20
46.3302788095
 11
63.3860170377
 21
48.745714851
  0
LINE
  5
363
100
AcDbEntity
  8
KONSTRUKTIONSELEMENTE
100
AcDbLine
 62
7
  6
CONTINUOUS
 10
67.6929483978
 20
47.4603651734
 11
65.112934535
 21
49.3725861408
  0
LINE
  5
364
100
AcDbEntity
  8
KONSTRUKTIONSELEMENTE
100
AcDbLine
 62
7
  6
CONTINUOUS
 10
69.9733899624
 20
50.5371909957
 11
67.3933760996
 21
52.449411963
  0
LINE
  5
365
100
AcDbEntity
  8
KONSTRUKTIONSELEMENTE
100
AcDbLine
 62
7
  6
CONTINUOUS
 10
42.0222736477
 20
71.9164491107
 11
41.3398967348
 21
72.4765839144
  0
LINE
  5
366
100
AcDbEntity
  8
KONSTRUKTIONSELEMENTE
100
AcDbLine
 62
7
  6
CONTINUOUS
 10
59.513628414
 20
52.0069141954
 11
58.4984239005
 21
52.9000597978
  0
LINE
  5
367
100
AcDbEntity
  8
KONSTRUKTIONSELEMENTE
100
AcDbLine
 62
7
  6
CONTINUOUS
 10
60.5255044719
 20
53.1570750855
 11
59.5102999584
 21
54.0502206879
  0
LINE
  5
368
100
AcDbEntity
  8
KONSTRUKTIONSELEMENTE
100
AcDbLine
 62
7
  6
CONTINUOUS
 10
51.9489103535
 20
58.8721223903
 11
50.6914341579
 21
60.4342058199
  0
LINE
  5
369
100
AcDbEntity
  8
KONSTRUKTIONSELEMENTE
100
AcDbLine
 62
7
  6
CONTINUOUS
 10
116.1475919214
 20
37.3929374677
 11
115.4443808371
 21
37.226303961
  0
LINE
  5
36A
100
AcDbEntity
  8
KONSTRUKTIONSELEMENTE
100
AcDbLine
 62
7
  6
CONTINUOUS
 10
179.9334439327
 20
56.5531245806
 11
178.9837459731
 21
56.3775946599
  0
LINE
  5
36B
100
AcDbEntity
  8
KONSTRUKTIONSELEMENTE
100
AcDbLine
 62
7
  6
CONTINUOUS
 10
116.3437787851
 20
38.912237766
 11
115.4729413008
 21
38.767249814
  0
LINE
  5
36C
100
AcDbEntity
  8
KONSTRUKTIONSELEMENTE
100
AcDbLine
 62
7
  6
CONTINUOUS
 10
108.2022607317
 20
38.8134644502
 11
107.4874766086
 21
38.7068498453
  0
LINE
  5
36D
100
AcDbEntity
  8
KONSTRUKTIONSELEMENTE
100
AcDbLine
 62
7
  6
CONTINUOUS
 10
141.2853362924
 20
38.8748689207
 11
140.6146319484
 21
38.7897170142
  0
LINE
  5
36E
100
AcDbEntity
  8
KONSTRUKTIONSELEMENTE
100
AcDbLine
 62
7
  6
CONTINUOUS
 10
108.5261267231
 20
40.310753167
 11
107.6461447667
 21
40.2398711229
  0
LINE
  5
36F
100
AcDbEntity
  8
KONSTRUKTIONSELEMENTE
100
AcDbLine
 62
7
  6
CONTINUOUS
 10
149.1601076109
 20
39.9956727827
 11
148.115222379
 21
40.0386975543
  0
LINE
  5
370
100
AcDbEntity
  8
KONSTRUKTIONSELEMENTE
100
AcDbLine
 62
7
  6
CONTINUOUS
 10
128.3043907433
 20
38.0046999252
 11
127.2912001354
 21
38.0482110581
  0
LINE
  5
371
100
AcDbEntity
  8
KONSTRUKTIONSELEMENTE
100
AcDbLine
 62
7
  6
CONTINUOUS
 10
122.5629798752
 20
38.251262901
 11
121.5497892673
 21
38.2947740339
  0
LINE
  5
372
100
AcDbEntity
  8
KONSTRUKTIONSELEMENTE
100
AcDbLine
 62
7
  6
CONTINUOUS
 10
61.1616726098
 20
51.5772048796
 11
60.3167768766
 21
51.6403919895
  0
LINE
  5
373
100
AcDbEntity
  8
KONSTRUKTIONSELEMENTE
100
AcDbLine
 62
7
  6
CONTINUOUS
 10
149.2551155347
 20
38.7114455611
 11
148.3757002938
 21
38.7889585565
  0
LINE
  5
374
100
AcDbEntity
  8
KONSTRUKTIONSELEMENTE
100
AcDbLine
 62
7
  6
CONTINUOUS
 10
78.1345599156
 20
47.2799262392
 11
77.5691153847
 21
47.3306454798
  0
LINE
  5
375
100
AcDbEntity
  8
KONSTRUKTIONSELEMENTE
100
AcDbLine
 62
7
  6
CONTINUOUS
 10
142.3235420495
 20
38.7493098312
 11
141.2853362924
 21
38.8748689207
  0
LINE
  5
376
100
AcDbEntity
  8
KONSTRUKTIONSELEMENTE
100
AcDbLine
 62
7
  6
CONTINUOUS
 10
117.8524394058
 20
38.7174248011
 11
116.3437787851
 21
38.912237766
  0
LINE
  5
377
100
AcDbEntity
  8
KONSTRUKTIONSELEMENTE
100
AcDbLine
 62
7
  6
CONTINUOUS
 10
142.1489744603
 20
37.4403040044
 11
141.2784409515
 21
37.5871505833
  0
LINE
  5
378
100
AcDbEntity
  8
KONSTRUKTIONSELEMENTE
100
AcDbLine
 62
7
  6
CONTINUOUS
 10
68.2523482605
 20
47.363557361
 11
67.6929483978
 21
47.4603651734
  0
LINE
  5
379
100
AcDbEntity
  8
KONSTRUKTIONSELEMENTE
100
AcDbLine
 62
7
  6
CONTINUOUS
 10
71.4449663232
 20
51.6711133397
 11
70.8855664605
 21
51.7679211522
  0
LINE
  5
37A
100
AcDbEntity
  8
KONSTRUKTIONSELEMENTE
100
AcDbLine
 62
7
  6
CONTINUOUS
 10
54.0688218384
 20
58.0042984266
 11
52.9349868389
 21
58.2357178573
  0
LINE
  5
37B
100
AcDbEntity
  8
KONSTRUKTIONSELEMENTE
100
AcDbLine
 62
7
  6
CONTINUOUS
 10
110.0129299097
 20
39.9891552129
 11
108.5261267231
 21
40.310753167
  0
LINE
  5
37C
100
AcDbEntity
  8
KONSTRUKTIONSELEMENTE
100
AcDbLine
 62
7
  6
CONTINUOUS
 10
104.5702932692
 20
41.2219983698
 11
103.6010208967
 21
41.5202591525
  0
LINE
  5
37D
100
AcDbEntity
  8
KONSTRUKTIONSELEMENTE
100
AcDbLine
 62
7
  6
CONTINUOUS
 10
99.0777448949
 20
42.9121443221
 11
98.1084725224
 21
43.2104051048
  0
LINE
  5
37E
100
AcDbEntity
  8
KONSTRUKTIONSELEMENTE
100
AcDbLine
 62
7
  6
CONTINUOUS
 10
42.8227488387
 20
71.6388193858
 11
42.0222736477
 21
71.9164491107
  0
LINE
  5
37F
100
AcDbEntity
  8
KONSTRUKTIONSELEMENTE
100
AcDbLine
 62
7
  6
CONTINUOUS
 10
65.4129104337
 20
60.7594927035
 11
64.7366607348
 21
61.014373323
  0
LINE
  5
380
100
AcDbEntity
  8
KONSTRUKTIONSELEMENTE
100
AcDbLine
 62
7
  6
CONTINUOUS
 10
118.6578889423
 20
38.3559783296
 11
117.8524394058
 21
38.7174248011
  0
LINE
  5
381
100
AcDbEntity
  8
KONSTRUKTIONSELEMENTE
100
AcDbLine
 62
7
  6
CONTINUOUS
 10
66.4247863735
 20
61.9096534594
 11
65.6216350212
 21
62.2761782374
  0
LINE
  5
382
100
AcDbEntity
  8
KONSTRUKTIONSELEMENTE
100
AcDbLine
 62
7
  6
CONTINUOUS
 10
86.9217518196
 20
47.9942794019
 11
85.7170189622
 21
48.6082480914
  0
LINE
  5
383
100
AcDbEntity
  8
KONSTRUKTIONSELEMENTE
100
AcDbLine
 62
7
  6
CONTINUOUS
 10
115.0031683894
 20
28.5303511532
 11
114.3653529264
 21
28.8701510792
  0
LINE
  5
384
100
AcDbEntity
  8
KONSTRUKTIONSELEMENTE
100
AcDbLine
 62
7
  6
CONTINUOUS
 10
118.2940756786
 20
36.858323586
 11
117.6562525421
 21
37.1981245029
  0
LINE
  5
385
100
AcDbEntity
  8
KONSTRUKTIONSELEMENTE
100
AcDbLine
 62
7
  6
CONTINUOUS
 10
62.4780472825
 20
69.922422102
 11
61.6316904883
 21
70.3852617194
  0
LINE
  5
386
100
AcDbEntity
  8
KONSTRUKTIONSELEMENTE
100
AcDbLine
 62
7
  6
CONTINUOUS
 10
110.7849489733
 20
39.5609426539
 11
110.0129299097
 21
39.9891552129
  0
LINE
  5
387
100
AcDbEntity
  8
KONSTRUKTIONSELEMENTE
100
AcDbLine
 62
7
  6
CONTINUOUS
 10
79.5902002639
 20
50.5837191264
 11
76.8623972622
 21
52.2784613914
  0
LINE
  5
388
100
AcDbEntity
  8
KONSTRUKTIONSELEMENTE
100
AcDbLine
 62
7
  6
CONTINUOUS
 10
80.1203254811
 20
51.7572744122
 11
76.6746809678
 21
53.8980006241
  0
LINE
  5
389
100
AcDbEntity
  8
KONSTRUKTIONSELEMENTE
100
AcDbLine
 62
7
  6
CONTINUOUS
 10
106.313042184
 20
30.0792790456
 11
105.7062133914
 21
30.4717606796
  0
LINE
  5
38A
100
AcDbEntity
  8
KONSTRUKTIONSELEMENTE
100
AcDbLine
 62
7
  6
CONTINUOUS
 10
110.2958851486
 20
38.0993864978
 11
109.6890639183
 21
38.4918664961
  0
LINE
  5
38B
100
AcDbEntity
  8
KONSTRUKTIONSELEMENTE
100
AcDbLine
 62
7
  6
CONTINUOUS
 10
43.2010981244
 20
72.9092756121
 11
42.6127682104
 21
73.3289696464
  0
LINE
  5
38C
100
AcDbEntity
  8
KONSTRUKTIONSELEMENTE
100
AcDbLine
 62
7
  6
CONTINUOUS
 10
70.8855664605
 20
51.7679211522
 11
68.3055525977
 21
53.6801421195
  0
LINE
  5
38D
100
AcDbEntity
  8
KONSTRUKTIONSELEMENTE
100
AcDbLine
 62
7
  6
CONTINUOUS
 10
73.0139787153
 20
54.6396254253
 11
70.4339648524
 21
56.5518463927
  0
LINE
  5
38E
100
AcDbEntity
  8
KONSTRUKTIONSELEMENTE
100
AcDbLine
 62
7
  6
CONTINUOUS
 10
73.7903640286
 20
55.9709995181
 11
70.5314004578
 21
58.3864355595
  0
LINE
  5
38F
100
AcDbEntity
  8
KONSTRUKTIONSELEMENTE
100
AcDbLine
 62
7
  6
CONTINUOUS
 10
39.6709074179
 20
89.7468041751
 11
39.2287777493
 21
90.1029239794
  0
LINE
  5
390
100
AcDbEntity
  8
KONSTRUKTIONSELEMENTE
100
AcDbLine
 62
7
  6
CONTINUOUS
 10
38.4465868266
 20
80.4995180283
 11
37.894983375
 21
80.966433556
  0
LINE
  5
391
100
AcDbEntity
  8
KONSTRUKTIONSELEMENTE
100
AcDbLine
 62
7
  6
CONTINUOUS
 10
66.4281149472
 20
59.8663471012
 11
65.4129104337
 21
60.7594927035
  0
LINE
  5
392
100
AcDbEntity
  8
KONSTRUKTIONSELEMENTE
100
AcDbLine
 62
7
  6
CONTINUOUS
 10
67.4399908869
 20
61.016507857
 11
66.4247863735
 21
61.9096534594
  0
LINE
  5
393
100
AcDbEntity
  8
KONSTRUKTIONSELEMENTE
100
AcDbLine
 62
7
  6
CONTINUOUS
 10
37.1896871877
 20
79.6075907594
 11
36.5559752066
 21
80.222242482
  0
LINE
  5
394
100
AcDbEntity
  8
KONSTRUKTIONSELEMENTE
100
AcDbLine
 62
7
  6
CONTINUOUS
 10
53.6737805324
 20
60.2606418186
 11
52.4163043369
 21
61.8227252481
  0
LINE
  5
395
100
AcDbEntity
  8
KONSTRUKTIONSELEMENTE
100
AcDbLine
 62
7
  6
CONTINUOUS
 10
57.3547252376
 20
59.219253138
 11
56.5164076406
 21
60.2606422565
  0
LINE
  5
396
100
AcDbEntity
  8
KONSTRUKTIONSELEMENTE
100
AcDbLine
 62
7
  6
CONTINUOUS
 10
63.9667272212
 20
64.5419106491
 11
63.1284096243
 21
65.5832997676
  0
LINE
  5
397
100
AcDbEntity
  8
KONSTRUKTIONSELEMENTE
100
AcDbLine
 62
7
  6
CONTINUOUS
 10
41.3398967348
 20
72.4765839144
 11
39.0827864253
 21
75.8471369665
  0
LINE
  5
398
100
AcDbEntity
  8
KONSTRUKTIONSELEMENTE
100
AcDbLine
 62
7
  6
CONTINUOUS
 10
42.6127682104
 20
73.3289696464
 11
40.9199354783
 21
75.8568844354
  0
LINE
  5
399
100
AcDbEntity
  8
KONSTRUKTIONSELEMENTE
100
AcDbLine
 62
7
  6
CONTINUOUS
 10
50.0378519919
 20
78.3012198655
 11
48.3450192598
 21
80.8291346545
  0
LINE
  5
39A
100
AcDbEntity
  8
KONSTRUKTIONSELEMENTE
100
AcDbLine
 62
7
  6
CONTINUOUS
 10
58.4984239005
 20
52.9000597978
 11
58.0325645429
 21
53.6499715112
  0
LINE
  5
39B
100
AcDbEntity
  8
KONSTRUKTIONSELEMENTE
100
AcDbLine
 62
7
  6
CONTINUOUS
 10
36.5559752066
 20
80.222242482
 11
36.2275397571
 21
80.8131898409
  0
LINE
  5
39C
100
AcDbEntity
  8
KONSTRUKTIONSELEMENTE
100
AcDbLine
 62
7
  6
CONTINUOUS
 10
37.894983375
 20
80.966433556
 11
37.5665479254
 21
81.5573809149
  0
LINE
  5
39D
100
AcDbEntity
  8
KONSTRUKTIONSELEMENTE
100
AcDbLine
 62
7
  6
CONTINUOUS
 10
59.5102999584
 20
54.0502206879
 11
59.1713422394
 21
54.688488226
  0
LINE
  5
39E
100
AcDbEntity
  8
KONSTRUKTIONSELEMENTE
100
AcDbLine
 62
7
  6
CONTINUOUS
 10
33.8605505298
 20
85.2519358216
 11
33.371349115
 21
86.3292079874
  0
LINE
  5
39F
100
AcDbEntity
  8
KONSTRUKTIONSELEMENTE
100
AcDbLine
 62
7
  6
CONTINUOUS
 10
31.6242017476
 20
90.1766073846
 11
31.2048863634
 21
91.0999832751
  0
LINE
  5
3A0
100
AcDbEntity
  8
KONSTRUKTIONSELEMENTE
100
AcDbLine
 62
7
  6
CONTINUOUS
 10
37.6941741285
 20
89.7773070238
 11
36.5061139067
 21
92.3935386403
  0
LINE
  5
3A1
100
AcDbEntity
  8
KONSTRUKTIONSELEMENTE
100
AcDbLine
 62
7
  6
CONTINUOUS
 10
39.2287777493
 20
90.1029239794
 11
37.900945766
 21
93.026947486
  0
LINE
  5
3A2
100
AcDbEntity
  8
KONSTRUKTIONSELEMENTE
100
AcDbLine
 62
7
  6
CONTINUOUS
 10
68.4752096662
 20
46.2449771368
 11
67.4759597461
 21
46.0321854461
  0
LINE
  5
3A3
100
AcDbEntity
  8
KONSTRUKTIONSELEMENTE
100
AcDbLine
 62
7
  6
CONTINUOUS
 10
78.4481845268
 20
46.1833276844
 11
77.6044314124
 21
46.106372995
  0
LINE
  5
3A4
100
AcDbEntity
  8
KONSTRUKTIONSELEMENTE
100
AcDbLine
 62
7
  6
CONTINUOUS
 10
61.9197483245
 20
52.9506515986
 11
61.2017541708
 21
52.902194466
  0
LINE
  5
3A5
100
AcDbEntity
  8
KONSTRUKTIONSELEMENTE
100
AcDbLine
 62
7
  6
CONTINUOUS
 10
71.6678277821
 20
50.5525331874
 11
71.2442191042
 21
50.5486970636
  0
LINE
  5
3A6
100
AcDbEntity
  8
KONSTRUKTIONSELEMENTE
100
AcDbLine
 62
7
  6
CONTINUOUS
 10
55.5142531855
 20
59.739947311
 11
54.5201375265
 21
59.7978019528
  0
LINE
  5
3A7
100
AcDbEntity
  8
KONSTRUKTIONSELEMENTE
100
AcDbLine
 62
7
  6
CONTINUOUS
 10
65.6216350212
 20
62.2761782374
 11
64.7767422368
 21
62.3393628423
  0
LINE
  5
3A8
100
AcDbEntity
  8
KONSTRUKTIONSELEMENTE
100
AcDbLine
 62
7
  6
CONTINUOUS
 10
43.9075275041
 20
72.7720851243
 11
43.2010981244
 21
72.9092756121
  0
LINE
  5
3A9
100
AcDbEntity
  8
KONSTRUKTIONSELEMENTE
100
AcDbLine
 62
7
  6
CONTINUOUS
 10
63.2168408998
 20
71.9473457973
 11
62.083005776
 21
72.1787655371
  0
LINE
  5
3AA
100
AcDbEntity
  8
KONSTRUKTIONSELEMENTE
100
AcDbLine
 62
7
  6
CONTINUOUS
 10
39.1392494566
 20
80.3043714697
 11
38.4465868266
 21
80.4995180283
  0
LINE
  5
3AB
100
AcDbEntity
  8
KONSTRUKTIONSELEMENTE
100
AcDbLine
 62
7
  6
CONTINUOUS
 10
37.9644586999
 20
79.2647070954
 11
37.1896871877
 21
79.6075907594
  0
LINE
  5
3AC
100
AcDbEntity
  8
KONSTRUKTIONSELEMENTE
100
AcDbLine
 62
7
  6
CONTINUOUS
 10
39.3229210417
 20
88.6606196967
 11
38.5784335658
 21
89.065067195
  0
LINE
  5
3AD
100
AcDbEntity
  8
KONSTRUKTIONSELEMENTE
100
AcDbLine
 62
7
  6
CONTINUOUS
 10
143.0585525511
 20
38.3278888138
 11
142.3235420495
 21
38.7493098312
  0
LINE
  5
3AE
100
AcDbEntity
  8
KONSTRUKTIONSELEMENTE
100
AcDbLine
 62
7
  6
CONTINUOUS
 10
149.5188222592
 20
28.3341727891
 11
148.5352158387
 21
28.9115814493
  0
LINE
  5
3AF
100
AcDbEntity
  8
KONSTRUKTIONSELEMENTE
100
AcDbLine
 62
7
  6
CONTINUOUS
 10
64.2029172602
 20
71.3109413681
 11
63.2168408998
 21
71.9473457973
  0
LINE
  5
3B0
100
AcDbEntity
  8
KONSTRUKTIONSELEMENTE
100
AcDbLine
 62
7
  6
CONTINUOUS
 10
114.0015396426
 20
27.3724961805
 11
113.3964143253
 21
27.9655138802
  0
LINE
  5
3B1
100
AcDbEntity
  8
KONSTRUKTIONSELEMENTE
100
AcDbLine
 62
7
  6
CONTINUOUS
 10
80.7034280259
 20
51.0944189292
 11
80.1203254811
 21
51.7572744122
  0
LINE
  5
3B2
100
AcDbEntity
  8
KONSTRUKTIONSELEMENTE
100
AcDbLine
 62
7
  6
CONTINUOUS
 10
105.2171495336
 20
29.0102043707
 11
104.6643059827
 21
29.6522325539
  0
LINE
  5
3B3
100
AcDbEntity
  8
KONSTRUKTIONSELEMENTE
100
AcDbLine
 62
7
  6
CONTINUOUS
 10
63.7355234781
 20
68.3603386724
 11
62.4780472825
 21
69.922422102
  0
LINE
  5
3B4
100
AcDbEntity
  8
KONSTRUKTIONSELEMENTE
100
AcDbLine
 62
7
  6
CONTINUOUS
 10
65.4603934557
 20
69.7488579386
 11
64.2029172602
 21
71.3109413681
  0
LINE
  5
3B5
100
AcDbEntity
  8
KONSTRUKTIONSELEMENTE
100
AcDbLine
 62
7
  6
CONTINUOUS
 10
74.3172843201
 20
55.2626627512
 11
73.7903640286
 21
55.9709995181
  0
LINE
  5
3B6
100
AcDbEntity
  8
KONSTRUKTIONSELEMENTE
100
AcDbLine
 62
7
  6
CONTINUOUS
 10
51.310723319
 20
79.1536054979
 11
49.0536130095
 21
82.52415855
  0
LINE
  5
3B7
100
AcDbEntity
  8
KONSTRUKTIONSELEMENTE
100
AcDbLine
 62
7
  6
CONTINUOUS
 10
67.9058473548
 20
60.2665987157
 11
67.4399908869
 21
61.016507857
  0
LINE
  5
3B8
100
AcDbEntity
  8
KONSTRUKTIONSELEMENTE
100
AcDbLine
 62
7
  6
CONTINUOUS
 10
79.8861668612
 20
50.099256814
 11
79.5902002639
 21
50.5837191264
  0
LINE
  5
3B9
100
AcDbEntity
  8
KONSTRUKTIONSELEMENTE
100
AcDbLine
 62
7
  6
CONTINUOUS
 10
48.3586138799
 20
83.6879506528
 11
47.8659609405
 21
84.5743712685
  0
LINE
  5
3BA
100
AcDbEntity
  8
KONSTRUKTIONSELEMENTE
100
AcDbLine
 62
7
  6
CONTINUOUS
 10
45.8953491828
 20
88.1200537313
 11
45.4026960085
 21
89.0064747696
  0
LINE
  5
3BB
100
AcDbEntity
  8
KONSTRUKTIONSELEMENTE
100
AcDbLine
 62
7
  6
CONTINUOUS
 10
66.7670726662
 20
59.228079563
 11
66.4281149472
 21
59.8663471012
  0
LINE
  5
3BC
100
AcDbEntity
  8
KONSTRUKTIONSELEMENTE
100
AcDbLine
 62
7
  6
CONTINUOUS
 10
70.2287309924
 20
50.0301397977
 11
69.9733899624
 21
50.5371909957
  0
LINE
  5
3BD
100
AcDbEntity
  8
KONSTRUKTIONSELEMENTE
100
AcDbLine
 62
7
  6
CONTINUOUS
 10
42.715858049
 20
91.6864463894
 11
41.3880260658
 21
94.610469896
  0
LINE
  5
3BE
100
AcDbEntity
  8
KONSTRUKTIONSELEMENTE
100
AcDbLine
 62
7
  6
CONTINUOUS
 10
43.8083321011
 20
92.3681829291
 11
42.1310705644
 21
96.0616864913
  0
LINE
  5
3BF
100
AcDbEntity
  8
KONSTRUKTIONSELEMENTE
100
AcDbLine
 62
7
  6
CONTINUOUS
 10
50.6914341579
 20
60.4342058199
 11
50.2803144819
 21
61.5334500247
  0
LINE
  5
3C0
100
AcDbEntity
  8
KONSTRUKTIONSELEMENTE
100
AcDbLine
 62
7
  6
CONTINUOUS
 10
51.5688097711
 20
78.3093421376
 11
51.310723319
 21
79.1536054979
  0
LINE
  5
3C1
100
AcDbEntity
  8
KONSTRUKTIONSELEMENTE
100
AcDbLine
 62
7
  6
CONTINUOUS
 10
52.4163043369
 20
61.8227252481
 11
52.1449042019
 21
62.748404621
  0
LINE
  5
3C2
100
AcDbEntity
  8
KONSTRUKTIONSELEMENTE
100
AcDbLine
 62
7
  6
CONTINUOUS
 10
36.2275397571
 20
80.8131898409
 11
36.0401638191
 21
81.6759052475
  0
LINE
  5
3C3
100
AcDbEntity
  8
KONSTRUKTIONSELEMENTE
100
AcDbLine
 62
7
  6
CONTINUOUS
 10
37.5665479254
 20
81.5573809149
 11
37.4612809477
 21
82.2723592597
  0
LINE
  5
3C4
100
AcDbEntity
  8
0
100
AcDbLine
 62
7
  6
CONTINUOUS
 10
49.8222396842
 20
202.0193790378
 11
27.0247475164
 21
155.4892761742
  0
LINE
  5
3C5
100
AcDbEntity
  8
KONSTRUKTIONSELEMENTE
100
AcDbLine
 62
7
  6
CONTINUOUS
 10
62.3438603376
 20
51.8974047051
 11
61.1616726098
 21
51.5772048796
  0
LINE
  5
3C6
100
AcDbEntity
  8
KONSTRUKTIONSELEMENTE
100
AcDbLine
 62
7
  6
CONTINUOUS
 10
55.7776139219
 20
58.235718275
 11
54.0688218384
 21
58.0042984266
  0
LINE
  5
3C7
100
AcDbEntity
  8
KONSTRUKTIONSELEMENTE
100
AcDbLine
 62
7
  6
CONTINUOUS
 10
64.7366607348
 20
61.014373323
 11
64.0186666993
 21
60.9659163247
  0
LINE
  5
3C8
100
AcDbEntity
  8
KONSTRUKTIONSELEMENTE
100
AcDbLine
 62
7
  6
CONTINUOUS
 10
44.0475144905
 20
71.6453182176
 11
42.8227488387
 21
71.6388193858
  0
LINE
  5
3C9
100
AcDbEntity
  8
KONSTRUKTIONSELEMENTE
100
AcDbLine
 62
7
  6
CONTINUOUS
 10
61.6316904883
 20
70.3852617194
 11
60.6375750306
 21
70.4431165233
  0
LINE
  5
3CA
100
AcDbEntity
  8
KONSTRUKTIONSELEMENTE
100
AcDbLine
 62
7
  6
CONTINUOUS
 10
39.1855662357
 20
79.1698871047
 11
37.9644586999
 21
79.2647070954
  0
LINE
  5
3CB
100
AcDbEntity
  8
KONSTRUKTIONSELEMENTE
100
AcDbLine
 62
7
  6
CONTINUOUS
 10
180.8141183169
 20
57.9576053709
 11
179.228693941
 21
58.2289893704
  0
LINE
  5
3CC
100
AcDbEntity
  8
KONSTRUKTIONSELEMENTE
100
AcDbLine
 62
7
  6
CONTINUOUS
 10
150.1437140177
 20
39.4182641882
 11
149.1601076109
 21
39.9956727827
  0
LINE
  5
3CD
100
AcDbEntity
  8
KONSTRUKTIONSELEMENTE
100
AcDbLine
 62
7
  6
CONTINUOUS
 10
149.4238143035
 20
29.6184001639
 11
148.8232283131
 21
30.014834249
  0
LINE
  5
3CE
100
AcDbEntity
  8
KONSTRUKTIONSELEMENTE
100
AcDbLine
 62
7
  6
CONTINUOUS
 10
149.8557015251
 20
38.315011476
 11
149.2551155347
 21
38.7114455611
  0
LINE
  5
3CF
100
AcDbEntity
  8
KONSTRUKTIONSELEMENTE
100
AcDbLine
 62
7
  6
CONTINUOUS
 10
142.7163127137
 20
36.9975954976
 11
142.1489744603
 21
37.4403040044
  0
LINE
  5
3D0
100
AcDbEntity
  8
KONSTRUKTIONSELEMENTE
100
AcDbLine
 62
7
  6
CONTINUOUS
 10
119.2630065947
 20
37.7629616872
 11
118.6578889423
 21
38.3559783296
  0
LINE
  5
3D1
100
AcDbEntity
  8
KONSTRUKTIONSELEMENTE
100
AcDbLine
 62
7
  6
CONTINUOUS
 10
111.3378001007
 20
38.9189129004
 11
110.7849489733
 21
39.5609426539
  0
LINE
  5
3D2
100
AcDbEntity
  8
KONSTRUKTIONSELEMENTE
100
AcDbLine
 62
7
  6
CONTINUOUS
 10
114.3653529264
 20
28.8701510792
 11
113.9278616969
 21
29.4415223442
  0
LINE
  5
3D3
100
AcDbEntity
  8
KONSTRUKTIONSELEMENTE
100
AcDbLine
 62
7
  6
CONTINUOUS
 10
105.7062133914
 20
30.4717606796
 11
105.3185676974
 21
31.0780564113
  0
LINE
  5
3D4
100
AcDbEntity
  8
KONSTRUKTIONSELEMENTE
100
AcDbLine
 62
7
  6
CONTINUOUS
 10
73.2693197453
 20
54.1325742274
 11
73.0139787153
 21
54.6396254253
  0
LINE
  5
3D5
100
AcDbEntity
  8
KONSTRUKTIONSELEMENTE
100
AcDbLine
 62
7
  6
CONTINUOUS
 10
65.8715132568
 20
68.6496136299
 11
65.4603934557
 21
69.7488579386
  0
LINE
  5
3D6
100
AcDbEntity
  8
KONSTRUKTIONSELEMENTE
100
AcDbLine
 62
7
  6
CONTINUOUS
 10
71.3637689494
 20
50.1422898019
 11
71.2442191042
 21
50.5486970636
  0
LINE
  5
3D7
100
AcDbEntity
  8
KONSTRUKTIONSELEMENTE
100
AcDbLine
 62
7
  6
CONTINUOUS
 10
64.0069238129
 20
67.4346590513
 11
63.7355234781
 21
68.3603386724
  0
LINE
  5
3D8
100
AcDbEntity
  8
KONSTRUKTIONSELEMENTE
100
AcDbLine
 62
7
  6
CONTINUOUS
 10
50.2018914636
 20
77.5973972871
 11
50.0378519919
 21
78.3012198655
  0
LINE
  5
3D9
100
AcDbEntity
  8
KONSTRUKTIONSELEMENTE
100
AcDbLine
 62
7
  6
CONTINUOUS
 10
58.0325645429
 20
53.6499715112
 11
57.8622557626
 21
54.4799300037
  0
LINE
  5
3DA
100
AcDbEntity
  8
KONSTRUKTIONSELEMENTE
100
AcDbLine
 62
7
  6
CONTINUOUS
 10
43.925289678
 20
91.4931347326
 11
43.8083321011
 21
92.3681829291
  0
LINE
  5
3DB
100
AcDbEntity
  8
KONSTRUKTIONSELEMENTE
100
AcDbLine
 62
7
  6
CONTINUOUS
 10
59.1713422394
 20
54.688488226
 11
59.1279322818
 21
55.4068051992
  0
LINE
  5
3DC
100
AcDbEntity
  8
KONSTRUKTIONSELEMENTE
100
AcDbLine
 62
7
  6
CONTINUOUS
 10
50.2803144819
 20
61.5334500247
 11
50.296392752
 21
62.690549336
  0
LINE
  5
3DD
100
AcDbEntity
  8
KONSTRUKTIONSELEMENTE
100
AcDbLine
 62
7
  6
CONTINUOUS
 10
42.6930437645
 20
91.1191903032
 11
42.715858049
 21
91.6864463894
  0
LINE
  5
3DE
100
AcDbEntity
  8
KONSTRUKTIONSELEMENTE
100
AcDbLine
 62
7
  6
CONTINUOUS
 10
51.5207040215
 20
77.4634552872
 11
51.5688097711
 21
78.3093421376
  0
LINE
  5
3DF
100
AcDbEntity
  8
KONSTRUKTIONSELEMENTE
100
AcDbLine
 62
7
  6
CONTINUOUS
 10
36.0401638191
 20
81.6759052475
 11
36.1580644321
 21
82.5149163014
  0
LINE
  5
3E0
100
AcDbEntity
  8
KONSTRUKTIONSELEMENTE
100
AcDbLine
 62
7
  6
CONTINUOUS
 10
95.0418591967
 20
224.0828407082
 11
101.4568906286
 21
229.6593424546
  0
LINE
  5
3E1
100
AcDbEntity
  8
KONSTRUKTIONSELEMENTE
100
AcDbLine
 62
7
  6
CONTINUOUS
 10
103.4887922273
 20
231.4256475669
 11
110.684711644
 21
237.6809648822
  0
LINE
  5
3E2
100
AcDbEntity
  8
KONSTRUKTIONSELEMENTE
100
AcDbLine
 62
7
  6
CONTINUOUS
 10
111.1868299456
 20
238.1174496626
 11
117.3233339843
 21
243.4518312401
  0
LINE
  5
3E3
100
AcDbEntity
  8
KONSTRUKTIONSELEMENTE
100
AcDbLine
 62
7
  6
CONTINUOUS
 10
119.5723685334
 20
245.4068871465
 11
126.2425467423
 21
251.2051846024
  0
LINE
  5
3E4
100
AcDbEntity
  8
0
100
AcDbLine
 62
7
  6
CONTINUOUS
 10
77.5685091946
 20
208.2309827895
 11
121.5520589884
 21
246.4652993073
  0
LWPOLYLINE
  5
3E5
100
AcDbEntity
  8
0
100
AcDbPolyline
 62
7
  6
CONTINUOUS
 90
6
 70
0
 10
84.9024082442
 20
216.797736607
 10
84.6586063423
 20
216.6643476568
 10
84.4359759028
 20
216.5020947651
 10
84.2421770739
 20
216.3205557466
 10
84.0813905937
 20
216.1322290221
 10
83.9490228347
 20
215.9431536757
  0
LINE
  5
3E6
100
AcDbEntity
  8
0
100
AcDbLine
 62
7
  6
CONTINUOUS
 10
84.902416726
 20
216.7977183927
 11
89.9697568823
 21
219.1189054135
  0
LINE
  5
3E7
100
AcDbEntity
  8
KONSTRUKTIONSELEMENTE
100
AcDbLine
 62
7
  6
CONTINUOUS
 10
64.7767422368
 20
62.3393628423
 11
63.5945545679
 21
62.0191630839
  0
LINE
  5
3E8
100
AcDbEntity
  8
KONSTRUKTIONSELEMENTE
100
AcDbLine
 62
7
  6
CONTINUOUS
 10
62.083005776
 20
72.1787655371
 11
60.3742140929
 21
71.9473453973
  0
LINE
  5
3E9
100
AcDbEntity
  8
KONSTRUKTIONSELEMENTE
100
AcDbLine
 62
7
  6
CONTINUOUS
 10
40.4624666401
 20
88.6212043152
 11
39.3229210417
 21
88.6606196967
  0
LINE
  5
3EA
100
AcDbEntity
  8
KONSTRUKTIONSELEMENTE
100
AcDbLine
 62
7
  6
CONTINUOUS
 10
40.2756232324
 20
89.6501483467
 11
39.6709074179
 21
89.7468041751
  0
LINE
  5
3EB
100
AcDbEntity
  8
KONSTRUKTIONSELEMENTE
100
AcDbLine
 62
7
  6
CONTINUOUS
 10
180.8219045387
 20
56.2658055953
 11
179.9334439327
 21
56.5531245806
  0
LINE
  5
3EC
100
AcDbEntity
  8
KONSTRUKTIONSELEMENTE
100
AcDbLine
 62
7
  6
CONTINUOUS
 10
148.5352158387
 20
28.9115814493
 11
147.8825342471
 21
29.5579634215
  0
LINE
  5
3ED
100
AcDbEntity
  8
KONSTRUKTIONSELEMENTE
100
AcDbLine
 62
7
  6
CONTINUOUS
 10
118.7315669309
 20
36.2869524983
 11
118.2940756786
 21
36.858323586
  0
LINE
  5
3EE
100
AcDbEntity
  8
KONSTRUKTIONSELEMENTE
100
AcDbLine
 62
7
  6
CONTINUOUS
 10
110.6835308804
 20
37.4930909409
 11
110.2958851486
 21
38.0993864978
  0
LINE
  5
3EF
100
AcDbEntity
  8
KONSTRUKTIONSELEMENTE
100
AcDbLine
 62
7
  6
CONTINUOUS
 10
68.0761590839
 20
59.4366377182
 11
67.9058473548
 21
60.2665987157
  0
LINE
  5
3F0
100
AcDbEntity
  8
KONSTRUKTIONSELEMENTE
100
AcDbLine
 62
7
  6
CONTINUOUS
 10
74.4043577022
 20
54.2447242315
 11
74.3172843201
 21
55.2626627512
  0
LINE
  5
3F1
100
AcDbEntity
  8
KONSTRUKTIONSELEMENTE
100
AcDbLine
 62
7
  6
CONTINUOUS
 10
66.8104827419
 20
58.5097627241
 11
66.7670726662
 21
59.228079563
  0
LINE
  5
3F2
100
AcDbEntity
  8
KONSTRUKTIONSELEMENTE
100
AcDbLine
 62
7
  6
CONTINUOUS
 10
65.8554348623
 20
67.4925146276
 11
65.8715132568
 21
68.6496136299
  0
LINE
  5
3F3
100
AcDbEntity
  8
KONSTRUKTIONSELEMENTE
100
AcDbLine
 62
7
  6
CONTINUOUS
 10
57.1153673902
 20
162.2019552329
 11
57.6125589745
 21
171.6889358131
  0
LINE
  5
3F4
100
AcDbEntity
  8
KONSTRUKTIONSELEMENTE
100
AcDbLine
 62
7
  6
CONTINUOUS
 10
65.3719157141
 20
158.9153366846
 11
66.167422249
 21
174.0945056129
  0
LINE
  5
3F5
100
AcDbEntity
  8
KONSTRUKTIONSELEMENTE
100
AcDbLine
 62
7
  6
CONTINUOUS
 10
67.2693118302
 20
158.8158983677
 11
68.0648183651
 21
173.995067296
  0
LINE
  5
3F6
100
AcDbEntity
  8
KONSTRUKTIONSELEMENTE
100
AcDbLine
 62
7
  6
CONTINUOUS
 10
52.1449042019
 20
62.748404621
 11
52.300702264
 21
63.7319390977
  0
LINE
  5
3F7
100
AcDbEntity
  8
KONSTRUKTIONSELEMENTE
100
AcDbLine
 62
7
  6
CONTINUOUS
 10
50.0597398099
 20
76.8919496114
 11
50.2018914636
 21
77.5973972871
  0
LINE
  5
3F8
100
AcDbEntity
  8
KONSTRUKTIONSELEMENTE
100
AcDbLine
 62
7
  6
CONTINUOUS
 10
37.4612809477
 20
82.2723592597
 11
37.6612906383
 21
82.9636333168
  0
LINE
  5
3F9
100
AcDbEntity
  8
KONSTRUKTIONSELEMENTE
100
AcDbLine
 62
7
  6
CONTINUOUS
 10
83.5141471844
 20
215.0161788187
 11
83.4830259417
 21
214.931808351
  0
LWPOLYLINE
  5
3FA
100
AcDbEntity
  8
KONSTRUKTIONSELEMENTE
100
AcDbPolyline
 62
7
  6
CONTINUOUS
 90
9
 70
0
 10
83.4832657437
 20
214.9324487314
 10
83.4422095241
 20
214.8270919302
 10
83.3385344779
 20
214.5975086737
 10
83.184567675
 20
214.3032401196
 10
82.9766068137
 20
213.9507252878
 10
82.7127060134
 20
213.5458695737
 10
82.392605193
 20
213.0947478822
 10
82.0185221179
 20
212.6049566828
 10
81.916777486
 20
212.4801197335
  0
LWPOLYLINE
  5
3FB
100
AcDbEntity
  8
0
100
AcDbPolyline
 62
7
  6
CONTINUOUS
 90
10
 70
0
 10
83.4832702111
 20
214.9324609987
 10
83.4423039925
 20
214.8273212609
 10
83.3387450032
 20
214.5979412831
 10
83.1848824025
 20
214.3038058014
 10
82.9769847651
 20
213.9513340224
 10
82.7130781047
 20
213.5464161356
 10
82.3929084073
 20
213.095159405
 10
82.0187104975
 20
212.6051952722
 10
81.5941586995
 20
212.0842759368
 10
81.1267450359
 20
211.5431715422
  0
LWPOLYLINE
  5
3FC
100
AcDbEntity
  8
0
100
AcDbPolyline
 62
7
  6
CONTINUOUS
 90
6
 70
0
 10
83.8422773309
 20
215.762194907
 10
83.7510454304
 20
215.5837914806
 10
83.6700025852
 20
215.4058630066
 10
83.5926874393
 20
215.2198489027
 10
83.5140775537
 20
215.0159982526
 10
83.4830420457
 20
214.9318526287
  0
LINE
  5
3FD
100
AcDbEntity
  8
0
100
AcDbLine
 62
7
  6
CONTINUOUS
 10
83.9490228347
 20
215.9431536757
 11
83.8422773309
 21
215.762194907
  0
LINE
  5
3FE
100
AcDbEntity
  8
0
100
AcDbLine
 62
7
  6
CONTINUOUS
 10
81.1267450359
 20
211.5431715422
 11
80.8016994746
 21
211.1830483368
  0
LINE
  5
3FF
100
AcDbEntity
  8
0
100
AcDbLine
 62
7
  6
CONTINUOUS
 10
80.8016994746
 20
211.1830483368
 11
80.8015621226
 21
211.1828986735
  0
LWPOLYLINE
  5
400
100
AcDbEntity
  8
0
100
AcDbPolyline
 62
7
  6
CONTINUOUS
 90
7
 70
0
 10
80.8015633876
 20
211.182898422
 10
80.6805705092
 20
211.052420989
 10
80.4108466257
 20
210.771258198
 10
80.1353400494
 20
210.4970357232
 10
79.8542233107
 20
210.2298411971
 10
79.5676221185
 20
209.9697946679
 10
79.4490391836
 20
209.8657010794
  0
LINE
  5
401
100
AcDbEntity
  8
0
100
AcDbLine
 62
7
  6
CONTINUOUS
 10
73.6107532294
 20
199.490506044
 11
77.7691841396
 21
203.1053748844
  0
LINE
  5
402
100
AcDbEntity
  8
0
100
AcDbLine
 62
7
  6
CONTINUOUS
 10
79.4603627904
 20
196.6254160967
 11
79.0565265638
 21
196.2743666207
  0
LINE
  5
403
100
AcDbEntity
  8
KONSTRUKTIONSELEMENTE
100
AcDbLine
 62
7
  6
CONTINUOUS
 10
45.0841884084
 20
71.9326954487
 11
44.0475144905
 21
71.6453182176
  0
LINE
  5
404
100
AcDbEntity
  8
KONSTRUKTIONSELEMENTE
100
AcDbLine
 62
7
  6
CONTINUOUS
 10
40.2424558899
 20
79.3705412596
 11
39.1855662357
 21
79.1698871047
  0
LINE
  5
405
100
AcDbEntity
  8
KONSTRUKTIONSELEMENTE
100
AcDbLine
 62
7
  6
CONTINUOUS
 10
44.7320560522
 20
72.9173979838
 11
43.9075275041
 21
72.7720851243
  0
LINE
  5
406
100
AcDbEntity
  8
KONSTRUKTIONSELEMENTE
100
AcDbLine
 62
7
  6
CONTINUOUS
 10
39.9729709525
 20
80.3809937065
 11
39.1392494566
 21
80.3043714697
  0
LINE
  5
407
100
AcDbEntity
  8
KONSTRUKTIONSELEMENTE
100
AcDbLine
 62
7
  6
CONTINUOUS
 10
182.3383082315
 20
57.2233742918
 11
180.8141183169
 21
57.9576053709
  0
LINE
  5
408
100
AcDbEntity
  8
KONSTRUKTIONSELEMENTE
100
AcDbLine
 62
7
  6
CONTINUOUS
 10
150.7963955911
 20
38.7718823035
 11
150.1437140177
 21
39.4182641882
  0
LINE
  5
409
100
AcDbEntity
  8
KONSTRUKTIONSELEMENTE
100
AcDbLine
 62
7
  6
CONTINUOUS
 10
143.8578768858
 20
37.399895847
 11
143.0585525511
 21
38.3278888138
  0
LINE
  5
40A
100
AcDbEntity
  8
KONSTRUKTIONSELEMENTE
100
AcDbLine
 62
7
  6
CONTINUOUS
 10
113.3964143253
 20
27.9655138802
 11
112.8566923056
 21
29.064964044
  0
LINE
  5
40B
100
AcDbEntity
  8
KONSTRUKTIONSELEMENTE
100
AcDbLine
 62
7
  6
CONTINUOUS
 10
119.8027362994
 20
36.6635106212
 11
119.2630065947
 21
37.7629616872
  0
LINE
  5
40C
100
AcDbEntity
  8
KONSTRUKTIONSELEMENTE
100
AcDbLine
 62
7
  6
CONTINUOUS
 10
104.6643059827
 20
29.6522325539
 11
104.2194102047
 21
30.7933586337
  0
LINE
  5
40D
100
AcDbEntity
  8
KONSTRUKTIONSELEMENTE
100
AcDbLine
 62
7
  6
CONTINUOUS
 10
80.8734863064
 20
50.0870159389
 11
80.7034280259
 21
51.0944189292
  0
LINE
  5
40E
100
AcDbEntity
  8
KONSTRUKTIONSELEMENTE
100
AcDbLine
 62
7
  6
CONTINUOUS
 10
79.9038248751
 20
49.4871205716
 11
79.8861668612
 21
50.099256814
  0
LINE
  5
40F
100
AcDbEntity
  8
KONSTRUKTIONSELEMENTE
100
AcDbLine
 62
7
  6
CONTINUOUS
 10
70.1962514213
 20
49.4186108433
 11
70.2287309924
 21
50.0301397977
  0
LINE
  5
410
100
AcDbEntity
  8
KONSTRUKTIONSELEMENTE
100
AcDbLine
 62
7
  6
CONTINUOUS
 10
73.2368401741
 20
53.5210452729
 11
73.2693197453
 21
54.1325742274
  0
LINE
  5
411
100
AcDbEntity
  8
KONSTRUKTIONSELEMENTE
100
AcDbLine
 62
7
  6
CONTINUOUS
 10
57.8622557626
 20
54.4799300037
 11
58.0292360725
 21
55.6932779869
  0
LINE
  5
412
100
AcDbEntity
  8
0
100
AcDbLine
 62
7
  6
CONTINUOUS
 10
75.3165824007
 20
138.8912695007
 11
82.1943512005
 21
187.8291373761
  0
LINE
  5
413
100
AcDbEntity
  8
KONSTRUKTIONSELEMENTE
100
AcDbLine
 62
7
  6
CONTINUOUS
 10
63.8511259522
 20
66.4511247366
 11
64.0069238129
 21
67.4346590513
  0
LINE
  5
414
100
AcDbEntity
  8
KONSTRUKTIONSELEMENTE
100
AcDbLine
 62
7
  6
CONTINUOUS
 10
43.5074172711
 20
90.5608465295
 11
43.925289678
 21
91.4931347326
  0
LINE
  5
415
100
AcDbEntity
  8
KONSTRUKTIONSELEMENTE
100
AcDbLine
 62
7
  6
CONTINUOUS
 10
136.8089940476
 20
232.0218221368
 11
136.5988954756
 21
231.8927274908
  0
LINE
  5
416
100
AcDbEntity
  8
0
100
AcDbLine
 62
7
  6
CONTINUOUS
 10
162.1490707898
 20
247.5919814383
 11
80.7857682153
 21
197.5984634523
  0
LINE
  5
417
100
AcDbEntity
  8
KONSTRUKTIONSELEMENTE
100
AcDbLine
 62
7
  6
CONTINUOUS
 10
41.2297684005
 20
88.7840129031
 11
40.4624666401
 21
88.6212043152
  0
LINE
  5
418
100
AcDbEntity
  8
KONSTRUKTIONSELEMENTE
100
AcDbLine
 62
7
  6
CONTINUOUS
 10
41.0429249929
 20
89.8129569345
 11
40.2756232324
 21
89.6501483467
  0
LINE
  5
419
100
AcDbEntity
  8
KONSTRUKTIONSELEMENTE
100
AcDbLine
 62
7
  6
CONTINUOUS
 10
148.8232283131
 20
30.014834249
 11
147.8487899633
 21
31.3765714837
  0
LINE
  5
41A
100
AcDbEntity
  8
KONSTRUKTIONSELEMENTE
100
AcDbLine
 62
7
  6
CONTINUOUS
 10
150.8301399844
 20
36.9532737161
 11
149.8557015251
 21
38.315011476
  0
LINE
  5
41B
100
AcDbEntity
  8
KONSTRUKTIONSELEMENTE
100
AcDbLine
 62
7
  6
CONTINUOUS
 10
143.1481356354
 20
36.2803135267
 11
142.7163127137
 21
36.9975954976
  0
LINE
  5
41C
100
AcDbEntity
  8
KONSTRUKTIONSELEMENTE
100
AcDbLine
 62
7
  6
CONTINUOUS
 10
111.7826883353
 20
37.7777885437
 11
111.3378001007
 21
38.9189129004
  0
LINE
  5
41D
100
AcDbEntity
  8
KONSTRUKTIONSELEMENTE
100
AcDbLine
 62
7
  6
CONTINUOUS
 10
113.9278616969
 20
29.4415223442
 11
113.6906946552
 21
30.2444645936
  0
LINE
  5
41E
100
AcDbEntity
  8
KONSTRUKTIONSELEMENTE
100
AcDbLine
 62
7
  6
CONTINUOUS
 10
105.3185676974
 20
31.0780564113
 11
105.1501050265
 21
31.8981658913
  0
LINE
  5
41F
100
AcDbEntity
  8
KONSTRUKTIONSELEMENTE
100
AcDbLine
 62
7
  6
CONTINUOUS
 10
104.2194102047
 20
30.7933586337
 11
104.1049252368
 21
31.8630164079
  0
LINE
  5
420
100
AcDbEntity
  8
KONSTRUKTIONSELEMENTE
100
AcDbLine
 62
7
  6
CONTINUOUS
 10
80.7652360034
 20
48.9519390186
 11
80.8734863064
 21
50.0870159389
  0
LINE
  5
421
100
AcDbEntity
  8
KONSTRUKTIONSELEMENTE
100
AcDbLine
 62
7
  6
CONTINUOUS
 10
67.9091788331
 20
58.2232898021
 11
68.0761590839
 21
59.4366377182
  0
LINE
  5
422
100
AcDbEntity
  8
KONSTRUKTIONSELEMENTE
100
AcDbLine
 62
7
  6
CONTINUOUS
 10
71.1630217304
 20
49.0198735257
 11
71.3637689494
 21
50.1422898019
  0
LINE
  5
423
100
AcDbEntity
  8
KONSTRUKTIONSELEMENTE
100
AcDbLine
 62
7
  6
CONTINUOUS
 10
50.296392752
 20
62.690549336
 11
50.8874278065
 21
64.3104882988
  0
LINE
  5
424
100
AcDbEntity
  8
KONSTRUKTIONSELEMENTE
100
AcDbLine
 62
7
  6
CONTINUOUS
 10
51.0483078296
 20
76.3334398926
 11
51.5207040215
 21
77.4634552872
  0
LINE
  5
425
100
AcDbEntity
  8
KONSTRUKTIONSELEMENTE
100
AcDbLine
 62
7
  6
CONTINUOUS
 10
36.1580644321
 20
82.5149163014
 11
36.7223015386
 21
83.6019901832
  0
LINE
  5
426
100
AcDbEntity
  8
KONSTRUKTIONSELEMENTE
100
AcDbLine
 62
7
  6
CONTINUOUS
 10
42.3678716728
 20
90.600261911
 11
42.6930437645
 21
91.1191903032
  0
LINE
  5
427
100
AcDbEntity
  8
KONSTRUKTIONSELEMENTE
100
AcDbLine
 62
7
  6
CONTINUOUS
 10
57.1153673902
 20
162.2019552329
 11
65.57992937
 21
166.5148649804
  0
LINE
  5
428
100
AcDbEntity
  8
KONSTRUKTIONSELEMENTE
100
AcDbLine
 62
7
  6
CONTINUOUS
 10
181.6491292374
 20
55.5156386173
 11
180.8219045387
 21
56.2658055953
  0
LINE
  5
429
100
AcDbEntity
  8
KONSTRUKTIONSELEMENTE
100
AcDbLine
 62
7
  6
CONTINUOUS
 10
183.165531484
 20
56.4732064007
 11
182.3383082315
 21
57.2233742918
  0
LINE
  5
42A
100
AcDbEntity
  8
KONSTRUKTIONSELEMENTE
100
AcDbLine
 62
7
  6
CONTINUOUS
 10
165.3944897264
 20
35.0546149824
 11
156.3021125473
 21
47.3458343193
  0
LINE
  5
42B
100
AcDbEntity
  8
KONSTRUKTIONSELEMENTE
100
AcDbLine
 62
7
  6
CONTINUOUS
 10
165.0327468284
 20
32.6195619691
 11
154.6234254454
 21
46.7146279764
  0
LINE
  5
42C
100
AcDbEntity
  8
KONSTRUKTIONSELEMENTE
100
AcDbLine
 62
7
  6
CONTINUOUS
 10
147.8825342471
 20
29.5579634215
 11
147.343219471
 21
30.4887799259
  0
LINE
  5
42D
100
AcDbEntity
  8
KONSTRUKTIONSELEMENTE
100
AcDbLine
 62
7
  6
CONTINUOUS
 10
151.3357027563
 20
37.8410643954
 11
150.7963955911
 21
38.7718823035
  0
LINE
  5
42E
100
AcDbEntity
  8
KONSTRUKTIONSELEMENTE
100
AcDbLine
 62
7
  6
CONTINUOUS
 10
112.8566923056
 20
29.064964044
 11
112.6522230974
 21
30.1211231872
  0
LINE
  5
42F
100
AcDbEntity
  8
KONSTRUKTIONSELEMENTE
100
AcDbLine
 62
7
  6
CONTINUOUS
 10
74.2036104832
 20
53.1223079553
 11
74.4043577022
 21
54.2447242315
  0
LINE
  5
430
100
AcDbEntity
  8
KONSTRUKTIONSELEMENTE
100
AcDbLine
 62
7
  6
CONTINUOUS
 10
59.1279322818
 20
55.4068051992
 11
59.3800698494
 21
56.2051713389
  0
LINE
  5
431
100
AcDbEntity
  8
KONSTRUKTIONSELEMENTE
100
AcDbLine
 62
7
  6
CONTINUOUS
 10
66.5583447018
 20
57.7113960474
 11
66.8104827419
 21
58.5097627241
  0
LINE
  5
432
100
AcDbEntity
  8
KONSTRUKTIONSELEMENTE
100
AcDbLine
 62
7
  6
CONTINUOUS
 10
65.2644002083
 20
65.8725753734
 11
65.8554348623
 21
67.4925146276
  0
LINE
  5
433
100
AcDbEntity
  8
KONSTRUKTIONSELEMENTE
100
AcDbLine
 62
7
  6
CONTINUOUS
 10
58.0292360725
 20
55.6932779869
 11
58.4500197482
 21
56.6833377202
  0
LINE
  5
434
100
AcDbEntity
  8
KONSTRUKTIONSELEMENTE
100
AcDbLine
 62
7
  6
CONTINUOUS
 10
157.9844731155
 20
257.2967384653
 11
159.0737511855
 21
258.9740796011
  0
LINE
  5
435
100
AcDbEntity
  8
KONSTRUKTIONSELEMENTE
100
AcDbLine
 62
7
  6
CONTINUOUS
 10
37.6612906383
 20
82.9636333168
 11
38.1665766847
 21
83.6312029125
  0
LINE
  5
436
100
AcDbEntity
  8
KONSTRUKTIONSELEMENTE
100
AcDbLine
 62
7
  6
CONTINUOUS
 10
42.787187057
 20
89.6768860204
 11
43.5074172711
 21
90.5608465295
  0
LINE
  5
437
100
AcDbEntity
  8
KONSTRUKTIONSELEMENTE
100
AcDbLine
 62
7
  6
CONTINUOUS
 10
57.6125589745
 20
171.6889358131
 11
65.57992937
 21
166.5148649804
  0
LINE
  5
438
100
AcDbEntity
  8
KONSTRUKTIONSELEMENTE
100
AcDbLine
 62
7
  6
CONTINUOUS
 10
151.6574596423
 20
37.1257085203
 11
151.3357027563
 21
37.8410643954
  0
LINE
  5
439
100
AcDbEntity
  8
KONSTRUKTIONSELEMENTE
100
AcDbLine
 62
7
  6
CONTINUOUS
 10
147.343219471
 20
30.4887799259
 11
147.0214703054
 21
31.2041366795
  0
LINE
  5
43A
100
AcDbEntity
  8
KONSTRUKTIONSELEMENTE
100
AcDbLine
 62
7
  6
CONTINUOUS
 10
147.0214703054
 20
31.2041366795
 11
146.5955223265
 21
32.4193878037
  0
LINE
  5
43B
100
AcDbEntity
  8
KONSTRUKTIONSELEMENTE
100
AcDbLine
 62
7
  6
CONTINUOUS
 10
118.8010998075
 20
35.5056560851
 11
118.7315669309
 21
36.2869524983
  0
LINE
  5
43C
100
AcDbEntity
  8
KONSTRUKTIONSELEMENTE
100
AcDbLine
 62
7
  6
CONTINUOUS
 10
113.6906946552
 20
30.2444645936
 11
113.6538594977
 21
31.2789770138
  0
LINE
  5
43D
100
AcDbEntity
  8
KONSTRUKTIONSELEMENTE
100
AcDbLine
 62
7
  6
CONTINUOUS
 10
110.6867955668
 20
36.7087133226
 11
110.6835308804
 21
37.4930909409
  0
LINE
  5
43E
100
AcDbEntity
  8
KONSTRUKTIONSELEMENTE
100
AcDbLine
 62
7
  6
CONTINUOUS
 10
112.6522230974
 20
30.1211231872
 11
112.6480857505
 21
31.4088523237
  0
LINE
  5
43F
100
AcDbEntity
  8
KONSTRUKTIONSELEMENTE
100
AcDbLine
 62
7
  6
CONTINUOUS
 10
105.1501050265
 20
31.8981658913
 11
105.2008102918
 21
32.9320925656
  0
LINE
  5
440
100
AcDbEntity
  8
KONSTRUKTIONSELEMENTE
100
AcDbLine
 62
7
  6
CONTINUOUS
 10
98.2606490993
 20
32.2110928381
 11
99.0777448949
 21
42.9121443221
  0
LINE
  5
441
100
AcDbEntity
  8
KONSTRUKTIONSELEMENTE
100
AcDbLine
 62
7
  6
CONTINUOUS
 10
97.1639235747
 20
30.9457703276
 11
98.1084725224
 21
43.2104051048
  0
LINE
  5
442
100
AcDbEntity
  8
KONSTRUKTIONSELEMENTE
100
AcDbLine
 62
7
  6
CONTINUOUS
 10
104.1049252368
 20
31.8630164079
 11
104.2096081674
 21
33.1464912017
  0
LINE
  5
443
100
AcDbEntity
  8
KONSTRUKTIONSELEMENTE
100
AcDbLine
 62
7
  6
CONTINUOUS
 10
83.8824531041
 20
36.0747113623
 11
86.9217518196
 21
47.9942794019
  0
LINE
  5
444
100
AcDbEntity
  8
KONSTRUKTIONSELEMENTE
100
AcDbLine
 62
7
  6
CONTINUOUS
 10
82.9789000142
 20
36.535189636
 11
83.7677041057
 21
39.5719537342
  0
LINE
  5
445
100
AcDbEntity
  8
KONSTRUKTIONSELEMENTE
100
AcDbLine
 62
7
  6
CONTINUOUS
 10
84.0808399724
 20
40.5586242493
 11
85.8556596404
 21
47.3913384394
  0
LINE
  5
446
100
AcDbEntity
  8
KONSTRUKTIONSELEMENTE
100
AcDbLine
 62
7
  6
CONTINUOUS
 10
75.7975514914
 20
40.3155547313
 11
77.6044314124
 21
46.106372995
  0
LINE
  5
447
100
AcDbEntity
  8
KONSTRUKTIONSELEMENTE
100
AcDbLine
 62
7
  6
CONTINUOUS
 10
74.7925740324
 20
40.9399318488
 11
76.4735423505
 21
46.2078114761
  0
LINE
  5
448
100
AcDbEntity
  8
KONSTRUKTIONSELEMENTE
100
AcDbLine
 62
7
  6
CONTINUOUS
 10
67.4883952755
 20
57.2332302031
 11
67.9091788331
 21
58.2232898021
  0
LINE
  5
449
100
AcDbEntity
  8
KONSTRUKTIONSELEMENTE
100
AcDbLine
 62
7
  6
CONTINUOUS
 10
52.300702264
 20
63.7319390977
 11
52.8836980205
 21
64.7733284784
  0
LINE
  5
44A
100
AcDbEntity
  8
KONSTRUKTIONSELEMENTE
100
AcDbLine
 62
7
  6
CONTINUOUS
 10
49.6113964366
 20
76.1848764405
 11
50.0597398099
 21
76.8919496114
  0
LINE
  5
44B
100
AcDbEntity
  8
KONSTRUKTIONSELEMENTE
100
AcDbLine
 62
7
  6
CONTINUOUS
 10
50.8874278065
 20
64.3104882988
 11
51.7579021314
 21
65.5832976727
  0
LINE
  5
44C
100
AcDbEntity
  8
KONSTRUKTIONSELEMENTE
100
AcDbLine
 62
7
  6
CONTINUOUS
 10
50.3878198294
 20
75.4843028475
 11
51.0483078296
 21
76.3334398926
  0
LINE
  5
44D
100
AcDbEntity
  8
KONSTRUKTIONSELEMENTE
100
AcDbLine
 62
7
  6
CONTINUOUS
 10
36.7223015386
 20
83.6019901832
 11
37.4507559782
 21
84.3935912743
  0
LINE
  5
44E
100
AcDbEntity
  8
0
100
AcDbLine
 62
7
  6
CONTINUOUS
 10
73.6107532294
 20
199.490506044
 11
76.2349893454
 21
196.4716677231
  0
LINE
  5
44F
100
AcDbEntity
  8
0
100
AcDbLine
 62
7
  6
CONTINUOUS
 10
77.7416896864
 20
204.8612414528
 11
77.242323164
 21
205.5744107563
  0
LINE
  5
450
100
AcDbEntity
  8
KONSTRUKTIONSELEMENTE
100
AcDbLine
 62
7
  6
CONTINUOUS
 10
180.7082709938
 20
39.6510601116
 11
171.7079186153
 21
53.9039984465
  0
LINE
  5
451
100
AcDbEntity
  8
KONSTRUKTIONSELEMENTE
100
AcDbLine
 62
7
  6
CONTINUOUS
 10
182.2246732404
 20
40.6086278949
 11
178.2032391419
 21
46.9769621349
  0
LINE
  5
452
100
AcDbEntity
  8
KONSTRUKTIONSELEMENTE
100
AcDbLine
 62
7
  6
CONTINUOUS
 10
177.0542581242
 20
48.7964859608
 11
174.1818050434
 21
53.345296375
  0
LINE
  5
453
100
AcDbEntity
  8
KONSTRUKTIONSELEMENTE
100
AcDbLine
 62
7
  6
CONTINUOUS
 10
175.4481886832
 20
37.0498998303
 11
167.9046818693
 21
52.1246502118
  0
LINE
  5
454
100
AcDbEntity
  8
KONSTRUKTIONSELEMENTE
100
AcDbLine
 62
7
  6
CONTINUOUS
 10
152.0834075481
 20
35.9104577463
 11
151.6574596423
 21
37.1257085203
  0
LINE
  5
455
100
AcDbEntity
  8
KONSTRUKTIONSELEMENTE
100
AcDbLine
 62
7
  6
CONTINUOUS
 10
147.8487899633
 20
31.3765714837
 11
147.3707539758
 21
32.8417719861
  0
LINE
  5
456
100
AcDbEntity
  8
KONSTRUKTIONSELEMENTE
100
AcDbLine
 62
7
  6
CONTINUOUS
 10
151.3081683244
 20
35.4880719852
 11
150.8301399844
 21
36.9532737161
  0
LINE
  5
457
100
AcDbEntity
  8
KONSTRUKTIONSELEMENTE
100
AcDbLine
 62
7
  6
CONTINUOUS
 10
144.1541844759
 20
36.4080404119
 11
143.8578768858
 21
37.399895847
  0
LINE
  5
458
100
AcDbEntity
  8
KONSTRUKTIONSELEMENTE
100
AcDbLine
 62
7
  6
CONTINUOUS
 10
119.8068735547
 20
35.3757807752
 11
119.8027362994
 21
36.6635106212
  0
LINE
  5
459
100
AcDbEntity
  8
KONSTRUKTIONSELEMENTE
100
AcDbLine
 62
7
  6
CONTINUOUS
 10
121.0349278141
 20
26.3058242182
 11
121.5497892673
 21
38.2947740339
  0
LINE
  5
45A
100
AcDbEntity
  8
KONSTRUKTIONSELEMENTE
100
AcDbLine
 62
7
  6
CONTINUOUS
 10
122.048118422
 20
26.2623130853
 11
122.289117402
 21
31.8741619808
  0
LINE
  5
45B
100
AcDbEntity
  8
KONSTRUKTIONSELEMENTE
100
AcDbLine
 62
7
  6
CONTINUOUS
 10
122.3548443882
 20
33.4046660302
 11
122.5629798752
 21
38.251262901
  0
LINE
  5
45C
100
AcDbEntity
  8
KONSTRUKTIONSELEMENTE
100
AcDbLine
 62
7
  6
CONTINUOUS
 10
111.6779976912
 20
36.4943146866
 11
111.7826883353
 21
37.7777885437
  0
LINE
  5
45D
100
AcDbEntity
  8
KONSTRUKTIONSELEMENTE
100
AcDbLine
 62
7
  6
CONTINUOUS
 10
112.6480857505
 20
31.4088523237
 11
113.1385529556
 21
35.207103424
  0
LINE
  5
45E
100
AcDbEntity
  8
KONSTRUKTIONSELEMENTE
100
AcDbLine
 62
7
  6
CONTINUOUS
 10
79.6431775915
 20
48.7473083578
 11
79.9038248751
 21
49.4871205716
  0
LINE
  5
45F
100
AcDbEntity
  8
KONSTRUKTIONSELEMENTE
100
AcDbLine
 62
7
  6
CONTINUOUS
 10
80.5045887198
 20
48.2121268048
 11
80.7652360034
 21
48.9519390186
  0
LINE
  5
460
100
AcDbEntity
  8
KONSTRUKTIONSELEMENTE
100
AcDbLine
 62
7
  6
CONTINUOUS
 10
69.8759541441
 20
48.7026015415
 11
70.1962514213
 21
49.4186108433
  0
LINE
  5
461
100
AcDbEntity
  8
KONSTRUKTIONSELEMENTE
100
AcDbLine
 62
7
  6
CONTINUOUS
 10
70.8427244532
 20
48.3038642239
 11
71.1630217304
 21
49.0198735257
  0
LINE
  5
462
100
AcDbEntity
  8
KONSTRUKTIONSELEMENTE
100
AcDbLine
 62
7
  6
CONTINUOUS
 10
72.916542684
 20
52.8050356838
 11
73.2368401741
 21
53.5210452729
  0
LINE
  5
463
100
AcDbEntity
  8
KONSTRUKTIONSELEMENTE
100
AcDbLine
 62
7
  6
CONTINUOUS
 10
73.8833134189
 20
52.4062989408
 11
74.2036104832
 21
53.1223079553
  0
LINE
  5
464
100
AcDbEntity
  8
KONSTRUKTIONSELEMENTE
100
AcDbLine
 62
7
  6
CONTINUOUS
 10
59.3800698494
 20
56.2051713389
 11
59.9277521559
 21
57.0835893347
  0
LINE
  5
465
100
AcDbEntity
  8
KONSTRUKTIONSELEMENTE
100
AcDbLine
 62
7
  6
CONTINUOUS
 10
66.0106623954
 20
56.8329780516
 11
66.5583447018
 21
57.7113960474
  0
LINE
  5
466
100
AcDbEntity
  8
KONSTRUKTIONSELEMENTE
100
AcDbLine
 62
7
  6
CONTINUOUS
 10
58.4500197482
 20
56.6833377202
 11
59.1663480446
 21
57.7534491753
  0
LINE
  5
467
100
AcDbEntity
  8
KONSTRUKTIONSELEMENTE
100
AcDbLine
 62
7
  6
CONTINUOUS
 10
33.8605505298
 20
85.2519358216
 11
38.5784335658
 21
89.065067195
  0
LINE
  5
468
100
AcDbEntity
  8
KONSTRUKTIONSELEMENTE
100
AcDbLine
 62
7
  6
CONTINUOUS
 10
33.371349115
 20
86.3292079874
 11
37.6941741285
 21
89.7773070238
  0
LINE
  5
469
100
AcDbEntity
  8
KONSTRUKTIONSELEMENTE
100
AcDbLine
 62
7
  6
CONTINUOUS
 10
65.3719157141
 20
158.9153366846
 11
67.2693118302
 21
158.8158983677
  0
LINE
  5
46A
100
AcDbEntity
  8
KONSTRUKTIONSELEMENTE
100
AcDbLine
 62
7
  6
CONTINUOUS
 10
183.0104749082
 20
152.7501610392
 11
184.9078710243
 21
152.6507227223
  0
LINE
  5
46B
100
AcDbEntity
  8
KONSTRUKTIONSELEMENTE
100
AcDbLine
 62
7
  6
CONTINUOUS
 10
181.6491292374
 20
55.5156386173
 11
182.2236202827
 21
54.6058758549
  0
LINE
  5
46C
100
AcDbEntity
  8
KONSTRUKTIONSELEMENTE
100
AcDbLine
 62
7
  6
CONTINUOUS
 10
183.165531484
 20
56.4732064007
 11
183.9315193657
 21
55.2601896672
  0
LINE
  5
46D
100
AcDbEntity
  8
KONSTRUKTIONSELEMENTE
100
AcDbLine
 62
7
  6
CONTINUOUS
 10
169.5085185525
 20
52.9272209106
 11
177.0520253665
 21
37.8524705292
  0
LINE
  5
46E
100
AcDbEntity
  8
KONSTRUKTIONSELEMENTE
100
AcDbLine
 62
7
  6
CONTINUOUS
 10
154.4076436642
 20
33.6366716274
 11
154.0725220976
 21
34.8684957851
  0
LINE
  5
46F
100
AcDbEntity
  8
KONSTRUKTIONSELEMENTE
100
AcDbLine
 62
7
  6
CONTINUOUS
 10
156.3558188148
 20
35.489673709
 11
156.6909403814
 21
34.2578495513
  0
LINE
  5
470
100
AcDbEntity
  8
KONSTRUKTIONSELEMENTE
100
AcDbLine
 62
7
  6
CONTINUOUS
 10
146.5955223265
 20
32.4193878037
 11
146.1266620799
 21
34.6689179998
  0
LINE
  5
471
100
AcDbEntity
  8
KONSTRUKTIONSELEMENTE
100
AcDbLine
 62
7
  6
CONTINUOUS
 10
147.3707539758
 20
32.8417719861
 11
147.0060848951
 21
34.5914065831
  0
LINE
  5
472
100
AcDbEntity
  8
KONSTRUKTIONSELEMENTE
100
AcDbLine
 62
7
  6
CONTINUOUS
 10
151.3081683244
 20
35.4880719852
 11
151.6728374052
 21
33.7384373882
  0
LINE
  5
473
100
AcDbEntity
  8
KONSTRUKTIONSELEMENTE
100
AcDbLine
 62
7
  6
CONTINUOUS
 10
152.0834075481
 20
35.9104577463
 11
152.5522677948
 21
33.6609275502
  0
LINE
  5
474
100
AcDbEntity
  8
KONSTRUKTIONSELEMENTE
100
AcDbLine
 62
7
  6
CONTINUOUS
 10
139.2755406097
 20
26.5233825915
 11
139.1147560043
 21
27.7898126425
  0
LINE
  5
475
100
AcDbEntity
  8
KONSTRUKTIONSELEMENTE
100
AcDbLine
 62
7
  6
CONTINUOUS
 10
143.1481356354
 20
36.2803135267
 11
143.2124495586
 21
35.7737408677
  0
LINE
  5
476
100
AcDbEntity
  8
KONSTRUKTIONSELEMENTE
100
AcDbLine
 62
7
  6
CONTINUOUS
 10
144.1541844759
 20
36.4080404119
 11
144.2184983991
 21
35.901467753
  0
LINE
  5
477
100
AcDbEntity
  8
KONSTRUKTIONSELEMENTE
100
AcDbLine
 62
7
  6
CONTINUOUS
 10
145.1510490472
 20
28.556173954
 11
145.3118336525
 21
27.289743903
  0
LINE
  5
478
100
AcDbEntity
  8
KONSTRUKTIONSELEMENTE
100
AcDbLine
 62
7
  6
CONTINUOUS
 10
151.6728374052
 20
33.7384373882
 11
151.8199561336
 21
32.2042651743
  0
LINE
  5
479
100
AcDbEntity
  8
KONSTRUKTIONSELEMENTE
100
AcDbLine
 62
7
  6
CONTINUOUS
 10
146.858973814
 20
36.1255800256
 11
147.0060848951
 21
34.5914065831
  0
LINE
  5
47A
100
AcDbEntity
  8
KONSTRUKTIONSELEMENTE
100
AcDbLine
 62
7
  6
CONTINUOUS
 10
146.0316541561
 20
35.9531452214
 11
146.1266620799
 21
34.6689179998
  0
LINE
  5
47B
100
AcDbEntity
  8
KONSTRUKTIONSELEMENTE
100
AcDbLine
 62
7
  6
CONTINUOUS
 10
127.2912001354
 20
38.0482110581
 11
127.0830646484
 21
33.2016141873
  0
LINE
  5
47C
100
AcDbEntity
  8
KONSTRUKTIONSELEMENTE
100
AcDbLine
 62
7
  6
CONTINUOUS
 10
127.0173376622
 20
31.6711101379
 11
126.7763386822
 21
26.0592612424
  0
LINE
  5
47D
100
AcDbEntity
  8
KONSTRUKTIONSELEMENTE
100
AcDbLine
 62
7
  6
CONTINUOUS
 10
128.3043907433
 20
38.0046999252
 11
127.7895292901
 21
26.0157501095
  0
LINE
  5
47E
100
AcDbEntity
  8
KONSTRUKTIONSELEMENTE
100
AcDbLine
 62
7
  6
CONTINUOUS
 10
113.6538594977
 20
31.2789770138
 11
114.1443267028
 21
35.0772281141
  0
LINE
  5
47F
100
AcDbEntity
  8
KONSTRUKTIONSELEMENTE
100
AcDbLine
 62
7
  6
CONTINUOUS
 10
116.9981588912
 20
33.4215186026
 11
116.8019720275
 21
31.9022183043
  0
LINE
  5
480
100
AcDbEntity
  8
KONSTRUKTIONSELEMENTE
100
AcDbLine
 62
7
  6
CONTINUOUS
 10
118.3106326482
 20
31.7074053395
 11
118.0490501175
 21
29.6816712538
  0
LINE
  5
481
100
AcDbEntity
  8
KONSTRUKTIONSELEMENTE
100
AcDbLine
 62
7
  6
CONTINUOUS
 10
119.5125932591
 20
33.0968303278
 11
119.0221260541
 21
29.2985792275
  0
LINE
  5
482
100
AcDbEntity
  8
KONSTRUKTIONSELEMENTE
100
AcDbLine
 62
7
  6
CONTINUOUS
 10
104.2096081674
 20
33.1464912017
 11
105.0192732215
 21
36.8897133432
  0
LINE
  5
483
100
AcDbEntity
  8
KONSTRUKTIONSELEMENTE
100
AcDbLine
 62
7
  6
CONTINUOUS
 10
105.2008102918
 20
32.9320925656
 11
106.0104753459
 21
36.6753147071
  0
LINE
  5
484
100
AcDbEntity
  8
KONSTRUKTIONSELEMENTE
100
AcDbLine
 62
7
  6
CONTINUOUS
 10
70.3419487741
 20
43.7050372197
 11
76.6746809678
 21
53.8980006241
  0
LINE
  5
485
100
AcDbEntity
  8
KONSTRUKTIONSELEMENTE
100
AcDbLine
 62
7
  6
CONTINUOUS
 10
71.2033599024
 20
43.1698556668
 11
74.0328785823
 21
47.7241585291
  0
LINE
  5
486
100
AcDbEntity
  8
KONSTRUKTIONSELEMENTE
100
AcDbLine
 62
7
  6
CONTINUOUS
 10
74.841312383
 20
49.0253877447
 11
76.8623972622
 21
52.2784613914
  0
LINE
  5
487
100
AcDbEntity
  8
KONSTRUKTIONSELEMENTE
100
AcDbLine
 62
7
  6
CONTINUOUS
 10
66.7720665066
 20
56.163118211
 11
67.4883952755
 21
57.2332302031
  0
LINE
  5
488
100
AcDbEntity
  8
KONSTRUKTIONSELEMENTE
100
AcDbLine
 62
7
  6
CONTINUOUS
 10
63.3860170377
 20
48.745714851
 11
70.5314004578
 21
58.3864355595
  0
LINE
  5
489
100
AcDbEntity
  8
KONSTRUKTIONSELEMENTE
100
AcDbLine
 62
7
  6
CONTINUOUS
 10
63.1284096243
 20
65.5832997676
 11
63.8511259522
 21
66.4511247366
  0
LINE
  5
48A
100
AcDbEntity
  8
KONSTRUKTIONSELEMENTE
100
AcDbLine
 62
7
  6
CONTINUOUS
 10
52.8836980205
 20
64.7733284784
 11
53.8938917728
 21
65.8725728009
  0
LINE
  5
48B
100
AcDbEntity
  8
KONSTRUKTIONSELEMENTE
100
AcDbLine
 62
7
  6
CONTINUOUS
 10
51.7579021314
 20
65.5832976727
 11
53.0555741758
 21
66.9139619195
  0
LINE
  5
48C
100
AcDbEntity
  8
KONSTRUKTIONSELEMENTE
100
AcDbLine
 62
7
  6
CONTINUOUS
 10
48.856861456
 20
75.4761801774
 11
49.6113964366
 21
76.1848764405
  0
LINE
  5
48D
100
AcDbEntity
  8
KONSTRUKTIONSELEMENTE
100
AcDbLine
 62
7
  6
CONTINUOUS
 10
49.4211390333
 20
74.6335419144
 11
50.3878198294
 21
75.4843028475
  0
LINE
  5
48E
100
AcDbEntity
  8
KONSTRUKTIONSELEMENTE
100
AcDbLine
 62
7
  6
CONTINUOUS
 10
38.1665766847
 20
83.6312029125
 11
38.9771401827
 21
84.275066443
  0
LINE
  5
48F
100
AcDbEntity
  8
KONSTRUKTIONSELEMENTE
100
AcDbLine
 62
7
  6
CONTINUOUS
 10
41.7403415738
 20
90.1296616531
 11
42.3678716728
 21
90.600261911
  0
LINE
  5
490
100
AcDbEntity
  8
KONSTRUKTIONSELEMENTE
100
AcDbLine
 62
7
  6
CONTINUOUS
 10
42.159656958
 20
89.2062857626
 11
42.787187057
 21
89.6768860204
  0
LINE
  5
491
100
AcDbEntity
  8
KONSTRUKTIONSELEMENTE
100
AcDbLine
 62
7
  6
CONTINUOUS
 10
37.4507559782
 20
84.3935912743
 11
38.4844870084
 21
85.1614874813
  0
LINE
  5
492
100
AcDbEntity
  8
KONSTRUKTIONSELEMENTE
100
AcDbLine
 62
7
  6
CONTINUOUS
 10
185.7033775592
 20
167.8298916506
 11
183.8059814431
 21
167.9293299674
  0
LINE
  5
493
100
AcDbEntity
  8
KONSTRUKTIONSELEMENTE
100
AcDbLine
 62
7
  6
CONTINUOUS
 10
68.0648183651
 20
173.995067296
 11
66.167422249
 21
174.0945056129
  0
LINE
  5
494
100
AcDbEntity
  8
KONSTRUKTIONSELEMENTE
100
AcDbLine
 62
7
  6
CONTINUOUS
 10
152.5522677948
 20
33.6609275502
 11
152.6472757915
 21
32.3766999785
  0
LINE
  5
495
100
AcDbEntity
  8
KONSTRUKTIONSELEMENTE
100
AcDbLine
 62
7
  6
CONTINUOUS
 10
146.040829678
 20
36.7374759654
 11
146.0316541561
 21
35.9531452214
  0
LINE
  5
496
100
AcDbEntity
  8
KONSTRUKTIONSELEMENTE
100
AcDbLine
 62
7
  6
CONTINUOUS
 10
138.3246082632
 20
36.6973979781
 11
138.2855636813
 21
35.6629665898
  0
LINE
  5
497
100
AcDbEntity
  8
KONSTRUKTIONSELEMENTE
100
AcDbLine
 62
7
  6
CONTINUOUS
 10
144.2184983991
 20
35.901467753
 11
144.1794461416
 21
34.8670353902
  0
LINE
  5
498
100
AcDbEntity
  8
KONSTRUKTIONSELEMENTE
100
AcDbLine
 62
7
  6
CONTINUOUS
 10
113.4696685003
 20
36.4515421606
 11
113.1385529556
 21
35.207103424
  0
LINE
  5
499
100
AcDbEntity
  8
KONSTRUKTIONSELEMENTE
100
AcDbLine
 62
7
  6
CONTINUOUS
 10
114.4427443453
 20
36.068449425
 11
114.1443267028
 21
35.0772281141
  0
LINE
  5
49A
100
AcDbEntity
  8
KONSTRUKTIONSELEMENTE
100
AcDbLine
 62
7
  6
CONTINUOUS
 10
105.4543670944
 20
38.1017204431
 11
105.0192732215
 21
36.8897133432
  0
LINE
  5
49B
100
AcDbEntity
  8
KONSTRUKTIONSELEMENTE
100
AcDbLine
 62
7
  6
CONTINUOUS
 10
106.3915914024
 20
37.6377729885
 11
106.0104753459
 21
36.6753147071
  0
LINE
  5
49C
100
AcDbEntity
  8
KONSTRUKTIONSELEMENTE
100
AcDbLine
 62
7
  6
CONTINUOUS
 10
79.6431775915
 20
48.7473083578
 11
79.2389603137
 21
48.0966931424
  0
LINE
  5
49D
100
AcDbEntity
  8
KONSTRUKTIONSELEMENTE
100
AcDbLine
 62
7
  6
CONTINUOUS
 10
80.5045887198
 20
48.2121268048
 11
79.9656324752
 21
47.3446400535
  0
LINE
  5
49E
100
AcDbEntity
  8
KONSTRUKTIONSELEMENTE
100
AcDbLine
 62
7
  6
CONTINUOUS
 10
65.112934535
 20
49.3725861408
 11
67.3933760996
 21
52.449411963
  0
LINE
  5
49F
100
AcDbEntity
  8
KONSTRUKTIONSELEMENTE
100
AcDbLine
 62
7
  6
CONTINUOUS
 10
68.3055525977
 20
53.6801421195
 11
70.4339648524
 21
56.5518463927
  0
LINE
  5
4A0
100
AcDbEntity
  8
KONSTRUKTIONSELEMENTE
100
AcDbLine
 62
7
  6
CONTINUOUS
 10
72.916542684
 20
52.8050356838
 11
72.6124838513
 21
52.3947922983
  0
LINE
  5
4A1
100
AcDbEntity
  8
KONSTRUKTIONSELEMENTE
100
AcDbLine
 62
7
  6
CONTINUOUS
 10
69.8759541441
 20
48.7026015415
 11
69.4198658951
 21
48.0872364632
  0
LINE
  5
4A2
100
AcDbEntity
  8
KONSTRUKTIONSELEMENTE
100
AcDbLine
 62
7
  6
CONTINUOUS
 10
73.8833134189
 20
52.4062989408
 11
73.2751953276
 21
51.5858115952
  0
LINE
  5
4A3
100
AcDbEntity
  8
KONSTRUKTIONSELEMENTE
100
AcDbLine
 62
7
  6
CONTINUOUS
 10
70.8427244532
 20
48.3038642239
 11
70.0825773714
 21
47.2782557601
  0
LINE
  5
4A4
100
AcDbEntity
  8
KONSTRUKTIONSELEMENTE
100
AcDbLine
 62
7
  6
CONTINUOUS
 10
59.1663480446
 20
57.7534491753
 11
61.6960381303
 21
60.6288513334
  0
LINE
  5
4A5
100
AcDbEntity
  8
KONSTRUKTIONSELEMENTE
100
AcDbLine
 62
7
  6
CONTINUOUS
 10
59.9277521559
 20
57.0835893347
 11
62.4574422415
 21
59.9589914928
  0
LINE
  5
4A6
100
AcDbEntity
  8
KONSTRUKTIONSELEMENTE
100
AcDbLine
 62
7
  6
CONTINUOUS
 10
66.0106623954
 20
56.8329780516
 11
63.4809723098
 21
53.9575758935
  0
LINE
  5
4A7
100
AcDbEntity
  8
KONSTRUKTIONSELEMENTE
100
AcDbLine
 62
7
  6
CONTINUOUS
 10
66.7720665066
 20
56.163118211
 11
64.242376421
 21
53.2877160529
  0
LINE
  5
4A8
100
AcDbEntity
  8
KONSTRUKTIONSELEMENTE
100
AcDbLine
 62
7
  6
CONTINUOUS
 10
63.9667272212
 20
64.5419106491
 11
65.2644002083
 21
65.8725753734
  0
LINE
  5
4A9
100
AcDbEntity
  8
KONSTRUKTIONSELEMENTE
100
AcDbLine
 62
7
  6
CONTINUOUS
 10
53.0555741758
 20
66.9139619195
 11
57.3677495226
 21
70.385260409
  0
LINE
  5
4AA
100
AcDbEntity
  8
KONSTRUKTIONSELEMENTE
100
AcDbLine
 62
7
  6
CONTINUOUS
 10
58.2060671195
 20
69.3438712904
 11
53.8938917728
 21
65.8725728009
  0
LINE
  5
4AB
100
AcDbEntity
  8
KONSTRUKTIONSELEMENTE
100
AcDbLine
 62
7
  6
CONTINUOUS
 10
39.0827864253
 20
75.8471369665
 11
49.0536130095
 21
82.52415855
  0
LINE
  5
4AC
100
AcDbEntity
  8
KONSTRUKTIONSELEMENTE
100
AcDbLine
 62
7
  6
CONTINUOUS
 10
40.9199354783
 20
75.8568844354
 11
48.3450192598
 21
80.8291346545
  0
LINE
  5
4AD
100
AcDbEntity
  8
KONSTRUKTIONSELEMENTE
100
AcDbLine
 62
7
  6
CONTINUOUS
 10
45.674682841
 20
73.3452158973
 11
48.856861456
 21
75.4761801774
  0
LINE
  5
4AE
100
AcDbEntity
  8
KONSTRUKTIONSELEMENTE
100
AcDbLine
 62
7
  6
CONTINUOUS
 10
46.2389604184
 20
72.5025776343
 11
49.4211390333
 21
74.6335419144
  0
LINE
  5
4AF
100
AcDbEntity
  8
KONSTRUKTIONSELEMENTE
100
AcDbLine
 62
7
  6
CONTINUOUS
 10
38.4844870084
 20
85.1614874813
 11
45.4026960085
 21
89.0064747696
  0
LINE
  5
4B0
100
AcDbEntity
  8
KONSTRUKTIONSELEMENTE
100
AcDbLine
 62
7
  6
CONTINUOUS
 10
38.9771401827
 20
84.275066443
 11
45.8953491828
 21
88.1200537313
  0
LINE
  5
4B1
100
AcDbEntity
  8
KONSTRUKTIONSELEMENTE
100
AcDbLine
 62
7
  6
CONTINUOUS
 10
40.9477519404
 20
80.7293839802
 11
47.8659609405
 21
84.5743712685
  0
LINE
  5
4B2
100
AcDbEntity
  8
KONSTRUKTIONSELEMENTE
100
AcDbLine
 62
7
  6
CONTINUOUS
 10
41.4404048798
 20
79.8429633645
 11
48.3586138799
 21
83.6879506528
  0
LINE
  5
4B3
100
AcDbEntity
  8
0
100
AcDbLine
 62
7
  6
CONTINUOUS
 10
191.2358249966
 20
163.2369846405
 11
185.4997636436
 21
160.3143154013
  0
LINE
  5
4B4
100
AcDbEntity
  8
KONSTRUKTIONSELEMENTE
100
AcDbLine
 62
7
  6
CONTINUOUS
 10
31.2048863634
 20
91.0999832751
 11
42.1310705644
 21
96.0616864913
  0
LINE
  5
4B5
100
AcDbEntity
  8
KONSTRUKTIONSELEMENTE
100
AcDbLine
 62
7
  6
CONTINUOUS
 10
31.6242017476
 20
90.1766073846
 11
36.5061139067
 21
92.3935386403
  0
LINE
  5
4B6
100
AcDbEntity
  8
KONSTRUKTIONSELEMENTE
100
AcDbLine
 62
7
  6
CONTINUOUS
 10
37.900945766
 20
93.026947486
 11
41.3880260658
 21
94.610469896
  0
LINE
  5
4B7
100
AcDbEntity
  8
KONSTRUKTIONSELEMENTE
100
AcDbLine
 62
7
  6
CONTINUOUS
 10
41.0429249929
 20
89.8129569345
 11
41.7403415738
 21
90.1296616531
  0
LINE
  5
4B8
100
AcDbEntity
  8
KONSTRUKTIONSELEMENTE
100
AcDbLine
 62
7
  6
CONTINUOUS
 10
95.3698887112
 20
223.7054859181
 11
95.0418591967
 21
224.0828407082
  0
LINE
  5
4B9
100
AcDbEntity
  8
KONSTRUKTIONSELEMENTE
100
AcDbLine
 62
7
  6
CONTINUOUS
 10
182.2236202827
 20
54.6058758549
 11
182.5453766018
 21
53.536519007
  0
LINE
  5
4BA
100
AcDbEntity
  8
KONSTRUKTIONSELEMENTE
100
AcDbLine
 62
7
  6
CONTINUOUS
 10
183.9315193657
 20
55.2601896672
 11
184.2532771308
 21
54.1908337325
  0
LINE
  5
4BB
100
AcDbEntity
  8
KONSTRUKTIONSELEMENTE
100
AcDbLine
 62
7
  6
CONTINUOUS
 10
165.8146725243
 20
50.9226701619
 11
167.2709961641
 21
33.4611703761
  0
LINE
  5
4BC
100
AcDbEntity
  8
KONSTRUKTIONSELEMENTE
100
AcDbLine
 62
7
  6
CONTINUOUS
 10
164.1359854224
 20
50.2914638191
 11
165.3944897264
 21
35.0546149824
  0
LINE
  5
4BD
100
AcDbEntity
  8
KONSTRUKTIONSELEMENTE
100
AcDbLine
 62
7
  6
CONTINUOUS
 10
152.6472757915
 20
32.3766999785
 11
152.6380925493
 21
31.592368356
  0
LINE
  5
4BE
100
AcDbEntity
  8
KONSTRUKTIONSELEMENTE
100
AcDbLine
 62
7
  6
CONTINUOUS
 10
146.163379754
 20
37.8062420325
 11
146.040829678
 21
36.7374759654
  0
LINE
  5
4BF
100
AcDbEntity
  8
KONSTRUKTIONSELEMENTE
100
AcDbLine
 62
7
  6
CONTINUOUS
 10
119.0221260541
 20
29.2985792275
 11
118.7237083886
 21
28.3073577394
  0
LINE
  5
4C0
100
AcDbEntity
  8
KONSTRUKTIONSELEMENTE
100
AcDbLine
 62
7
  6
CONTINUOUS
 10
110.4365113153
 20
30.7547075893
 11
110.001425118
 21
29.542699378
  0
LINE
  5
4C1
100
AcDbEntity
  8
KONSTRUKTIONSELEMENTE
100
AcDbLine
 62
7
  6
CONTINUOUS
 10
118.0490501175
 20
29.6816712538
 11
117.7833302856
 21
28.9436666593
  0
LINE
  5
4C2
100
AcDbEntity
  8
KONSTRUKTIONSELEMENTE
100
AcDbLine
 62
7
  6
CONTINUOUS
 10
109.4453091909
 20
30.9691062254
 11
109.1181783619
 21
30.2561944278
  0
LINE
  5
4C3
100
AcDbEntity
  8
KONSTRUKTIONSELEMENTE
100
AcDbLine
 62
7
  6
CONTINUOUS
 10
104.5702932692
 20
41.2219983698
 11
98.4562818081
 21
30.5480908011
  0
LINE
  5
4C4
100
AcDbEntity
  8
KONSTRUKTIONSELEMENTE
100
AcDbLine
 62
7
  6
CONTINUOUS
 10
103.6010208967
 20
41.5202591525
 11
98.2606490993
 21
32.2110928381
  0
LINE
  5
4C5
100
AcDbEntity
  8
KONSTRUKTIONSELEMENTE
100
AcDbLine
 62
7
  6
CONTINUOUS
 10
85.8556596404
 20
47.3913384394
 11
81.370180703
 21
41.9400590703
  0
LINE
  5
4C6
100
AcDbEntity
  8
KONSTRUKTIONSELEMENTE
100
AcDbLine
 62
7
  6
CONTINUOUS
 10
80.755861622
 20
41.1068807276
 11
78.7623177795
 21
38.6840888321
  0
LINE
  5
4C7
100
AcDbEntity
  8
KONSTRUKTIONSELEMENTE
100
AcDbLine
 62
7
  6
CONTINUOUS
 10
85.7170189622
 20
48.6082480914
 11
77.8587646897
 21
39.1445671057
  0
LINE
  5
4C8
100
AcDbEntity
  8
KONSTRUKTIONSELEMENTE
100
AcDbLine
 62
7
  6
CONTINUOUS
 10
62.6661702059
 20
61.4756750085
 11
61.6960381303
 21
60.6288513334
  0
LINE
  5
4C9
100
AcDbEntity
  8
KONSTRUKTIONSELEMENTE
100
AcDbLine
 62
7
  6
CONTINUOUS
 10
64.242376421
 20
53.2877160529
 11
63.2722448178
 21
52.4408929149
  0
LINE
  5
4CA
100
AcDbEntity
  8
KONSTRUKTIONSELEMENTE
100
AcDbLine
 62
7
  6
CONTINUOUS
 10
63.2589278547
 20
60.6141211715
 11
62.4574422415
 21
59.9589914928
  0
LINE
  5
4CB
100
AcDbEntity
  8
KONSTRUKTIONSELEMENTE
100
AcDbLine
 62
7
  6
CONTINUOUS
 10
58.9448615796
 20
71.3687955875
 11
57.3677495226
 21
70.385260409
  0
LINE
  5
4CC
100
AcDbEntity
  8
KONSTRUKTIONSELEMENTE
100
AcDbLine
 62
7
  6
CONTINUOUS
 10
41.2297684005
 20
88.7840129031
 11
42.159656958
 21
89.2062857626
  0
LINE
  5
4CD
100
AcDbEntity
  8
0
100
AcDbLine
 62
7
  6
CONTINUOUS
 10
185.4997636436
 20
160.3143154013
 11
191.2358249966
 21
156.5892736037
  0
LINE
  5
4CE
100
AcDbEntity
  8
KONSTRUKTIONSELEMENTE
100
AcDbLine
 62
7
  6
CONTINUOUS
 10
101.7849201431
 20
229.2819876645
 11
101.4568906286
 21
229.6593424546
  0
LINE
  5
4CF
100
AcDbEntity
  8
KONSTRUKTIONSELEMENTE
100
AcDbLine
 62
7
  6
CONTINUOUS
 10
103.8168217418
 20
231.0482927768
 11
103.4887922273
 21
231.4256475669
  0
LINE
  5
4D0
100
AcDbEntity
  8
KONSTRUKTIONSELEMENTE
100
AcDbLine
 62
7
  6
CONTINUOUS
 10
104.8432267709
 20
231.9405330562
 11
104.5151972564
 21
232.3178878463
  0
LINE
  5
4D1
100
AcDbEntity
  8
KONSTRUKTIONSELEMENTE
100
AcDbLine
 62
7
  6
CONTINUOUS
 10
107.4092393437
 20
234.1711337548
 11
107.0812098292
 21
234.5484885449
  0
LINE
  5
4D2
100
AcDbEntity
  8
0
100
AcDbLine
 62
7
  6
CONTINUOUS
 10
164.7462873186
 20
235.7808494996
 11
173.4478430823
 21
136.321612005
  0
LINE
  5
4D3
100
AcDbEntity
  8
KONSTRUKTIONSELEMENTE
100
AcDbLine
 62
7
  6
CONTINUOUS
 10
152.6380925493
 20
31.592368356
 11
152.5155500842
 21
30.5236036925
  0
LINE
  5
4D4
100
AcDbEntity
  8
KONSTRUKTIONSELEMENTE
100
AcDbLine
 62
7
  6
CONTINUOUS
 10
143.2124495586
 20
35.7737408677
 11
143.0057250529
 21
34.7180210156
  0
LINE
  5
4D5
100
AcDbEntity
  8
KONSTRUKTIONSELEMENTE
100
AcDbLine
 62
7
  6
CONTINUOUS
 10
147.2082649859
 20
37.7632172609
 11
146.858973814
 21
36.1255800256
  0
LINE
  5
4D6
100
AcDbEntity
  8
KONSTRUKTIONSELEMENTE
100
AcDbLine
 62
7
  6
CONTINUOUS
 10
151.8199561336
 20
32.2042651743
 11
151.4706648523
 21
30.5666284641
  0
LINE
  5
4D7
100
AcDbEntity
  8
KONSTRUKTIONSELEMENTE
100
AcDbLine
 62
7
  6
CONTINUOUS
 10
139.3628140203
 20
36.5718388886
 11
139.1239402735
 21
35.7694059857
  0
LINE
  5
4D8
100
AcDbEntity
  8
KONSTRUKTIONSELEMENTE
100
AcDbLine
 62
7
  6
CONTINUOUS
 10
113.9357202163
 20
37.4211169258
 11
113.4696685003
 21
36.4515421606
  0
LINE
  5
4D9
100
AcDbEntity
  8
KONSTRUKTIONSELEMENTE
100
AcDbLine
 62
7
  6
CONTINUOUS
 10
106.000673422
 20
39.0284477994
 11
105.4543670944
 21
38.1017204431
  0
LINE
  5
4DA
100
AcDbEntity
  8
KONSTRUKTIONSELEMENTE
100
AcDbLine
 62
7
  6
CONTINUOUS
 10
79.2389603137
 20
48.0966931424
 11
78.6911737966
 21
47.5352761406
  0
LINE
  5
4DB
100
AcDbEntity
  8
KONSTRUKTIONSELEMENTE
100
AcDbLine
 62
7
  6
CONTINUOUS
 10
79.9656324752
 20
47.3446400535
 11
79.4178459581
 21
46.7832230517
  0
LINE
  5
4DC
100
AcDbEntity
  8
KONSTRUKTIONSELEMENTE
100
AcDbLine
 62
7
  6
CONTINUOUS
 10
72.6124838513
 20
52.3947922983
 11
72.0206044175
 21
51.8800711563
  0
LINE
  5
4DD
100
AcDbEntity
  8
KONSTRUKTIONSELEMENTE
100
AcDbLine
 62
7
  6
CONTINUOUS
 10
73.2751953276
 20
51.5858115952
 11
72.6833158938
 21
51.0710904532
  0
LINE
  5
4DE
100
AcDbEntity
  8
KONSTRUKTIONSELEMENTE
100
AcDbLine
 62
7
  6
CONTINUOUS
 10
69.4198658951
 20
48.0872364632
 11
68.8279864613
 21
47.5725153212
  0
LINE
  5
4DF
100
AcDbEntity
  8
KONSTRUKTIONSELEMENTE
100
AcDbLine
 62
7
  6
CONTINUOUS
 10
70.0825773714
 20
47.2782557601
 11
69.4906978311
 21
46.7635344744
  0
LINE
  5
4E0
100
AcDbEntity
  8
KONSTRUKTIONSELEMENTE
100
AcDbLine
 62
7
  6
CONTINUOUS
 10
63.4809723098
 20
53.9575758935
 11
62.6794866966
 21
53.3024462148
  0
LINE
  5
4E1
100
AcDbEntity
  8
KONSTRUKTIONSELEMENTE
100
AcDbLine
 62
7
  6
CONTINUOUS
 10
57.3547252376
 20
59.219253138
 11
55.7776139219
 21
58.235718275
  0
LINE
  5
4E2
100
AcDbEntity
  8
KONSTRUKTIONSELEMENTE
100
AcDbLine
 62
7
  6
CONTINUOUS
 10
63.5945545679
 20
62.0191630839
 11
62.6661702059
 21
61.4756750085
  0
LINE
  5
4E3
100
AcDbEntity
  8
KONSTRUKTIONSELEMENTE
100
AcDbLine
 62
7
  6
CONTINUOUS
 10
59.4957000042
 20
70.0959859895
 11
58.2060671195
 21
69.3438712904
  0
LINE
  5
4E4
100
AcDbEntity
  8
KONSTRUKTIONSELEMENTE
100
AcDbLine
 62
7
  6
CONTINUOUS
 10
46.2389604184
 20
72.5025776343
 11
45.0841884084
 21
71.9326954487
  0
LINE
  5
4E5
100
AcDbEntity
  8
KONSTRUKTIONSELEMENTE
100
AcDbLine
 62
7
  6
CONTINUOUS
 10
45.674682841
 20
73.3452158973
 11
44.7320560522
 21
72.9173979838
  0
LINE
  5
4E6
100
AcDbEntity
  8
KONSTRUKTIONSELEMENTE
100
AcDbLine
 62
7
  6
CONTINUOUS
 10
41.4404048798
 20
79.8429633645
 11
40.2424558899
 21
79.3705412596
  0
LINE
  5
4E7
100
AcDbEntity
  8
KONSTRUKTIONSELEMENTE
100
AcDbLine
 62
7
  6
CONTINUOUS
 10
40.9477519404
 20
80.7293839802
 11
39.9729709525
 21
80.3809937065
  0
LINE
  5
4E8
100
AcDbEntity
  8
KONSTRUKTIONSELEMENTE
100
AcDbLine
 62
7
  6
CONTINUOUS
 10
109.8275507188
 20
236.2733397611
 11
109.4995212043
 21
236.6506945512
  0
LINE
  5
4E9
100
AcDbEntity
  8
KONSTRUKTIONSELEMENTE
100
AcDbLine
 62
7
  6
CONTINUOUS
 10
111.0127411585
 20
237.3036100921
 11
110.684711644
 21
237.6809648822
  0
LINE
  5
4EA
100
AcDbEntity
  8
KONSTRUKTIONSELEMENTE
100
AcDbLine
 62
7
  6
CONTINUOUS
 10
111.5148594601
 20
237.7400948725
 11
111.1868299456
 21
238.1174496626
  0
LINE
  5
4EB
100
AcDbEntity
  8
KONSTRUKTIONSELEMENTE
100
AcDbLine
 62
7
  6
CONTINUOUS
 10
117.6513634988
 20
243.07447645
 11
117.3233339843
 21
243.4518312401
  0
LINE
  5
4EC
100
AcDbEntity
  8
KONSTRUKTIONSELEMENTE
100
AcDbLine
 62
7
  6
CONTINUOUS
 10
184.2532771308
 20
54.1908337325
 11
184.2610619065
 21
52.4990330438
  0
LINE
  5
4ED
100
AcDbEntity
  8
KONSTRUKTIONSELEMENTE
100
AcDbLine
 62
7
  6
CONTINUOUS
 10
183.8059814431
 20
167.9293299674
 11
183.0104749082
 21
152.7501610392
  0
LINE
  5
4EE
100
AcDbEntity
  8
KONSTRUKTIONSELEMENTE
100
AcDbLine
 62
7
  6
CONTINUOUS
 10
184.9078710243
 20
152.6507227223
 11
185.7033775592
 21
167.8298916506
  0
LINE
  5
4EF
100
AcDbEntity
  8
KONSTRUKTIONSELEMENTE
100
AcDbLine
 62
7
  6
CONTINUOUS
 10
144.1794461416
 20
34.8670353902
 11
143.9405723949
 21
34.0646024873
  0
LINE
  5
4F0
100
AcDbEntity
  8
KONSTRUKTIONSELEMENTE
100
AcDbLine
 62
7
  6
CONTINUOUS
 10
146.5034878296
 20
38.6595469452
 11
146.163379754
 21
37.8062420325
  0
LINE
  5
4F1
100
AcDbEntity
  8
KONSTRUKTIONSELEMENTE
100
AcDbLine
 62
7
  6
CONTINUOUS
 10
114.8760983423
 20
36.7848081832
 11
114.4427443453
 21
36.068449425
  0
LINE
  5
4F2
100
AcDbEntity
  8
KONSTRUKTIONSELEMENTE
100
AcDbLine
 62
7
  6
CONTINUOUS
 10
106.883920216
 20
38.3149529244
 11
106.3915914024
 21
37.6377729885
  0
LINE
  5
4F3
100
AcDbEntity
  8
KONSTRUKTIONSELEMENTE
100
AcDbLine
 62
7
  6
CONTINUOUS
 10
63.2722448178
 20
52.4408929149
 11
62.3438603376
 21
51.8974047051
  0
LINE
  5
4F4
100
AcDbEntity
  8
KONSTRUKTIONSELEMENTE
100
AcDbLine
 62
7
  6
CONTINUOUS
 10
56.5164076406
 20
60.2606422565
 11
55.5142531855
 21
59.739947311
  0
LINE
  5
4F5
100
AcDbEntity
  8
KONSTRUKTIONSELEMENTE
100
AcDbLine
 62
7
  6
CONTINUOUS
 10
64.0186666993
 20
60.9659163247
 11
63.2589278547
 21
60.6141211715
  0
LINE
  5
4F6
100
AcDbEntity
  8
KONSTRUKTIONSELEMENTE
100
AcDbLine
 62
7
  6
CONTINUOUS
 10
60.3742140929
 20
71.9473453973
 11
58.9448615796
 21
71.3687955875
  0
LINE
  5
4F7
100
AcDbEntity
  8
0
100
AcDbLine
 62
7
  6
CONTINUOUS
 10
77.9361376058
 20
214.4187620484
 11
71.4900709822
 21
214.7565860853
  0
LINE
  5
4F8
100
AcDbEntity
  8
KONSTRUKTIONSELEMENTE
100
AcDbLine
 62
7
  6
CONTINUOUS
 10
119.9003980479
 20
245.0295323563
 11
119.5723685334
 21
245.4068871465
  0
LINE
  5
4F9
100
AcDbEntity
  8
KONSTRUKTIONSELEMENTE
100
AcDbLine
 62
7
  6
CONTINUOUS
 10
126.3308730584
 20
251.104492781
 11
126.2430002763
 21
251.2055788534
  0
LINE
  5
4FA
100
AcDbEntity
  8
BEZUGSACHSEN
100
AcDbLine
 62
7
  6
CONTINUOUS
 10
191.2358249966
 20
14.0161183132
 11
191.2358249966
 21
302.0161183132
  0
LINE
  5
4FB
100
AcDbEntity
  8
KONSTRUKTIONSELEMENTE
100
AcDbLine
 62
7
  6
CONTINUOUS
 10
182.5453766018
 20
53.536519007
 11
182.4229033409
 21
52.6108221083
  0
LINE
  5
4FC
100
AcDbEntity
  8
KONSTRUKTIONSELEMENTE
100
AcDbLine
 62
7
  6
CONTINUOUS
 10
152.5155500842
 20
30.5236036925
 11
152.1754420268
 21
29.6702986923
  0
LINE
  5
4FD
100
AcDbEntity
  8
KONSTRUKTIONSELEMENTE
100
AcDbLine
 62
7
  6
CONTINUOUS
 10
138.866684941
 20
37.7956937834
 11
138.3246082632
 21
36.6973979781
  0
LINE
  5
4FE
100
AcDbEntity
  8
KONSTRUKTIONSELEMENTE
100
AcDbLine
 62
7
  6
CONTINUOUS
 10
143.0057250529
 20
34.7180210156
 11
139.1147560043
 21
27.7898126425
  0
LINE
  5
4FF
100
AcDbEntity
  8
KONSTRUKTIONSELEMENTE
100
AcDbLine
 62
7
  6
CONTINUOUS
 10
114.7370247324
 20
38.3474005817
 11
113.9357202163
 21
37.4211169258
  0
LINE
  5
500
100
AcDbEntity
  8
KONSTRUKTIONSELEMENTE
100
AcDbLine
 62
7
  6
CONTINUOUS
 10
106.8773905407
 20
39.8837067627
 11
106.000673422
 21
39.0284477994
  0
LINE
  5
501
100
AcDbEntity
  8
KONSTRUKTIONSELEMENTE
100
AcDbLine
 62
7
  6
CONTINUOUS
 10
79.4178459581
 20
46.7832230517
 11
78.4481845268
 21
46.1833276844
  0
LINE
  5
502
100
AcDbEntity
  8
KONSTRUKTIONSELEMENTE
100
AcDbLine
 62
7
  6
CONTINUOUS
 10
72.6833158938
 20
51.0710904532
 11
71.6678277821
 21
50.5525331874
  0
LINE
  5
503
100
AcDbEntity
  8
KONSTRUKTIONSELEMENTE
100
AcDbLine
 62
7
  6
CONTINUOUS
 10
69.4906978311
 20
46.7635344744
 11
68.4752096662
 21
46.2449771368
  0
LINE
  5
504
100
AcDbEntity
  8
KONSTRUKTIONSELEMENTE
100
AcDbLine
 62
7
  6
CONTINUOUS
 10
62.6794866966
 20
53.3024462148
 11
61.9197483245
 21
52.9506515986
  0
LINE
  5
505
100
AcDbEntity
  8
KONSTRUKTIONSELEMENTE
100
AcDbLine
 62
7
  6
CONTINUOUS
 10
60.6375750306
 20
70.4431165233
 11
59.4957000042
 21
70.0959859895
  0
LINE
  5
506
100
AcDbEntity
  8
BEZUGSACHSEN
100
AcDbLine
 62
7
  6
CONTINUOUS
 10
211.2358249966
 20
14.0161183132
 11
211.2358249966
 21
302.0161183132
  0
LINE
  5
507
100
AcDbEntity
  8
KONSTRUKTIONSELEMENTE
100
AcDbLine
 62
7
  6
CONTINUOUS
 10
184.2610619065
 20
52.4990330438
 11
183.8246185484
 21
50.9508932174
  0
LINE
  5
508
100
AcDbEntity
  8
KONSTRUKTIONSELEMENTE
100
AcDbLine
 62
7
  6
CONTINUOUS
 10
143.9405723949
 20
34.0646024873
 11
140.4561493413
 21
27.9601145065
  0
LINE
  5
509
100
AcDbEntity
  8
KONSTRUKTIONSELEMENTE
100
AcDbLine
 62
7
  6
CONTINUOUS
 10
147.6004686445
 20
38.366574374
 11
147.2082649859
 21
37.7632172609
  0
LINE
  5
50A
100
AcDbEntity
  8
KONSTRUKTIONSELEMENTE
100
AcDbLine
 62
7
  6
CONTINUOUS
 10
147.1745207386
 20
39.5818251481
 11
146.5034878296
 21
38.6595469452
  0
LINE
  5
50B
100
AcDbEntity
  8
KONSTRUKTIONSELEMENTE
100
AcDbLine
 62
7
  6
CONTINUOUS
 10
139.8015246074
 20
37.1422742807
 11
139.3628140203
 21
36.5718388886
  0
LINE
  5
50C
100
AcDbEntity
  8
KONSTRUKTIONSELEMENTE
100
AcDbLine
 62
7
  6
CONTINUOUS
 10
118.7237083886
 20
28.3073577394
 11
117.9223961876
 21
27.3810749857
  0
LINE
  5
50D
100
AcDbEntity
  8
KONSTRUKTIONSELEMENTE
100
AcDbLine
 62
7
  6
CONTINUOUS
 10
110.001425118
 20
29.542699378
 11
109.1247155427
 21
28.6874386916
  0
LINE
  5
50E
100
AcDbEntity
  8
KONSTRUKTIONSELEMENTE
100
AcDbLine
 62
7
  6
CONTINUOUS
 10
78.6911737966
 20
47.5352761406
 11
78.1345599156
 21
47.2799262392
  0
LINE
  5
50F
100
AcDbEntity
  8
KONSTRUKTIONSELEMENTE
100
AcDbLine
 62
7
  6
CONTINUOUS
 10
72.0206044175
 20
51.8800711563
 11
71.4449663232
 21
51.6711133397
  0
LINE
  5
510
100
AcDbEntity
  8
KONSTRUKTIONSELEMENTE
100
AcDbLine
 62
7
  6
CONTINUOUS
 10
68.8279864613
 20
47.5725153212
 11
68.2523482605
 21
47.363557361
  0
LINE
  5
511
100
AcDbEntity
  8
KONSTRUKTIONSELEMENTE
100
AcDbLine
 62
7
  6
CONTINUOUS
 10
151.4706648523
 20
30.5666284641
 11
151.0784611937
 21
29.963271351
  0
LINE
  5
512
100
AcDbEntity
  8
KONSTRUKTIONSELEMENTE
100
AcDbLine
 62
7
  6
CONTINUOUS
 10
152.1754420268
 20
29.6702986923
 11
151.5044091315
 21
28.7480204238
  0
LINE
  5
513
100
AcDbEntity
  8
KONSTRUKTIONSELEMENTE
100
AcDbLine
 62
7
  6
CONTINUOUS
 10
139.4730677763
 20
38.3874166649
 11
138.866684941
 21
37.7956937834
  0
LINE
  5
514
100
AcDbEntity
  8
KONSTRUKTIONSELEMENTE
100
AcDbLine
 62
7
  6
CONTINUOUS
 10
115.4443808371
 20
37.226303961
 11
114.8760983423
 21
36.7848081832
  0
LINE
  5
515
100
AcDbEntity
  8
KONSTRUKTIONSELEMENTE
100
AcDbLine
 62
7
  6
CONTINUOUS
 10
117.7833302856
 20
28.9436666593
 11
117.2150477679
 21
28.5021707042
  0
LINE
  5
516
100
AcDbEntity
  8
KONSTRUKTIONSELEMENTE
100
AcDbLine
 62
7
  6
CONTINUOUS
 10
107.4874766086
 20
38.7068498453
 11
106.883920216
 21
38.3149529244
  0
LINE
  5
517
100
AcDbEntity
  8
KONSTRUKTIONSELEMENTE
100
AcDbLine
 62
7
  6
CONTINUOUS
 10
109.1181783619
 20
30.2561944278
 11
108.5146219314
 21
29.8642973321
  0
LINE
  5
518
100
AcDbEntity
  8
KONSTRUKTIONSELEMENTE
100
AcDbLine
 62
7
  6
CONTINUOUS
 10
115.4729413008
 20
38.767249814
 11
114.7370247324
 21
38.3474005817
  0
LINE
  5
519
100
AcDbEntity
  8
KONSTRUKTIONSELEMENTE
100
AcDbLine
 62
7
  6
CONTINUOUS
 10
107.6461447667
 20
40.2398711229
 11
106.8773905407
 21
39.8837067627
  0
LINE
  5
51A
100
AcDbEntity
  8
KONSTRUKTIONSELEMENTE
100
AcDbLine
 62
7
  6
CONTINUOUS
 10
157.9844731155
 20
257.2967384653
 11
156.3325129615
 21
258.8372162305
  0
LINE
  5
51B
100
AcDbEntity
  8
KONSTRUKTIONSELEMENTE
100
AcDbLine
 62
7
  6
CONTINUOUS
 10
182.4229033409
 20
52.6108221083
 11
181.8561990538
 21
51.8287842457
  0
LINE
  5
51C
100
AcDbEntity
  8
KONSTRUKTIONSELEMENTE
100
AcDbLine
 62
7
  6
CONTINUOUS
 10
117.9223961876
 20
27.3810749857
 11
117.1864872842
 21
26.9612246961
  0
LINE
  5
51D
100
AcDbEntity
  8
KONSTRUKTIONSELEMENTE
100
AcDbLine
 62
7
  6
CONTINUOUS
 10
109.1247155427
 20
28.6874386916
 11
108.3559537402
 21
28.3312759017
  0
LINE
  5
51E
100
AcDbEntity
  8
KONSTRUKTIONSELEMENTE
100
AcDbLine
 62
7
  6
CONTINUOUS
 10
179.228693941
 20
58.2289893704
 11
177.7735276018
 21
57.7342695798
  0
LINE
  5
51F
100
AcDbEntity
  8
KONSTRUKTIONSELEMENTE
100
AcDbLine
 62
7
  6
CONTINUOUS
 10
159.0737511855
 20
258.9740796011
 11
156.994541993
 21
259.856651541
  0
LINE
  5
520
100
AcDbEntity
  8
0
100
AcDbLine
 62
7
  6
CONTINUOUS
 10
153.0901681874
 20
286.3975091966
 11
165.8481282894
 21
271.7211549546
  0
LINE
  5
521
100
AcDbEntity
  8
KONSTRUKTIONSELEMENTE
100
AcDbLine
 62
7
  6
CONTINUOUS
 10
183.8246185484
 20
50.9508932174
 11
182.7524458818
 21
49.8496654849
  0
LINE
  5
522
100
AcDbEntity
  8
KONSTRUKTIONSELEMENTE
100
AcDbLine
 62
7
  6
CONTINUOUS
 10
177.7735276018
 20
57.7342695798
 11
171.7079186153
 21
53.9039984465
  0
LINE
  5
523
100
AcDbEntity
  8
KONSTRUKTIONSELEMENTE
100
AcDbLine
 62
7
  6
CONTINUOUS
 10
178.9837459731
 20
56.3775946599
 11
174.1818050434
 21
53.345296375
  0
LINE
  5
524
100
AcDbEntity
  8
KONSTRUKTIONSELEMENTE
100
AcDbLine
 62
7
  6
CONTINUOUS
 10
181.8561990538
 20
51.8287842457
 11
177.0542581242
 21
48.7964859608
  0
LINE
  5
525
100
AcDbEntity
  8
KONSTRUKTIONSELEMENTE
100
AcDbLine
 62
7
  6
CONTINUOUS
 10
182.7524458818
 20
49.8496654849
 11
178.2032391419
 21
46.9769621349
  0
LINE
  5
526
100
AcDbEntity
  8
KONSTRUKTIONSELEMENTE
100
AcDbLine
 62
7
  6
CONTINUOUS
 10
148.3757002938
 20
38.7889585565
 11
147.6004686445
 21
38.366574374
  0
LINE
  5
527
100
AcDbEntity
  8
KONSTRUKTIONSELEMENTE
100
AcDbLine
 62
7
  6
CONTINUOUS
 10
169.5085185525
 20
52.9272209106
 11
167.9046818693
 21
52.1246502118
  0
LINE
  5
528
100
AcDbEntity
  8
KONSTRUKTIONSELEMENTE
100
AcDbLine
 62
7
  6
CONTINUOUS
 10
148.115222379
 20
40.0386975543
 11
147.1745207386
 21
39.5818251481
  0
LINE
  5
529
100
AcDbEntity
  8
KONSTRUKTIONSELEMENTE
100
AcDbLine
 62
7
  6
CONTINUOUS
 10
140.607744283
 20
37.5019996513
 11
139.8015246074
 21
37.1422742807
  0
LINE
  5
52A
100
AcDbEntity
  8
KONSTRUKTIONSELEMENTE
100
AcDbLine
 62
7
  6
CONTINUOUS
 10
165.8146725243
 20
50.9226701619
 11
164.1359854224
 21
50.2914638191
  0
LINE
  5
52B
100
AcDbEntity
  8
KONSTRUKTIONSELEMENTE
100
AcDbLine
 62
7
  6
CONTINUOUS
 10
156.3021125473
 20
47.3458343193
 11
154.6234254454
 21
46.7146279764
  0
LINE
  5
52C
100
AcDbEntity
  8
KONSTRUKTIONSELEMENTE
100
AcDbLine
 62
7
  6
CONTINUOUS
 10
140.6146319484
 20
38.7897170142
 11
139.4730677763
 21
38.3874166649
  0
LINE
  5
52D
100
AcDbEntity
  8
KONSTRUKTIONSELEMENTE
100
AcDbLine
 62
7
  6
CONTINUOUS
 10
182.2246732404
 20
40.6086278949
 11
180.7082709938
 21
39.6510601116
  0
LINE
  5
52E
100
AcDbEntity
  8
KONSTRUKTIONSELEMENTE
100
AcDbLine
 62
7
  6
CONTINUOUS
 10
151.0784611937
 20
29.963271351
 11
150.3032371188
 21
29.5408887472
  0
LINE
  5
52F
100
AcDbEntity
  8
KONSTRUKTIONSELEMENTE
100
AcDbLine
 62
7
  6
CONTINUOUS
 10
177.0520253665
 20
37.8524705292
 11
175.4481886832
 21
37.0498998303
  0
LINE
  5
530
100
AcDbEntity
  8
KONSTRUKTIONSELEMENTE
100
AcDbLine
 62
7
  6
CONTINUOUS
 10
151.5044091315
 20
28.7480204238
 11
150.56371507
 21
28.2911495743
  0
LINE
  5
531
100
AcDbEntity
  8
KONSTRUKTIONSELEMENTE
100
AcDbLine
 62
7
  6
CONTINUOUS
 10
167.2709961641
 20
33.4611703761
 11
165.0327468284
 21
32.6195619691
  0
LINE
  5
532
100
AcDbEntity
  8
0
100
AcDbLine
 62
7
  6
CONTINUOUS
 10
158.3433355118
 20
286.0161183132
 11
191.2358249966
 21
286.0161183132
  0
LINE
  5
533
100
AcDbEntity
  8
BEZUGSACHSEN
100
AcDbLine
 62
7
  6
CONTINUOUS
 10
211.2358249966
 20
302.0161183132
 11
191.2358249966
 21
302.0161183132
  0
ARC
  5
534
100
AcDbEntity
  8
KONSTRUKTIONSELEMENTE
100
AcDbCircle
 62
7
  6
CONTINUOUS
 10
198.4840594707
 20
44.6034845299
 40
134.4207623714
100
AcDbArc
 50
353.1546924281
 51
353.3384906972
  0
ARC
  5
535
100
AcDbEntity
  8
KONSTRUKTIONSELEMENTE
100
AcDbCircle
 62
7
  6
CONTINUOUS
 10
197.4632374585
 20
44.6034845299
 40
134.4207623714
100
AcDbArc
 50
353.1546924281
 51
353.3384906972
  0
ARC
  5
536
100
AcDbEntity
  8
KONSTRUKTIONSELEMENTE
100
AcDbCircle
 62
7
  6
CONTINUOUS
 10
128.3214300116
 20
76.6384103122
 40
209.6455628331
100
AcDbArc
 50
346.2929338273
 51
346.4110123425
  0
ARC
  5
537
100
AcDbEntity
  8
KONSTRUKTIONSELEMENTE
100
AcDbCircle
 62
7
  6
CONTINUOUS
 10
159.2716399595
 20
52.8165683559
 40
174.4770756119
100
AcDbArc
 50
352.5121022551
 51
352.6420768871
  0
ARC
  5
538
100
AcDbEntity
  8
KONSTRUKTIONSELEMENTE
100
AcDbCircle
 62
7
  6
CONTINUOUS
 10
182.2637206293
 20
71.3821319874
 40
155.7986253757
100
AcDbArc
 50
343.959085096
 51
344.09532582
  0
ARC
  5
539
100
AcDbEntity
  8
KONSTRUKTIONSELEMENTE
100
AcDbCircle
 62
7
  6
CONTINUOUS
 10
236.3339782291
 20
40.6091291514
 40
96.5747564236
100
AcDbArc
 50
351.905647171
 51
352.1221853638
  0
ARC
  5
53A
100
AcDbEntity
  8
KONSTRUKTIONSELEMENTE
100
AcDbCircle
 62
7
  6
CONTINUOUS
 10
235.3131562169
 20
40.6091291514
 40
96.5747564236
100
AcDbArc
 50
351.905647171
 51
352.1221853638
  0
ARC
  5
53B
100
AcDbEntity
  8
KONSTRUKTIONSELEMENTE
100
AcDbCircle
 62
7
  6
CONTINUOUS
 10
281.451224574
 20
48.8265030707
 40
53.9977639159
100
AcDbArc
 50
357.7585664653
 51
358.4286996491
  0
ARC
  5
53C
100
AcDbEntity
  8
KONSTRUKTIONSELEMENTE
100
AcDbCircle
 62
7
  6
CONTINUOUS
 10
287.2895217436
 20
30.7469305643
 40
44.6574297249
100
AcDbArc
 50
359.7448864176
 51
0.2551135824
  0
ARC
  5
53D
100
AcDbEntity
  8
KONSTRUKTIONSELEMENTE
100
AcDbCircle
 62
7
  6
CONTINUOUS
 10
298.9098709752
 20
38.5704270788
 40
34.8856244967
100
AcDbArc
 50
343.0108864209
 51
343.2253865578
  0
ARC
  5
53E
100
AcDbEntity
  8
KONSTRUKTIONSELEMENTE
100
AcDbCircle
 62
7
  6
CONTINUOUS
 10
302.5913489028
 20
47.4567650582
 40
33.0709807927
100
AcDbArc
 50
341.9800224354
 51
342.2833480036
  0
ARC
  5
53F
100
AcDbEntity
  8
KONSTRUKTIONSELEMENTE
100
AcDbCircle
 62
7
  6
CONTINUOUS
 10
308.8709591913
 20
28.456925984
 40
23.0759922643
100
AcDbArc
 50
359.5120169756
 51
0.3105255067
  0
ARC
  5
540
100
AcDbEntity
  8
KONSTRUKTIONSELEMENTE
100
AcDbCircle
 62
7
  6
CONTINUOUS
 10
307.8501371801
 20
28.456925984
 40
23.0759922633
100
AcDbArc
 50
359.5120169755
 51
0.3105255067
  0
ARC
  5
541
100
AcDbEntity
  8
KONSTRUKTIONSELEMENTE
100
AcDbCircle
 62
7
  6
CONTINUOUS
 10
309.5189626075
 20
29.9542148936
 40
22.7422277989
100
AcDbArc
 50
359.5048551243
 51
0.3150827728
  0
ARC
  5
542
100
AcDbEntity
  8
KONSTRUKTIONSELEMENTE
100
AcDbCircle
 62
7
  6
CONTINUOUS
 10
310.1199664104
 20
31.4523483176
 40
22.4554711307
100
AcDbArc
 50
358.2196631689
 51
358.7668987333
  0
ARC
  5
543
100
AcDbEntity
  8
KONSTRUKTIONSELEMENTE
100
AcDbCircle
 62
7
  6
CONTINUOUS
 10
312.6011223691
 20
37.1920608754
 40
21.1788993268
100
AcDbArc
 50
358.1120290207
 51
358.6922748442
  0
ARC
  5
544
100
AcDbEntity
  8
KONSTRUKTIONSELEMENTE
100
AcDbCircle
 62
7
  6
CONTINUOUS
 10
315.1047223665
 20
32.7230198987
 40
17.847200507
100
AcDbArc
 50
340.6726987139
 51
341.1652197838
  0
ARC
  5
545
100
AcDbEntity
  8
KONSTRUKTIONSELEMENTE
100
AcDbCircle
 62
7
  6
CONTINUOUS
 10
316.9303785133
 20
37.110505059
 40
17.0021109246
100
AcDbArc
 50
334.3758800771
 51
334.7736993638
  0
ARC
  5
546
100
AcDbEntity
  8
KONSTRUKTIONSELEMENTE
100
AcDbCircle
 62
7
  6
CONTINUOUS
 10
323.478587399
 20
26.9352906625
 40
8.4683640326
100
AcDbArc
 50
359.1944776761
 51
0.5125886189
  0
ARC
  5
547
100
AcDbEntity
  8
KONSTRUKTIONSELEMENTE
100
AcDbCircle
 62
7
  6
CONTINUOUS
 10
322.4577653865
 20
26.9352906625
 40
8.468364033
100
AcDbArc
 50
359.1944776761
 51
0.5125886188
  0
ARC
  5
548
100
AcDbEntity
  8
KONSTRUKTIONSELEMENTE
100
AcDbCircle
 62
7
  6
CONTINUOUS
 10
323.9152932796
 20
28.4545911651
 40
8.3458971017
100
AcDbArc
 50
359.1826565338
 51
0.5201103172
  0
ARC
  5
549
100
AcDbEntity
  8
KONSTRUKTIONSELEMENTE
100
AcDbCircle
 62
7
  6
CONTINUOUS
 10
324.9245769356
 20
31.9997900678
 40
8.0698389681
100
AcDbArc
 50
357.9236167627
 51
359.3072245321
  0
ARC
  5
54A
100
AcDbEntity
  8
KONSTRUKTIONSELEMENTE
100
AcDbCircle
 62
7
  6
CONTINUOUS
 10
325.3513769525
 20
33.5193386062
 40
7.9572801745
100
AcDbArc
 50
356.9563305564
 51
359.2956368995
  0
ARC
  5
54B
100
AcDbEntity
  8
KONSTRUKTIONSELEMENTE
100
AcDbCircle
 62
7
  6
CONTINUOUS
 10
325.9924946366
 20
35.7989351023
 40
7.7875352428
100
AcDbArc
 50
356.8851629048
 51
357.8417273289
  0
ARC
  5
54C
100
AcDbEntity
  8
KONSTRUKTIONSELEMENTE
100
AcDbCircle
 62
7
  6
CONTINUOUS
 10
326.4627973123
 20
37.3171798825
 40
7.6314536914
100
AcDbArc
 50
359.1061142762
 51
0.2031185622
  0
ARC
  5
54D
100
AcDbEntity
  8
0
100
AcDbCircle
 62
7
  6
CONTINUOUS
 10
315.1636113638
 20
20.5010486494
 40
7.6
100
AcDbArc
 50
191.5921754103
 51
261.0
  0
ARC
  5
54E
100
AcDbEntity
  8
KONSTRUKTIONSELEMENTE
100
AcDbCircle
 62
7
  6
CONTINUOUS
 10
322.0269137467
 20
20.5010486494
 40
7.6
100
AcDbArc
 50
279.0
 51
348.4078245897
  0
ARC
  5
54F
100
AcDbEntity
  8
KONSTRUKTIONSELEMENTE
100
AcDbCircle
 62
7
  6
CONTINUOUS
 10
326.568131623
 20
32.1186749676
 40
6.6188402276
100
AcDbArc
 50
324.3435141377
 51
325.0951769591
  0
ARC
  5
550
100
AcDbEntity
  8
KONSTRUKTIONSELEMENTE
100
AcDbCircle
 62
7
  6
CONTINUOUS
 10
330.9711790494
 20
26.1586072269
 40
0.9758761674
100
AcDbArc
 50
6.1003119853
 51
8.6765490975
  0
ARC
  5
551
100
AcDbEntity
  8
KONSTRUKTIONSELEMENTE
100
AcDbCircle
 62
7
  6
CONTINUOUS
 10
329.9503570374
 20
26.1586072269
 40
0.9758761672
100
AcDbArc
 50
6.1003119851
 51
8.6765490977
  0
ARC
  5
552
100
AcDbEntity
  8
KONSTRUKTIONSELEMENTE
100
AcDbCircle
 62
7
  6
CONTINUOUS
 10
330.9711790494
 20
26.1629671008
 40
0.9758761674
100
AcDbArc
 50
351.3234509025
 51
353.8996880146
  0
ARC
  5
553
100
AcDbEntity
  8
KONSTRUKTIONSELEMENTE
100
AcDbCircle
 62
7
  6
CONTINUOUS
 10
329.9503570374
 20
26.1629671008
 40
0.9758761672
100
AcDbArc
 50
351.3234509023
 51
353.8996880149
  0
ARC
  5
554
100
AcDbEntity
  8
KONSTRUKTIONSELEMENTE
100
AcDbCircle
 62
7
  6
CONTINUOUS
 10
332.1903727415
 20
31.7726360594
 40
0.908751374
100
AcDbArc
 50
353.5855106311
 51
6.4144893689
  0
ARC
  5
555
100
AcDbEntity
  8
KONSTRUKTIONSELEMENTE
100
AcDbCircle
 62
7
  6
CONTINUOUS
 10
332.5249538103
 20
33.3031401087
 40
0.8884435977
100
AcDbArc
 50
356.7245098012
 51
3.2754901279
  0
ARC
  5
556
100
AcDbEntity
  8
KONSTRUKTIONSELEMENTE
100
AcDbCircle
 62
7
  6
CONTINUOUS
 10
247.8227952091
 20
51.6742596175
 40
87.5488357737
100
AcDbArc
 50
351.2499629639
 51
351.4892186044
  0
ARC
  5
557
100
AcDbEntity
  8
0
100
AcDbCircle
 62
7
  6
CONTINUOUS
 10
305.2952625552
 20
68.3661183132
 40
11.4
100
AcDbArc
 50
180.0
 51
236.4903306663
  0
ARC
  5
558
100
AcDbEntity
  8
KONSTRUKTIONSELEMENTE
100
AcDbCircle
 62
7
  6
CONTINUOUS
 10
331.8952625552
 20
68.3661183132
 40
11.4
100
AcDbArc
 50
303.5096693337
 51
360.0
  0
ARC
  5
559
100
AcDbEntity
  8
0
100
AcDbCircle
 62
7
  6
CONTINUOUS
 10
303.0925427523
 20
79.1363503023
 40
9.3126222268
100
AcDbArc
 50
214.1149036641
 51
214.5521638064
  0
ARC
  5
55A
100
AcDbEntity
  8
0
100
AcDbCircle
 62
7
  6
CONTINUOUS
 10
301.9697645348
 20
79.1354682749
 40
8.0745620349
100
AcDbArc
 50
169.444805614
 51
178.8767428071
  0
ARC
  5
55B
100
AcDbEntity
  8
0
100
AcDbCircle
 62
7
  6
CONTINUOUS
 10
301.9130417266
 20
79.1391081554
 40
8.0177791714
100
AcDbArc
 50
178.8948026078
 51
180.0000507665
  0
ARC
  5
55C
100
AcDbEntity
  8
0
100
AcDbCircle
 62
7
  6
CONTINUOUS
 10
-10.9583313326
 20
227.4183247255
 40
365.4415080619
100
AcDbArc
 50
347.369278964
 51
348.1941805006
  0
ARC
  5
55D
100
AcDbEntity
  8
0
100
AcDbCircle
 62
7
  6
CONTINUOUS
 10
332.3944295772
 20
187.6996099035
 40
47.999168504
100
AcDbArc
 50
180.0461774853
 51
180.3804528628
  0
ARC
  5
55E
100
AcDbEntity
  8
KONSTRUKTIONSELEMENTE
100
AcDbCircle
 62
7
  6
CONTINUOUS
 10
304.7960955346
 20
187.6996099035
 40
47.9991685027
100
AcDbArc
 50
359.6195471372
 51
359.9538225147
  0
ARC
  5
55F
100
AcDbEntity
  8
KONSTRUKTIONSELEMENTE
100
AcDbCircle
 62
7
  6
CONTINUOUS
 10
295.3712768023
 20
283.1172019081
 40
5.0000127834
100
AcDbArc
 50
93.1518968105
 51
176.0275718023
  0
ARC
  5
560
100
AcDbEntity
  8
KONSTRUKTIONSELEMENTE
100
AcDbCircle
 62
7
  6
CONTINUOUS
 10
295.3710728685
 20
283.1282250289
 40
4.9889951408
100
AcDbArc
 50
89.9978893119
 51
93.1565188536
  0
ARC
  5
561
100
AcDbEntity
  8
KONSTRUKTIONSELEMENTE
100
AcDbCircle
 62
7
  6
CONTINUOUS
 10
317.3582078259
 20
245.4110940178
 40
4.1867702161
100
AcDbArc
 50
131.9108435001
 51
132.2408666608
  0
ARC
  5
562
100
AcDbEntity
  8
KONSTRUKTIONSELEMENTE
100
AcDbCircle
 62
7
  6
CONTINUOUS
 10
319.8323747375
 20
245.4111573182
 40
4.1866847304
100
AcDbArc
 50
47.7591330692
 51
48.0889138762
  0
ARC
  5
563
100
AcDbEntity
  8
0
100
AcDbCircle
 62
7
  6
CONTINUOUS
 10
307.1952625552
 20
279.344944132
 40
1.9
100
AcDbArc
 50
165.5447604566
 51
180.0
  0
ARC
  5
564
100
AcDbEntity
  8
KONSTRUKTIONSELEMENTE
100
AcDbCircle
 62
7
  6
CONTINUOUS
 10
329.9952625552
 20
279.344944132
 40
1.9
100
AcDbArc
 50
0.0
 51
14.4616801347
  0
ARC
  5
565
100
AcDbEntity
  8
BEZUGSACHSEN
100
AcDbCircle
 62
7
  6
CONTINUOUS
 10
297.4998316457
 20
223.7611259608
 40
1.5126485633
100
AcDbArc
 50
16.6951420427
 51
20.2099392306
  0
ARC
  5
566
100
AcDbEntity
  8
BEZUGSACHSEN
100
AcDbCircle
 62
7
  6
CONTINUOUS
 10
296.7199352211
 20
227.9287217138
 40
1.5125571955
100
AcDbArc
 50
17.2066188744
 51
19.6742128384
  0
ARC
  5
567
100
AcDbEntity
  8
BEZUGSACHSEN
100
AcDbCircle
 62
7
  6
CONTINUOUS
 10
302.3780250834
 20
223.0589960393
 40
1.5098310604
100
AcDbArc
 50
172.4906528889
 51
178.1080969978
  0
ARC
  5
568
100
AcDbEntity
  8
BEZUGSACHSEN
100
AcDbCircle
 62
7
  6
CONTINUOUS
 10
301.5882338989
 20
226.6620274462
 40
1.5000006288
100
AcDbArc
 50
52.2971417748
 51
182.388872614
  0
ARC
  5
569
100
AcDbEntity
  8
BEZUGSACHSEN
100
AcDbCircle
 62
7
  6
CONTINUOUS
 10
297.5117147314
 20
223.7657408732
 40
1.4999569843
100
AcDbArc
 50
20.2013197085
 51
190.3647408023
  0
ARC
  5
56A
100
AcDbEntity
  8
BEZUGSACHSEN
100
AcDbCircle
 62
7
  6
CONTINUOUS
 10
296.7317463242
 20
227.9332025757
 40
1.4999556082
100
AcDbArc
 50
19.6649374546
 51
190.6013666304
  0
ARC
  5
56B
100
AcDbEntity
  8
BEZUGSACHSEN
100
AcDbCircle
 62
7
  6
CONTINUOUS
 10
300.8082354202
 20
231.395658315
 40
1.4999129458
100
AcDbArc
 50
74.3962569542
 51
171.8125341937
  0
ARC
  5
56C
100
AcDbEntity
  8
BEZUGSACHSEN
100
AcDbCircle
 62
7
  6
CONTINUOUS
 10
302.3681906785
 20
223.0606956648
 40
1.4999059514
100
AcDbArc
 50
51.8267721189
 51
172.505925968
  0
ARC
  5
56D
100
AcDbEntity
  8
BEZUGSACHSEN
100
AcDbCircle
 62
7
  6
CONTINUOUS
 10
295.951836749
 20
233.157362509
 40
1.4999021806
100
AcDbArc
 50
47.9772388353
 51
166.1445609117
  0
ARC
  5
56E
100
AcDbEntity
  8
BEZUGSACHSEN
100
AcDbCircle
 62
7
  6
CONTINUOUS
 10
298.2939817653
 20
220.6564449668
 40
1.4972254753
100
AcDbArc
 50
29.5894705575
 51
177.7128461231
  0
ARC
  5
56F
100
AcDbEntity
  8
KONSTRUKTIONSELEMENTE
100
AcDbCircle
 62
7
  6
CONTINUOUS
 10
319.9451730088
 20
226.4505764629
 40
0.2539193073
100
AcDbArc
 50
79.6795228936
 51
89.9797942315
  0
ARC
  5
570
100
AcDbEntity
  8
KONSTRUKTIONSELEMENTE
100
AcDbCircle
 62
7
  6
CONTINUOUS
 10
334.0979823581
 20
79.1363503023
 40
9.3126222268
100
AcDbArc
 50
325.4478361936
 51
325.8850963359
  0
ARC
  5
571
100
AcDbEntity
  8
KONSTRUKTIONSELEMENTE
100
AcDbCircle
 62
7
  6
CONTINUOUS
 10
335.2207604764
 20
79.135468266
 40
8.0745621343
100
AcDbArc
 50
1.1232572425
 51
10.5552085173
  0
ARC
  5
572
100
AcDbEntity
  8
KONSTRUKTIONSELEMENTE
100
AcDbCircle
 62
7
  6
CONTINUOUS
 10
335.2774833838
 20
79.1391081554
 40
8.0177791714
100
AcDbArc
 50
359.9999492335
 51
1.1051973922
  0
ARC
  5
573
100
AcDbEntity
  8
0
100
AcDbCircle
 62
7
  6
CONTINUOUS
 10
678.4796265289
 20
234.0450085479
 40
396.4873314856
100
AcDbArc
 50
191.5711757235
 51
192.6067316261
  0
ARC
  5
574
100
AcDbEntity
  8
0
100
AcDbCircle
 62
7
  6
CONTINUOUS
 10
341.8192343701
 20
283.117154575
 40
5.0000385448
100
AcDbArc
 50
3.972958224
 51
89.9996521385
  0
ARC
  5
575
100
AcDbEntity
  8
0
100
AcDbCircle
 62
7
  6
CONTINUOUS
 10
339.6906934649
 20
223.7611259608
 40
1.5126485635
100
AcDbArc
 50
159.7900607696
 51
163.3048579572
  0
ARC
  5
576
100
AcDbEntity
  8
0
100
AcDbCircle
 62
7
  6
CONTINUOUS
 10
340.4705898893
 20
227.9287217138
 40
1.5125571955
100
AcDbArc
 50
160.3257871616
 51
162.7933811256
  0
ARC
  5
577
100
AcDbEntity
  8
0
100
AcDbCircle
 62
7
  6
CONTINUOUS
 10
334.8125000271
 20
223.0589960393
 40
1.5098310604
100
AcDbArc
 50
1.8919030022
 51
7.5093471111
  0
ARC
  5
578
100
AcDbEntity
  8
0
100
AcDbCircle
 62
7
  6
CONTINUOUS
 10
335.6022912125
 20
226.6620274456
 40
1.5000006289
100
AcDbArc
 50
357.6111274074
 51
127.7028582425
  0
ARC
  5
579
100
AcDbEntity
  8
0
100
AcDbCircle
 62
7
  6
CONTINUOUS
 10
339.6788104941
 20
223.7657407319
 40
1.4999569392
100
AcDbArc
 50
349.6352637189
 51
159.7986767408
  0
ARC
  5
57A
100
AcDbEntity
  8
0
100
AcDbCircle
 62
7
  6
CONTINUOUS
 10
340.4587790207
 20
227.9332025124
 40
1.4999556081
100
AcDbArc
 50
349.3986341014
 51
160.3350632791
  0
ARC
  5
57B
100
AcDbEntity
  8
0
100
AcDbCircle
 62
7
  6
CONTINUOUS
 10
336.3822896275
 20
231.395658356
 40
1.4999129458
100
AcDbArc
 50
8.1874639172
 51
105.6037411579
  0
ARC
  5
57C
100
AcDbEntity
  8
0
100
AcDbCircle
 62
7
  6
CONTINUOUS
 10
334.8223345849
 20
223.0606952816
 40
1.4999060964
100
AcDbArc
 50
7.4940893073
 51
128.1732234262
  0
ARC
  5
57D
100
AcDbEntity
  8
0
100
AcDbCircle
 62
7
  6
CONTINUOUS
 10
341.2386883825
 20
233.1573625028
 40
1.4999021806
100
AcDbArc
 50
13.8554395095
 51
132.022761607
  0
ARC
  5
57E
100
AcDbEntity
  8
0
100
AcDbCircle
 62
7
  6
CONTINUOUS
 10
338.8965433452
 20
220.6564449668
 40
1.4972254753
100
AcDbArc
 50
2.2871538768
 51
150.4105294425
  0
ARC
  5
57F
100
AcDbEntity
  8
0
100
AcDbCircle
 62
7
  6
CONTINUOUS
 10
-40.1037552891
 20
205.0170153447
 40
123.5
100
AcDbArc
 50
352.0
 51
357.2584896882
  0
ARC
  5
580
100
AcDbEntity
  8
0
100
AcDbCircle
 62
7
  6
CONTINUOUS
 10
128.9558604458
 20
131.96279354
 40
119.7
100
AcDbArc
 50
227.7094416574
 51
301.3524076311
  0
ARC
  5
581
100
AcDbEntity
  8
0
100
AcDbCircle
 62
7
  6
CONTINUOUS
 10
112.3354620815
 20
113.6911664036
 40
95.0
100
AcDbArc
 50
153.8973883721
 51
227.7094416574
  0
ARC
  5
582
100
AcDbEntity
  8
0
100
AcDbCircle
 62
7
  6
CONTINUOUS
 10
124.2358249966
 20
132.0161183132
 40
49.4
100
AcDbArc
 50
172.0
 51
5.0
  0
ARC
  5
583
100
AcDbEntity
  8
0
100
AcDbCircle
 62
7
  6
CONTINUOUS
 10
70.2968111799
 20
191.9878326929
 40
22.8
100
AcDbArc
 50
87.0
 51
153.8973883721
  0
ARC
  5
584
100
AcDbEntity
  8
0
100
AcDbCircle
 62
7
  6
CONTINUOUS
 10
86.0209530803
 20
189.0783202945
 40
10.0
100
AcDbArc
 50
121.568561937
 51
131.0
  0
ARC
  5
585
100
AcDbEntity
  8
0
100
AcDbCircle
 62
7
  6
CONTINUOUS
 10
77.7444085058
 20
197.7837857811
 40
2.0
100
AcDbArc
 50
221.0
 51
311.0
  0
ARC
  5
586
100
AcDbEntity
  8
0
100
AcDbCircle
 62
7
  6
CONTINUOUS
 10
77.6378226552
 20
208.7265737003
 40
5.7
100
AcDbArc
 50
41.257722183
 51
87.0
  0
ARC
  5
587
100
AcDbEntity
  8
KONSTRUKTIONSELEMENTE
100
AcDbCircle
 62
7
  6
CONTINUOUS
 10
89.1368662212
 20
220.9372281177
 40
2.0000001906
100
AcDbArc
 50
302.8051233383
 51
310.9998906087
  0
ARC
  5
588
100
AcDbEntity
  8
0
100
AcDbCircle
 62
7
  6
CONTINUOUS
 10
89.1368662212
 20
220.9372281177
 40
2.0000001906
100
AcDbArc
 50
294.6103547198
 51
310.9998906087
  0
ARC
  5
589
100
AcDbEntity
  8
0
100
AcDbCircle
 62
7
  6
CONTINUOUS
 10
78.8806272526
 20
206.721563629
 40
2.0
100
AcDbArc
 50
131.0
 51
215.0
  0
ARC
  5
58A
100
AcDbEntity
  8
0
100
AcDbCircle
 62
7
  6
CONTINUOUS
 10
94.9090053854
 20
220.6548201686
 40
1.5
100
AcDbArc
 50
35.3071819303
 51
184.4211113762
  0
ARC
  5
58B
100
AcDbEntity
  8
0
100
AcDbCircle
 62
7
  6
CONTINUOUS
 10
97.7527692476
 20
223.0606157298
 40
1.5
100
AcDbArc
 50
54.124450924
 51
182.0010261142
  0
ARC
  5
58C
100
AcDbEntity
  8
0
100
AcDbCircle
 62
7
  6
CONTINUOUS
 10
100.6216261985
 20
223.7657074889
 40
1.5
100
AcDbArc
 50
37.4721160249
 51
212.0590940844
  0
ARC
  5
58D
100
AcDbEntity
  8
0
100
AcDbCircle
 62
7
  6
CONTINUOUS
 10
109.2914199029
 20
233.1572623665
 40
1.5
100
AcDbArc
 50
77.6805177748
 51
230.8277450725
  0
ARC
  5
58E
100
AcDbEntity
  8
0
100
AcDbCircle
 62
7
  6
CONTINUOUS
 10
107.3410455926
 20
231.3955771951
 40
1.5
100
AcDbArc
 50
82.8535491333
 51
214.6048139732
  0
ARC
  5
58F
100
AcDbEntity
  8
0
100
AcDbCircle
 62
7
  6
CONTINUOUS
 10
105.415764371
 20
227.9331882215
 40
1.5
100
AcDbArc
 50
51.5332775236
 51
227.4411379564
  0
ARC
  5
590
100
AcDbEntity
  8
0
100
AcDbCircle
 62
7
  6
CONTINUOUS
 10
103.0389516919
 20
226.6620642773
 40
1.5
100
AcDbArc
 50
63.5524641098
 51
203.3194565869
  0
ARC
  5
591
100
AcDbEntity
  8
0
100
AcDbCircle
 62
7
  6
CONTINUOUS
 10
76.5130726972
 20
204.0009733563
 40
1.4999372689
100
AcDbArc
 50
321.4950436022
 51
34.999412303
  0
ARC
  5
592
100
AcDbEntity
  8
KONSTRUKTIONSELEMENTE
100
AcDbCircle
 62
7
  6
CONTINUOUS
 10
82.188517249
 20
291.7478741207
 40
60.0
100
AcDbArc
 50
348.2039341771
 51
349.7778593594
  0
ARC
  5
593
100
AcDbEntity
  8
0
100
AcDbCircle
 62
7
  6
CONTINUOUS
 10
82.188517249
 20
291.7478741207
 40
60.0
100
AcDbArc
 50
311.0
 51
351.4244498006
  0
ARC
  5
594
100
AcDbEntity
  8
0
100
AcDbCircle
 62
7
  6
CONTINUOUS
 10
160.0143624972
 20
235.3668597837
 40
4.75
100
AcDbArc
 50
4.9999992481
 51
103.5707652339
  0
ARC
  5
595
100
AcDbEntity
  8
KONSTRUKTIONSELEMENTE
100
AcDbCircle
 62
7
  6
CONTINUOUS
 10
155.8889279197
 20
261.0762346639
 40
28.0
100
AcDbArc
 50
106.6038347173
 51
114.1969254691
  0
ARC
  5
596
100
AcDbEntity
  8
0
100
AcDbCircle
 62
7
  6
CONTINUOUS
 10
155.8889279197
 20
261.0762346639
 40
28.0
100
AcDbArc
 50
106.6038347173
 51
114.1969254691
  0
ARC
  5
597
100
AcDbEntity
  8
0
100
AcDbCircle
 62
7
  6
CONTINUOUS
 10
153.7727750059
 20
261.2242104907
 40
21.85
100
AcDbArc
 50
126.5482515085
 51
187.22813417
  0
ARC
  5
598
100
AcDbEntity
  8
0
100
AcDbCircle
 62
7
  6
CONTINUOUS
 10
153.7727750059
 20
261.2242104907
 40
21.85
100
AcDbArc
 50
258.6593777038
 51
283.5707652339
  0
ARC
  5
599
100
AcDbEntity
  8
0
100
AcDbCircle
 62
7
  6
CONTINUOUS
 10
153.7727750059
 20
261.2242104907
 40
16.0
100
AcDbArc
 50
301.568561937
 51
41.0
  0
CIRCLE
  5
59A
100
AcDbEntity
  8
0
100
AcDbCircle
 62
7
  6
CONTINUOUS
 10
153.7727750059
 20
261.2242104907
 40
6.0
  0
ARC
  5
59B
100
AcDbEntity
  8
KONSTRUKTIONSELEMENTE
100
AcDbCircle
 62
7
  6
CONTINUOUS
 10
153.7727750059
 20
261.2242104907
 40
5.5980762114
100
AcDbArc
 50
337.0
 51
317.0
  0
ARC
  5
59C
100
AcDbEntity
  8
KONSTRUKTIONSELEMENTE
100
AcDbCircle
 62
7
  6
CONTINUOUS
 10
146.4618238897
 20
282.0555032309
 40
5.0
100
AcDbArc
 50
114.1969254691
 51
171.4244498006
  0
ARC
  5
59D
100
AcDbEntity
  8
0
100
AcDbCircle
 62
7
  6
CONTINUOUS
 10
149.3166202862
 20
283.1172140516
 40
5.0
100
AcDbArc
 50
41.0
 51
106.6038347173
  0
ARC
  5
59E
100
AcDbEntity
  8
0
100
AcDbCircle
 62
7
  6
CONTINUOUS
 10
146.4618238897
 20
282.0555032309
 40
5.0
100
AcDbArc
 50
114.1969254691
 51
171.4244498006
  0
ARC
  5
59F
100
AcDbEntity
  8
0
100
AcDbCircle
 62
7
  6
CONTINUOUS
 10
153.9506764501
 20
287.8236155795
 40
4.75
100
AcDbArc
 50
291.4941233618
 51
337.6337479826
  0
ARC
  5
5A0
100
AcDbEntity
  8
KONSTRUKTIONSELEMENTE
100
AcDbCircle
 62
7
  6
CONTINUOUS
 10
153.7727750059
 20
261.2242104907
 40
3.5
100
AcDbArc
 50
337.0
 51
317.0
  0
SPLINE
  5
5A1
100
AcDbEntity
  8
KONSTRUKTIONSELEMENTE
100
AcDbSpline
 62
7
  6
CONTINUOUS
 70
0
 71
3
 72
8
 73
4
 74
0
 42
0.0000001
 43
0.0000001
 44
0.0000000001
 40
0.0
 40
0.0
 40
0.0
 40
0.0
 40
1.0
 40
1.0
 40
1.0
 40
1.0
 10
322.7711530619
 20
240.7846404513
 30
0.0
 10
322.7711530619
 20
240.6914220063
 30
0.0
 10
322.7596494699
 20
240.5975994858
 30
0.0
 10
322.737772709
 20
240.5069844438
 30
0.0
  0
SPLINE
  5
5A2
100
AcDbEntity
  8
KONSTRUKTIONSELEMENTE
100
AcDbSpline
 62
7
  6
CONTINUOUS
 70
0
 71
3
 72
13
 73
9
 74
0
 42
0.0000001
 43
0.0000001
 44
0.0000000001
 40
0.0
 40
0.0
 40
0.0
 40
0.0
 40
0.0994874187
 40
0.2054223365
 40
0.319624326
 40
0.442668402
 40
0.7115759866
 40
1.0
 40
1.0
 40
1.0
 40
1.0
 10
322.737772709
 20
240.5069844438
 30
0.0
 10
322.7123301191
 20
240.4015994938
 30
0.0
 10
322.630267614
 20
240.1903211317
 30
0.0
 10
322.4294976337
 20
239.9024709295
 30
0.0
 10
322.1564324939
 20
239.6436463686
 30
0.0
 10
321.6942090837
 20
239.3385414863
 30
0.0
 10
320.9894401681
 20
239.07827157
 30
0.0
 10
320.3799785632
 20
239.0096899421
 30
0.0
 10
320.0656792693
 20
239.0096899421
 30
0.0
  0
SPLINE
  5
5A3
100
AcDbEntity
  8
KONSTRUKTIONSELEMENTE
100
AcDbSpline
 62
7
  6
CONTINUOUS
 70
0
 71
3
 72
13
 73
9
 74
0
 42
0.0000001
 43
0.0000001
 44
0.0000000001
 40
0.0
 40
0.0
 40
0.0
 40
0.0
 40
0.0987439739
 40
0.2021955632
 40
0.313819552
 40
0.4352962012
 40
0.7055222804
 40
1.0
 40
1.0
 40
1.0
 40
1.0
 10
324.1310828845
 20
240.7846404513
 30
0.0
 10
324.1310828845
 20
240.9600272594
 30
0.0
 10
324.0755931924
 20
241.3212226842
 30
0.0
 10
323.8340950663
 20
241.8308191289
 30
0.0
 10
323.4485362509
 20
242.2946888819
 30
0.0
 10
322.7412865354
 20
242.8501853657
 30
0.0
 10
321.5959375377
 20
243.3267971056
 30
0.0
 10
320.5887239197
 20
243.4518312401
 30
0.0
 10
320.0656792693
 20
243.4518312401
 30
0.0
  0
SPLINE
  5
5A4
100
AcDbEntity
  8
KONSTRUKTIONSELEMENTE
100
AcDbSpline
 62
7
  6
CONTINUOUS
 70
0
 71
3
 72
11
 73
7
 74
0
 42
0.0000001
 43
0.0000001
 44
0.0000000001
 40
0.0
 40
0.0
 40
0.0
 40
0.0
 40
0.2006624802
 40
0.4333207955
 40
0.7048873094
 40
1.0
 40
1.0
 40
1.0
 40
1.0
 10
321.8052625552
 20
227.3188518687
 30
0.0
 10
321.8052625552
 20
227.3337034628
 30
0.0
 10
321.794391468
 20
227.3660407779
 30
0.0
 10
321.7546951236
 20
227.4021375452
 30
0.0
 10
321.6992545666
 20
227.4250561261
 30
0.0
 10
321.6571046749
 20
227.4303819036
 30
0.0
 10
321.6352625552
 20
227.4303819036
 30
0.0
  0
SPLINE
  5
5A5
100
AcDbEntity
  8
KONSTRUKTIONSELEMENTE
100
AcDbSpline
 62
7
  6
CONTINUOUS
 70
0
 71
3
 72
11
 73
7
 74
0
 42
0.0000001
 43
0.0000001
 44
0.0000000001
 40
0.0
 40
0.0
 40
0.0
 40
0.0
 40
0.2006624802
 40
0.4333207955
 40
0.7048873094
 40
1.0
 40
1.0
 40
1.0
 40
1.0
 10
317.5552625552
 20
227.3188518687
 30
0.0
 10
317.5552625552
 20
227.3337034628
 30
0.0
 10
317.544391468
 20
227.3660407779
 30
0.0
 10
317.5046951236
 20
227.4021375452
 30
0.0
 10
317.4492545666
 20
227.4250561261
 30
0.0
 10
317.4071046749
 20
227.4303819036
 30
0.0
 10
317.3852625552
 20
227.4303819036
 30
0.0
  0
SPLINE
  5
5A6
100
AcDbEntity
  8
KONSTRUKTIONSELEMENTE
100
AcDbSpline
 62
7
  6
CONTINUOUS
 70
0
 71
3
 72
11
 73
7
 74
0
 42
0.0000001
 43
0.0000001
 44
0.0000000001
 40
0.0
 40
0.0
 40
0.0
 40
0.0
 40
0.2006624802
 40
0.4333207955
 40
0.7048873094
 40
1.0
 40
1.0
 40
1.0
 40
1.0
 10
324.1452625552
 20
229.10169228
 30
0.0
 10
324.1452625552
 20
229.1759502506
 30
0.0
 10
324.0909071191
 20
229.337636826
 30
0.0
 10
323.892425397
 20
229.5181206626
 30
0.0
 10
323.6152226119
 20
229.6327135669
 30
0.0
 10
323.4044731535
 20
229.6593424546
 30
0.0
 10
323.2952625552
 20
229.6593424546
 30
0.0
  0
SPLINE
  5
5A7
100
AcDbEntity
  8
KONSTRUKTIONSELEMENTE
100
AcDbSpline
 62
7
  6
CONTINUOUS
 70
0
 71
3
 72
9
 73
5
 74
0
 42
0.0000001
 43
0.0000001
 44
0.0000000001
 40
0.0
 40
0.0
 40
0.0
 40
0.0
 40
0.2437080093
 40
1.0
 40
1.0
 40
1.0
 40
1.0
 10
324.1452625552
 20
248.6009582381
 30
0.0
 10
324.1452625552
 20
248.6195072687
 30
0.0
 10
324.1395463577
 20
248.6956228055
 30
0.0
 10
324.1096973633
 20
248.7690095067
 30
0.0
 10
324.0785958886
 20
248.8174466726
 30
0.0
  0
SPLINE
  5
5A8
100
AcDbEntity
  8
KONSTRUKTIONSELEMENTE
100
AcDbSpline
 62
7
  6
CONTINUOUS
 70
0
 71
3
 72
15
 73
11
 74
0
 42
0.0000001
 43
0.0000001
 44
0.0000000001
 40
0.0
 40
0.0
 40
0.0
 40
0.0
 40
0.2258815017
 40
0.2911597667
 40
0.3588302541
 40
0.4982929066
 40
0.6380378523
 40
0.706046955
 40
0.7717745298
 40
1.0
 40
1.0
 40
1.0
 40
1.0
 10
324.0785958886
 20
248.8174466726
 30
0.0
 10
323.5806169676
 20
249.5929947063
 30
0.0
 10
322.5313864357
 20
250.3297497277
 30
0.0
 10
321.1641307084
 20
250.8378244999
 30
0.0
 10
320.0843521388
 20
251.1150413557
 30
0.0
 10
318.6675250025
 20
251.2584104258
 30
0.0
 10
317.2472839645
 20
251.1374551576
 30
0.0
 10
316.1587194954
 20
250.8779373799
 30
0.0
 10
314.7701119822
 20
250.3906893742
 30
0.0
 10
313.6973660797
 20
249.6729519405
 30
0.0
 10
313.1702625552
 20
248.9052666396
 30
0.0
  0
SPLINE
  5
5A9
100
AcDbEntity
  8
KONSTRUKTIONSELEMENTE
100
AcDbSpline
 62
7
  6
CONTINUOUS
 70
0
 71
3
 72
9
 73
5
 74
0
 42
0.0000001
 43
0.0000001
 44
0.0000000001
 40
0.0
 40
0.0
 40
0.0
 40
0.0
 40
0.2628271992
 40
1.0
 40
1.0
 40
1.0
 40
1.0
 10
313.1702625552
 20
248.9052666396
 30
0.0
 10
313.1582100786
 20
248.8877131444
 30
0.0
 10
313.1165820964
 20
248.8181961601
 30
0.0
 10
313.0952625552
 20
248.7359544087
 30
0.0
 10
313.0952625552
 20
248.6762324955
 30
0.0
  0
SPLINE
  5
5AA
100
AcDbEntity
  8
KONSTRUKTIONSELEMENTE
100
AcDbSpline
 62
7
  6
CONTINUOUS
 70
0
 71
3
 72
16
 73
12
 74
0
 42
0.0000001
 43
0.0000001
 44
0.0000000001
 40
0.0
 40
0.0
 40
0.0
 40
0.0
 40
0.2354978214
 40
0.3050522037
 40
0.3769635312
 40
0.5229017572
 40
0.6637652973
 40
0.7912285379
 40
0.901578851
 40
0.9517535576
 40
1.0
 40
1.0
 40
1.0
 40
1.0
 10
318.5952625552
 20
235.5787588759
 30
0.0
 10
318.3322635791
 20
236.0373735718
 30
0.0
 10
317.6926437818
 20
236.4507453416
 30
0.0
 10
316.8858530206
 20
236.6887041873
 30
0.0
 10
316.2471948353
 20
236.7972215422
 30
0.0
 10
315.4351090958
 20
236.7938300679
 30
0.0
 10
314.520871961
 20
236.5800239114
 30
0.0
 10
313.7596628077
 20
236.1780544705
 30
0.0
 10
313.3062702179
 20
235.6898955462
 30
0.0
 10
313.1255607661
 20
235.2526705693
 30
0.0
 10
313.0952625552
 20
235.0307515844
 30
0.0
 10
313.0952625552
 20
234.9224421914
 30
0.0
  0
SPLINE
  5
5AB
100
AcDbEntity
  8
KONSTRUKTIONSELEMENTE
100
AcDbSpline
 62
7
  6
CONTINUOUS
 70
0
 71
3
 72
11
 73
7
 74
0
 42
0.0000001
 43
0.0000001
 44
0.0000000001
 40
0.0
 40
0.0
 40
0.0
 40
0.0
 40
0.2951126906
 40
0.5666792045
 40
0.7993375198
 40
1.0
 40
1.0
 40
1.0
 40
1.0
 10
319.8552625552
 20
227.4303819036
 30
0.0
 10
319.8334204356
 20
227.4303819036
 30
0.0
 10
319.7912705439
 20
227.4250561261
 30
0.0
 10
319.7358299869
 20
227.4021375452
 30
0.0
 10
319.6961336424
 20
227.3660407779
 30
0.0
 10
319.6852625552
 20
227.3337034628
 30
0.0
 10
319.6852625552
 20
227.3188518687
 30
0.0
  0
SPLINE
  5
5AC
100
AcDbEntity
  8
KONSTRUKTIONSELEMENTE
100
AcDbSpline
 62
7
  6
CONTINUOUS
 70
0
 71
3
 72
11
 73
7
 74
0
 42
0.0000001
 43
0.0000001
 44
0.0000000001
 40
0.0
 40
0.0
 40
0.0
 40
0.0
 40
0.2006624802
 40
0.4333207955
 40
0.7048873094
 40
1.0
 40
1.0
 40
1.0
 40
1.0
 10
320.1152625552
 20
226.7751429484
 30
0.0
 10
320.1152625552
 20
226.7602913543
 30
0.0
 10
320.104391468
 20
226.7279540392
 30
0.0
 10
320.0646951236
 20
226.6918572719
 30
0.0
 10
320.0092545666
 20
226.668938691
 30
0.0
 10
319.9671046749
 20
226.6636129135
 30
0.0
 10
319.9452625552
 20
226.6636129135
 30
0.0
  0
SPLINE
  5
5AD
100
AcDbEntity
  8
KONSTRUKTIONSELEMENTE
100
AcDbSpline
 62
7
  6
CONTINUOUS
 70
0
 71
3
 72
9
 73
5
 74
0
 42
0.0000001
 43
0.0000001
 44
0.0000000001
 40
0.0
 40
0.0
 40
0.0
 40
0.0
 40
0.2899779286
 40
1.0
 40
1.0
 40
1.0
 40
1.0
 10
317.2952625552
 20
226.6636129135
 30
0.0
 10
317.2771138944
 20
226.6636129135
 30
0.0
 10
317.2159289503
 20
226.6695094972
 30
0.0
 10
317.1488402397
 20
226.7044319968
 30
0.0
 10
317.1315243794
 20
226.7453571653
 30
0.0
  0
SPLINE
  5
5AE
100
AcDbEntity
  8
KONSTRUKTIONSELEMENTE
100
AcDbSpline
 62
7
  6
CONTINUOUS
 70
0
 71
3
 72
8
 73
4
 74
0
 42
0.0000001
 43
0.0000001
 44
0.0000000001
 40
0.0
 40
0.0
 40
0.0
 40
0.0
 40
1.0
 40
1.0
 40
1.0
 40
1.0
 10
317.1315243794
 20
226.7453571653
 30
0.0
 10
317.1275709737
 20
226.7547008416
 30
0.0
 10
317.1252625552
 20
226.7649973236
 30
0.0
 10
317.1252625552
 20
226.7751429484
 30
0.0
  0
SPLINE
  5
5AF
100
AcDbEntity
  8
KONSTRUKTIONSELEMENTE
100
AcDbSpline
 62
7
  6
CONTINUOUS
 70
0
 71
3
 72
11
 73
7
 74
0
 42
0.0000001
 43
0.0000001
 44
0.0000000001
 40
0.0
 40
0.0
 40
0.0
 40
0.0
 40
0.2951126906
 40
0.5666792045
 40
0.7993375198
 40
1.0
 40
1.0
 40
1.0
 40
1.0
 10
315.6052625552
 20
227.4303819036
 30
0.0
 10
315.5834204356
 20
227.4303819036
 30
0.0
 10
315.5412705439
 20
227.4250561261
 30
0.0
 10
315.4858299869
 20
227.4021375452
 30
0.0
 10
315.4461336424
 20
227.3660407779
 30
0.0
 10
315.4352625552
 20
227.3337034628
 30
0.0
 10
315.4352625552
 20
227.3188518687
 30
0.0
  0
SPLINE
  5
5B0
100
AcDbEntity
  8
KONSTRUKTIONSELEMENTE
100
AcDbSpline
 62
7
  6
CONTINUOUS
 70
0
 71
3
 72
11
 73
7
 74
0
 42
0.0000001
 43
0.0000001
 44
0.0000000001
 40
0.0
 40
0.0
 40
0.0
 40
0.0
 40
0.2006624802
 40
0.4333207955
 40
0.7048873094
 40
1.0
 40
1.0
 40
1.0
 40
1.0
 10
322.4452625552
 20
226.1773091582
 30
0.0
 10
322.4452625552
 20
226.1397433613
 30
0.0
 10
322.4177650993
 20
226.0579489761
 30
0.0
 10
322.3173566987
 20
225.9666453882
 30
0.0
 10
322.1771247016
 20
225.9086748601
 30
0.0
 10
322.0705102696
 20
225.8952037758
 30
0.0
 10
322.0152625552
 20
225.8952037758
 30
0.0
  0
SPLINE
  5
5B1
100
AcDbEntity
  8
KONSTRUKTIONSELEMENTE
100
AcDbSpline
 62
7
  6
CONTINUOUS
 70
0
 71
3
 72
10
 73
6
 74
0
 42
0.0000001
 43
0.0000001
 44
0.0000000001
 40
0.0
 40
0.0
 40
0.0
 40
0.0
 40
0.2853462766
 40
0.5556344371
 40
1.0
 40
1.0
 40
1.0
 40
1.0
 10
319.4752625552
 20
225.8952037758
 30
0.0
 10
319.4293571189
 20
225.8952037758
 30
0.0
 10
319.3393949815
 20
225.9050890085
 30
0.0
 10
319.1869676536
 20
225.954751145
 30
0.0
 10
319.0889576803
 20
226.0361314576
 30
0.0
 10
319.061101287
 20
226.1019686481
 30
0.0
  0
SPLINE
  5
5B2
100
AcDbEntity
  8
KONSTRUKTIONSELEMENTE
100
AcDbSpline
 62
7
  6
CONTINUOUS
 70
0
 71
3
 72
8
 73
4
 74
0
 42
0.0000001
 43
0.0000001
 44
0.0000000001
 40
0.0
 40
0.0
 40
0.0
 40
0.0
 40
1.0
 40
1.0
 40
1.0
 40
1.0
 10
319.061101287
 20
226.1019686481
 30
0.0
 10
319.0511014962
 20
226.1256026527
 30
0.0
 10
319.0452625552
 20
226.1516466956
 30
0.0
 10
319.0452625552
 20
226.1773091582
 30
0.0
  0
SPLINE
  5
5B3
100
AcDbEntity
  8
KONSTRUKTIONSELEMENTE
100
AcDbSpline
 62
7
  6
CONTINUOUS
 70
0
 71
3
 72
11
 73
7
 74
0
 42
0.0000001
 43
0.0000001
 44
0.0000000001
 40
0.0
 40
0.0
 40
0.0
 40
0.0
 40
0.2006624802
 40
0.4333207955
 40
0.7048873094
 40
1.0
 40
1.0
 40
1.0
 40
1.0
 10
318.1952625552
 20
226.1773091582
 30
0.0
 10
318.1952625552
 20
226.1397433613
 30
0.0
 10
318.1677650993
 20
226.0579489761
 30
0.0
 10
318.0673566987
 20
225.9666453882
 30
0.0
 10
317.9271247016
 20
225.9086748601
 30
0.0
 10
317.8205102696
 20
225.8952037758
 30
0.0
 10
317.7652625552
 20
225.8952037758
 30
0.0
  0
SPLINE
  5
5B4
100
AcDbEntity
  8
KONSTRUKTIONSELEMENTE
100
AcDbSpline
 62
7
  6
CONTINUOUS
 70
0
 71
3
 72
10
 73
6
 74
0
 42
0.0000001
 43
0.0000001
 44
0.0000000001
 40
0.0
 40
0.0
 40
0.0
 40
0.0
 40
0.2853462766
 40
0.5556344371
 40
1.0
 40
1.0
 40
1.0
 40
1.0
 10
315.2252625552
 20
225.8952037758
 30
0.0
 10
315.1793571189
 20
225.8952037758
 30
0.0
 10
315.0893949815
 20
225.9050890085
 30
0.0
 10
314.9369676536
 20
225.954751145
 30
0.0
 10
314.8389576803
 20
226.0361314576
 30
0.0
 10
314.811101287
 20
226.1019686481
 30
0.0
  0
SPLINE
  5
5B5
100
AcDbEntity
  8
KONSTRUKTIONSELEMENTE
100
AcDbSpline
 62
7
  6
CONTINUOUS
 70
0
 71
3
 72
8
 73
4
 74
0
 42
0.0000001
 43
0.0000001
 44
0.0000000001
 40
0.0
 40
0.0
 40
0.0
 40
0.0
 40
1.0
 40
1.0
 40
1.0
 40
1.0
 10
314.811101287
 20
226.1019686481
 30
0.0
 10
314.8011014962
 20
226.1256026527
 30
0.0
 10
314.7952625552
 20
226.1516466956
 30
0.0
 10
314.7952625552
 20
226.1773091582
 30
0.0
  0
SPLINE
  5
5B6
100
AcDbEntity
  8
KONSTRUKTIONSELEMENTE
100
AcDbSpline
 62
7
  6
CONTINUOUS
 70
0
 71
3
 72
11
 73
7
 74
0
 42
0.0000001
 43
0.0000001
 44
0.0000000001
 40
0.0
 40
0.0
 40
0.0
 40
0.0
 40
0.2951126906
 40
0.5666792045
 40
0.7993375198
 40
1.0
 40
1.0
 40
1.0
 40
1.0
 10
313.9452625552
 20
229.6593424546
 30
0.0
 10
313.836051957
 20
229.6593424546
 30
0.0
 10
313.6253024985
 20
229.6327135669
 30
0.0
 10
313.3480997135
 20
229.5181206626
 30
0.0
 10
313.1496179913
 20
229.337636826
 30
0.0
 10
313.0952625552
 20
229.1759502506
 30
0.0
 10
313.0952625552
 20
229.10169228
 30
0.0
  0
SPLINE
  5
5B7
100
AcDbEntity
  8
KONSTRUKTIONSELEMENTE
100
AcDbSpline
 62
7
  6
CONTINUOUS
 70
0
 71
3
 72
9
 73
5
 74
0
 42
0.0000001
 43
0.0000001
 44
0.0000000001
 40
0.0
 40
0.0
 40
0.0
 40
0.0
 40
0.527765096
 40
1.0
 40
1.0
 40
1.0
 40
1.0
 10
322.6468685509
 20
248.8302577553
 30
0.0
 10
322.6732301349
 20
248.8076357707
 30
0.0
 10
322.7174842865
 20
248.7564636297
 30
0.0
 10
322.7352625552
 20
248.6900027944
 30
0.0
 10
322.7352625552
 20
248.6589203768
 30
0.0
  0
SPLINE
  5
5B8
100
AcDbEntity
  8
KONSTRUKTIONSELEMENTE
100
AcDbSpline
 62
7
  6
CONTINUOUS
 70
0
 71
3
 72
13
 73
9
 74
0
 42
0.0000001
 43
0.0000001
 44
0.0000000001
 40
0.0
 40
0.0
 40
0.0
 40
0.0
 40
0.2944777196
 40
0.5647037988
 40
0.686180448
 40
0.7978044368
 40
0.9012560261
 40
1.0
 40
1.0
 40
1.0
 40
1.0
 10
320.0656792693
 20
238.1174496626
 30
0.0
 10
320.5887239197
 20
238.1174496626
 30
0.0
 10
321.5959375377
 20
238.2424837971
 30
0.0
 10
322.7412865354
 20
238.719095537
 30
0.0
 10
323.4485362509
 20
239.2745920208
 30
0.0
 10
323.8340950663
 20
239.7384617738
 30
0.0
 10
324.0755931924
 20
240.2480582185
 30
0.0
 10
324.1310828845
 20
240.6092536433
 30
0.0
 10
324.1310828845
 20
240.7846404513
 30
0.0
  0
SPLINE
  5
5B9
100
AcDbEntity
  8
KONSTRUKTIONSELEMENTE
100
AcDbSpline
 62
7
  6
CONTINUOUS
 70
0
 71
3
 72
13
 73
9
 74
0
 42
0.0000001
 43
0.0000001
 44
0.0000000001
 40
0.0
 40
0.0
 40
0.0
 40
0.0
 40
0.294484606
 40
0.5646941368
 40
0.6861834176
 40
0.7978066019
 40
0.9012517298
 40
1.0
 40
1.0
 40
1.0
 40
1.0
 10
320.0656792693
 20
242.5595909606
 30
0.0
 10
320.4137594091
 20
242.5595909606
 30
0.0
 10
321.0840520972
 20
242.4764415348
 30
0.0
 10
321.84615279
 20
242.1591068013
 30
0.0
 10
322.316924191
 20
241.7895956169
 30
0.0
 10
322.5734514843
 20
241.4808293746
 30
0.0
 10
322.7340897145
 20
241.1417045867
 30
0.0
 10
322.7711530619
 20
240.9013606839
 30
0.0
 10
322.7711530619
 20
240.7846404513
 30
0.0
  0
SPLINE
  5
5BA
100
AcDbEntity
  8
BEZUGSACHSEN
100
AcDbSpline
 62
7
  6
CONTINUOUS
 70
0
 71
3
 72
9
 73
5
 74
0
 42
0.0000001
 43
0.0000001
 44
0.0000000001
 40
0.0
 40
0.0
 40
0.0
 40
0.0
 40
0.2592919929
 40
1.0
 40
1.0
 40
1.0
 40
1.0
 10
300.8690015688
 20
223.1088509779
 30
0.0
 10
300.8687670759
 20
223.1003131586
 30
0.0
 10
300.8690947601
 20
223.067373682
 30
0.0
 10
300.8747538722
 20
223.0344085224
 30
0.0
 10
300.8822418014
 20
223.0111871356
 30
0.0
  0
SPLINE
  5
5BB
100
AcDbEntity
  8
KONSTRUKTIONSELEMENTE
100
AcDbSpline
 62
7
  6
CONTINUOUS
 70
0
 71
3
 72
10
 73
6
 74
0
 42
0.0000001
 43
0.0000001
 44
0.0000000001
 40
0.0
 40
0.0
 40
0.0
 40
0.0
 40
0.4392560355
 40
0.710524381
 40
1.0
 40
1.0
 40
1.0
 40
1.0
 10
322.4366285759
 20
227.2468553458
 30
0.0
 10
322.4149126091
 20
227.3170854561
 30
0.0
 10
322.3156532588
 20
227.4076033212
 30
0.0
 10
322.1582864429
 20
227.4621385273
 30
0.0
 10
322.0637072207
 20
227.472904892
 30
0.0
 10
322.0152625552
 20
227.472904892
 30
0.0
  0
SPLINE
  5
5BC
100
AcDbEntity
  8
BEZUGSACHSEN
100
AcDbSpline
 62
7
  6
CONTINUOUS
 70
0
 71
3
 72
9
 73
5
 74
0
 42
0.0000001
 43
0.0000001
 44
0.0000000001
 40
0.0
 40
0.0
 40
0.0
 40
0.0
 40
0.2530995572
 40
1.0
 40
1.0
 40
1.0
 40
1.0
 10
294.495492199
 20
233.5165713102
 30
0.0
 10
294.4871200756
 20
233.4825122468
 30
0.0
 10
294.4596740561
 20
233.3466333955
 30
0.0
 10
294.4551217284
 20
233.2060414738
 30
0.0
 10
294.4654999564
 20
233.1030623117
 30
0.0
  0
SPLINE
  5
5BD
100
AcDbEntity
  8
KONSTRUKTIONSELEMENTE
100
AcDbSpline
 62
7
  6
CONTINUOUS
 70
0
 71
3
 72
15
 73
11
 74
0
 42
0.0000001
 43
0.0000001
 44
0.0000000001
 40
0.0
 40
0.0
 40
0.0
 40
0.0
 40
0.100416911
 40
0.2166979578
 40
0.3522817338
 40
0.5
 40
0.6477182662
 40
0.7833020422
 40
0.899583089
 40
1.0
 40
1.0
 40
1.0
 40
1.0
 10
314.6372235768
 20
234.9224421914
 30
0.0
 10
314.6372235768
 20
235.0360409452
 30
0.0
 10
314.7196596345
 20
235.2835599476
 30
0.0
 10
315.0238688865
 20
235.5582939368
 30
0.0
 10
315.447058173
 20
235.7346148031
 30
0.0
 10
315.936243066
 20
235.7955640328
 30
0.0
 10
316.425427959
 20
235.7346148031
 30
0.0
 10
316.8486172455
 20
235.5582939368
 30
0.0
 10
317.1528264975
 20
235.2835599476
 30
0.0
 10
317.2352625552
 20
235.0360409452
 30
0.0
 10
317.2352625552
 20
234.9224421914
 30
0.0
  0
SPLINE
  5
5BE
100
AcDbEntity
  8
KONSTRUKTIONSELEMENTE
100
AcDbSpline
 62
7
  6
CONTINUOUS
 70
0
 71
3
 72
11
 73
7
 74
0
 42
0.0000001
 43
0.0000001
 44
0.0000000001
 40
0.0
 40
0.0
 40
0.0
 40
0.0
 40
0.2951126906
 40
0.5666792045
 40
0.7993375198
 40
1.0
 40
1.0
 40
1.0
 40
1.0
 10
321.6352625552
 20
226.3150815543
 30
0.0
 10
321.6571046749
 20
226.3150815543
 30
0.0
 10
321.6992545666
 20
226.3204073319
 30
0.0
 10
321.7546951236
 20
226.3433259127
 30
0.0
 10
321.794391468
 20
226.37942268
 30
0.0
 10
321.8052625552
 20
226.4117599951
 30
0.0
 10
321.8052625552
 20
226.4266115892
 30
0.0
  0
SPLINE
  5
5BF
100
AcDbEntity
  8
KONSTRUKTIONSELEMENTE
100
AcDbSpline
 62
7
  6
CONTINUOUS
 70
0
 71
3
 72
9
 73
5
 74
0
 42
0.0000001
 43
0.0000001
 44
0.0000000001
 40
0.0
 40
0.0
 40
0.0
 40
0.0
 40
0.2305738714
 40
1.0
 40
1.0
 40
1.0
 40
1.0
 10
318.1866285759
 20
227.2468553458
 30
0.0
 10
318.1823712362
 20
227.2606237146
 30
0.0
 10
318.1575071299
 20
227.3184382943
 30
0.0
 10
318.1095287324
 20
227.3638978336
 30
0.0
 10
318.0693184711
 20
227.3902781385
 30
0.0
  0
SPLINE
  5
5C0
100
AcDbEntity
  8
KONSTRUKTIONSELEMENTE
100
AcDbSpline
 62
7
  6
CONTINUOUS
 70
0
 71
3
 72
9
 73
5
 74
0
 42
0.0000001
 43
0.0000001
 44
0.0000000001
 40
0.0
 40
0.0
 40
0.0
 40
0.0
 40
0.2329108821
 40
1.0
 40
1.0
 40
1.0
 40
1.0
 10
318.0693184711
 20
227.3902781385
 30
0.0
 10
318.0487029895
 20
227.4038031114
 30
0.0
 10
317.9548257464
 20
227.4535810644
 30
0.0
 10
317.8464670967
 20
227.472904892
 30
0.0
 10
317.7652625552
 20
227.472904892
 30
0.0
  0
SPLINE
  5
5C1
100
AcDbEntity
  8
BEZUGSACHSEN
100
AcDbSpline
 62
7
  6
CONTINUOUS
 70
0
 71
3
 72
9
 73
5
 74
0
 42
0.0000001
 43
0.0000001
 44
0.0000000001
 40
0.0
 40
0.0
 40
0.0
 40
0.0
 40
0.2552720357
 40
1.0
 40
1.0
 40
1.0
 40
1.0
 10
299.3236112849
 20
231.6092737937
 30
0.0
 10
299.3201297135
 20
231.584859893
 30
0.0
 10
299.3095353274
 20
231.4888247741
 30
0.0
 10
299.3113965076
 20
231.3913132076
 30
0.0
 10
299.3205793366
 20
231.3199561983
 30
0.0
  0
SPLINE
  5
5C2
100
AcDbEntity
  8
KONSTRUKTIONSELEMENTE
100
AcDbSpline
 62
7
  6
CONTINUOUS
 70
0
 71
3
 72
11
 73
7
 74
0
 42
0.0000001
 43
0.0000001
 44
0.0000000001
 40
0.0
 40
0.0
 40
0.0
 40
0.0
 40
0.2951126906
 40
0.5666792045
 40
0.7993375198
 40
1.0
 40
1.0
 40
1.0
 40
1.0
 10
319.9452625552
 20
227.0818505445
 30
0.0
 10
319.9671046749
 20
227.0818505445
 30
0.0
 10
320.0092545666
 20
227.0765247669
 30
0.0
 10
320.0646951236
 20
227.0536061861
 30
0.0
 10
320.104391468
 20
227.0175094187
 30
0.0
 10
320.1152625552
 20
226.9851721037
 30
0.0
 10
320.1152625552
 20
226.9703205095
 30
0.0
  0
SPLINE
  5
5C3
100
AcDbEntity
  8
KONSTRUKTIONSELEMENTE
100
AcDbSpline
 62
7
  6
CONTINUOUS
 70
0
 71
3
 72
11
 73
7
 74
0
 42
0.0000001
 43
0.0000001
 44
0.0000000001
 40
0.0
 40
0.0
 40
0.0
 40
0.0
 40
0.2951126906
 40
0.5666792045
 40
0.7993375198
 40
1.0
 40
1.0
 40
1.0
 40
1.0
 10
317.3852625552
 20
226.3150815543
 30
0.0
 10
317.4071046749
 20
226.3150815543
 30
0.0
 10
317.4492545666
 20
226.3204073319
 30
0.0
 10
317.5046951236
 20
226.3433259127
 30
0.0
 10
317.544391468
 20
226.37942268
 30
0.0
 10
317.5552625552
 20
226.4117599951
 30
0.0
 10
317.5552625552
 20
226.4266115892
 30
0.0
  0
SPLINE
  5
5C4
100
AcDbEntity
  8
KONSTRUKTIONSELEMENTE
100
AcDbSpline
 62
7
  6
CONTINUOUS
 70
0
 71
3
 72
11
 73
7
 74
0
 42
0.0000001
 43
0.0000001
 44
0.0000000001
 40
0.0
 40
0.0
 40
0.0
 40
0.0
 40
0.2006624802
 40
0.4333207955
 40
0.7048873094
 40
1.0
 40
1.0
 40
1.0
 40
1.0
 10
317.1252625552
 20
226.9703205095
 30
0.0
 10
317.1252625552
 20
226.9851721037
 30
0.0
 10
317.1361336424
 20
227.0175094187
 30
0.0
 10
317.1758299869
 20
227.0536061861
 30
0.0
 10
317.2312705439
 20
227.0765247669
 30
0.0
 10
317.2734204356
 20
227.0818505445
 30
0.0
 10
317.2952625552
 20
227.0818505445
 30
0.0
  0
SPLINE
  5
5C5
100
AcDbEntity
  8
KONSTRUKTIONSELEMENTE
100
AcDbSpline
 62
7
  6
CONTINUOUS
 70
0
 71
3
 72
11
 73
7
 74
0
 42
0.0000001
 43
0.0000001
 44
0.0000000001
 40
0.0
 40
0.0
 40
0.0
 40
0.0
 40
0.2006624802
 40
0.4333207955
 40
0.7048873094
 40
1.0
 40
1.0
 40
1.0
 40
1.0
 10
314.7952625552
 20
227.5681542997
 30
0.0
 10
314.7952625552
 20
227.6057200966
 30
0.0
 10
314.8227600111
 20
227.6875144818
 30
0.0
 10
314.9231684118
 20
227.7788180698
 30
0.0
 10
315.0634004089
 20
227.8367885978
 30
0.0
 10
315.1700148408
 20
227.8502596822
 30
0.0
 10
315.2252625552
 20
227.8502596822
 30
0.0
  0
SPLINE
  5
5C6
100
AcDbEntity
  8
KONSTRUKTIONSELEMENTE
100
AcDbSpline
 62
7
  6
CONTINUOUS
 70
0
 71
3
 72
11
 73
7
 74
0
 42
0.0000001
 43
0.0000001
 44
0.0000000001
 40
0.0
 40
0.0
 40
0.0
 40
0.0
 40
0.2951126906
 40
0.5666792045
 40
0.7993375198
 40
1.0
 40
1.0
 40
1.0
 40
1.0
 10
317.7652625552
 20
227.8502596822
 30
0.0
 10
317.8205102696
 20
227.8502596822
 30
0.0
 10
317.9271247016
 20
227.8367885978
 30
0.0
 10
318.0673566987
 20
227.7788180698
 30
0.0
 10
318.1677650993
 20
227.6875144818
 30
0.0
 10
318.1952625552
 20
227.6057200966
 30
0.0
 10
318.1952625552
 20
227.5681542997
 30
0.0
  0
SPLINE
  5
5C7
100
AcDbEntity
  8
KONSTRUKTIONSELEMENTE
100
AcDbSpline
 62
7
  6
CONTINUOUS
 70
0
 71
3
 72
11
 73
7
 74
0
 42
0.0000001
 43
0.0000001
 44
0.0000000001
 40
0.0
 40
0.0
 40
0.0
 40
0.0
 40
0.2006624802
 40
0.4333207955
 40
0.7048873094
 40
1.0
 40
1.0
 40
1.0
 40
1.0
 10
319.0452625552
 20
227.5681542997
 30
0.0
 10
319.0452625552
 20
227.6057200966
 30
0.0
 10
319.0727600111
 20
227.6875144818
 30
0.0
 10
319.1731684118
 20
227.7788180698
 30
0.0
 10
319.3134004089
 20
227.8367885978
 30
0.0
 10
319.4200148408
 20
227.8502596822
 30
0.0
 10
319.4752625552
 20
227.8502596822
 30
0.0
  0
SPLINE
  5
5C8
100
AcDbEntity
  8
KONSTRUKTIONSELEMENTE
100
AcDbSpline
 62
7
  6
CONTINUOUS
 70
0
 71
3
 72
11
 73
7
 74
0
 42
0.0000001
 43
0.0000001
 44
0.0000000001
 40
0.0
 40
0.0
 40
0.0
 40
0.0
 40
0.2951126906
 40
0.5666792045
 40
0.7993375198
 40
1.0
 40
1.0
 40
1.0
 40
1.0
 10
322.0152625552
 20
227.8502596822
 30
0.0
 10
322.0705102696
 20
227.8502596822
 30
0.0
 10
322.1771247016
 20
227.8367885978
 30
0.0
 10
322.3173566987
 20
227.7788180698
 30
0.0
 10
322.4177650993
 20
227.6875144818
 30
0.0
 10
322.4452625552
 20
227.6057200966
 30
0.0
 10
322.4452625552
 20
227.5681542997
 30
0.0
  0
SPLINE
  5
5C9
100
AcDbEntity
  8
KONSTRUKTIONSELEMENTE
100
AcDbSpline
 62
7
  6
CONTINUOUS
 70
0
 71
3
 72
11
 73
7
 74
0
 42
0.0000001
 43
0.0000001
 44
0.0000000001
 40
0.0
 40
0.0
 40
0.0
 40
0.0
 40
0.2954365323
 40
0.5666040844
 40
0.799166178
 40
1.0
 40
1.0
 40
1.0
 40
1.0
 10
323.2952625552
 20
223.7054859181
 30
0.0
 10
323.4046088747
 20
223.7054859181
 30
0.0
 10
323.6155074862
 20
223.7316993239
 30
0.0
 10
323.8922318126
 20
223.8470730636
 30
0.0
 10
324.0913289724
 20
224.0268424149
 30
0.0
 10
324.1452625552
 20
224.1888039203
 30
0.0
 10
324.1452625552
 20
224.2631360927
 30
0.0
  0
SPLINE
  5
5CA
100
AcDbEntity
  8
KONSTRUKTIONSELEMENTE
100
AcDbSpline
 62
7
  6
CONTINUOUS
 70
0
 71
3
 72
9
 73
5
 74
0
 42
0.0000001
 43
0.0000001
 44
0.0000000001
 40
0.0
 40
0.0
 40
0.0
 40
0.0
 40
0.7431280314
 40
1.0
 40
1.0
 40
1.0
 40
1.0
 10
313.0952625552
 20
224.6404908828
 30
0.0
 10
313.0952625552
 20
224.6026536519
 30
0.0
 10
313.1037654554
 20
224.5513538215
 30
0.0
 10
313.1214752586
 20
224.503607095
 30
0.0
 10
313.1265716761
 20
224.4915619675
 30
0.0
  0
SPLINE
  5
5CB
100
AcDbEntity
  8
KONSTRUKTIONSELEMENTE
100
AcDbSpline
 62
7
  6
CONTINUOUS
 70
0
 71
3
 72
11
 73
7
 74
0
 42
0.0000001
 43
0.0000001
 44
0.0000000001
 40
0.0
 40
0.0
 40
0.0
 40
0.0
 40
0.2088894476
 40
0.4482219071
 40
0.7166341504
 40
1.0
 40
1.0
 40
1.0
 40
1.0
 10
313.1265716761
 20
224.4915619675
 30
0.0
 10
313.1526377825
 20
224.4299560305
 30
0.0
 10
313.2405435537
 20
224.3107161378
 30
0.0
 10
313.4348040031
 20
224.1826009367
 30
0.0
 10
313.6772737293
 20
224.101741881
 30
0.0
 10
313.854519251
 20
224.0828407082
 30
0.0
 10
313.9452625552
 20
224.0828407082
 30
0.0
  0
SPLINE
  5
5CC
100
AcDbEntity
  8
KONSTRUKTIONSELEMENTE
100
AcDbSpline
 62
7
  6
CONTINUOUS
 70
0
 71
3
 72
10
 73
6
 74
0
 42
0.0000001
 43
0.0000001
 44
0.0000000001
 40
0.0
 40
0.0
 40
0.0
 40
0.0
 40
0.289475619
 40
0.5607439645
 40
1.0
 40
1.0
 40
1.0
 40
1.0
 10
315.2252625552
 20
227.472904892
 30
0.0
 10
315.1768178897
 20
227.472904892
 30
0.0
 10
315.0822386675
 20
227.4621385273
 30
0.0
 10
314.9248718517
 20
227.4076033212
 30
0.0
 10
314.8256125014
 20
227.3170854561
 30
0.0
 10
314.8038965345
 20
227.2468553458
 30
0.0
  0
SPLINE
  5
5CD
100
AcDbEntity
  8
KONSTRUKTIONSELEMENTE
100
AcDbSpline
 62
7
  6
CONTINUOUS
 70
0
 71
3
 72
11
 73
7
 74
0
 42
0.0000001
 43
0.0000001
 44
0.0000000001
 40
0.0
 40
0.0
 40
0.0
 40
0.0
 40
0.2951126906
 40
0.5666792045
 40
0.7993375198
 40
1.0
 40
1.0
 40
1.0
 40
1.0
 10
323.2952625552
 20
224.0828407082
 30
0.0
 10
323.4044731535
 20
224.0828407082
 30
0.0
 10
323.6152226119
 20
224.1094695959
 30
0.0
 10
323.892425397
 20
224.2240625001
 30
0.0
 10
324.0909071191
 20
224.4045463368
 30
0.0
 10
324.1452625552
 20
224.5662329122
 30
0.0
 10
324.1452625552
 20
224.6404908828
 30
0.0
  0
SPLINE
  5
5CE
100
AcDbEntity
  8
KONSTRUKTIONSELEMENTE
100
AcDbSpline
 62
7
  6
CONTINUOUS
 70
0
 71
3
 72
9
 73
5
 74
0
 42
0.0000001
 43
0.0000001
 44
0.0000000001
 40
0.0
 40
0.0
 40
0.0
 40
0.0
 40
0.2643411843
 40
1.0
 40
1.0
 40
1.0
 40
1.0
 10
319.4752625552
 20
227.472904892
 30
0.0
 10
319.4472986299
 20
227.472904892
 30
0.0
 10
319.3418656203
 20
227.4661011785
 30
0.0
 10
319.2362763617
 20
227.4329677174
 30
0.0
 10
319.1712066393
 20
227.3902781385
 30
0.0
  0
SPLINE
  5
5CF
100
AcDbEntity
  8
KONSTRUKTIONSELEMENTE
100
AcDbSpline
 62
7
  6
CONTINUOUS
 70
0
 71
3
 72
9
 73
5
 74
0
 42
0.0000001
 43
0.0000001
 44
0.0000000001
 40
0.0
 40
0.0
 40
0.0
 40
0.0
 40
0.2752163842
 40
1.0
 40
1.0
 40
1.0
 40
1.0
 10
319.1712066393
 20
227.3902781385
 30
0.0
 10
319.1568443122
 20
227.3808556042
 30
0.0
 10
319.1070136755
 20
227.343550147
 30
0.0
 10
319.0672599402
 20
227.2900730141
 30
0.0
 10
319.0538965345
 20
227.2468553458
 30
0.0
  0
SPLINE
  5
5D0
100
AcDbEntity
  8
KONSTRUKTIONSELEMENTE
100
AcDbSpline
 62
7
  6
CONTINUOUS
 70
0
 71
3
 72
11
 73
7
 74
0
 42
0.0000001
 43
0.0000001
 44
0.0000000001
 40
0.0
 40
0.0
 40
0.0
 40
0.0
 40
0.200833822
 40
0.4333959156
 40
0.7045634677
 40
1.0
 40
1.0
 40
1.0
 40
1.0
 10
313.0952625552
 20
224.2631360927
 30
0.0
 10
313.0952625552
 20
224.1888039203
 30
0.0
 10
313.1491961381
 20
224.0268424149
 30
0.0
 10
313.3482932979
 20
223.8470730636
 30
0.0
 10
313.6250176242
 20
223.7316993239
 30
0.0
 10
313.8359162357
 20
223.7054859181
 30
0.0
 10
313.9452625552
 20
223.7054859181
 30
0.0
  0
SPLINE
  5
5D1
100
AcDbEntity
  8
KONSTRUKTIONSELEMENTE
100
AcDbSpline
 62
7
  6
CONTINUOUS
 70
0
 71
3
 72
9
 73
5
 74
0
 42
0.0000001
 43
0.0000001
 44
0.0000000001
 40
0.0
 40
0.0
 40
0.0
 40
0.0
 40
0.4761721782
 40
1.0
 40
1.0
 40
1.0
 40
1.0
 10
314.4552625552
 20
248.3297940205
 30
0.0
 10
314.4552625552
 20
248.3624691354
 30
0.0
 10
314.472669287
 20
248.4317552461
 30
0.0
 10
314.5170454614
 20
248.4865016667
 30
0.0
 10
314.5436565595
 20
248.5106659254
 30
0.0
  0
SPLINE
  5
5D2
100
AcDbEntity
  8
KONSTRUKTIONSELEMENTE
100
AcDbSpline
 62
7
  6
CONTINUOUS
 70
0
 71
3
 72
11
 73
7
 74
0
 42
0.0000001
 43
0.0000001
 44
0.0000000001
 40
0.0
 40
0.0
 40
0.0
 40
0.0
 40
0.2006624802
 40
0.4333207955
 40
0.7048873094
 40
1.0
 40
1.0
 40
1.0
 40
1.0
 10
319.6852625552
 20
226.4266115892
 30
0.0
 10
319.6852625552
 20
226.4117599951
 30
0.0
 10
319.6961336424
 20
226.37942268
 30
0.0
 10
319.7358299869
 20
226.3433259127
 30
0.0
 10
319.7912705439
 20
226.3204073319
 30
0.0
 10
319.8334204356
 20
226.3150815543
 30
0.0
 10
319.8552625552
 20
226.3150815543
 30
0.0
  0
SPLINE
  5
5D3
100
AcDbEntity
  8
KONSTRUKTIONSELEMENTE
100
AcDbSpline
 62
7
  6
CONTINUOUS
 70
0
 71
3
 72
11
 73
7
 74
0
 42
0.0000001
 43
0.0000001
 44
0.0000000001
 40
0.0
 40
0.0
 40
0.0
 40
0.0
 40
0.2951126906
 40
0.5666792045
 40
0.7993375198
 40
1.0
 40
1.0
 40
1.0
 40
1.0
 10
317.3852625552
 20
225.9377267642
 30
0.0
 10
317.4071046749
 20
225.9377267642
 30
0.0
 10
317.4492545666
 20
225.9430525418
 30
0.0
 10
317.5046951236
 20
225.9659711226
 30
0.0
 10
317.544391468
 20
226.0020678899
 30
0.0
 10
317.5552625552
 20
226.034405205
 30
0.0
 10
317.5552625552
 20
226.0492567991
 30
0.0
  0
SPLINE
  5
5D4
100
AcDbEntity
  8
KONSTRUKTIONSELEMENTE
100
AcDbSpline
 62
7
  6
CONTINUOUS
 70
0
 71
3
 72
11
 73
7
 74
0
 42
0.0000001
 43
0.0000001
 44
0.0000000001
 40
0.0
 40
0.0
 40
0.0
 40
0.0
 40
0.2006624802
 40
0.4333207955
 40
0.7048873094
 40
1.0
 40
1.0
 40
1.0
 40
1.0
 10
319.6852625552
 20
226.0492567991
 30
0.0
 10
319.6852625552
 20
226.034405205
 30
0.0
 10
319.6961336424
 20
226.0020678899
 30
0.0
 10
319.7358299869
 20
225.9659711226
 30
0.0
 10
319.7912705439
 20
225.9430525418
 30
0.0
 10
319.8334204356
 20
225.9377267642
 30
0.0
 10
319.8552625552
 20
225.9377267642
 30
0.0
  0
SPLINE
  5
5D5
100
AcDbEntity
  8
KONSTRUKTIONSELEMENTE
100
AcDbSpline
 62
7
  6
CONTINUOUS
 70
0
 71
3
 72
9
 73
5
 74
0
 42
0.0000001
 43
0.0000001
 44
0.0000000001
 40
0.0
 40
0.0
 40
0.0
 40
0.0
 40
0.7598557766
 40
1.0
 40
1.0
 40
1.0
 40
1.0
 10
317.2952625552
 20
226.7044957543
 30
0.0
 10
317.2702011923
 20
226.7044957543
 30
0.0
 10
317.2368464453
 20
226.6996955219
 30
0.0
 10
317.2059398751
 20
226.6880429008
 30
0.0
 10
317.1987223311
 20
226.6847810955
 30
0.0
  0
SPLINE
  5
5D6
100
AcDbEntity
  8
KONSTRUKTIONSELEMENTE
100
AcDbSpline
 62
7
  6
CONTINUOUS
 70
0
 71
3
 72
11
 73
7
 74
0
 42
0.0000001
 43
0.0000001
 44
0.0000000001
 40
0.0
 40
0.0
 40
0.0
 40
0.0
 40
0.2374360684
 40
0.4999998705
 40
0.7625637751
 40
1.0
 40
1.0
 40
1.0
 40
1.0
 10
314.5615566561
 20
248.5268262072
 30
0.0
 10
315.0725681172
 20
248.9855085734
 30
0.0
 10
316.381887993
 20
249.6969882911
 30
0.0
 10
318.5952708857
 20
250.046568893
 30
0.0
 10
320.8086535416
 20
249.6969833039
 30
0.0
 10
322.117972141
 20
248.9854988782
 30
0.0
 10
322.6289819988
 20
248.526814048
 30
0.0
  0
SPLINE
  5
5D7
100
AcDbEntity
  8
KONSTRUKTIONSELEMENTE
100
AcDbSpline
 62
7
  6
CONTINUOUS
 70
0
 71
3
 72
9
 73
5
 74
0
 42
0.0000001
 43
0.0000001
 44
0.0000000001
 40
0.0
 40
0.0
 40
0.0
 40
0.0
 40
0.2693140593
 40
1.0
 40
1.0
 40
1.0
 40
1.0
 10
322.6468685509
 20
248.5106659254
 30
0.0
 10
322.6583819137
 20
248.5002111943
 30
0.0
 10
322.6984794492
 20
248.4587458461
 30
0.0
 10
322.7260661067
 20
248.4039110554
 30
0.0
 10
322.7326863883
 20
248.3622394513
 30
0.0
  0
SPLINE
  5
5D8
100
AcDbEntity
  8
KONSTRUKTIONSELEMENTE
100
AcDbSpline
 62
7
  6
CONTINUOUS
 70
0
 71
3
 72
11
 73
7
 74
0
 42
0.0000001
 43
0.0000001
 44
0.0000000001
 40
0.0
 40
0.0
 40
0.0
 40
0.0
 40
0.2951126906
 40
0.5666792045
 40
0.7993375198
 40
1.0
 40
1.0
 40
1.0
 40
1.0
 10
321.6352625552
 20
225.9377267642
 30
0.0
 10
321.6571046749
 20
225.9377267642
 30
0.0
 10
321.6992545666
 20
225.9430525418
 30
0.0
 10
321.7546951236
 20
225.9659711226
 30
0.0
 10
321.794391468
 20
226.0020678899
 30
0.0
 10
321.8052625552
 20
226.034405205
 30
0.0
 10
321.8052625552
 20
226.0492567991
 30
0.0
  0
SPLINE
  5
5D9
100
AcDbEntity
  8
0
100
AcDbSpline
 62
7
  6
CONTINUOUS
 70
0
 71
3
 72
8
 73
4
 74
0
 42
0.0000001
 43
0.0000001
 44
0.0000000001
 40
0.0
 40
0.0
 40
0.0
 40
0.0
 40
1.0
 40
1.0
 40
1.0
 40
1.0
 10
337.0903131434
 20
226.5049773666
 30
0.0
 10
337.0804135992
 20
226.4522011326
 30
0.0
 10
337.0634370272
 20
226.4002541422
 30
0.0
 10
337.0399756154
 20
226.3519541008
 30
0.0
  0
SPLINE
  5
5DA
100
AcDbEntity
  8
0
100
AcDbSpline
 62
7
  6
CONTINUOUS
 70
0
 71
3
 72
16
 73
12
 74
0
 42
0.0000001
 43
0.0000001
 44
0.0000000001
 40
0.0
 40
0.0
 40
0.0
 40
0.0
 40
0.0481864484
 40
0.0983283001
 40
0.2100427609
 40
0.3407549188
 40
0.4852887041
 40
0.633194494
 40
0.7729214962
 40
0.8957196861
 40
1.0
 40
1.0
 40
1.0
 40
1.0
 10
337.0399756154
 20
226.3519541008
 30
0.0
 10
337.0151917351
 20
226.3009314917
 30
0.0
 10
336.949077962
 20
226.2036242105
 30
0.0
 10
336.7562858782
 20
226.0443921323
 30
0.0
 10
336.4174684602
 20
225.9353898462
 30
0.0
 10
335.9563739237
 20
225.9514300658
 30
0.0
 10
335.4748496475
 20
226.0972904048
 30
0.0
 10
335.0311262303
 20
226.3554225265
 30
0.0
 10
334.6797335473
 20
226.6948844078
 30
0.0
 10
334.4622300696
 20
227.0763642962
 30
0.0
 10
334.4316195641
 20
227.3543776182
 30
0.0
 10
334.4539599438
 20
227.4750828199
 30
0.0
  0
SPLINE
  5
5DB
100
AcDbEntity
  8
0
100
AcDbSpline
 62
7
  6
CONTINUOUS
 70
0
 71
3
 72
9
 73
5
 74
0
 42
0.0000001
 43
0.0000001
 44
0.0000000001
 40
0.0
 40
0.0
 40
0.0
 40
0.0
 40
0.4954125409
 40
1.0
 40
1.0
 40
1.0
 40
1.0
 10
334.4539599438
 20
227.4750828199
 30
0.0
 10
334.4673944277
 20
227.5476694148
 30
0.0
 10
334.5216391579
 20
227.6907555942
 30
0.0
 10
334.62543053
 20
227.8028649775
 30
0.0
 10
334.6849284586
 20
227.8488324004
 30
0.0
  0
SPLINE
  5
5DC
100
AcDbEntity
  8
0
100
AcDbSpline
 62
7
  6
CONTINUOUS
 70
0
 71
3
 72
15
 73
11
 74
0
 42
0.0000001
 43
0.0000001
 44
0.0000000001
 40
0.0
 40
0.0
 40
0.0
 40
0.0
 40
0.106489858
 40
0.2215203281
 40
0.3492901494
 40
0.4870904558
 40
0.6279266681
 40
0.7636029491
 40
0.8879097727
 40
1.0
 40
1.0
 40
1.0
 40
1.0
 10
341.931671874
 20
227.6496043916
 30
0.0
 10
341.9058486084
 20
227.5125043202
 30
0.0
 10
341.7757630597
 20
227.237626347
 30
0.0
 10
341.4030124767
 20
226.9502392569
 30
0.0
 10
340.9162863215
 20
226.8056325846
 30
0.0
 10
340.3766964685
 20
226.8133332188
 30
0.0
 10
339.8497357898
 20
226.9693819378
 30
0.0
 10
339.4004895807
 20
227.2557473323
 30
0.0
 10
339.0848284623
 20
227.6397213602
 30
0.0
 10
338.994328966
 20
227.9486001692
 30
0.0
 10
338.9891941397
 20
228.0953581562
 30
0.0
  0
SPLINE
  5
5DD
100
AcDbEntity
  8
0
100
AcDbSpline
 62
7
  6
CONTINUOUS
 70
0
 71
3
 72
8
 73
4
 74
0
 42
0.0000001
 43
0.0000001
 44
0.0000000001
 40
0.0
 40
0.0
 40
0.0
 40
0.0
 40
1.0
 40
1.0
 40
1.0
 40
1.0
 10
338.9891941397
 20
228.0953581562
 30
0.0
 10
338.9868552099
 20
228.1622068879
 30
0.0
 10
338.9920645555
 20
228.2298048015
 30
0.0
 10
339.0052357708
 20
228.2953848488
 30
0.0
  0
SPLINE
  5
5DE
100
AcDbEntity
  8
0
100
AcDbSpline
 62
7
  6
CONTINUOUS
 70
0
 71
3
 72
15
 73
11
 74
0
 42
0.0000001
 43
0.0000001
 44
0.0000000001
 40
0.0
 40
0.0
 40
0.0
 40
0.0
 40
0.1125195235
 40
0.225583334
 40
0.3467019493
 40
0.4777923691
 40
0.6150333322
 40
0.7515432161
 40
0.8807625709
 40
1.0
 40
1.0
 40
1.0
 40
1.0
 10
337.8699457738
 20
231.3199561983
 30
0.0
 10
337.8510034082
 20
231.1727607585
 30
0.0
 10
337.742827222
 20
230.8804555883
 30
0.0
 10
337.3820649807
 20
230.5712895821
 30
0.0
 10
336.9019736805
 20
230.4469175402
 30
0.0
 10
336.3819369047
 20
230.5119783593
 30
0.0
 10
335.8934829417
 20
230.7492804574
 30
0.0
 10
335.5043275671
 20
231.1248139774
 30
0.0
 10
335.2697173256
 20
231.5868956365
 30
0.0
 10
335.2452198962
 20
231.925909456
 30
0.0
 10
335.2714619798
 20
232.0809745692
 30
0.0
  0
SPLINE
  5
5DF
100
AcDbEntity
  8
0
100
AcDbSpline
 62
7
  6
CONTINUOUS
 70
0
 71
3
 72
9
 73
5
 74
0
 42
0.0000001
 43
0.0000001
 44
0.0000000001
 40
0.0
 40
0.0
 40
0.0
 40
0.0
 40
0.489430842
 40
1.0
 40
1.0
 40
1.0
 40
1.0
 10
335.3272930366
 20
232.2793613837
 30
0.0
 10
335.3813536113
 20
232.4129538644
 30
0.0
 10
335.5610776281
 20
232.6626801272
 30
0.0
 10
335.834032361
 20
232.7998813511
 30
0.0
 10
335.9788372326
 20
232.8403021369
 30
0.0
  0
SPLINE
  5
5E0
100
AcDbEntity
  8
0
100
AcDbSpline
 62
7
  6
CONTINUOUS
 70
0
 71
3
 72
15
 73
11
 74
0
 42
0.0000001
 43
0.0000001
 44
0.0000000001
 40
0.0
 40
0.0
 40
0.0
 40
0.0
 40
0.1184031231
 40
0.239471763
 40
0.366049902
 40
0.4972057715
 40
0.629215974
 40
0.7578923067
 40
0.8810126811
 40
1.0
 40
1.0
 40
1.0
 40
1.0
 10
342.7250251541
 20
233.1030623117
 30
0.0
 10
342.7069503805
 20
232.9237132894
 30
0.0
 10
342.5827332024
 20
232.5640922604
 30
0.0
 10
342.1694629396
 20
232.163552405
 30
0.0
 10
341.6116765629
 20
231.9630276384
 30
0.0
 10
341.0048351048
 20
231.9884367613
 30
0.0
 10
340.4450428026
 20
232.2314381773
 30
0.0
 10
340.0215942805
 20
232.6557107199
 30
0.0
 10
339.8075925387
 20
233.1965106667
 30
0.0
 10
339.8380933066
 20
233.5796544556
 30
0.0
 10
339.8942557142
 20
233.7518751862
 30
0.0
  0
SPLINE
  5
5E1
100
AcDbEntity
  8
0
100
AcDbSpline
 62
7
  6
CONTINUOUS
 70
0
 71
3
 72
9
 73
5
 74
0
 42
0.0000001
 43
0.0000001
 44
0.0000000001
 40
0.0
 40
0.0
 40
0.0
 40
0.0
 40
0.496161914
 40
1.0
 40
1.0
 40
1.0
 40
1.0
 10
339.8942557142
 20
233.7518751862
 30
0.0
 10
339.9263851817
 20
233.8503994592
 30
0.0
 10
340.0182841855
 20
234.0410515944
 30
0.0
 10
340.1564399428
 20
234.2011496983
 30
0.0
 10
340.2346039996
 20
234.2716095061
 30
0.0
  0
SPLINE
  5
5E2
100
AcDbEntity
  8
0
100
AcDbSpline
 62
7
  6
CONTINUOUS
 70
0
 71
3
 72
18
 73
14
 74
0
 42
0.0000001
 43
0.0000001
 44
0.0000000001
 40
0.0
 40
0.0
 40
0.0
 40
0.0
 40
0.0433586689
 40
0.0893586081
 40
0.1402439334
 40
0.1972348636
 40
0.3289916623
 40
0.4783190491
 40
0.6323115286
 40
0.7767761092
 40
0.8418283863
 40
0.9007382941
 40
1.0
 40
1.0
 40
1.0
 40
1.0
 10
341.1539019325
 20
223.4937019589
 30
0.0
 10
341.1443499556
 20
223.4428976303
 30
0.0
 10
341.1064457274
 20
223.340869457
 30
0.0
 10
341.0003252598
 20
223.2086831626
 30
0.0
 10
340.85052455
 20
223.0997819768
 30
0.0
 10
340.5879582995
 20
222.9831742112
 30
0.0
 10
340.1840168521
 20
222.9177592224
 30
0.0
 10
339.6632131331
 20
222.9545745889
 30
0.0
 10
339.1455043765
 20
223.0985600138
 30
0.0
 10
338.7567822866
 20
223.29963549
 30
0.0
 10
338.5068561489
 20
223.5018839388
 30
0.0
 10
338.3285765056
 20
223.6992910146
 30
0.0
 10
338.2416927709
 20
223.8780409221
 30
0.0
 10
338.2266519271
 20
223.9954262686
 30
0.0
  0
SPLINE
  5
5E3
100
AcDbEntity
  8
0
100
AcDbSpline
 62
7
  6
CONTINUOUS
 70
0
 71
3
 72
9
 73
5
 74
0
 42
0.0000001
 43
0.0000001
 44
0.0000000001
 40
0.0
 40
0.0
 40
0.0
 40
0.0
 40
0.2554198815
 40
1.0
 40
1.0
 40
1.0
 40
1.0
 10
338.2266519271
 20
223.9954262686
 30
0.0
 10
338.2250929253
 20
224.0075934031
 30
0.0
 10
338.2206001486
 20
224.0554152638
 30
0.0
 10
338.2228877727
 20
224.1039251262
 30
0.0
 10
338.2287326377
 20
224.1392028679
 30
0.0
  0
SPLINE
  5
5E4
100
AcDbEntity
  8
0
100
AcDbSpline
 62
7
  6
CONTINUOUS
 70
0
 71
3
 72
9
 73
5
 74
0
 42
0.0000001
 43
0.0000001
 44
0.0000000001
 40
0.0
 40
0.0
 40
0.0
 40
0.0
 40
0.5081608257
 40
1.0
 40
1.0
 40
1.0
 40
1.0
 10
333.791851249
 20
223.960698617
 30
0.0
 10
333.7834073251
 20
224.0125116625
 30
0.0
 10
333.7877092389
 20
224.1217151121
 30
0.0
 10
333.8553352802
 20
224.2085018028
 30
0.0
 10
333.8953147645
 20
224.2398600891
 30
0.0
  0
SPLINE
  5
5E5
100
AcDbEntity
  8
0
100
AcDbSpline
 62
7
  6
CONTINUOUS
 70
0
 71
3
 72
9
 73
5
 74
0
 42
0.0000001
 43
0.0000001
 44
0.0000000001
 40
0.0
 40
0.0
 40
0.0
 40
0.0
 40
0.4598829541
 40
1.0
 40
1.0
 40
1.0
 40
1.0
 10
336.308283309
 20
223.0111871356
 30
0.0
 10
336.2933397934
 20
222.9648446631
 30
0.0
 10
336.2288863947
 20
222.8731431681
 30
0.0
 10
336.1304229124
 20
222.8259061622
 30
0.0
 10
336.0761035803
 20
222.8080230039
 30
0.0
  0
SPLINE
  5
5E6
100
AcDbEntity
  8
0
100
AcDbSpline
 62
7
  6
CONTINUOUS
 70
0
 71
3
 72
15
 73
11
 74
0
 42
0.0000001
 43
0.0000001
 44
0.0000000001
 40
0.0
 40
0.0
 40
0.0
 40
0.0
 40
0.099902007
 40
0.2243728676
 40
0.3668850479
 40
0.5175795075
 40
0.6654266136
 40
0.7999119376
 40
0.9126576658
 40
1.0
 40
1.0
 40
1.0
 40
1.0
 10
336.0761035803
 20
222.8080230039
 30
0.0
 10
335.9896207783
 20
222.7795509006
 30
0.0
 10
335.782493145
 20
222.7571495395
 30
0.0
 10
335.4490942111
 20
222.7948189718
 30
0.0
 10
335.0808124457
 20
222.896869574
 30
0.0
 10
334.7101143404
 20
223.0550461417
 30
0.0
 10
334.3688369631
 20
223.2554078648
 30
0.0
 10
334.0860666641
 20
223.481172471
 30
0.0
 10
333.8846029874
 20
223.7118555263
 30
0.0
 10
333.8046550646
 20
223.8821326931
 30
0.0
 10
333.791851249
 20
223.960698617
 30
0.0
  0
SPLINE
  5
5E7
100
AcDbEntity
  8
0
100
AcDbSpline
 62
7
  6
CONTINUOUS
 70
0
 71
3
 72
9
 73
5
 74
0
 42
0.0000001
 43
0.0000001
 44
0.0000000001
 40
0.0
 40
0.0
 40
0.0
 40
0.0
 40
0.2600129863
 40
1.0
 40
1.0
 40
1.0
 40
1.0
 10
337.5772370004
 20
221.2825805322
 30
0.0
 10
337.5753005351
 20
221.2924369094
 30
0.0
 10
337.5706252425
 20
221.3308645695
 30
0.0
 10
337.5806000161
 20
221.3708423481
 30
0.0
 10
337.5946825229
 20
221.3957201844
 30
0.0
  0
SPLINE
  5
5E8
100
AcDbEntity
  8
0
100
AcDbSpline
 62
7
  6
CONTINUOUS
 70
0
 71
3
 72
10
 73
6
 74
0
 42
0.0000001
 43
0.0000001
 44
0.0000000001
 40
0.0
 40
0.0
 40
0.0
 40
0.0
 40
0.1985566617
 40
0.5532205738
 40
1.0
 40
1.0
 40
1.0
 40
1.0
 10
340.381274295
 20
220.6398946704
 30
0.0
 10
340.3727166286
 20
220.622637105
 30
0.0
 10
340.3400166031
 20
220.5788172562
 30
0.0
 10
340.2575986716
 20
220.5243251025
 30
0.0
 10
340.1837976918
 20
220.4984313251
 30
0.0
 10
340.1419993371
 20
220.4869595667
 30
0.0
  0
SPLINE
  5
5E9
100
AcDbEntity
  8
0
100
AcDbSpline
 62
7
  6
CONTINUOUS
 70
0
 71
3
 72
13
 73
9
 74
0
 42
0.0000001
 43
0.0000001
 44
0.0000000001
 40
0.0
 40
0.0
 40
0.0
 40
0.0
 40
0.0989894716
 40
0.2213490009
 40
0.5075431243
 40
0.7894743214
 40
0.9069632496
 40
1.0
 40
1.0
 40
1.0
 40
1.0
 10
340.1419993371
 20
220.4869595667
 30
0.0
 10
340.0590404929
 20
220.4641911152
 30
0.0
 10
339.8668345843
 20
220.4387498466
 30
0.0
 10
339.4251150318
 20
220.4435809867
 30
0.0
 10
338.8303950217
 20
220.5461227205
 30
0.0
 10
338.2616935572
 20
220.7364383393
 30
0.0
 10
337.8840042242
 20
220.9390800812
 30
0.0
 10
337.736745701
 20
221.0507896073
 30
0.0
 10
337.6808664244
 20
221.1092256871
 30
0.0
  0
SPLINE
  5
5EA
100
AcDbEntity
  8
0
100
AcDbSpline
 62
7
  6
CONTINUOUS
 70
0
 71
3
 72
9
 73
5
 74
0
 42
0.0000001
 43
0.0000001
 44
0.0000000001
 40
0.0
 40
0.0
 40
0.0
 40
0.0
 40
0.2934762139
 40
1.0
 40
1.0
 40
1.0
 40
1.0
 10
337.6808664244
 20
221.1092256871
 30
0.0
 10
337.6671232374
 20
221.1235977052
 30
0.0
 10
337.6226870284
 20
221.17428996
 30
0.0
 10
337.586466051
 20
221.2356057662
 30
0.0
 10
337.5772370004
 20
221.2825805322
 30
0.0
  0
SPLINE
  5
5EB
100
AcDbEntity
  8
0
100
AcDbSpline
 62
7
  6
CONTINUOUS
 70
0
 71
3
 72
9
 73
5
 74
0
 42
0.0000001
 43
0.0000001
 44
0.0000000001
 40
0.0
 40
0.0
 40
0.0
 40
0.0
 40
0.2592919929
 40
1.0
 40
1.0
 40
1.0
 40
1.0
 10
336.3215235417
 20
223.1088509779
 30
0.0
 10
336.3217580346
 20
223.1003131586
 30
0.0
 10
336.3214303503
 20
223.067373682
 30
0.0
 10
336.3157712382
 20
223.0344085224
 30
0.0
 10
336.308283309
 20
223.0111871356
 30
0.0
  0
SPLINE
  5
5EC
100
AcDbEntity
  8
KONSTRUKTIONSELEMENTE
100
AcDbSpline
 62
7
  6
CONTINUOUS
 70
0
 71
3
 72
9
 73
5
 74
0
 42
0.0000001
 43
0.0000001
 44
0.0000000001
 40
0.0
 40
0.0
 40
0.0
 40
0.0
 40
0.246862891
 40
1.0
 40
1.0
 40
1.0
 40
1.0
 10
322.7436152396
 20
240.6598874559
 30
0.0
 10
322.7390178139
 20
240.6808646002
 30
0.0
 10
322.7181262282
 20
240.7653323329
 30
0.0
 10
322.6882789819
 20
240.847537314
 30
0.0
 10
322.6615143721
 20
240.9073377622
 30
0.0
  0
SPLINE
  5
5ED
100
AcDbEntity
  8
KONSTRUKTIONSELEMENTE
100
AcDbSpline
 62
7
  6
CONTINUOUS
 70
0
 71
3
 72
11
 73
7
 74
0
 42
0.0000001
 43
0.0000001
 44
0.0000000001
 40
0.0
 40
0.0
 40
0.0
 40
0.0
 40
0.2091754266
 40
0.4489769744
 40
0.7164837406
 40
1.0
 40
1.0
 40
1.0
 40
1.0
 10
322.6615143721
 20
240.9073377622
 30
0.0
 10
322.575187138
 20
241.100219607
 30
0.0
 10
322.2903518941
 20
241.4710395183
 30
0.0
 10
321.6755540926
 20
241.8703291648
 30
0.0
 10
320.9106943184
 20
242.1248051137
 30
0.0
 10
320.3521011759
 20
242.1822361705
 30
0.0
 10
320.0656792693
 20
242.1822361705
 30
0.0
  0
SPLINE
  5
5EE
100
AcDbEntity
  8
KONSTRUKTIONSELEMENTE
100
AcDbSpline
 62
7
  6
CONTINUOUS
 70
0
 71
3
 72
11
 73
7
 74
0
 42
0.0000001
 43
0.0000001
 44
0.0000000001
 40
0.0
 40
0.0
 40
0.0
 40
0.0
 40
0.2006624802
 40
0.4333207955
 40
0.7048873094
 40
1.0
 40
1.0
 40
1.0
 40
1.0
 10
315.4352625552
 20
226.4266115892
 30
0.0
 10
315.4352625552
 20
226.4117599951
 30
0.0
 10
315.4461336424
 20
226.37942268
 30
0.0
 10
315.4858299869
 20
226.3433259127
 30
0.0
 10
315.5412705439
 20
226.3204073319
 30
0.0
 10
315.5834204356
 20
226.3150815543
 30
0.0
 10
315.6052625552
 20
226.3150815543
 30
0.0
  0
SPLINE
  5
5EF
100
AcDbEntity
  8
0
100
AcDbSpline
 62
7
  6
CONTINUOUS
 70
0
 71
3
 72
9
 73
5
 74
0
 42
0.0000001
 43
0.0000001
 44
0.0000000001
 40
0.0
 40
0.0
 40
0.0
 40
0.0
 40
0.2530995572
 40
1.0
 40
1.0
 40
1.0
 40
1.0
 10
342.6950329114
 20
233.5165713102
 30
0.0
 10
342.7034050348
 20
233.4825122468
 30
0.0
 10
342.7308510543
 20
233.3466333955
 30
0.0
 10
342.735403382
 20
233.2060414738
 30
0.0
 10
342.7250251541
 20
233.1030623117
 30
0.0
  0
SPLINE
  5
5F0
100
AcDbEntity
  8
KONSTRUKTIONSELEMENTE
100
AcDbSpline
 62
7
  6
CONTINUOUS
 70
0
 71
3
 72
11
 73
7
 74
0
 42
0.0000001
 43
0.0000001
 44
0.0000000001
 40
0.0
 40
0.0
 40
0.0
 40
0.0
 40
0.2006624802
 40
0.4333207955
 40
0.7048873094
 40
1.0
 40
1.0
 40
1.0
 40
1.0
 10
315.4352625552
 20
226.0492567991
 30
0.0
 10
315.4352625552
 20
226.034405205
 30
0.0
 10
315.4461336424
 20
226.0020678899
 30
0.0
 10
315.4858299869
 20
225.9659711226
 30
0.0
 10
315.5412705439
 20
225.9430525418
 30
0.0
 10
315.5834204356
 20
225.9377267642
 30
0.0
 10
315.6052625552
 20
225.9377267642
 30
0.0
  0
SPLINE
  5
5F1
100
AcDbEntity
  8
KONSTRUKTIONSELEMENTE
100
AcDbSpline
 62
7
  6
CONTINUOUS
 70
0
 71
3
 72
13
 73
9
 74
0
 42
0.0000001
 43
0.0000001
 44
0.0000000001
 40
0.0
 40
0.0
 40
0.0
 40
0.0
 40
0.2944689225
 40
0.5647082019
 40
0.686183047
 40
0.7978026577
 40
0.9012531917
 40
1.0
 40
1.0
 40
1.0
 40
1.0
 10
320.0656792693
 20
237.7400948725
 30
0.0
 10
320.5887100714
 20
237.7400948725
 30
0.0
 10
321.5959262542
 20
237.8651539097
 30
0.0
 10
322.7413112058
 20
238.3416951862
 30
0.0
 10
323.4485792437
 20
238.8972109343
 30
0.0
 10
323.8340466632
 20
239.36114094
 30
0.0
 10
324.075576035
 20
239.8707000451
 30
0.0
 10
324.1311530619
 20
240.2318932228
 30
0.0
 10
324.1311530619
 20
240.4072856612
 30
0.0
  0
SPLINE
  5
5F2
100
AcDbEntity
  8
0
100
AcDbSpline
 62
7
  6
CONTINUOUS
 70
0
 71
3
 72
9
 73
5
 74
0
 42
0.0000001
 43
0.0000001
 44
0.0000000001
 40
0.0
 40
0.0
 40
0.0
 40
0.0
 40
0.2552720357
 40
1.0
 40
1.0
 40
1.0
 40
1.0
 10
337.8669138255
 20
231.6092737937
 30
0.0
 10
337.8703953969
 20
231.584859893
 30
0.0
 10
337.880989783
 20
231.4888247741
 30
0.0
 10
337.8791286028
 20
231.3913132076
 30
0.0
 10
337.8699457738
 20
231.3199561983
 30
0.0
  0
SPLINE
  5
5F3
100
AcDbEntity
  8
KONSTRUKTIONSELEMENTE
100
AcDbSpline
 62
7
  6
CONTINUOUS
 70
0
 71
3
 72
15
 73
11
 74
0
 42
0.0000001
 43
0.0000001
 44
0.0000000001
 40
0.0
 40
0.0
 40
0.0
 40
0.0
 40
0.1026374094
 40
0.2212909287
 40
0.3559197495
 40
0.5
 40
0.6440802505
 40
0.7787090713
 40
0.8973625906
 40
1.0
 40
1.0
 40
1.0
 40
1.0
 10
317.2148198509
 20
234.6952605401
 30
0.0
 10
317.1869060116
 20
234.7975027878
 30
0.0
 10
317.0650383421
 20
235.0020665574
 30
0.0
 10
316.7637147332
 20
235.2233156179
 30
0.0
 10
316.3738773393
 20
235.365229429
 30
0.0
 10
315.936243066
 20
235.4138555201
 30
0.0
 10
315.4986087927
 20
235.365229429
 30
0.0
 10
315.1087713989
 20
235.2233156179
 30
0.0
 10
314.8074477899
 20
235.0020665574
 30
0.0
 10
314.6855801205
 20
234.7975027878
 30
0.0
 10
314.6576662811
 20
234.6952605401
 30
0.0
  0
SPLINE
  5
5F4
100
AcDbEntity
  8
BEZUGSACHSEN
100
AcDbSpline
 62
7
  6
CONTINUOUS
 70
0
 71
3
 72
8
 73
4
 74
0
 42
0.0000001
 43
0.0000001
 44
0.0000000001
 40
0.0
 40
0.0
 40
0.0
 40
0.0
 40
1.0
 40
1.0
 40
1.0
 40
1.0
 10
300.1002119671
 20
226.5049773666
 30
0.0
 10
300.1101115113
 20
226.4522011326
 30
0.0
 10
300.1270880832
 20
226.4002541422
 30
0.0
 10
300.150549495
 20
226.3519541008
 30
0.0
  0
SPLINE
  5
5F5
100
AcDbEntity
  8
BEZUGSACHSEN
100
AcDbSpline
 62
7
  6
CONTINUOUS
 70
0
 71
3
 72
16
 73
12
 74
0
 42
0.0000001
 43
0.0000001
 44
0.0000000001
 40
0.0
 40
0.0
 40
0.0
 40
0.0
 40
0.0481864484
 40
0.0983283001
 40
0.2100427609
 40
0.3407549188
 40
0.4852887041
 40
0.633194494
 40
0.7729214962
 40
0.8957196861
 40
1.0
 40
1.0
 40
1.0
 40
1.0
 10
300.150549495
 20
226.3519541008
 30
0.0
 10
300.1753333753
 20
226.3009314917
 30
0.0
 10
300.2414471485
 20
226.2036242105
 30
0.0
 10
300.4342392322
 20
226.0443921323
 30
0.0
 10
300.7730566503
 20
225.9353898462
 30
0.0
 10
301.2341511868
 20
225.9514300658
 30
0.0
 10
301.7156754629
 20
226.0972904048
 30
0.0
 10
302.1593988802
 20
226.3554225265
 30
0.0
 10
302.5107915632
 20
226.6948844078
 30
0.0
 10
302.7282950408
 20
227.0763642962
 30
0.0
 10
302.7589055464
 20
227.3543776182
 30
0.0
 10
302.7365651667
 20
227.4750828199
 30
0.0
  0
SPLINE
  5
5F6
100
AcDbEntity
  8
BEZUGSACHSEN
100
AcDbSpline
 62
7
  6
CONTINUOUS
 70
0
 71
3
 72
9
 73
5
 74
0
 42
0.0000001
 43
0.0000001
 44
0.0000000001
 40
0.0
 40
0.0
 40
0.0
 40
0.0
 40
0.4954125409
 40
1.0
 40
1.0
 40
1.0
 40
1.0
 10
302.7365651667
 20
227.4750828199
 30
0.0
 10
302.7231306827
 20
227.5476694148
 30
0.0
 10
302.6688859525
 20
227.6907555942
 30
0.0
 10
302.5650945805
 20
227.8028649775
 30
0.0
 10
302.5055966519
 20
227.8488324004
 30
0.0
  0
SPLINE
  5
5F7
100
AcDbEntity
  8
BEZUGSACHSEN
100
AcDbSpline
 62
7
  6
CONTINUOUS
 70
0
 71
3
 72
15
 73
11
 74
0
 42
0.0000001
 43
0.0000001
 44
0.0000000001
 40
0.0
 40
0.0
 40
0.0
 40
0.0
 40
0.106489858
 40
0.2215203281
 40
0.3492901494
 40
0.4870904558
 40
0.6279266681
 40
0.7636029491
 40
0.8879097727
 40
1.0
 40
1.0
 40
1.0
 40
1.0
 10
295.2588532365
 20
227.6496043916
 30
0.0
 10
295.284676502
 20
227.5125043202
 30
0.0
 10
295.4147620507
 20
227.237626347
 30
0.0
 10
295.7875126338
 20
226.9502392569
 30
0.0
 10
296.2742387889
 20
226.8056325846
 30
0.0
 10
296.8138286419
 20
226.8133332188
 30
0.0
 10
297.3407893206
 20
226.9693819378
 30
0.0
 10
297.7900355298
 20
227.2557473323
 30
0.0
 10
298.1056966482
 20
227.6397213602
 30
0.0
 10
298.1961961444
 20
227.9486001692
 30
0.0
 10
298.2013309707
 20
228.0953581562
 30
0.0
  0
SPLINE
  5
5F8
100
AcDbEntity
  8
BEZUGSACHSEN
100
AcDbSpline
 62
7
  6
CONTINUOUS
 70
0
 71
3
 72
8
 73
4
 74
0
 42
0.0000001
 43
0.0000001
 44
0.0000000001
 40
0.0
 40
0.0
 40
0.0
 40
0.0
 40
1.0
 40
1.0
 40
1.0
 40
1.0
 10
298.2013309707
 20
228.0953581562
 30
0.0
 10
298.2036699005
 20
228.1622068879
 30
0.0
 10
298.1984605549
 20
228.2298048015
 30
0.0
 10
298.1852893397
 20
228.2953848488
 30
0.0
  0
SPLINE
  5
5F9
100
AcDbEntity
  8
BEZUGSACHSEN
100
AcDbSpline
 62
7
  6
CONTINUOUS
 70
0
 71
3
 72
15
 73
11
 74
0
 42
0.0000001
 43
0.0000001
 44
0.0000000001
 40
0.0
 40
0.0
 40
0.0
 40
0.0
 40
0.1125195235
 40
0.225583334
 40
0.3467019493
 40
0.4777923691
 40
0.6150333322
 40
0.7515432161
 40
0.8807625709
 40
1.0
 40
1.0
 40
1.0
 40
1.0
 10
299.3205793366
 20
231.3199561983
 30
0.0
 10
299.3395217022
 20
231.1727607585
 30
0.0
 10
299.4476978885
 20
230.8804555883
 30
0.0
 10
299.8084601297
 20
230.5712895821
 30
0.0
 10
300.28855143
 20
230.4469175402
 30
0.0
 10
300.8085882057
 20
230.5119783593
 30
0.0
 10
301.2970421687
 20
230.7492804574
 30
0.0
 10
301.6861975434
 20
231.1248139774
 30
0.0
 10
301.9208077848
 20
231.5868956365
 30
0.0
 10
301.9453052143
 20
231.925909456
 30
0.0
 10
301.9190631306
 20
232.0809745692
 30
0.0
  0
SPLINE
  5
5FA
100
AcDbEntity
  8
BEZUGSACHSEN
100
AcDbSpline
 62
7
  6
CONTINUOUS
 70
0
 71
3
 72
9
 73
5
 74
0
 42
0.0000001
 43
0.0000001
 44
0.0000000001
 40
0.0
 40
0.0
 40
0.0
 40
0.0
 40
0.489430842
 40
1.0
 40
1.0
 40
1.0
 40
1.0
 10
301.8632320739
 20
232.2793613837
 30
0.0
 10
301.8091714991
 20
232.4129538644
 30
0.0
 10
301.6294474824
 20
232.6626801272
 30
0.0
 10
301.3564927495
 20
232.7998813511
 30
0.0
 10
301.2116878778
 20
232.8403021369
 30
0.0
  0
SPLINE
  5
5FB
100
AcDbEntity
  8
BEZUGSACHSEN
100
AcDbSpline
 62
7
  6
CONTINUOUS
 70
0
 71
3
 72
15
 73
11
 74
0
 42
0.0000001
 43
0.0000001
 44
0.0000000001
 40
0.0
 40
0.0
 40
0.0
 40
0.0
 40
0.1184031231
 40
0.239471763
 40
0.366049902
 40
0.4972057715
 40
0.629215974
 40
0.7578923067
 40
0.8810126811
 40
1.0
 40
1.0
 40
1.0
 40
1.0
 10
294.4654999564
 20
233.1030623117
 30
0.0
 10
294.48357473
 20
232.9237132894
 30
0.0
 10
294.607791908
 20
232.5640922604
 30
0.0
 10
295.0210621708
 20
232.163552405
 30
0.0
 10
295.5788485475
 20
231.9630276384
 30
0.0
 10
296.1856900056
 20
231.9884367613
 30
0.0
 10
296.7454823079
 20
232.2314381773
 30
0.0
 10
297.16893083
 20
232.6557107199
 30
0.0
 10
297.3829325718
 20
233.1965106667
 30
0.0
 10
297.3524318038
 20
233.5796544556
 30
0.0
 10
297.2962693963
 20
233.7518751862
 30
0.0
  0
SPLINE
  5
5FC
100
AcDbEntity
  8
BEZUGSACHSEN
100
AcDbSpline
 62
7
  6
CONTINUOUS
 70
0
 71
3
 72
9
 73
5
 74
0
 42
0.0000001
 43
0.0000001
 44
0.0000000001
 40
0.0
 40
0.0
 40
0.0
 40
0.0
 40
0.496161914
 40
1.0
 40
1.0
 40
1.0
 40
1.0
 10
297.2962693963
 20
233.7518751862
 30
0.0
 10
297.2641399288
 20
233.8503994592
 30
0.0
 10
297.1722409249
 20
234.0410515944
 30
0.0
 10
297.0340851677
 20
234.2011496983
 30
0.0
 10
296.9559211108
 20
234.2716095061
 30
0.0
  0
SPLINE
  5
5FD
100
AcDbEntity
  8
BEZUGSACHSEN
100
AcDbSpline
 62
7
  6
CONTINUOUS
 70
0
 71
3
 72
18
 73
14
 74
0
 42
0.0000001
 43
0.0000001
 44
0.0000000001
 40
0.0
 40
0.0
 40
0.0
 40
0.0
 40
0.0433586689
 40
0.0893586081
 40
0.1402439334
 40
0.1972348636
 40
0.3289916623
 40
0.4783190491
 40
0.6323115286
 40
0.7767761092
 40
0.8418283863
 40
0.9007382941
 40
1.0
 40
1.0
 40
1.0
 40
1.0
 10
296.036623178
 20
223.4937019589
 30
0.0
 10
296.0461751549
 20
223.4428976303
 30
0.0
 10
296.084079383
 20
223.340869457
 30
0.0
 10
296.1901998507
 20
223.2086831626
 30
0.0
 10
296.3400005605
 20
223.0997819768
 30
0.0
 10
296.6025668109
 20
222.9831742112
 30
0.0
 10
297.0065082583
 20
222.9177592224
 30
0.0
 10
297.5273119773
 20
222.9545745889
 30
0.0
 10
298.045020734
 20
223.0985600138
 30
0.0
 10
298.4337428238
 20
223.29963549
 30
0.0
 10
298.6836689615
 20
223.5018839388
 30
0.0
 10
298.8619486049
 20
223.6992910146
 30
0.0
 10
298.9488323396
 20
223.8780409221
 30
0.0
 10
298.9638731833
 20
223.9954262686
 30
0.0
  0
SPLINE
  5
5FE
100
AcDbEntity
  8
BEZUGSACHSEN
100
AcDbSpline
 62
7
  6
CONTINUOUS
 70
0
 71
3
 72
9
 73
5
 74
0
 42
0.0000001
 43
0.0000001
 44
0.0000000001
 40
0.0
 40
0.0
 40
0.0
 40
0.0
 40
0.2554198815
 40
1.0
 40
1.0
 40
1.0
 40
1.0
 10
298.9638731833
 20
223.9954262686
 30
0.0
 10
298.9654321851
 20
224.0075934031
 30
0.0
 10
298.9699249618
 20
224.0554152638
 30
0.0
 10
298.9676373377
 20
224.1039251262
 30
0.0
 10
298.9617924727
 20
224.1392028679
 30
0.0
  0
SPLINE
  5
5FF
100
AcDbEntity
  8
BEZUGSACHSEN
100
AcDbSpline
 62
7
  6
CONTINUOUS
 70
0
 71
3
 72
9
 73
5
 74
0
 42
0.0000001
 43
0.0000001
 44
0.0000000001
 40
0.0
 40
0.0
 40
0.0
 40
0.0
 40
0.5081608257
 40
1.0
 40
1.0
 40
1.0
 40
1.0
 10
303.3986738615
 20
223.960698617
 30
0.0
 10
303.4071177854
 20
224.0125116625
 30
0.0
 10
303.4028158715
 20
224.1217151121
 30
0.0
 10
303.3351898303
 20
224.2085018028
 30
0.0
 10
303.295210346
 20
224.2398600891
 30
0.0
  0
SPLINE
  5
600
100
AcDbEntity
  8
BEZUGSACHSEN
100
AcDbSpline
 62
7
  6
CONTINUOUS
 70
0
 71
3
 72
9
 73
5
 74
0
 42
0.0000001
 43
0.0000001
 44
0.0000000001
 40
0.0
 40
0.0
 40
0.0
 40
0.0
 40
0.4598829541
 40
1.0
 40
1.0
 40
1.0
 40
1.0
 10
300.8822418014
 20
223.0111871356
 30
0.0
 10
300.897185317
 20
222.9648446631
 30
0.0
 10
300.9616387157
 20
222.8731431681
 30
0.0
 10
301.0601021981
 20
222.8259061622
 30
0.0
 10
301.1144215302
 20
222.8080230039
 30
0.0
  0
SPLINE
  5
601
100
AcDbEntity
  8
BEZUGSACHSEN
100
AcDbSpline
 62
7
  6
CONTINUOUS
 70
0
 71
3
 72
15
 73
11
 74
0
 42
0.0000001
 43
0.0000001
 44
0.0000000001
 40
0.0
 40
0.0
 40
0.0
 40
0.0
 40
0.099902007
 40
0.2243728676
 40
0.3668850479
 40
0.5175795075
 40
0.6654266136
 40
0.7999119376
 40
0.9126576658
 40
1.0
 40
1.0
 40
1.0
 40
1.0
 10
301.1144215302
 20
222.8080230039
 30
0.0
 10
301.2009043321
 20
222.7795509006
 30
0.0
 10
301.4080319655
 20
222.7571495395
 30
0.0
 10
301.7414308994
 20
222.7948189718
 30
0.0
 10
302.1097126647
 20
222.896869574
 30
0.0
 10
302.4804107701
 20
223.0550461417
 30
0.0
 10
302.8216881474
 20
223.2554078648
 30
0.0
 10
303.1044584463
 20
223.481172471
 30
0.0
 10
303.3059221231
 20
223.7118555263
 30
0.0
 10
303.3858700458
 20
223.8821326931
 30
0.0
 10
303.3986738615
 20
223.960698617
 30
0.0
  0
SPLINE
  5
602
100
AcDbEntity
  8
BEZUGSACHSEN
100
AcDbSpline
 62
7
  6
CONTINUOUS
 70
0
 71
3
 72
9
 73
5
 74
0
 42
0.0000001
 43
0.0000001
 44
0.0000000001
 40
0.0
 40
0.0
 40
0.0
 40
0.0
 40
0.2600129863
 40
1.0
 40
1.0
 40
1.0
 40
1.0
 10
299.61328811
 20
221.2825805322
 30
0.0
 10
299.6152245753
 20
221.2924369094
 30
0.0
 10
299.619899868
 20
221.3308645695
 30
0.0
 10
299.6099250944
 20
221.3708423481
 30
0.0
 10
299.5958425876
 20
221.3957201844
 30
0.0
  0
SPLINE
  5
603
100
AcDbEntity
  8
BEZUGSACHSEN
100
AcDbSpline
 62
7
  6
CONTINUOUS
 70
0
 71
3
 72
10
 73
6
 74
0
 42
0.0000001
 43
0.0000001
 44
0.0000000001
 40
0.0
 40
0.0
 40
0.0
 40
0.0
 40
0.1985566617
 40
0.5532205738
 40
1.0
 40
1.0
 40
1.0
 40
1.0
 10
296.8092508154
 20
220.6398946704
 30
0.0
 10
296.8178084818
 20
220.622637105
 30
0.0
 10
296.8505085074
 20
220.5788172562
 30
0.0
 10
296.9329264388
 20
220.5243251025
 30
0.0
 10
297.0067274186
 20
220.4984313251
 30
0.0
 10
297.0485257734
 20
220.4869595667
 30
0.0
  0
SPLINE
  5
604
100
AcDbEntity
  8
BEZUGSACHSEN
100
AcDbSpline
 62
7
  6
CONTINUOUS
 70
0
 71
3
 72
13
 73
9
 74
0
 42
0.0000001
 43
0.0000001
 44
0.0000000001
 40
0.0
 40
0.0
 40
0.0
 40
0.0
 40
0.0989894716
 40
0.2213490009
 40
0.5075431243
 40
0.7894743214
 40
0.9069632496
 40
1.0
 40
1.0
 40
1.0
 40
1.0
 10
297.0485257734
 20
220.4869595667
 30
0.0
 10
297.1314846175
 20
220.4641911152
 30
0.0
 10
297.3236905262
 20
220.4387498466
 30
0.0
 10
297.7654100786
 20
220.4435809867
 30
0.0
 10
298.3601300887
 20
220.5461227205
 30
0.0
 10
298.9288315533
 20
220.7364383393
 30
0.0
 10
299.3065208862
 20
220.9390800812
 30
0.0
 10
299.4537794095
 20
221.0507896073
 30
0.0
 10
299.5096586861
 20
221.1092256871
 30
0.0
  0
SPLINE
  5
605
100
AcDbEntity
  8
BEZUGSACHSEN
100
AcDbSpline
 62
7
  6
CONTINUOUS
 70
0
 71
3
 72
9
 73
5
 74
0
 42
0.0000001
 43
0.0000001
 44
0.0000000001
 40
0.0
 40
0.0
 40
0.0
 40
0.0
 40
0.2934762139
 40
1.0
 40
1.0
 40
1.0
 40
1.0
 10
299.5096586861
 20
221.1092256871
 30
0.0
 10
299.5234018731
 20
221.1235977052
 30
0.0
 10
299.567838082
 20
221.17428996
 30
0.0
 10
299.6040590594
 20
221.2356057662
 30
0.0
 10
299.61328811
 20
221.2825805322
 30
0.0
  0
SPLINE
  5
606
100
AcDbEntity
  8
KONSTRUKTIONSELEMENTE
100
AcDbSpline
 62
7
  6
CONTINUOUS
 70
0
 71
3
 72
9
 73
5
 74
0
 42
0.0000001
 43
0.0000001
 44
0.0000000001
 40
0.0
 40
0.0
 40
0.0
 40
0.0
 40
0.472234904
 40
1.0
 40
1.0
 40
1.0
 40
1.0
 10
314.4552625552
 20
248.6589203768
 30
0.0
 10
314.4552625552
 20
248.6900027944
 30
0.0
 10
314.4730408239
 20
248.7564636297
 30
0.0
 10
314.5172949755
 20
248.8076357707
 30
0.0
 10
314.5436565595
 20
248.8302577553
 30
0.0
  0
SPLINE
  5
607
100
AcDbEntity
  8
KONSTRUKTIONSELEMENTE
100
AcDbSpline
 62
7
  6
CONTINUOUS
 70
0
 71
3
 72
13
 73
9
 74
0
 42
0.0000001
 43
0.0000001
 44
0.0000000001
 40
0.0
 40
0.0
 40
0.0
 40
0.0
 40
0.2352014811
 40
0.3656095738
 40
0.5
 40
0.6343904262
 40
0.7647985189
 40
1.0
 40
1.0
 40
1.0
 40
1.0
 10
314.5436565595
 20
248.8302577553
 30
0.0
 10
315.0588235067
 20
249.2723441929
 30
0.0
 10
316.0339246418
 20
249.7616019026
 30
0.0
 10
317.4412364244
 20
250.0866146118
 30
0.0
 10
318.5952625552
 20
250.1731510449
 30
0.0
 10
319.749288686
 20
250.0866146118
 30
0.0
 10
321.1566004686
 20
249.7616019026
 30
0.0
 10
322.1317016038
 20
249.2723441929
 30
0.0
 10
322.6468685509
 20
248.8302577553
 30
0.0
  0
LINE
  5
608
100
AcDbEntity
  8
KONSTRUKTIONSELEMENTE
100
AcDbLine
 62
7
  6
CONTINUOUS
 10
334.1554303186
 20
41.52022978
 11
334.1691081927
 21
41.5767532738
  0
LINE
  5
609
100
AcDbEntity
  8
KONSTRUKTIONSELEMENTE
100
AcDbLine
 62
7
  6
CONTINUOUS
 10
334.1691081927
 20
41.5767532738
 11
334.4870106958
 21
42.8917322547
  0
LINE
  5
60A
100
AcDbEntity
  8
KONSTRUKTIONSELEMENTE
100
AcDbLine
 62
7
  6
CONTINUOUS
 10
334.4870106958
 20
42.8917322547
 11
334.5547188201
 21
43.1721196013
  0
LINE
  5
60B
100
AcDbEntity
  8
KONSTRUKTIONSELEMENTE
100
AcDbLine
 62
7
  6
CONTINUOUS
 10
334.5547188201
 20
43.1721196013
 11
335.4076745267
 21
46.7146279764
  0
LINE
  5
60C
100
AcDbEntity
  8
KONSTRUKTIONSELEMENTE
100
AcDbLine
 62
7
  6
CONTINUOUS
 10
333.4075851721
 20
33.2016141873
 11
333.411946002
 21
33.2523771475
  0
LINE
  5
60D
100
AcDbEntity
  8
KONSTRUKTIONSELEMENTE
100
AcDbLine
 62
7
  6
CONTINUOUS
 10
333.411946002
 20
33.3539030689
 11
333.4075851721
 21
33.4046660302
  0
LINE
  5
60E
100
AcDbEntity
  8
KONSTRUKTIONSELEMENTE
100
AcDbLine
 62
7
  6
CONTINUOUS
 10
333.4103469508
 20
33.2010474782
 11
333.3852636705
 21
33.0788075556
  0
LINE
  5
60F
100
AcDbEntity
  8
KONSTRUKTIONSELEMENTE
100
AcDbLine
 62
7
  6
CONTINUOUS
 10
333.3852636705
 20
33.0788075556
 11
333.1362683425
 21
31.865372505
  0
LINE
  5
610
100
AcDbEntity
  8
KONSTRUKTIONSELEMENTE
100
AcDbLine
 62
7
  6
CONTINUOUS
 10
332.5122515241
 20
29.2985792275
 11
332.4603288697
 21
29.0514843807
  0
LINE
  5
611
100
AcDbEntity
  8
KONSTRUKTIONSELEMENTE
100
AcDbLine
 62
7
  6
CONTINUOUS
 10
332.4603288697
 20
29.0514843807
 11
332.4083016804
 21
28.8039158514
  0
LINE
  5
612
100
AcDbEntity
  8
KONSTRUKTIONSELEMENTE
100
AcDbLine
 62
7
  6
CONTINUOUS
 10
332.4083016804
 20
28.8039158514
 11
332.356169964
 21
28.5558736381
  0
LINE
  5
613
100
AcDbEntity
  8
KONSTRUKTIONSELEMENTE
100
AcDbLine
 62
7
  6
CONTINUOUS
 10
332.356169964
 20
28.5558736381
 11
332.3469993651
 21
28.5122424555
  0
LINE
  5
614
100
AcDbEntity
  8
KONSTRUKTIONSELEMENTE
100
AcDbLine
 62
7
  6
CONTINUOUS
 10
332.3469993651
 20
28.5122424555
 11
332.3039337283
 21
28.3073577394
  0
LINE
  5
615
100
AcDbEntity
  8
KONSTRUKTIONSELEMENTE
100
AcDbLine
 62
7
  6
CONTINUOUS
 10
332.3039337283
 20
28.3073577394
 11
332.2945787787
 21
28.2651408203
  0
SPLINE
  5
616
100
AcDbEntity
  8
KONSTRUKTIONSELEMENTE
100
AcDbSpline
 62
7
  6
CONTINUOUS
 70
0
 71
3
 72
8
 73
4
 74
0
 42
0.0000001
 43
0.0000001
 44
0.0000000001
 40
0.0
 40
0.0
 40
0.0
 40
0.0
 40
1.0
 40
1.0
 40
1.0
 40
1.0
 10
332.2945787787
 20
28.2651408203
 30
0.0
 10
332.2292639743
 20
27.9704209823
 30
0.0
 10
332.1638071005
 20
27.6757325953
 30
0.0
 10
332.0982121339
 20
27.3810749857
 30
0.0
  0
SPLINE
  5
617
100
AcDbEntity
  8
KONSTRUKTIONSELEMENTE
100
AcDbSpline
 62
7
  6
CONTINUOUS
 70
0
 71
3
 72
8
 73
4
 74
0
 42
0.0000001
 43
0.0000001
 44
0.0000000001
 40
0.0
 40
0.0
 40
0.0
 40
0.0
 40
1.0
 40
1.0
 40
1.0
 40
1.0
 10
334.2448640015
 20
37.7629616872
 30
0.0
 10
334.2809589977
 20
37.9606057889
 30
0.0
 10
334.3169006463
 20
38.1582779595
 30
0.0
 10
334.3526861652
 20
38.3559783296
 30
0.0
  0
LINE
  5
618
100
AcDbEntity
  8
KONSTRUKTIONSELEMENTE
100
AcDbLine
 62
7
  6
CONTINUOUS
 10
334.031400512
 20
36.6635106212
 11
334.0851827229
 21
36.9400831712
  0
LINE
  5
619
100
AcDbEntity
  8
KONSTRUKTIONSELEMENTE
100
AcDbLine
 62
7
  6
CONTINUOUS
 10
334.0851827229
 20
36.9400831712
 11
334.1386872209
 21
37.2155158897
  0
LINE
  5
61A
100
AcDbEntity
  8
KONSTRUKTIONSELEMENTE
100
AcDbLine
 62
7
  6
CONTINUOUS
 10
334.1386872209
 20
37.2155158897
 11
334.1919142363
 21
37.4898087404
  0
LINE
  5
61B
100
AcDbEntity
  8
KONSTRUKTIONSELEMENTE
100
AcDbLine
 62
7
  6
CONTINUOUS
 10
334.1919142363
 20
37.4898087404
 11
334.2399056651
 21
37.7373707106
  0
LINE
  5
61C
100
AcDbEntity
  8
KONSTRUKTIONSELEMENTE
100
AcDbLine
 62
7
  6
CONTINUOUS
 10
334.2399056651
 20
37.7373707106
 11
334.2448640015
 21
37.7629616872
  0
LINE
  5
61D
100
AcDbEntity
  8
KONSTRUKTIONSELEMENTE
100
AcDbLine
 62
7
  6
CONTINUOUS
 10
333.7685248303
 20
35.3757807752
 11
333.8344206358
 21
35.698564141
  0
LINE
  5
61E
100
AcDbEntity
  8
KONSTRUKTIONSELEMENTE
100
AcDbLine
 62
7
  6
CONTINUOUS
 10
333.8344206358
 20
35.698564141
 11
333.9658584862
 21
36.342429062
  0
LINE
  5
61F
100
AcDbEntity
  8
KONSTRUKTIONSELEMENTE
100
AcDbLine
 62
7
  6
CONTINUOUS
 10
333.9658584862
 20
36.342429062
 11
334.031400512
 21
36.6635106212
  0
LINE
  5
620
100
AcDbEntity
  8
KONSTRUKTIONSELEMENTE
100
AcDbLine
 62
7
  6
CONTINUOUS
 10
334.040155499
 20
37.226303961
 11
333.9337737747
 21
36.7848081832
  0
LINE
  5
621
100
AcDbEntity
  8
KONSTRUKTIONSELEMENTE
100
AcDbLine
 62
7
  6
CONTINUOUS
 10
333.9337737747
 20
36.7848081832
 11
333.8547482216
 21
36.4274797267
  0
LINE
  5
622
100
AcDbEntity
  8
KONSTRUKTIONSELEMENTE
100
AcDbLine
 62
7
  6
CONTINUOUS
 10
333.8547482216
 20
36.4274797267
 11
333.7752909259
 21
36.068449425
  0
LINE
  5
623
100
AcDbEntity
  8
KONSTRUKTIONSELEMENTE
100
AcDbLine
 62
7
  6
CONTINUOUS
 10
333.7752909259
 20
36.068449425
 11
333.5650702352
 21
35.0772281141
  0
LINE
  5
624
100
AcDbEntity
  8
KONSTRUKTIONSELEMENTE
100
AcDbLine
 62
7
  6
CONTINUOUS
 10
332.7796777923
 20
31.2789770138
 11
333.1074903332
 21
32.8643081756
  0
LINE
  5
625
100
AcDbEntity
  8
KONSTRUKTIONSELEMENTE
100
AcDbLine
 62
7
  6
CONTINUOUS
 10
333.1074903332
 20
32.8643081756
 11
333.5650702352
 21
35.0772281141
  0
LINE
  5
626
100
AcDbEntity
  8
KONSTRUKTIONSELEMENTE
100
AcDbLine
 62
7
  6
CONTINUOUS
 10
332.5709778767
 20
30.2444645936
 11
332.623305542
 21
30.5038156318
  0
LINE
  5
627
100
AcDbEntity
  8
KONSTRUKTIONSELEMENTE
100
AcDbLine
 62
7
  6
CONTINUOUS
 10
332.623305542
 20
30.5038156318
 11
332.6755314218
 21
30.7626847135
  0
LINE
  5
628
100
AcDbEntity
  8
KONSTRUKTIONSELEMENTE
100
AcDbLine
 62
7
  6
CONTINUOUS
 10
332.6755314218
 20
30.7626847135
 11
332.727655508
 21
31.0210718403
  0
LINE
  5
629
100
AcDbEntity
  8
KONSTRUKTIONSELEMENTE
100
AcDbLine
 62
7
  6
CONTINUOUS
 10
332.727655508
 20
31.0210718403
 11
332.7796777923
 21
31.2789770138
  0
LINE
  5
62A
100
AcDbEntity
  8
KONSTRUKTIONSELEMENTE
100
AcDbLine
 62
7
  6
CONTINUOUS
 10
332.4151920716
 20
29.4415223442
 11
332.4542996556
 21
29.6429691085
  0
LINE
  5
62B
100
AcDbEntity
  8
KONSTRUKTIONSELEMENTE
100
AcDbLine
 62
7
  6
CONTINUOUS
 10
332.4542996556
 20
29.6429691085
 11
332.4932998022
 21
29.843941741
  0
LINE
  5
62C
100
AcDbEntity
  8
KONSTRUKTIONSELEMENTE
100
AcDbLine
 62
7
  6
CONTINUOUS
 10
332.4932998022
 20
29.843941741
 11
332.5709778767
 21
30.2444645936
  0
LINE
  5
62D
100
AcDbEntity
  8
KONSTRUKTIONSELEMENTE
100
AcDbLine
 62
7
  6
CONTINUOUS
 10
332.3119805856
 20
28.8701510792
 11
332.3894920884
 21
29.2989778565
  0
LINE
  5
62E
100
AcDbEntity
  8
KONSTRUKTIONSELEMENTE
100
AcDbLine
 62
7
  6
CONTINUOUS
 10
332.3894920884
 20
29.2989778565
 11
332.4151920716
 21
29.4415223442
  0
LINE
  5
62F
100
AcDbEntity
  8
KONSTRUKTIONSELEMENTE
100
AcDbLine
 62
7
  6
CONTINUOUS
 10
332.2608465181
 20
28.5303511532
 11
332.2865271615
 21
28.7002539777
  0
LINE
  5
630
100
AcDbEntity
  8
KONSTRUKTIONSELEMENTE
100
AcDbLine
 62
7
  6
CONTINUOUS
 10
332.2865271615
 20
28.7002539777
 11
332.299282325
 21
28.7852032422
  0
LINE
  5
631
100
AcDbEntity
  8
KONSTRUKTIONSELEMENTE
100
AcDbLine
 62
7
  6
CONTINUOUS
 10
332.299282325
 20
28.7852032422
 11
332.3119805856
 21
28.8701510792
  0
SPLINE
  5
632
100
AcDbEntity
  8
KONSTRUKTIONSELEMENTE
100
AcDbSpline
 62
7
  6
CONTINUOUS
 70
0
 71
3
 72
8
 73
4
 74
0
 42
0.0000001
 43
0.0000001
 44
0.0000000001
 40
0.0
 40
0.0
 40
0.0
 40
0.0
 40
1.0
 40
1.0
 40
1.0
 40
1.0
 10
334.3960123113
 20
41.2219983698
 30
0.0
 10
334.0684501574
 20
39.7890530473
 30
0.0
 10
333.7403382133
 20
38.356233322
 30
0.0
 10
333.4117534894
 20
36.9235221366
 30
0.0
  0
SPLINE
  5
633
100
AcDbEntity
  8
KONSTRUKTIONSELEMENTE
100
AcDbSpline
 62
7
  6
CONTINUOUS
 70
0
 71
3
 72
8
 73
4
 74
0
 42
0.0000001
 43
0.0000001
 44
0.0000000001
 40
0.0
 40
0.0
 40
0.0
 40
0.0
 40
1.0
 40
1.0
 40
1.0
 40
1.0
 10
333.4117534894
 20
36.9235221366
 30
0.0
 10
333.1268206546
 20
35.6811440533
 30
0.0
 10
332.8415315318
 20
34.4388476412
 30
0.0
 10
332.5559284363
 20
33.196623469
 30
0.0
  0
LINE
  5
634
100
AcDbEntity
  8
KONSTRUKTIONSELEMENTE
100
AcDbLine
 62
7
  6
CONTINUOUS
 10
332.5559284363
 20
33.196623469
 11
332.3739038277
 21
32.405105102
  0
LINE
  5
635
100
AcDbEntity
  8
KONSTRUKTIONSELEMENTE
100
AcDbLine
 62
7
  6
CONTINUOUS
 10
332.3739038277
 20
32.405105102
 11
332.3258503168
 21
32.1962123938
  0
LINE
  5
636
100
AcDbEntity
  8
KONSTRUKTIONSELEMENTE
100
AcDbLine
 62
7
  6
CONTINUOUS
 10
332.3258503168
 20
32.1962123938
 11
332.2624748515
 21
31.9207540404
  0
LINE
  5
637
100
AcDbEntity
  8
KONSTRUKTIONSELEMENTE
100
AcDbLine
 62
7
  6
CONTINUOUS
 10
332.2624748515
 20
31.9207540404
 11
332.033467303
 21
30.9257586295
  0
LINE
  5
638
100
AcDbEntity
  8
KONSTRUKTIONSELEMENTE
100
AcDbLine
 62
7
  6
CONTINUOUS
 10
332.033467303
 20
30.9257586295
 11
332.0182285172
 21
30.859569429
  0
LINE
  5
639
100
AcDbEntity
  8
KONSTRUKTIONSELEMENTE
100
AcDbLine
 62
7
  6
CONTINUOUS
 10
332.0182285172
 20
30.859569429
 11
331.9465087936
 21
30.5480908011
  0
SPLINE
  5
63A
100
AcDbEntity
  8
KONSTRUKTIONSELEMENTE
100
AcDbSpline
 62
7
  6
CONTINUOUS
 70
0
 71
3
 72
8
 73
4
 74
0
 42
0.0000001
 43
0.0000001
 44
0.0000000001
 40
0.0
 40
0.0
 40
0.0
 40
0.0
 40
1.0
 40
1.0
 40
1.0
 40
1.0
 10
332.2611904291
 20
32.2110928381
 30
0.0
 10
332.8619065111
 20
35.2047570622
 30
0.0
 10
333.4613911744
 20
38.1986688255
 30
0.0
 10
334.059269967
 20
41.1929009887
 30
0.0
  0
LINE
  5
63B
100
AcDbEntity
  8
KONSTRUKTIONSELEMENTE
100
AcDbLine
 62
7
  6
CONTINUOUS
 10
334.059269967
 20
41.1929009887
 11
334.0777615402
 21
41.2855111832
  0
LINE
  5
63C
100
AcDbEntity
  8
KONSTRUKTIONSELEMENTE
100
AcDbLine
 62
7
  6
CONTINUOUS
 10
334.0777615402
 20
41.2855111832
 11
334.4023748877
 21
42.9121443221
  0
LINE
  5
63D
100
AcDbEntity
  8
KONSTRUKTIONSELEMENTE
100
AcDbLine
 62
7
  6
CONTINUOUS
 10
333.2974322336
 20
33.0968303278
 11
332.9158283416
 21
31.2508318901
  0
LINE
  5
63E
100
AcDbEntity
  8
KONSTRUKTIONSELEMENTE
100
AcDbLine
 62
7
  6
CONTINUOUS
 10
332.9158283416
 20
31.2508318901
 11
332.9060287336
 21
31.2034270369
  0
LINE
  5
63F
100
AcDbEntity
  8
KONSTRUKTIONSELEMENTE
100
AcDbLine
 62
7
  6
CONTINUOUS
 10
332.9060287336
 20
31.2034270369
 11
332.8030772394
 21
30.7054084948
  0
LINE
  5
640
100
AcDbEntity
  8
KONSTRUKTIONSELEMENTE
100
AcDbLine
 62
7
  6
CONTINUOUS
 10
332.8030772394
 20
30.7054084948
 11
332.7094368245
 21
30.2524337007
  0
LINE
  5
641
100
AcDbEntity
  8
KONSTRUKTIONSELEMENTE
100
AcDbLine
 62
7
  6
CONTINUOUS
 10
332.7094368245
 20
30.2524337007
 11
332.7021824064
 21
30.2173413712
  0
LINE
  5
642
100
AcDbEntity
  8
KONSTRUKTIONSELEMENTE
100
AcDbLine
 62
7
  6
CONTINUOUS
 10
332.7021824064
 20
30.2173413712
 11
332.5366125835
 21
29.4164217207
  0
LINE
  5
643
100
AcDbEntity
  8
KONSTRUKTIONSELEMENTE
100
AcDbLine
 62
7
  6
CONTINUOUS
 10
332.5366125835
 20
29.4164217207
 11
332.5122515241
 21
29.2985792275
  0
LINE
  5
644
100
AcDbEntity
  8
KONSTRUKTIONSELEMENTE
100
AcDbLine
 62
7
  6
CONTINUOUS
 10
332.5645978646
 20
30.7547075893
 11
332.4996535721
 21
30.4526989695
  0
LINE
  5
645
100
AcDbEntity
  8
KONSTRUKTIONSELEMENTE
100
AcDbLine
 62
7
  6
CONTINUOUS
 10
332.4996535721
 20
30.4526989695
 11
332.4952756647
 21
30.4323414154
  0
LINE
  5
646
100
AcDbEntity
  8
KONSTRUKTIONSELEMENTE
100
AcDbLine
 62
7
  6
CONTINUOUS
 10
332.4952756647
 20
30.4323414154
 11
332.4345614427
 21
30.1500280628
  0
LINE
  5
647
100
AcDbEntity
  8
KONSTRUKTIONSELEMENTE
100
AcDbLine
 62
7
  6
CONTINUOUS
 10
332.4345614427
 20
30.1500280628
 11
332.3693214902
 21
29.8466948665
  0
LINE
  5
648
100
AcDbEntity
  8
KONSTRUKTIONSELEMENTE
100
AcDbLine
 62
7
  6
CONTINUOUS
 10
332.3693214902
 20
29.8466948665
 11
332.3039337283
 21
29.542699378
  0
LINE
  5
649
100
AcDbEntity
  8
KONSTRUKTIONSELEMENTE
100
AcDbLine
 62
7
  6
CONTINUOUS
 10
332.3119805856
 20
30.4717606796
 11
332.4151920716
 21
31.0780564113
  0
SPLINE
  5
64A
100
AcDbEntity
  8
KONSTRUKTIONSELEMENTE
100
AcDbSpline
 62
7
  6
CONTINUOUS
 70
0
 71
3
 72
8
 73
4
 74
0
 42
0.0000001
 43
0.0000001
 44
0.0000000001
 40
0.0
 40
0.0
 40
0.0
 40
0.0
 40
1.0
 40
1.0
 40
1.0
 40
1.0
 10
332.3039337283
 20
29.542699378
 30
0.0
 10
332.2355132495
 20
29.2575756283
 30
0.0
 10
332.1669378507
 20
28.9724890123
 30
0.0
 10
332.0982120969
 20
28.6874386916
 30
0.0
  0
LINE
  5
64B
100
AcDbEntity
  8
KONSTRUKTIONSELEMENTE
100
AcDbLine
 62
7
  6
CONTINUOUS
 10
332.4151920716
 20
31.0780564113
 11
332.5709779093
 21
31.8981658913
  0
LINE
  5
64C
100
AcDbEntity
  8
KONSTRUKTIONSELEMENTE
100
AcDbLine
 62
7
  6
CONTINUOUS
 10
332.5709779093
 20
31.8981658913
 11
332.7796777923
 21
32.9320925656
  0
LINE
  5
64D
100
AcDbEntity
  8
KONSTRUKTIONSELEMENTE
100
AcDbLine
 62
7
  6
CONTINUOUS
 10
332.7796777923
 20
32.9320925656
 11
332.8225256445
 21
33.1363058095
  0
LINE
  5
64E
100
AcDbEntity
  8
KONSTRUKTIONSELEMENTE
100
AcDbLine
 62
7
  6
CONTINUOUS
 10
332.8225256445
 20
33.1363058095
 11
333.5650702352
 21
36.6753147071
  0
LINE
  5
64F
100
AcDbEntity
  8
KONSTRUKTIONSELEMENTE
100
AcDbLine
 62
7
  6
CONTINUOUS
 10
333.7752909605
 20
37.6377729885
 11
333.5650702352
 21
36.6753147071
  0
LINE
  5
650
100
AcDbEntity
  8
KONSTRUKTIONSELEMENTE
100
AcDbLine
 62
7
  6
CONTINUOUS
 10
333.9337737747
 20
38.3149529244
 11
333.7752909605
 21
37.6377729885
  0
LINE
  5
651
100
AcDbEntity
  8
KONSTRUKTIONSELEMENTE
100
AcDbLine
 62
7
  6
CONTINUOUS
 10
334.040155499
 20
38.7068498453
 11
333.9337737747
 21
38.3149529244
  0
LINE
  5
652
100
AcDbEntity
  8
KONSTRUKTIONSELEMENTE
100
AcDbLine
 62
7
  6
CONTINUOUS
 10
333.7685248303
 20
36.4943146866
 11
333.9658584862
 21
37.4577681695
  0
LINE
  5
653
100
AcDbEntity
  8
KONSTRUKTIONSELEMENTE
100
AcDbLine
 62
7
  6
CONTINUOUS
 10
333.9658584862
 20
37.4577681695
 11
334.031400512
 21
37.7777885437
  0
LINE
  5
654
100
AcDbEntity
  8
KONSTRUKTIONSELEMENTE
100
AcDbLine
 62
7
  6
CONTINUOUS
 10
334.031400512
 20
37.7777885437
 11
334.085182708
 21
38.06484421
  0
LINE
  5
655
100
AcDbEntity
  8
KONSTRUKTIONSELEMENTE
100
AcDbLine
 62
7
  6
CONTINUOUS
 10
334.085182708
 20
38.06484421
 11
334.1386871942
 21
38.3507168498
  0
LINE
  5
656
100
AcDbEntity
  8
KONSTRUKTIONSELEMENTE
100
AcDbLine
 62
7
  6
CONTINUOUS
 10
334.1386871942
 20
38.3507168498
 11
334.1919142008
 21
38.6354064259
  0
LINE
  5
657
100
AcDbEntity
  8
KONSTRUKTIONSELEMENTE
100
AcDbLine
 62
7
  6
CONTINUOUS
 10
334.1919142008
 20
38.6354064259
 11
334.1996959459
 21
38.6770530438
  0
LINE
  5
658
100
AcDbEntity
  8
KONSTRUKTIONSELEMENTE
100
AcDbLine
 62
7
  6
CONTINUOUS
 10
334.1996959459
 20
38.6770530438
 11
334.2448639604
 21
38.9189129004
  0
LINE
  5
659
100
AcDbEntity
  8
KONSTRUKTIONSELEMENTE
100
AcDbLine
 62
7
  6
CONTINUOUS
 10
331.9358870112
 20
26.3058242182
 11
332.0368107403
 21
26.7976258727
  0
LINE
  5
65A
100
AcDbEntity
  8
KONSTRUKTIONSELEMENTE
100
AcDbLine
 62
7
  6
CONTINUOUS
 10
332.0368107403
 20
26.7976258727
 11
332.0673880965
 21
26.9466298912
  0
LINE
  5
65B
100
AcDbEntity
  8
KONSTRUKTIONSELEMENTE
100
AcDbLine
 62
7
  6
CONTINUOUS
 10
332.0673880965
 20
26.9466298912
 11
332.1541839693
 21
27.3695889614
  0
LINE
  5
65C
100
AcDbEntity
  8
KONSTRUKTIONSELEMENTE
100
AcDbLine
 62
7
  6
CONTINUOUS
 10
332.1541839693
 20
27.3695889614
 11
332.3448981216
 21
28.2989514037
  0
LINE
  5
65D
100
AcDbEntity
  8
KONSTRUKTIONSELEMENTE
100
AcDbLine
 62
7
  6
CONTINUOUS
 10
332.3448981216
 20
28.2989514037
 11
332.3524976786
 21
28.3359847188
  0
LINE
  5
65E
100
AcDbEntity
  8
KONSTRUKTIONSELEMENTE
100
AcDbLine
 62
7
  6
CONTINUOUS
 10
332.3524976786
 20
28.3359847188
 11
332.3870681106
 21
28.5044496771
  0
LINE
  5
65F
100
AcDbEntity
  8
KONSTRUKTIONSELEMENTE
100
AcDbLine
 62
7
  6
CONTINUOUS
 10
332.3870681106
 20
28.5044496771
 11
332.411429361
 21
28.6231645107
  0
LINE
  5
660
100
AcDbEntity
  8
KONSTRUKTIONSELEMENTE
100
AcDbLine
 62
7
  6
CONTINUOUS
 10
332.411429361
 20
28.6231645107
 11
332.4560463275
 21
28.84058787
  0
LINE
  5
661
100
AcDbEntity
  8
KONSTRUKTIONSELEMENTE
100
AcDbLine
 62
7
  6
CONTINUOUS
 10
332.4560463275
 20
28.84058787
 11
332.5485028584
 21
29.2911402228
  0
LINE
  5
662
100
AcDbEntity
  8
KONSTRUKTIONSELEMENTE
100
AcDbLine
 62
7
  6
CONTINUOUS
 10
332.5485028584
 20
29.2911402228
 11
332.5727284368
 21
29.4091948773
  0
LINE
  5
663
100
AcDbEntity
  8
KONSTRUKTIONSELEMENTE
100
AcDbLine
 62
7
  6
CONTINUOUS
 10
332.5727284368
 20
29.4091948773
 11
332.5881559043
 21
29.4843751744
  0
LINE
  5
664
100
AcDbEntity
  8
KONSTRUKTIONSELEMENTE
100
AcDbLine
 62
7
  6
CONTINUOUS
 10
332.5881559043
 20
29.4843751744
 11
332.7371336192
 21
30.2103683752
  0
LINE
  5
665
100
AcDbEntity
  8
KONSTRUKTIONSELEMENTE
100
AcDbLine
 62
7
  6
CONTINUOUS
 10
332.7371336192
 20
30.2103683752
 11
332.7664820158
 21
30.3533886617
  0
LINE
  5
666
100
AcDbEntity
  8
KONSTRUKTIONSELEMENTE
100
AcDbLine
 62
7
  6
CONTINUOUS
 10
332.7664820158
 20
30.3533886617
 11
332.9492743849
 21
31.2441754527
  0
LINE
  5
667
100
AcDbEntity
  8
KONSTRUKTIONSELEMENTE
100
AcDbLine
 62
7
  6
CONTINUOUS
 10
332.9492743849
 20
31.2441754527
 11
333.3281461472
 21
33.0905279163
  0
LINE
  5
668
100
AcDbEntity
  8
KONSTRUKTIONSELEMENTE
100
AcDbLine
 62
7
  6
CONTINUOUS
 10
333.3281461472
 20
33.0905279163
 11
333.3925086613
 21
33.4041891141
  0
LINE
  5
669
100
AcDbEntity
  8
KONSTRUKTIONSELEMENTE
100
AcDbLine
 62
7
  6
CONTINUOUS
 10
333.3925086613
 20
33.4041891141
 11
333.7289097924
 21
35.0436095118
  0
LINE
  5
66A
100
AcDbEntity
  8
KONSTRUKTIONSELEMENTE
100
AcDbLine
 62
7
  6
CONTINUOUS
 10
333.7289097924
 20
35.0436095118
 11
333.7959156439
 21
35.3701603938
  0
LINE
  5
66B
100
AcDbEntity
  8
KONSTRUKTIONSELEMENTE
100
AcDbLine
 62
7
  6
CONTINUOUS
 10
333.7959156439
 20
35.3701603938
 11
333.9325762542
 21
36.0361756992
  0
LINE
  5
66C
100
AcDbEntity
  8
KONSTRUKTIONSELEMENTE
100
AcDbLine
 62
7
  6
CONTINUOUS
 10
333.9325762542
 20
36.0361756992
 11
333.9926223371
 21
36.328812002
  0
LINE
  5
66D
100
AcDbEntity
  8
KONSTRUKTIONSELEMENTE
100
AcDbLine
 62
7
  6
CONTINUOUS
 10
333.9926223371
 20
36.328812002
 11
334.0161559331
 21
36.4435039582
  0
LINE
  5
66E
100
AcDbEntity
  8
KONSTRUKTIONSELEMENTE
100
AcDbLine
 62
7
  6
CONTINUOUS
 10
334.0161559331
 20
36.4435039582
 11
334.060090983
 21
36.6576237045
  0
LINE
  5
66F
100
AcDbEntity
  8
KONSTRUKTIONSELEMENTE
100
AcDbLine
 62
7
  6
CONTINUOUS
 10
334.060090983
 20
36.6576237045
 11
334.080030107
 21
36.7547982587
  0
LINE
  5
670
100
AcDbEntity
  8
KONSTRUKTIONSELEMENTE
100
AcDbLine
 62
7
  6
CONTINUOUS
 10
334.080030107
 20
36.7547982587
 11
334.1712577602
 21
37.1994034578
  0
LINE
  5
671
100
AcDbEntity
  8
KONSTRUKTIONSELEMENTE
100
AcDbLine
 62
7
  6
CONTINUOUS
 10
334.1712577602
 20
37.1994034578
 11
334.2062377787
 21
37.3698820476
  0
LINE
  5
672
100
AcDbEntity
  8
KONSTRUKTIONSELEMENTE
100
AcDbLine
 62
7
  6
CONTINUOUS
 10
334.2062377787
 20
37.3698820476
 11
334.2794897013
 21
37.7268838221
  0
LINE
  5
673
100
AcDbEntity
  8
KONSTRUKTIONSELEMENTE
100
AcDbLine
 62
7
  6
CONTINUOUS
 10
334.2794897013
 20
37.7268838221
 11
334.2851943998
 21
37.7546864067
  0
LINE
  5
674
100
AcDbEntity
  8
KONSTRUKTIONSELEMENTE
100
AcDbLine
 62
7
  6
CONTINUOUS
 10
334.2851943998
 20
37.7546864067
 11
334.3960123399
 21
38.2947740339
  0
LINE
  5
675
100
AcDbEntity
  8
KONSTRUKTIONSELEMENTE
100
AcDbLine
 62
7
  6
CONTINUOUS
 10
330.915064999
 20
26.3058242182
 11
331.0159887281
 21
26.7976258727
  0
LINE
  5
676
100
AcDbEntity
  8
KONSTRUKTIONSELEMENTE
100
AcDbLine
 62
7
  6
CONTINUOUS
 10
334.4023749077
 20
38.0482110581
 11
334.3398261845
 21
37.7434704184
  0
LINE
  5
677
100
AcDbEntity
  8
KONSTRUKTIONSELEMENTE
100
AcDbLine
 62
7
  6
CONTINUOUS
 10
334.3398261845
 20
37.7434704184
 11
334.3341170167
 21
37.7156550861
  0
LINE
  5
678
100
AcDbEntity
  8
KONSTRUKTIONSELEMENTE
100
AcDbLine
 62
7
  6
CONTINUOUS
 10
334.3341170167
 20
37.7156550861
 11
334.2608441147
 21
37.3586665448
  0
LINE
  5
679
100
AcDbEntity
  8
KONSTRUKTIONSELEMENTE
100
AcDbLine
 62
7
  6
CONTINUOUS
 10
334.2608441147
 20
37.3586665448
 11
334.2258530556
 21
37.1881889885
  0
LINE
  5
67A
100
AcDbEntity
  8
KONSTRUKTIONSELEMENTE
100
AcDbLine
 62
7
  6
CONTINUOUS
 10
334.2258530556
 20
37.1881889885
 11
334.1549549774
 21
36.8427718748
  0
LINE
  5
67B
100
AcDbEntity
  8
KONSTRUKTIONSELEMENTE
100
AcDbLine
 62
7
  6
CONTINUOUS
 10
334.1549549774
 20
36.8427718748
 11
334.1345971646
 21
36.7435882733
  0
LINE
  5
67C
100
AcDbEntity
  8
KONSTRUKTIONSELEMENTE
100
AcDbLine
 62
7
  6
CONTINUOUS
 10
334.1345971646
 20
36.7435882733
 11
334.1146535193
 21
36.6464225645
  0
LINE
  5
67D
100
AcDbEntity
  8
KONSTRUKTIONSELEMENTE
100
AcDbLine
 62
7
  6
CONTINUOUS
 10
334.1146535193
 20
36.6464225645
 11
334.0707022105
 21
36.4322914113
  0
LINE
  5
67E
100
AcDbEntity
  8
KONSTRUKTIONSELEMENTE
100
AcDbLine
 62
7
  6
CONTINUOUS
 10
334.0707022105
 20
36.4322914113
 11
333.9870986443
 21
36.0249749319
  0
LINE
  5
67F
100
AcDbEntity
  8
KONSTRUKTIONSELEMENTE
100
AcDbLine
 62
7
  6
CONTINUOUS
 10
333.9870986443
 20
36.0249749319
 11
333.9066833442
 21
35.6331926754
  0
LINE
  5
680
100
AcDbEntity
  8
KONSTRUKTIONSELEMENTE
100
AcDbLine
 62
7
  6
CONTINUOUS
 10
333.9066833442
 20
35.6331926754
 11
333.8503987875
 21
35.3589756472
  0
LINE
  5
681
100
AcDbEntity
  8
KONSTRUKTIONSELEMENTE
100
AcDbLine
 62
7
  6
CONTINUOUS
 10
333.8503987875
 20
35.3589756472
 11
333.7833714118
 21
35.0324204689
  0
LINE
  5
682
100
AcDbEntity
  8
KONSTRUKTIONSELEMENTE
100
AcDbLine
 62
7
  6
CONTINUOUS
 10
333.7833714118
 20
35.0324204689
 11
333.447578292
 21
33.396457137
  0
LINE
  5
683
100
AcDbEntity
  8
KONSTRUKTIONSELEMENTE
100
AcDbLine
 62
7
  6
CONTINUOUS
 10
333.447578292
 20
33.396457137
 11
333.4075851721
 21
33.2016141873
  0
LINE
  5
684
100
AcDbEntity
  8
KONSTRUKTIONSELEMENTE
100
AcDbLine
 62
7
  6
CONTINUOUS
 10
333.0934350578
 20
31.6711101379
 11
333.0035149672
 21
31.2330319842
  0
LINE
  5
685
100
AcDbEntity
  8
KONSTRUKTIONSELEMENTE
100
AcDbLine
 62
7
  6
CONTINUOUS
 10
333.0035149672
 20
31.2330319842
 11
332.8070591758
 21
30.2759303797
  0
LINE
  5
686
100
AcDbEntity
  8
KONSTRUKTIONSELEMENTE
100
AcDbLine
 62
7
  6
CONTINUOUS
 10
332.8070591758
 20
30.2759303797
 11
332.7913170105
 21
30.1992372481
  0
LINE
  5
687
100
AcDbEntity
  8
KONSTRUKTIONSELEMENTE
100
AcDbLine
 62
7
  6
CONTINUOUS
 10
332.7913170105
 20
30.1992372481
 11
332.6422984327
 21
29.4732458174
  0
LINE
  5
688
100
AcDbEntity
  8
KONSTRUKTIONSELEMENTE
100
AcDbLine
 62
7
  6
CONTINUOUS
 10
332.6422984327
 20
29.4732458174
 11
332.626868299
 21
29.398073168
  0
LINE
  5
689
100
AcDbEntity
  8
KONSTRUKTIONSELEMENTE
100
AcDbLine
 62
7
  6
CONTINUOUS
 10
332.626868299
 20
29.398073168
 11
332.6026376885
 21
29.2800263441
  0
LINE
  5
68A
100
AcDbEntity
  8
KONSTRUKTIONSELEMENTE
100
AcDbLine
 62
7
  6
CONTINUOUS
 10
332.6026376885
 20
29.2800263441
 11
332.5196161966
 21
28.8755623192
  0
LINE
  5
68B
100
AcDbEntity
  8
KONSTRUKTIONSELEMENTE
100
AcDbLine
 62
7
  6
CONTINUOUS
 10
332.5196161966
 20
28.8755623192
 11
332.5101557291
 21
28.8294728761
  0
LINE
  5
68C
100
AcDbEntity
  8
KONSTRUKTIONSELEMENTE
100
AcDbLine
 62
7
  6
CONTINUOUS
 10
332.5101557291
 20
28.8294728761
 11
332.4655252526
 21
28.6120425603
  0
LINE
  5
68D
100
AcDbEntity
  8
KONSTRUKTIONSELEMENTE
100
AcDbLine
 62
7
  6
CONTINUOUS
 10
332.4655252526
 20
28.6120425603
 11
332.4411598109
 21
28.4933393433
  0
LINE
  5
68E
100
AcDbEntity
  8
KONSTRUKTIONSELEMENTE
100
AcDbLine
 62
7
  6
CONTINUOUS
 10
332.4411598109
 20
28.4933393433
 11
332.3989799352
 21
28.2878481842
  0
LINE
  5
68F
100
AcDbEntity
  8
KONSTRUKTIONSELEMENTE
100
AcDbLine
 62
7
  6
CONTINUOUS
 10
332.3989799352
 20
28.2878481842
 11
332.2311061812
 21
27.470005944
  0
LINE
  5
690
100
AcDbEntity
  8
KONSTRUKTIONSELEMENTE
100
AcDbLine
 62
7
  6
CONTINUOUS
 10
332.2311061812
 20
27.470005944
 11
332.2082168843
 21
27.3584948206
  0
LINE
  5
691
100
AcDbEntity
  8
KONSTRUKTIONSELEMENTE
100
AcDbLine
 62
7
  6
CONTINUOUS
 10
332.2082168843
 20
27.3584948206
 11
332.1213989648
 21
26.9355394492
  0
LINE
  5
692
100
AcDbEntity
  8
KONSTRUKTIONSELEMENTE
100
AcDbLine
 62
7
  6
CONTINUOUS
 10
332.1213989648
 20
26.9355394492
 11
332.0908137304
 21
26.7865359796
  0
LINE
  5
693
100
AcDbEntity
  8
KONSTRUKTIONSELEMENTE
100
AcDbLine
 62
7
  6
CONTINUOUS
 10
332.0908137304
 20
26.7865359796
 11
331.9815236864
 21
26.2541035998
  0
LINE
  5
694
100
AcDbEntity
  8
KONSTRUKTIONSELEMENTE
100
AcDbLine
 62
7
  6
CONTINUOUS
 10
331.9815236864
 20
26.2541035998
 11
331.9415291867
 21
26.0592612424
  0
LINE
  5
695
100
AcDbEntity
  8
KONSTRUKTIONSELEMENTE
100
AcDbLine
 62
7
  6
CONTINUOUS
 10
330.9607016742
 20
26.2541035998
 11
330.9207071745
 21
26.0592612424
  0
SPLINE
  5
696
100
AcDbEntity
  8
KONSTRUKTIONSELEMENTE
100
AcDbSpline
 62
7
  6
CONTINUOUS
 70
0
 71
3
 72
8
 73
4
 74
0
 42
0.0000001
 43
0.0000001
 44
0.0000000001
 40
0.0
 40
0.0
 40
0.0
 40
0.0
 40
1.0
 40
1.0
 40
1.0
 40
1.0
 10
331.9973208734
 20
27.3724961805
 30
0.0
 10
332.031600058
 20
27.5701432678
 30
0.0
 10
332.0657327645
 20
27.7678158173
 30
0.0
 10
332.0997167244
 20
27.9655138802
 30
0.0
  0
SPLINE
  5
697
100
AcDbEntity
  8
KONSTRUKTIONSELEMENTE
100
AcDbSpline
 62
7
  6
CONTINUOUS
 70
0
 71
3
 72
8
 73
4
 74
0
 42
0.0000001
 43
0.0000001
 44
0.0000000001
 40
0.0
 40
0.0
 40
0.0
 40
0.0
 40
1.0
 40
1.0
 40
1.0
 40
1.0
 10
330.9764988612
 20
27.3724961805
 30
0.0
 10
331.0107780458
 20
27.5701432678
 30
0.0
 10
331.0449107523
 20
27.7678158173
 30
0.0
 10
331.0788947122
 20
27.9655138802
 30
0.0
  0
LINE
  5
698
100
AcDbEntity
  8
KONSTRUKTIONSELEMENTE
100
AcDbLine
 62
7
  6
CONTINUOUS
 10
332.0997167244
 20
27.9655138802
 11
332.1479904788
 21
28.2224675871
  0
LINE
  5
699
100
AcDbEntity
  8
KONSTRUKTIONSELEMENTE
100
AcDbLine
 62
7
  6
CONTINUOUS
 10
332.1479904788
 20
28.2224675871
 11
332.1516493743
 21
28.2419545954
  0
LINE
  5
69A
100
AcDbEntity
  8
KONSTRUKTIONSELEMENTE
100
AcDbLine
 62
7
  6
CONTINUOUS
 10
332.1516493743
 20
28.2419545954
 11
332.162559788
 21
28.3000721296
  0
LINE
  5
69B
100
AcDbEntity
  8
KONSTRUKTIONSELEMENTE
100
AcDbLine
 62
7
  6
CONTINUOUS
 10
332.162559788
 20
28.3000721296
 11
332.2033244659
 21
28.5173432196
  0
LINE
  5
69C
100
AcDbEntity
  8
KONSTRUKTIONSELEMENTE
100
AcDbLine
 62
7
  6
CONTINUOUS
 10
332.2033244659
 20
28.5173432196
 11
332.3059029707
 21
29.064964044
  0
LINE
  5
69D
100
AcDbEntity
  8
KONSTRUKTIONSELEMENTE
100
AcDbLine
 62
7
  6
CONTINUOUS
 10
331.0788947122
 20
27.9655138802
 11
331.1308273621
 21
28.2419545954
  0
LINE
  5
69E
100
AcDbEntity
  8
KONSTRUKTIONSELEMENTE
100
AcDbLine
 62
7
  6
CONTINUOUS
 10
331.1308273621
 20
28.2419545954
 11
331.1342888901
 21
28.2603919069
  0
LINE
  5
69F
100
AcDbEntity
  8
KONSTRUKTIONSELEMENTE
100
AcDbLine
 62
7
  6
CONTINUOUS
 10
332.3059029707
 20
29.064964044
 11
332.3579916331
 21
29.3300560058
  0
LINE
  5
6A0
100
AcDbEntity
  8
KONSTRUKTIONSELEMENTE
100
AcDbLine
 62
7
  6
CONTINUOUS
 10
332.3579916331
 20
29.3300560058
 11
332.4099258552
 21
29.5944465182
  0
LINE
  5
6A1
100
AcDbEntity
  8
KONSTRUKTIONSELEMENTE
100
AcDbLine
 62
7
  6
CONTINUOUS
 10
332.4099258552
 20
29.5944465182
 11
332.4617056473
 21
29.8581355793
  0
LINE
  5
6A2
100
AcDbEntity
  8
KONSTRUKTIONSELEMENTE
100
AcDbLine
 62
7
  6
CONTINUOUS
 10
332.4617056473
 20
29.8581355793
 11
332.4960549692
 21
30.0331068364
  0
LINE
  5
6A3
100
AcDbEntity
  8
KONSTRUKTIONSELEMENTE
100
AcDbLine
 62
7
  6
CONTINUOUS
 10
332.4960549692
 20
30.0331068364
 11
332.51333102
 21
30.1211231872
  0
LINE
  5
6A4
100
AcDbEntity
  8
KONSTRUKTIONSELEMENTE
100
AcDbLine
 62
7
  6
CONTINUOUS
 10
332.51333102
 20
30.1211231872
 11
332.5787149079
 21
30.4441077335
  0
LINE
  5
6A5
100
AcDbEntity
  8
KONSTRUKTIONSELEMENTE
100
AcDbLine
 62
7
  6
CONTINUOUS
 10
332.5787149079
 20
30.4441077335
 11
332.6439513573
 21
30.7663907697
  0
LINE
  5
6A6
100
AcDbEntity
  8
KONSTRUKTIONSELEMENTE
100
AcDbLine
 62
7
  6
CONTINUOUS
 10
332.6439513573
 20
30.7663907697
 11
332.7090403539
 21
31.0879722988
  0
LINE
  5
6A7
100
AcDbEntity
  8
KONSTRUKTIONSELEMENTE
100
AcDbLine
 62
7
  6
CONTINUOUS
 10
332.7090403539
 20
31.0879722988
 11
332.7739818829
 21
31.4088523237
  0
LINE
  5
6A8
100
AcDbEntity
  8
KONSTRUKTIONSELEMENTE
100
AcDbLine
 62
7
  6
CONTINUOUS
 10
332.7739818829
 20
31.4088523237
 11
333.0761970461
 21
32.8707961362
  0
LINE
  5
6A9
100
AcDbEntity
  8
KONSTRUKTIONSELEMENTE
100
AcDbLine
 62
7
  6
CONTINUOUS
 10
333.0761970461
 20
32.8707961362
 11
333.5591518805
 21
35.207103424
  0
LINE
  5
6AA
100
AcDbEntity
  8
KONSTRUKTIONSELEMENTE
100
AcDbLine
 62
7
  6
CONTINUOUS
 10
333.822018489
 20
36.4515421606
 11
333.5591518805
 21
35.207103424
  0
LINE
  5
6AB
100
AcDbEntity
  8
KONSTRUKTIONSELEMENTE
100
AcDbLine
 62
7
  6
CONTINUOUS
 10
334.0335429932
 20
37.4211169258
 11
333.8751185885
 21
36.6948535406
  0
LINE
  5
6AC
100
AcDbEntity
  8
KONSTRUKTIONSELEMENTE
100
AcDbLine
 62
7
  6
CONTINUOUS
 10
333.8751185885
 20
36.6948535406
 11
333.8284974094
 21
36.4812263398
  0
LINE
  5
6AD
100
AcDbEntity
  8
KONSTRUKTIONSELEMENTE
100
AcDbLine
 62
7
  6
CONTINUOUS
 10
333.8284974094
 20
36.4812263398
 11
333.822018489
 21
36.4515421606
  0
LINE
  5
6AE
100
AcDbEntity
  8
KONSTRUKTIONSELEMENTE
100
AcDbLine
 62
7
  6
CONTINUOUS
 10
334.2465348769
 20
38.3474005817
 11
334.2238071441
 21
38.248370036
  0
LINE
  5
6AF
100
AcDbEntity
  8
KONSTRUKTIONSELEMENTE
100
AcDbLine
 62
7
  6
CONTINUOUS
 10
334.2238071441
 20
38.248370036
 11
334.1937064428
 21
38.1172840876
  0
LINE
  5
6B0
100
AcDbEntity
  8
KONSTRUKTIONSELEMENTE
100
AcDbLine
 62
7
  6
CONTINUOUS
 10
334.1937064428
 20
38.1172840876
 11
334.0872107426
 21
37.6541422279
  0
LINE
  5
6B1
100
AcDbEntity
  8
KONSTRUKTIONSELEMENTE
100
AcDbLine
 62
7
  6
CONTINUOUS
 10
334.0872107426
 20
37.6541422279
 11
334.0335429932
 21
37.4211169258
  0
LINE
  5
6B2
100
AcDbEntity
  8
KONSTRUKTIONSELEMENTE
100
AcDbLine
 62
7
  6
CONTINUOUS
 10
334.3538685408
 20
38.767249814
 11
334.3003846558
 21
38.5575691538
  0
LINE
  5
6B3
100
AcDbEntity
  8
KONSTRUKTIONSELEMENTE
100
AcDbLine
 62
7
  6
CONTINUOUS
 10
334.3003846558
 20
38.5575691538
 11
334.2465348769
 21
38.3474005817
  0
LINE
  5
6B4
100
AcDbEntity
  8
KONSTRUKTIONSELEMENTE
100
AcDbLine
 62
7
  6
CONTINUOUS
 10
333.7745054677
 20
35.5056560851
 11
333.8140648907
 21
35.7014156208
  0
LINE
  5
6B5
100
AcDbEntity
  8
KONSTRUKTIONSELEMENTE
100
AcDbLine
 62
7
  6
CONTINUOUS
 10
333.8140648907
 20
35.7014156208
 11
333.8929986356
 21
36.0920638265
  0
LINE
  5
6B6
100
AcDbEntity
  8
KONSTRUKTIONSELEMENTE
100
AcDbLine
 62
7
  6
CONTINUOUS
 10
333.8929986356
 20
36.0920638265
 11
333.9323729487
 21
36.2869524983
  0
LINE
  5
6B7
100
AcDbEntity
  8
KONSTRUKTIONSELEMENTE
100
AcDbLine
 62
7
  6
CONTINUOUS
 10
333.9323729487
 20
36.2869524983
 11
333.9591750013
 21
36.4301546398
  0
LINE
  5
6B8
100
AcDbEntity
  8
KONSTRUKTIONSELEMENTE
100
AcDbLine
 62
7
  6
CONTINUOUS
 10
333.9591750013
 20
36.4301546398
 11
334.0125457384
 21
36.7158401873
  0
LINE
  5
6B9
100
AcDbEntity
  8
KONSTRUKTIONSELEMENTE
100
AcDbLine
 62
7
  6
CONTINUOUS
 10
334.0125457384
 20
36.7158401873
 11
334.0223308369
 21
36.7682952986
  0
LINE
  5
6BA
100
AcDbEntity
  8
KONSTRUKTIONSELEMENTE
100
AcDbLine
 62
7
  6
CONTINUOUS
 10
334.0223308369
 20
36.7682952986
 11
334.039114485
 21
36.858323586
  0
LINE
  5
6BB
100
AcDbEntity
  8
KONSTRUKTIONSELEMENTE
100
AcDbLine
 62
7
  6
CONTINUOUS
 10
334.039114485
 20
36.858323586
 11
334.05275858
 21
36.9432810859
  0
LINE
  5
6BC
100
AcDbEntity
  8
KONSTRUKTIONSELEMENTE
100
AcDbLine
 62
7
  6
CONTINUOUS
 10
334.05275858
 20
36.9432810859
 11
334.0798625917
 21
37.1131815403
  0
LINE
  5
6BD
100
AcDbEntity
  8
KONSTRUKTIONSELEMENTE
100
AcDbLine
 62
7
  6
CONTINUOUS
 10
334.0798625917
 20
37.1131815403
 11
334.0933222786
 21
37.1981245029
  0
LINE
  5
6BE
100
AcDbEntity
  8
KONSTRUKTIONSELEMENTE
100
AcDbLine
 62
7
  6
CONTINUOUS
 10
334.0942030491
 20
37.3442339983
 11
334.0938749097
 21
37.3929374677
  0
LINE
  5
6BF
100
AcDbEntity
  8
KONSTRUKTIONSELEMENTE
100
AcDbLine
 62
7
  6
CONTINUOUS
 10
332.2730969518
 20
28.377196533
 11
332.2603412017
 21
28.3355381883
  0
LINE
  5
6C0
100
AcDbEntity
  8
KONSTRUKTIONSELEMENTE
100
AcDbLine
 62
7
  6
CONTINUOUS
 10
332.4138913236
 20
28.9436666593
 11
332.3882758377
 21
28.8335162125
  0
LINE
  5
6C1
100
AcDbEntity
  8
KONSTRUKTIONSELEMENTE
100
AcDbLine
 62
7
  6
CONTINUOUS
 10
332.3882758377
 20
28.8335162125
 11
332.3625927645
 21
28.7232167369
  0
LINE
  5
6C2
100
AcDbEntity
  8
KONSTRUKTIONSELEMENTE
100
AcDbLine
 62
7
  6
CONTINUOUS
 10
332.3625927645
 20
28.7232167369
 11
332.3368420903
 21
28.6127682337
  0
LINE
  5
6C3
100
AcDbEntity
  8
KONSTRUKTIONSELEMENTE
100
AcDbLine
 62
7
  6
CONTINUOUS
 10
332.3368420903
 20
28.6127682337
 11
332.3146711794
 21
28.517786416
  0
LINE
  5
6C4
100
AcDbEntity
  8
KONSTRUKTIONSELEMENTE
100
AcDbLine
 62
7
  6
CONTINUOUS
 10
332.3146711794
 20
28.517786416
 11
332.3110238011
 21
28.5021707042
  0
LINE
  5
6C5
100
AcDbEntity
  8
KONSTRUKTIONSELEMENTE
100
AcDbLine
 62
7
  6
CONTINUOUS
 10
332.5702372502
 20
29.6816712538
 11
332.5306290078
 21
29.4946767114
  0
LINE
  5
6C6
100
AcDbEntity
  8
KONSTRUKTIONSELEMENTE
100
AcDbLine
 62
7
  6
CONTINUOUS
 10
332.5306290078
 20
29.4946767114
 11
332.4921972122
 21
29.3132561617
  0
LINE
  5
6C7
100
AcDbEntity
  8
KONSTRUKTIONSELEMENTE
100
AcDbLine
 62
7
  6
CONTINUOUS
 10
332.4921972122
 20
29.3132561617
 11
332.4530774976
 21
29.1286082121
  0
LINE
  5
6C8
100
AcDbEntity
  8
KONSTRUKTIONSELEMENTE
100
AcDbLine
 62
7
  6
CONTINUOUS
 10
332.4530774976
 20
29.1286082121
 11
332.4138913236
 21
28.9436666593
  0
LINE
  5
6C9
100
AcDbEntity
  8
KONSTRUKTIONSELEMENTE
100
AcDbLine
 62
7
  6
CONTINUOUS
 10
334.4023748877
 20
41.5202591525
 11
334.3370830675
 21
41.2355187813
  0
SPLINE
  5
6CA
100
AcDbEntity
  8
KONSTRUKTIONSELEMENTE
100
AcDbSpline
 62
7
  6
CONTINUOUS
 70
0
 71
3
 72
8
 73
4
 74
0
 42
0.0000001
 43
0.0000001
 44
0.0000000001
 40
0.0
 40
0.0
 40
0.0
 40
0.0
 40
1.0
 40
1.0
 40
1.0
 40
1.0
 10
334.3370830675
 20
41.2355187813
 30
0.0
 10
333.6471272652
 20
38.2269155105
 30
0.0
 10
332.9549673957
 20
35.2188172554
 30
0.0
 10
332.2611904291
 20
32.2110928381
 30
0.0
  0
LINE
  5
6CB
100
AcDbEntity
  8
KONSTRUKTIONSELEMENTE
100
AcDbLine
 62
7
  6
CONTINUOUS
 10
332.9891173529
 20
31.7074053395
 11
332.8955722011
 21
31.2550125269
  0
LINE
  5
6CC
100
AcDbEntity
  8
KONSTRUKTIONSELEMENTE
100
AcDbLine
 62
7
  6
CONTINUOUS
 10
332.8955722011
 20
31.2550125269
 11
332.884605823
 21
31.2019781985
  0
LINE
  5
6CD
100
AcDbEntity
  8
KONSTRUKTIONSELEMENTE
100
AcDbLine
 62
7
  6
CONTINUOUS
 10
332.884605823
 20
31.2019781985
 11
332.779955294
 21
30.6958801377
  0
LINE
  5
6CE
100
AcDbEntity
  8
KONSTRUKTIONSELEMENTE
100
AcDbLine
 62
7
  6
CONTINUOUS
 10
332.779955294
 20
30.6958801377
 11
332.6818702259
 21
30.2215343101
  0
LINE
  5
6CF
100
AcDbEntity
  8
KONSTRUKTIONSELEMENTE
100
AcDbLine
 62
7
  6
CONTINUOUS
 10
332.6818702259
 20
30.2215343101
 11
332.6751657689
 21
30.1891111563
  0
LINE
  5
6D0
100
AcDbEntity
  8
KONSTRUKTIONSELEMENTE
100
AcDbLine
 62
7
  6
CONTINUOUS
 10
332.6751657689
 20
30.1891111563
 11
332.5702372502
 21
29.6816712538
  0
LINE
  5
6D1
100
AcDbEntity
  8
KONSTRUKTIONSELEMENTE
100
AcDbLine
 62
7
  6
CONTINUOUS
 10
331.9465087936
 20
30.9457703276
 11
332.2023702713
 21
32.2228747025
  0
SPLINE
  5
6D2
100
AcDbEntity
  8
KONSTRUKTIONSELEMENTE
100
AcDbSpline
 62
7
  6
CONTINUOUS
 70
0
 71
3
 72
8
 73
4
 74
0
 42
0.0000001
 43
0.0000001
 44
0.0000000001
 40
0.0
 40
0.0
 40
0.0
 40
0.0
 40
1.0
 40
1.0
 40
1.0
 40
1.0
 10
332.2023702713
 20
32.2228747025
 30
0.0
 10
332.8081524315
 20
35.2475525454
 30
0.0
 10
333.4125845152
 20
38.2725013057
 30
0.0
 10
334.0152537503
 20
41.2978009391
 30
0.0
  0
LINE
  5
6D3
100
AcDbEntity
  8
KONSTRUKTIONSELEMENTE
100
AcDbLine
 62
7
  6
CONTINUOUS
 10
334.0152537503
 20
41.2978009391
 11
334.3391722877
 21
42.9247269272
  0
LINE
  5
6D4
100
AcDbEntity
  8
KONSTRUKTIONSELEMENTE
100
AcDbLine
 62
7
  6
CONTINUOUS
 10
334.3391722877
 20
42.9247269272
 11
334.3960123113
 21
43.2104051048
  0
LINE
  5
6D5
100
AcDbEntity
  8
KONSTRUKTIONSELEMENTE
100
AcDbLine
 62
7
  6
CONTINUOUS
 10
332.5702372502
 20
30.9691062254
 11
332.5312504641
 21
30.7913037055
  0
LINE
  5
6D6
100
AcDbEntity
  8
KONSTRUKTIONSELEMENTE
100
AcDbLine
 62
7
  6
CONTINUOUS
 10
332.5312504641
 20
30.7913037055
 11
332.4530774976
 21
30.4348478073
  0
LINE
  5
6D7
100
AcDbEntity
  8
KONSTRUKTIONSELEMENTE
100
AcDbLine
 62
7
  6
CONTINUOUS
 10
332.4530774976
 20
30.4348478073
 11
332.4138913236
 21
30.2561944278
  0
LINE
  5
6D8
100
AcDbEntity
  8
KONSTRUKTIONSELEMENTE
100
AcDbLine
 62
7
  6
CONTINUOUS
 10
332.4138913236
 20
30.2561944278
 11
332.3625927645
 21
30.0605104508
  0
LINE
  5
6D9
100
AcDbEntity
  8
KONSTRUKTIONSELEMENTE
100
AcDbLine
 62
7
  6
CONTINUOUS
 10
332.3625927645
 20
30.0605104508
 11
332.3368420903
 21
29.9624700336
  0
LINE
  5
6DA
100
AcDbEntity
  8
KONSTRUKTIONSELEMENTE
100
AcDbLine
 62
7
  6
CONTINUOUS
 10
332.3368420903
 20
29.9624700336
 11
332.3110238011
 21
29.8642973321
  0
LINE
  5
6DB
100
AcDbEntity
  8
KONSTRUKTIONSELEMENTE
100
AcDbLine
 62
7
  6
CONTINUOUS
 10
333.3080558465
 20
33.4215186026
 11
332.993826016
 21
31.9022183043
  0
SPLINE
  5
6DC
100
AcDbEntity
  8
KONSTRUKTIONSELEMENTE
100
AcDbSpline
 62
7
  6
CONTINUOUS
 70
0
 71
3
 72
8
 73
4
 74
0
 42
0.0000001
 43
0.0000001
 44
0.0000000001
 40
0.0
 40
0.0
 40
0.0
 40
0.0
 40
1.0
 40
1.0
 40
1.0
 40
1.0
 10
331.9973208734
 20
29.0102043707
 30
0.0
 10
332.031600698
 20
29.2241901302
 30
0.0
 10
332.0657334101
 20
29.4381995101
 30
0.0
 10
332.0997167563
 20
29.6522325539
 30
0.0
  0
SPLINE
  5
6DD
100
AcDbEntity
  8
KONSTRUKTIONSELEMENTE
100
AcDbSpline
 62
7
  6
CONTINUOUS
 70
0
 71
3
 72
8
 73
4
 74
0
 42
0.0000001
 43
0.0000001
 44
0.0000000001
 40
0.0
 40
0.0
 40
0.0
 40
0.0
 40
1.0
 40
1.0
 40
1.0
 40
1.0
 10
330.9764988612
 20
29.0102043707
 30
0.0
 10
331.0107786858
 20
29.2241901302
 30
0.0
 10
331.044911398
 20
29.4381995101
 30
0.0
 10
331.0788947441
 20
29.6522325539
 30
0.0
  0
LINE
  5
6DE
100
AcDbEntity
  8
KONSTRUKTIONSELEMENTE
100
AcDbLine
 62
7
  6
CONTINUOUS
 10
332.0997167563
 20
29.6522325539
 11
332.2547422556
 21
30.5097151381
  0
LINE
  5
6DF
100
AcDbEntity
  8
KONSTRUKTIONSELEMENTE
100
AcDbLine
 62
7
  6
CONTINUOUS
 10
332.2547422556
 20
30.5097151381
 11
332.3059029707
 21
30.7933586337
  0
LINE
  5
6E0
100
AcDbEntity
  8
KONSTRUKTIONSELEMENTE
100
AcDbLine
 62
7
  6
CONTINUOUS
 10
334.0933222631
 20
38.4918664961
 11
334.0942203179
 21
38.6526649708
  0
LINE
  5
6E1
100
AcDbEntity
  8
KONSTRUKTIONSELEMENTE
100
AcDbLine
 62
7
  6
CONTINUOUS
 10
334.0942203179
 20
38.6526649708
 11
334.0942030526
 21
38.733064585
  0
LINE
  5
6E2
100
AcDbEntity
  8
KONSTRUKTIONSELEMENTE
100
AcDbLine
 62
7
  6
CONTINUOUS
 10
334.0942030526
 20
38.733064585
 11
334.0938749195
 21
38.8134644502
  0
LINE
  5
6E3
100
AcDbEntity
  8
KONSTRUKTIONSELEMENTE
100
AcDbLine
 62
7
  6
CONTINUOUS
 10
334.039114485
 20
38.0993864978
 11
334.0798625781
 21
38.3937548907
  0
LINE
  5
6E4
100
AcDbEntity
  8
KONSTRUKTIONSELEMENTE
100
AcDbLine
 62
7
  6
CONTINUOUS
 10
334.0798625781
 20
38.3937548907
 11
334.0933222631
 21
38.4918664961
  0
LINE
  5
6E5
100
AcDbEntity
  8
KONSTRUKTIONSELEMENTE
100
AcDbLine
 62
7
  6
CONTINUOUS
 10
333.9323729487
 20
37.4930909409
 11
333.9591750013
 21
37.6450461658
  0
LINE
  5
6E6
100
AcDbEntity
  8
KONSTRUKTIONSELEMENTE
100
AcDbLine
 62
7
  6
CONTINUOUS
 10
333.9591750013
 20
37.6450461658
 11
334.0125457384
 21
37.9481939482
  0
LINE
  5
6E7
100
AcDbEntity
  8
KONSTRUKTIONSELEMENTE
100
AcDbLine
 62
7
  6
CONTINUOUS
 10
334.0125457384
 20
37.9481939482
 11
334.039114485
 21
38.0993864978
  0
LINE
  5
6E8
100
AcDbEntity
  8
KONSTRUKTIONSELEMENTE
100
AcDbLine
 62
7
  6
CONTINUOUS
 10
333.7745054677
 20
36.7087133226
 11
333.8929986356
 21
37.297433685
  0
LINE
  5
6E9
100
AcDbEntity
  8
KONSTRUKTIONSELEMENTE
100
AcDbLine
 62
7
  6
CONTINUOUS
 10
333.8929986356
 20
37.297433685
 11
333.9323729487
 21
37.4930909409
  0
LINE
  5
6EA
100
AcDbEntity
  8
KONSTRUKTIONSELEMENTE
100
AcDbLine
 62
7
  6
CONTINUOUS
 10
331.0788947441
 20
29.6522325539
 11
331.2339202434
 21
30.5097151381
  0
LINE
  5
6EB
100
AcDbEntity
  8
KONSTRUKTIONSELEMENTE
100
AcDbLine
 62
7
  6
CONTINUOUS
 10
331.2339202434
 20
30.5097151381
 11
331.2408454642
 21
30.5480902842
  0
LINE
  5
6EC
100
AcDbEntity
  8
KONSTRUKTIONSELEMENTE
100
AcDbLine
 62
7
  6
CONTINUOUS
 10
332.3059029707
 20
30.7933586337
 11
332.5133310681
 21
31.8630164079
  0
LINE
  5
6ED
100
AcDbEntity
  8
KONSTRUKTIONSELEMENTE
100
AcDbLine
 62
7
  6
CONTINUOUS
 10
332.5133310681
 20
31.8630164079
 11
332.7739818829
 21
33.1464912017
  0
LINE
  5
6EE
100
AcDbEntity
  8
KONSTRUKTIONSELEMENTE
100
AcDbLine
 62
7
  6
CONTINUOUS
 10
332.7739818829
 20
33.1464912017
 11
333.5163256047
 21
36.6855391141
  0
LINE
  5
6EF
100
AcDbEntity
  8
KONSTRUKTIONSELEMENTE
100
AcDbLine
 62
7
  6
CONTINUOUS
 10
333.5163256047
 20
36.6855391141
 11
333.5591518805
 21
36.8897133432
  0
LINE
  5
6F0
100
AcDbEntity
  8
KONSTRUKTIONSELEMENTE
100
AcDbLine
 62
7
  6
CONTINUOUS
 10
334.0335429932
 20
39.0284477994
 11
333.8220185403
 21
38.1017204431
  0
LINE
  5
6F1
100
AcDbEntity
  8
KONSTRUKTIONSELEMENTE
100
AcDbLine
 62
7
  6
CONTINUOUS
 10
333.8220185403
 20
38.1017204431
 11
333.5591518805
 21
36.8897133432
  0
SPLINE
  5
6F2
100
AcDbEntity
  8
0
100
AcDbSpline
 62
7
  6
CONTINUOUS
 70
0
 71
3
 72
15
 73
11
 74
0
 42
0.0000001
 43
0.0000001
 44
0.0000000001
 40
0.0
 40
0.0
 40
0.0
 40
0.0
 40
0.0674432266
 40
0.1396073561
 40
0.2323625167
 40
0.3506090406
 40
0.4925864653
 40
0.6530551463
 40
0.8249305669
 40
1.0
 40
1.0
 40
1.0
 40
1.0
 10
98.6320356947
 20
224.2758890694
 30
0.0
 10
98.665783811
 20
224.2514576359
 30
0.0
 10
98.7240445455
 20
224.1787871599
 30
0.0
 10
98.7242410128
 20
224.0277132126
 30
0.0
 10
98.6536774167
 20
223.8652229446
 30
0.0
 10
98.5235834099
 20
223.6887360693
 30
0.0
 10
98.3382721379
 20
223.5054581735
 30
0.0
 10
98.1072524874
 20
223.3243625175
 30
0.0
 10
97.8426499649
 20
223.1555278896
 30
0.0
 10
97.6521429695
 20
223.0565923561
 30
0.0
 10
97.5539862598
 20
223.0111871356
 30
0.0
  0
SPLINE
  5
6F3
100
AcDbEntity
  8
0
100
AcDbSpline
 62
7
  6
CONTINUOUS
 70
0
 71
3
 72
15
 73
11
 74
0
 42
0.0000001
 43
0.0000001
 44
0.0000000001
 40
0.0
 40
0.0
 40
0.0
 40
0.0
 40
0.0394264093
 40
0.0681504445
 40
0.1043568304
 40
0.1997308331
 40
0.323935764
 40
0.4725233276
 40
0.6394436289
 40
1.0
 40
1.0
 40
1.0
 40
1.0
 10
101.813320158
 20
224.6766361906
 30
0.0
 10
101.82700273
 20
224.6585119054
 30
0.0
 10
101.8276337767
 20
224.6132268774
 30
0.0
 10
101.8064742633
 20
224.5579297263
 30
0.0
 10
101.7620150038
 20
224.4762261815
 30
0.0
 10
101.6711079811
 20
224.3597743509
 30
0.0
 10
101.5251902332
 20
224.2056412447
 30
0.0
 10
101.3384121248
 20
224.0343329985
 30
0.0
 10
101.0381129069
 20
223.7862777034
 30
0.0
 10
100.7911974773
 20
223.6084272283
 30
0.0
 10
100.618086863
 20
223.4937019589
 30
0.0
  0
SPLINE
  5
6F4
100
AcDbEntity
  8
0
100
AcDbSpline
 62
7
  6
CONTINUOUS
 70
0
 71
3
 72
15
 73
11
 74
0
 42
0.0000001
 43
0.0000001
 44
0.0000000001
 40
0.0
 40
0.0
 40
0.0
 40
0.0
 40
0.0284643816
 40
0.0535097
 40
0.0871391566
 40
0.1800886901
 40
0.3046806429
 40
0.4558663914
 40
0.6271884388
 40
1.0
 40
1.0
 40
1.0
 40
1.0
 10
109.6049030012
 20
234.6241225611
 30
0.0
 10
109.620013904
 20
234.6207678465
 30
0.0
 10
109.6341960807
 20
234.5859162206
 30
0.0
 10
109.633699612
 20
234.5408191156
 30
0.0
 10
109.6258433981
 20
234.4574830712
 30
0.0
 10
109.5939929354
 20
234.3250095515
 30
0.0
 10
109.5350043178
 20
234.1330430245
 30
0.0
 10
109.451673347
 20
233.9046315553
 30
0.0
 10
109.3096246608
 20
233.5541371773
 30
0.0
 10
109.1860728612
 20
233.2850445382
 30
0.0
 10
109.0967237273
 20
233.1030623117
 30
0.0
  0
SPLINE
  5
6F5
100
AcDbEntity
  8
0
100
AcDbSpline
 62
7
  6
CONTINUOUS
 70
0
 71
3
 72
15
 73
11
 74
0
 42
0.0000001
 43
0.0000001
 44
0.0000000001
 40
0.0
 40
0.0
 40
0.0
 40
0.0
 40
0.0577199783
 40
0.1245429035
 40
0.2159449283
 40
0.3351504553
 40
0.4794987491
 40
0.6433289029
 40
0.8196693175
 40
1.0
 40
1.0
 40
1.0
 40
1.0
 10
107.5267730818
 20
232.8840344488
 30
0.0
 10
107.5601097937
 20
232.8798758121
 30
0.0
 10
107.6317864513
 20
232.8446589878
 30
0.0
 10
107.6805524374
 20
232.7213000926
 30
0.0
 10
107.6842301948
 20
232.5591650961
 30
0.0
 10
107.6494018263
 20
232.3544037388
 30
0.0
 10
107.5761845877
 20
232.1162692007
 30
0.0
 10
107.4680477877
 20
231.8554107474
 30
0.0
 10
107.3300282298
 20
231.5854331125
 30
0.0
 10
107.2223814151
 20
231.4076767123
 30
0.0
 10
107.1647490652
 20
231.3199561983
 30
0.0
  0
SPLINE
  5
6F6
100
AcDbEntity
  8
0
100
AcDbSpline
 62
7
  6
CONTINUOUS
 70
0
 71
3
 72
14
 73
10
 74
0
 42
0.0000001
 43
0.0000001
 44
0.0000000001
 40
0.0
 40
0.0
 40
0.0
 40
0.0
 40
0.358495826
 40
0.5168706135
 40
0.6548455092
 40
0.7696401415
 40
0.8609290823
 40
0.9334851332
 40
1.0
 40
1.0
 40
1.0
 40
1.0
 10
102.933418525
 20
226.5049773666
 30
0.0
 10
102.8004973821
 20
226.3900240313
 30
0.0
 10
102.5977262629
 20
226.2358731132
 30
0.0
 10
102.3186536217
 20
226.0764343318
 30
0.0
 10
102.1334743359
 20
225.9956126304
 30
0.0
 10
101.9699205963
 20
225.9510647646
 30
0.0
 10
101.8319953443
 20
225.944151069
 30
0.0
 10
101.7203775928
 20
225.9803536245
 30
0.0
 10
101.6752014669
 20
226.0370914825
 30
0.0
 10
101.6621073639
 20
226.0669520939
 30
0.0
  0
SPLINE
  5
6F7
100
AcDbEntity
  8
0
100
AcDbSpline
 62
7
  6
CONTINUOUS
 70
0
 71
3
 72
15
 73
11
 74
0
 42
0.0000001
 43
0.0000001
 44
0.0000000001
 40
0.0
 40
0.0
 40
0.0
 40
0.0
 40
0.3790018685
 40
0.5463290683
 40
0.6919009408
 40
0.8115765467
 40
0.9022692406
 40
0.9364296107
 40
0.9633678255
 40
1.0
 40
1.0
 40
1.0
 40
1.0
 10
105.4226468192
 20
227.6496043916
 30
0.0
 10
105.3097051474
 20
227.5232487223
 30
0.0
 10
105.1418972094
 20
227.3453752591
 30
0.0
 10
104.9172142626
 20
227.1325826239
 30
0.0
 10
104.7707722205
 20
227.0060594135
 30
0.0
 10
104.6437986515
 20
226.9098627354
 30
0.0
 10
104.5508798612
 20
226.8517845051
 30
0.0
 10
104.4879026906
 20
226.825104192
 30
0.0
 10
104.4464742333
 20
226.8136564212
 30
0.0
 10
104.4137855964
 20
226.8168325106
 30
0.0
 10
104.4017031964
 20
226.8278929955
 30
0.0
  0
SPLINE
  5
6F8
100
AcDbEntity
  8
0
100
AcDbSpline
 62
7
  6
CONTINUOUS
 70
0
 71
3
 72
14
 73
10
 74
0
 42
0.0000001
 43
0.0000001
 44
0.0000000001
 40
0.0
 40
0.0
 40
0.0
 40
0.0
 40
0.3663180523
 40
0.5276218055
 40
0.6671780469
 40
0.7816362077
 40
0.8702544481
 40
0.9380539918
 40
1.0
 40
1.0
 40
1.0
 40
1.0
 10
107.1647490652
 20
231.3199561983
 30
0.0
 10
107.068542983
 20
231.1735237346
 30
0.0
 10
106.9172626687
 20
230.9701089903
 30
0.0
 10
106.6970746374
 20
230.7386594853
 30
0.0
 10
106.5461143772
 20
230.6088775642
 30
0.0
 10
106.4075860313
 20
230.5198443728
 30
0.0
 10
106.2852490469
 20
230.4734326234
 30
0.0
 10
106.1756734387
 20
230.4757814619
 30
0.0
 10
106.123908889
 20
230.5183667748
 30
0.0
 10
106.1070765349
 20
230.5427496293
 30
0.0
  0
SPLINE
  5
6F9
100
AcDbEntity
  8
0
100
AcDbSpline
 62
7
  6
CONTINUOUS
 70
0
 71
3
 72
14
 73
10
 74
0
 42
0.0000001
 43
0.0000001
 44
0.0000000001
 40
0.0
 40
0.0
 40
0.0
 40
0.0
 40
0.0349228347
 40
0.0626845203
 40
0.0985621768
 40
0.1944655213
 40
0.3201411433
 40
0.6388348663
 40
1.0
 40
1.0
 40
1.0
 40
1.0
 10
106.3472126283
 20
229.108910281
 30
0.0
 10
106.3632598986
 20
229.0961158434
 30
0.0
 10
106.3691301234
 20
229.0525230563
 30
0.0
 10
106.3577863649
 20
228.997406615
 30
0.0
 10
106.3283048964
 20
228.9073868203
 30
0.0
 10
106.2613018348
 20
228.7717296086
 30
0.0
 10
106.0983910663
 20
228.4987796388
 30
0.0
 10
105.8199171288
 20
228.1151160037
 30
0.0
 10
105.5640948937
 20
227.8078521478
 30
0.0
 10
105.4226468192
 20
227.6496043916
 30
0.0
  0
SPLINE
  5
6FA
100
AcDbEntity
  8
0
100
AcDbSpline
 62
7
  6
CONTINUOUS
 70
0
 71
3
 72
16
 73
12
 74
0
 42
0.0000001
 43
0.0000001
 44
0.0000000001
 40
0.0
 40
0.0
 40
0.0
 40
0.0
 40
0.3859374692
 40
0.5568472901
 40
0.7049484277
 40
0.8254406605
 40
0.8740895233
 40
0.9145603683
 40
0.9467834169
 40
0.9709448838
 40
1.0
 40
1.0
 40
1.0
 40
1.0
 10
109.0967237273
 20
233.1030623117
 30
0.0
 10
109.019203989
 20
232.9451736566
 30
0.0
 10
108.9021631584
 20
232.7198030032
 30
0.0
 10
108.7412182878
 20
232.4416779915
 30
0.0
 10
108.6343076018
 20
232.272224414
 30
0.0
 10
108.551105048
 20
232.1538566044
 30
0.0
 10
108.4908014597
 20
232.0796322786
 30
0.0
 10
108.4536575647
 20
232.0387957818
 30
0.0
 10
108.420262669
 20
232.0091112894
 30
0.0
 10
108.3899415332
 20
231.986758923
 30
0.0
 10
108.3598967304
 20
231.981418636
 30
0.0
 10
108.3496519994
 20
231.9898088314
 30
0.0
  0
SPLINE
  5
6FB
100
AcDbEntity
  8
0
100
AcDbSpline
 62
7
  6
CONTINUOUS
 70
0
 71
3
 72
15
 73
11
 74
0
 42
0.0000001
 43
0.0000001
 44
0.0000000001
 40
0.0
 40
0.0
 40
0.0
 40
0.0
 40
0.3726612275
 40
0.5384079764
 40
0.6833954523
 40
0.8033100574
 40
0.895220948
 40
0.9303993462
 40
0.958798401
 40
1.0
 40
1.0
 40
1.0
 40
1.0
 10
100.618086863
 20
223.4937019589
 30
0.0
 10
100.4717769176
 20
223.396738246
 30
0.0
 10
100.2556051132
 20
223.2634676357
 30
0.0
 10
99.9708960856
 20
223.1131269733
 30
0.0
 10
99.7865649999
 20
223.0280934848
 30
0.0
 10
99.6290058953
 20
222.9692384284
 30
0.0
 10
99.5159263092
 20
222.9399518113
 30
0.0
 10
99.4424455301
 20
222.9342322054
 30
0.0
 10
99.3936570654
 20
222.9375788069
 30
0.0
 10
99.3603365657
 20
222.9537479961
 30
0.0
 10
99.3499814086
 20
222.9701602712
 30
0.0
  0
SPLINE
  5
6FC
100
AcDbEntity
  8
0
100
AcDbSpline
 62
7
  6
CONTINUOUS
 70
0
 71
3
 72
14
 73
10
 74
0
 42
0.0000001
 43
0.0000001
 44
0.0000000001
 40
0.0
 40
0.0
 40
0.0
 40
0.0
 40
0.3569327759
 40
0.5135770637
 40
0.6493943523
 40
0.7620396453
 40
0.8522604427
 40
0.9268394134
 40
1.0
 40
1.0
 40
1.0
 40
1.0
 10
97.5539862598
 20
223.0111871356
 30
0.0
 10
97.3966507644
 20
222.9384070589
 30
0.0
 10
97.1619403443
 20
222.8491514738
 30
0.0
 10
96.8533404851
 20
222.7816549041
 30
0.0
 10
96.6567341244
 20
222.7634933885
 30
0.0
 10
96.4917220137
 20
222.7760142
 30
0.0
 10
96.3618619008
 20
222.8200234214
 30
0.0
 10
96.2734999986
 20
222.9019825852
 30
0.0
 10
96.2547501681
 20
222.9753912318
 30
0.0
 10
96.2535950976
 20
223.0109047334
 30
0.0
  0
SPLINE
  5
6FD
100
AcDbEntity
  8
0
100
AcDbSpline
 62
7
  6
CONTINUOUS
 70
0
 71
3
 72
16
 73
12
 74
0
 42
0.0000001
 43
0.0000001
 44
0.0000000001
 40
0.0
 40
0.0
 40
0.0
 40
0.0
 40
0.1944572944
 40
0.3777537073
 40
0.5435300567
 40
0.6869452698
 40
0.8041935114
 40
0.8929280828
 40
0.9269312458
 40
0.9548900348
 40
1.0
 40
1.0
 40
1.0
 40
1.0
 10
94.6807962595
 20
220.6398946704
 30
0.0
 10
94.5985116992
 20
220.6138211333
 30
0.0
 10
94.4376022817
 20
220.5664501155
 30
0.0
 10
94.2032531197
 20
220.5086884167
 30
0.0
 10
93.9884428405
 20
220.4675990559
 30
0.0
 10
93.8003330059
 20
220.4442950441
 30
0.0
 10
93.6452150552
 20
220.4394494056
 30
0.0
 10
93.5383270018
 20
220.4506584828
 30
0.0
 10
93.4747160362
 20
220.4725099024
 30
0.0
 10
93.433350444
 20
220.4963630722
 30
0.0
 10
93.4146440925
 20
220.5276958474
 30
0.0
 10
93.4129033847
 20
220.5476436916
 30
0.0
  0
SPLINE
  5
6FE
100
AcDbEntity
  8
0
100
AcDbSpline
 62
7
  6
CONTINUOUS
 70
0
 71
3
 72
17
 73
13
 74
0
 42
0.0000001
 43
0.0000001
 44
0.0000000001
 40
0.0
 40
0.0
 40
0.0
 40
0.0
 40
0.0202636668
 40
0.0425749598
 40
0.0704358769
 40
0.1055033506
 40
0.199045315
 40
0.3225881527
 40
0.471516825
 40
0.6392906004
 40
0.8184460868
 40
1.0
 40
1.0
 40
1.0
 40
1.0
 10
96.137193695
 20
221.5158804867
 30
0.0
 10
96.1440820535
 20
221.5060759141
 30
0.0
 10
96.1536405114
 20
221.4813840118
 30
0.0
 10
96.1473820808
 20
221.4389341633
 30
0.0
 10
96.1242317837
 20
221.3936322252
 30
0.0
 10
96.0665554745
 20
221.3208035246
 30
0.0
 10
95.9516530363
 20
221.2241104804
 30
0.0
 10
95.7704974697
 20
221.1054908494
 30
0.0
 10
95.5412609623
 20
220.9814743208
 30
0.0
 10
95.2750969783
 20
220.8581609653
 30
0.0
 10
94.984859211
 20
220.7419462446
 30
0.0
 10
94.7831388949
 20
220.6723240168
 30
0.0
 10
94.6807962595
 20
220.6398946704
 30
0.0
  0
SPLINE
  5
6FF
100
AcDbEntity
  8
0
100
AcDbSpline
 62
7
  6
CONTINUOUS
 70
0
 71
3
 72
15
 73
11
 74
0
 42
0.0000001
 43
0.0000001
 44
0.0000000001
 40
0.0
 40
0.0
 40
0.0
 40
0.0
 40
0.0618252964
 40
0.1331722419
 40
0.2273635511
 40
0.3472788373
 40
0.4904459193
 40
0.651654546
 40
0.8242791184
 40
1.0
 40
1.0
 40
1.0
 40
1.0
 10
103.7066656024
 20
228.0051778547
 30
0.0
 10
103.7404364772
 20
227.9880207782
 30
0.0
 10
103.8027798551
 20
227.9251852893
 30
0.0
 10
103.8211060858
 20
227.7808805633
 30
0.0
 10
103.7832661712
 20
227.6089009936
 30
0.0
 10
103.6947226016
 20
227.4075027788
 30
0.0
 10
103.5585836408
 20
227.18544638
 30
0.0
 10
103.3810055713
 20
226.952781397
 30
0.0
 10
103.1706591774
 20
226.7216478914
 30
0.0
 10
103.0148510199
 20
226.5754021063
 30
0.0
 10
102.933418525
 20
226.5049773666
 30
0.0
  0
SPLINE
  5
700
100
AcDbEntity
  8
0
100
AcDbSpline
 62
7
  6
CONTINUOUS
 70
0
 71
3
 72
9
 73
5
 74
0
 42
0.0000001
 43
0.0000001
 44
0.0000000001
 40
0.0
 40
0.0
 40
0.0
 40
0.0
 40
0.2459537298
 40
1.0
 40
1.0
 40
1.0
 40
1.0
 10
77.7687248372
 20
203.1049756189
 30
0.0
 10
77.8664494416
 20
203.1899420952
 30
0.0
 10
78.2383886835
 20
203.5641596059
 30
0.0
 10
78.509455417
 20
204.0339076123
 30
0.0
 10
78.6477931813
 20
204.4060379462
 30
0.0
  0
SPLINE
  5
701
100
AcDbEntity
  8
0
100
AcDbSpline
 62
7
  6
CONTINUOUS
 70
0
 71
3
 72
8
 73
4
 74
0
 42
0.0000001
 43
0.0000001
 44
0.0000000001
 40
0.0
 40
0.0
 40
0.0
 40
0.0
 40
1.0
 40
1.0
 40
1.0
 40
1.0
 10
78.6477931813
 20
204.4060379462
 30
0.0
 10
78.8468213858
 20
204.9414263312
 30
0.0
 10
78.9385650355
 20
205.5131572096
 30
0.0
 10
79.02225977
 20
206.0781776874
 30
0.0
  0
ELLIPSE
  5
702
100
AcDbEntity
  8
AUSFORMSCHRAEGEN
100
AcDbEllipse
 62
7
  6
CONTINUOUS
 10
289.3452625552
 20
261.2242104907
 30
0.0
 11
0.2375961375
 21
5.9999944561
 31
0.0
 40
0.0343288289
 41
-3.4417661949
 42
0.2210079578
  0
ELLIPSE
  5
703
100
AcDbEntity
  8
0
100
AcDbEllipse
 62
7
  6
CONTINUOUS
 10
347.8452625552
 20
261.2242104907
 30
0.0
 11
-0.2375961375
 21
5.9999944561
 31
0.0
 40
0.0343288289
 41
-0.2210079578
 42
3.4417661949
  0
ELLIPSE
  5
704
100
AcDbEntity
  8
KONSTRUKTIONSELEMENTE
100
AcDbEllipse
 62
7
  6
CONTINUOUS
 10
356.0252625552
 20
161.5701277945
 30
0.0
 11
-0.0
 21
21.909243167
 31
0.0
 40
0.8672138903
 41
1.3213394486
 42
1.5290429519
  0
ELLIPSE
  5
705
100
AcDbEntity
  8
KONSTRUKTIONSELEMENTE
100
AcDbEllipse
 62
7
  6
CONTINUOUS
 10
356.0252625552
 20
164.8644602623
 30
0.0
 11
19.0
 21
-0.0
 31
0.0
 40
0.5242230745
 41
2.9751255632
 42
3.1415926536
  0
ELLIPSE
  5
706
100
AcDbEntity
  8
KONSTRUKTIONSELEMENTE
100
AcDbEllipse
 62
7
  6
CONTINUOUS
 10
344.2437313138
 20
162.6863094145
 30
0.0
 11
6.4943424731
 21
7.3716000287
 31
0.0
 40
0.9664232102
 41
-3.957021039
 42
-3.8926958446
  0
ELLIPSE
  5
707
100
AcDbEntity
  8
KONSTRUKTIONSELEMENTE
100
AcDbEllipse
 62
7
  6
CONTINUOUS
 10
356.0252625552
 20
162.7650282698
 30
0.0
 11
-0.0
 21
21.909243167
 31
0.0
 40
0.8672138903
 41
1.3213394486
 42
1.4751873549
  0
ELLIPSE
  5
708
100
AcDbEntity
  8
KONSTRUKTIONSELEMENTE
100
AcDbEllipse
 62
7
  6
CONTINUOUS
 10
342.7934951665
 20
161.4157678899
 30
0.0
 11
6.4943424731
 21
7.3716000287
 31
0.0
 40
0.9664232102
 41
-4.1930279479
 42
-4.0883688956
  0
ELLIPSE
  5
709
100
AcDbEntity
  8
KONSTRUKTIONSELEMENTE
100
AcDbEllipse
 62
7
  6
CONTINUOUS
 10
356.0252625552
 20
168.0585891499
 30
0.0
 11
0.0
 21
21.909243167
 31
0.0
 40
0.8672138903
 41
1.4043292364
 42
1.5707963091
  0
ENDSEC
  0
SECTION
  2
OBJECTS
  0
DICTIONARY
  5
C
100
AcDbDictionary
280
0
281
1
  3
ACAD_GROUP
350
D
  3
ACAD_MLINESTYLE
350
17
  3
ACAD_LAYOUT
350
1A
  3
ACAD_PLOTSETTINGS
350
19
  3
ACAD_PLOTSTYLENAME
350
E
  0
DICTIONARY
  5
D
102
{ACAD_REACTORS
330
C
102
}
100
AcDbDictionary
280
0
281
1
  0
ACDBDICTIONARYWDFLT
  5
E
102
{ACAD_REACTORS
330
C
102
}
100
AcDbDictionary
281
1
  3
Normal
350
F
100
AcDbDictionaryWithDefault
340
F
  0
DICTIONARY
  5
17
102
{ACAD_REACTORS
330
C
102
}
100
AcDbDictionary
280
0
281
1
  3
Standard
350
18
  0
DICTIONARY
  5
19
102
{ACAD_REACTORS
330
C
102
}
100
AcDbDictionary
281
1
  0
DICTIONARY
  5
1A
102
{ACAD_REACTORS
330
C
102
}
100
AcDbDictionary
281
1
  3
Model
350
70A
  3
Layout1
350
70B
  0
ACDBPLACEHOLDER
  5
F
102
{ACAD_REACTORS
330
E
102
}
  0
MLINESTYLE
  5
18
102
{ACAD_REACTORS
330
17
102
}
100
AcDbMlineStyle
  2
STANDARD
 70
0
  3

 62
256
 51
90.0
 52
90.0
 71
2
 49
0.5
 62
256
  6
BYLAYER
 49
-0.5
 62
256
  6
BYLAYER
  0
LAYOUT
  5
70A
102
{ACAD_REACTORS
330
1A
102
}
100
AcDbPlotSettings
  1

  2
none_device
  4
ISO_A3_(420.00_x_297.00_MM)
  6

 40
0.0
 41
0.0
 42
0.0
 43
0.0
 44
420.0
 45
297.0
 46
0.0
 47
0.0
 48
0.0
 49
0.0
140
0.0
141
0.0
142
1.0
143
1.0
 70
1024
 72
1
 73
0
 74
0
  7

 75
0
147
1.0
148
0.0
149
0.0
100
AcDbLayout
  1
Model
 70
0
 71
0
 10
0.0
 20
0.0
 11
420.0
 21
297.0
 12
0.0
 22
0.0
 32
0.0
 14
0.0
 24
0.0
 34
0.0
 15
0.0
 25
0.0
 35
0.0
146
0.0
 13
0.0
 23
0.0
 33
0.0
 16
1.0
 26
0.0
 36
0.0
 17
0.0
 27
1.0
 37
0.0
 76
0
330
20D
345
0
346
0
  0
LAYOUT
  5
70B
102
{ACAD_REACTORS
330
1A
102
}
100
AcDbPlotSettings
  1

  2
none_device
  4
ISO_A3_(420.00_x_297.00_MM)
  6

 40
0.0
 41
0.0
 42
0.0
 43
0.0
 44
420.0
 45
297.0
 46
0.0
 47
0.0
 48
0.0
 49
0.0
140
0.0
141
0.0
142
1.0
143
1.0
 70
0
 72
1
 73
0
 74
0
  7

 75
0
147
1.0
148
0.0
149
0.0
100
AcDbLayout
  1
Layout1
 70
0
 71
1
 10
0.0
 20
0.0
 11
420.0
 21
297.0
 12
0.0
 22
0.0
 32
0.0
 14
0.0
 24
0.0
 34
0.0
 15
0.0
 25
0.0
 35
0.0
146
0.0
 13
0.0
 23
0.0
 33
0.0
 16
1.0
 26
0.0
 36
0.0
 17
0.0
 27
1.0
 37
0.0
 76
0
330
20E
345
0
346
0
  0
ENDSEC
  0
EOF
