999
DXF file: vabh-w-6-7.dxf
999
Pro/ENGINEER 2010140 by Parametric Technology Corporation
  0
SECTION
  2
HEADER
  9
$ACADVER
  1
AC1015
  9
$DWGCODEPAGE
  3
ANSI_1252
  9
$EXTMAX
 10
420.0
 20
297.0
 30
0.0
  9
$EXTMIN
 10
0.0
 20
0.0
 30
0.0
  9
$LIMMIN
 10
0.0
 20
0.0
  9
$LIMMAX
 10
420.0
 20
297.0
  9
$VIEWCTR
 10
210.0
 20
148.5
  9
$VIEWSIZE
 40
297.0
  9
$CLAYER
  8
0
  9
$LTSCALE
 40
23.1
  9
$CELTYPE
  6
BYLAYER
  9
$DIMSCALE
 40
1.0
  9
$DIMASZ
 40
3.5
  9
$DIMEXO
 40
2.625
  9
$DIMDLI
 40
15.96
  9
$DIMEXE
 40
7.56
  9
$DIMCEN
 40
3.78
  9
$DIMLFAC
 40
1.0
  9
$DIMBLK
  1
_FILLED
  9
$DIMTXT
 40
3.5
  9
$DIMTOL
 70
1
  9
$DIMLIM
 70
0
  9
$DIMTFAC
 40
1.0
  9
$DIMTP
 40
0.005
  9
$DIMTM
 40
0.005
  9
$PDMODE
 70
3
  9
$PDSIZE
 40
0.3125
  9
$HANDSEED
  5
6AC
  9
$TILEMODE
 70
1
  9
$MEASUREMENT
 70
1
  9
$INSUNITS
 70
4
  0
ENDSEC
  0
SECTION
  2
CLASSES
  0
CLASS
  1
ACDBDICTIONARYWDFLT
  2
AcDbDictionaryWithDefault
  3
AutoCAD 2000
 90
0
280
0
281
0
  0
CLASS
  1
ACDBPLACEHOLDER
  2
AcDbPlaceHolder
  3
AutoCAD 2000
 90
0
280
0
281
0
  0
CLASS
  1
LAYOUT
  2
AcDbLayout
  3
AutoCAD 2000
 90
0
280
0
281
0
  0
ENDSEC
  0
SECTION
  2
TABLES
  0
TABLE
  2
VPORT
  5
8
100
AcDbSymbolTable
 70
2
  0
VPORT
  5
1F4
100
AcDbSymbolTableRecord
100
AcDbViewportTableRecord
  2
*ACTIVE
 70
0
 10
0.0
 20
0.0
 11
1.0
 21
1.0
 12
210.0
 22
148.5
 13
0.0
 23
0.0
 14
1.0
 24
1.0
 15
0.0
 25
0.0
 16
0.0
 26
0.0
 36
1.0
 17
0.0
 27
0.0
 37
0.0
 40
297.0
 41
1.4141414141
 42
50.0
 43
0.0
 44
0.0
 50
0.0
 51
0.0
 71
0
 72
100
 73
1
 74
1
 75
0
 76
0
 77
0
 78
0
  0
ENDTAB
  0
TABLE
  2
LTYPE
  5
5
100
AcDbSymbolTable
 70
6
  0
LTYPE
  5
14
100
AcDbSymbolTableRecord
100
AcDbLinetypeTableRecord
  2
BYBLOCK
 70
0
  3

 72
65
 73
0
 40
0.0
  0
LTYPE
  5
15
100
AcDbSymbolTableRecord
100
AcDbLinetypeTableRecord
  2
BYLAYER
 70
0
  3

 72
65
 73
0
 40
0.0
  0
LTYPE
  5
16
100
AcDbSymbolTableRecord
100
AcDbLinetypeTableRecord
  2
CONTINUOUS
 70
64
  3
Solid line
 72
65
 73
0
 40
0.0
  0
LTYPE
  5
1F5
100
AcDbSymbolTableRecord
100
AcDbLinetypeTableRecord
  2
CENTER
 70
64
  3
____ _ ____ _ ____ _ ____ _ ____ _ ____ _ ____
 72
65
 73
4
 40
0.6
 49
0.375
 74
0
 49
-0.075
 74
0
 49
0.075
 74
0
 49
-0.075
 74
0
  0
LTYPE
  5
1F6
100
AcDbSymbolTableRecord
100
AcDbLinetypeTableRecord
  2
HIDDEN
 70
64
  3
- - - - - - - - - - - - - - - - - - - -
 72
65
 73
2
 40
0.2
 49
0.1
 74
0
 49
-0.1
 74
0
  0
LTYPE
  5
1F7
100
AcDbSymbolTableRecord
100
AcDbLinetypeTableRecord
  2
PHANTOM
 70
64
  3
_____ _ _ _____ _ _ _____ _ _ _____
 72
65
 73
6
 40
0.8
 49
0.45
 74
0
 49
-0.05
 74
0
 49
0.1
 74
0
 49
-0.05
 74
0
 49
0.1
 74
0
 49
-0.05
 74
0
  0
LTYPE
  5
1F8
100
AcDbSymbolTableRecord
100
AcDbLinetypeTableRecord
  2
DOT
 70
64
  3
. . . . . . . . . . . . . . . . . . . .
 72
65
 73
2
 40
0.2
 49
0.1
 74
0
 49
-0.1
 74
0
  0
LTYPE
  5
1F9
100
AcDbSymbolTableRecord
100
AcDbLinetypeTableRecord
  2
DASHED
 70
64
  3
- - - - - - - - - - - - - - - - - - - -
 72
65
 73
2
 40
0.2
 49
0.1
 74
0
 49
-0.1
 74
0
  0
ENDTAB
  0
TABLE
  2
LAYER
  5
2
100
AcDbSymbolTable
 70
36
  0
LAYER
  5
10
100
AcDbSymbolTableRecord
100
AcDbLayerTableRecord
  2
0
 70
0
 62
7
  6
CONTINUOUS
370
-3
390
F
  0
LAYER
  5
1FA
100
AcDbSymbolTableRecord
100
AcDbLayerTableRecord
  2
DEFAULT_1
 70
0
 62
7
  6
CENTER
370
-3
390
F
  0
LAYER
  5
1FB
100
AcDbSymbolTableRecord
100
AcDbLayerTableRecord
  2
DEFAULT_2
 70
0
 62
8
  6
HIDDEN
370
-3
390
F
  0
LAYER
  5
1FC
100
AcDbSymbolTableRecord
100
AcDbLayerTableRecord
  2
DEFAULT_3
 70
0
 62
7
  6
PHANTOM
370
-3
390
F
  0
LAYER
  5
1FD
100
AcDbSymbolTableRecord
100
AcDbLayerTableRecord
  2
AUSFORMSCHRAEGEN
 70
0
 62
7
  6
CONTINUOUS
370
-3
390
F
  0
LAYER
  5
1FE
100
AcDbSymbolTableRecord
100
AcDbLayerTableRecord
  2
BEZUGSACHSEN
 70
0
 62
7
  6
CONTINUOUS
370
-3
390
F
  0
LAYER
  5
1FF
100
AcDbSymbolTableRecord
100
AcDbLayerTableRecord
  2
BEZUGSEBENEN
 70
0
 62
7
  6
CONTINUOUS
370
-3
390
F
  0
LAYER
  5
200
100
AcDbSymbolTableRecord
100
AcDbLayerTableRecord
  2
BG_STARTBEZUEGE
 70
0
 62
7
  6
CONTINUOUS
370
-3
390
F
  0
LAYER
  5
201
100
AcDbSymbolTableRecord
100
AcDbLayerTableRecord
  2
BOHRUNGEN
 70
0
 62
7
  6
CONTINUOUS
370
-3
390
F
  0
LAYER
  5
202
100
AcDbSymbolTableRecord
100
AcDbLayerTableRecord
  2
FASEN
 70
0
 62
7
  6
CONTINUOUS
370
-3
390
F
  0
LAYER
  5
203
100
AcDbSymbolTableRecord
100
AcDbLayerTableRecord
  2
HILFEN
 70
0
 62
7
  6
CONTINUOUS
370
-3
390
F
  0
LAYER
  5
204
100
AcDbSymbolTableRecord
100
AcDbLayerTableRecord
  2
KONSTRUKTIONSELEMENTE
 70
0
 62
7
  6
CONTINUOUS
370
-3
390
F
  0
LAYER
  5
205
100
AcDbSymbolTableRecord
100
AcDbLayerTableRecord
  2
PLATZIERUNG
 70
0
 62
7
  6
CONTINUOUS
370
-3
390
F
  0
LAYER
  5
206
100
AcDbSymbolTableRecord
100
AcDbLayerTableRecord
  2
PLAZIERUNG
 70
0
 62
7
  6
CONTINUOUS
370
-3
390
F
  0
LAYER
  5
207
100
AcDbSymbolTableRecord
100
AcDbLayerTableRecord
  2
RUNDUNGEN
 70
0
 62
7
  6
CONTINUOUS
370
-3
390
F
  0
LAYER
  5
208
100
AcDbSymbolTableRecord
100
AcDbLayerTableRecord
  2
TEIL_STARTBEZUEGE
 70
0
 62
7
  6
CONTINUOUS
370
-3
390
F
  0
ENDTAB
  0
TABLE
  2
STYLE
  5
3
100
AcDbSymbolTable
 70
1
  0
STYLE
  5
11
100
AcDbSymbolTableRecord
100
AcDbTextStyleTableRecord
  2
STANDARD
 70
0
 40
0.0
 41
0.7
 50
0.0
 71
0
 42
0.2
  3
txt
  4

  0
STYLE
  5
209
100
AcDbSymbolTableRecord
100
AcDbTextStyleTableRecord
  2
TEXTSTYLE_1
 70
0
 40
0.0
 41
0.8
 50
0.0
 71
0
 42
0.2
  3
gdt
  4

  0
ENDTAB
  0
TABLE
  2
VIEW
  5
6
100
AcDbSymbolTable
 70
0
  0
ENDTAB
  0
TABLE
  2
UCS
  5
7
100
AcDbSymbolTable
 70
0
  0
ENDTAB
  0
TABLE
  2
APPID
  5
9
100
AcDbSymbolTable
 70
1
  0
APPID
  5
20A
100
AcDbSymbolTableRecord
100
AcDbRegAppTableRecord
  2
ACAD
 70
0
  0
ENDTAB
  0
TABLE
  2
BLOCK_RECORD
  5
1
100
AcDbSymbolTable
 70
0
  0
BLOCK_RECORD
  5
20B
100
AcDbSymbolTableRecord
100
AcDbBlockTableRecord
  2
*Model_Space
  0
BLOCK_RECORD
  5
20C
100
AcDbSymbolTableRecord
100
AcDbBlockTableRecord
  2
*Paper_Space
  0
ENDTAB
  0
TABLE
  2
DIMSTYLE
  5
A
100
AcDbSymbolTable
 70
1
100
AcDbDimStyleTable
 71
0
  0
DIMSTYLE
105
20D
100
AcDbSymbolTableRecord
100
AcDbDimStyleTableRecord
  2
STANDARD
 70
0
  3

  4

 40
1.0
 41
3.5
 42
0.0625
 43
0.38
 44
0.18
 45
0.0
 46
0.0
 47
0.005
 48
0.005
140
3.5
141
0.09
142
0.0
143
25.4
144
1.0
145
0.0
146
1.0
147
0.09
 71
1.0
 72
0.0
 73
0
 74
0
 75
0
 76
0
 77
1
 78
8
170
0
171
2
172
0
173
0
174
0
175
0
176
0
177
0
178
5
270
2
271
3
272
3
273
2
274
2
275
0
280
0
281
0
282
0
283
1
284
8
285
0
286
0
287
3
288
0
340
11
  0
ENDTAB
  0
ENDSEC
  0
SECTION
  2
BLOCKS
  0
BLOCK
  5
20
100
AcDbEntity
  8
0
100
AcDbBlockBegin
  2
*Model_Space
 70
0
 10
0.0
 20
0.0
 30
0.0
  3
*Model_Space
  1

  0
ENDBLK
  5
21
100
AcDbEntity
  8
0
100
AcDbBlockEnd
  0
BLOCK
  5
1C
100
AcDbEntity
  8
0
100
AcDbBlockBegin
  2
*Paper_Space
 70
0
 10
0.0
 20
0.0
 30
0.0
  3
*Paper_Space
  1

  0
ENDBLK
  5
1D
100
AcDbEntity
  8
0
100
AcDbBlockEnd
  0
ENDSEC
  0
SECTION
  2
ENTITIES
  0
MTEXT
  5
20E
100
AcDbEntity
  8
0
100
AcDbMText
 62
5
  6
CONTINUOUS
  7
STANDARD
 71
1
 72
1
 10
43.8592508513
 20
87.2977440409
 30
0.0
 11
1.0
 21
0.0
 31
0.0
 44
0.9
  1
VABH-W 6,7t
 40
6.0
 41
54.1428571429
  0
MTEXT
  5
20F
100
AcDbEntity
  8
0
100
AcDbMText
 62
5
  6
CONTINUOUS
  7
STANDARD
 71
1
 72
1
 10
327.61861521
 20
244.2932037457
 30
0.0
 11
0.0
 21
1.0
 31
0.0
 44
0.9
  1
VABH-W 6,7t
 40
8.0
 41
72.1904761905
  0
LINE
  5
210
100
AcDbEntity
  8
0
100
AcDbLine
 62
7
  6
CONTINUOUS
 10
0.0
 20
0.0
 11
0.0
 21
297.0
  0
LINE
  5
211
100
AcDbEntity
  8
0
100
AcDbLine
 62
7
  6
CONTINUOUS
 10
0.0
 20
0.0
 11
420.0
 21
0.0
  0
LINE
  5
212
100
AcDbEntity
  8
0
100
AcDbLine
 62
7
  6
CONTINUOUS
 10
0.0
 20
297.0
 11
420.0
 21
297.0
  0
LINE
  5
213
100
AcDbEntity
  8
0
100
AcDbLine
 62
7
  6
CONTINUOUS
 10
420.0
 20
0.0
 11
420.0
 21
297.0
  0
LINE
  5
214
100
AcDbEntity
  8
0
100
AcDbLine
 62
7
  6
CONTINUOUS
 10
176.7919831359
 20
172.4005819888
 11
115.5613296318
 21
169.175216397
  0
LINE
  5
215
100
AcDbEntity
  8
0
100
AcDbLine
 62
7
  6
CONTINUOUS
 10
120.6915696318
 20
170.6975086461
 11
115.4955593751
 21
170.4238053336
  0
LINE
  5
216
100
AcDbEntity
  8
0
100
AcDbLine
 62
7
  6
CONTINUOUS
 10
147.4313298174
 20
172.4695767174
 11
140.0043541022
 21
172.0783558084
  0
LINE
  5
217
100
AcDbEntity
  8
0
100
AcDbLine
 62
7
  6
CONTINUOUS
 10
115.7579173333
 20
180.7668938142
 11
136.7220848183
 21
182.1472149548
  0
LINE
  5
218
100
AcDbEntity
  8
KONSTRUKTIONSELEMENTE
100
AcDbLine
 62
7
  6
CONTINUOUS
 10
112.0385972195
 20
186.9961790208
 11
112.9025493218
 21
186.9870814993
  0
LINE
  5
219
100
AcDbEntity
  8
KONSTRUKTIONSELEMENTE
100
AcDbLine
 62
7
  6
CONTINUOUS
 10
116.9343268979
 20
186.9446263872
 11
117.7982790002
 21
186.9355288657
  0
LINE
  5
21A
100
AcDbEntity
  8
KONSTRUKTIONSELEMENTE
100
AcDbLine
 62
7
  6
CONTINUOUS
 10
108.8856276996
 20
188.3485980525
 11
108.4378351745
 21
188.2606570533
  0
LINE
  5
21B
100
AcDbEntity
  8
KONSTRUKTIONSELEMENTE
100
AcDbLine
 62
7
  6
CONTINUOUS
 10
109.2988399
 20
191.4091702042
 11
108.8510473749
 21
191.321229205
  0
LINE
  5
21C
100
AcDbEntity
  8
KONSTRUKTIONSELEMENTE
100
AcDbLine
 62
7
  6
CONTINUOUS
 10
108.1770682032
 20
187.4054748386
 11
108.910270145
 21
187.4548823194
  0
LINE
  5
21D
100
AcDbEntity
  8
KONSTRUKTIONSELEMENTE
100
AcDbLine
 62
7
  6
CONTINUOUS
 10
112.9366166368
 20
190.2223064194
 11
116.9683942128
 21
190.1798513073
  0
LINE
  5
21E
100
AcDbEntity
  8
KONSTRUKTIONSELEMENTE
100
AcDbLine
 62
7
  6
CONTINUOUS
 10
116.9776852976
 20
191.0621852641
 11
112.9459077215
 21
191.1046403761
  0
LINE
  5
21F
100
AcDbEntity
  8
KONSTRUKTIONSELEMENTE
100
AcDbLine
 62
7
  6
CONTINUOUS
 10
117.8710591725
 20
193.8471456842
 11
117.0071070702
 21
193.8562432058
  0
LINE
  5
220
100
AcDbEntity
  8
KONSTRUKTIONSELEMENTE
100
AcDbLine
 62
7
  6
CONTINUOUS
 10
112.9753294941
 20
193.8986983178
 11
112.1113773918
 21
193.9077958394
  0
LINE
  5
221
100
AcDbEntity
  8
KONSTRUKTIONSELEMENTE
100
AcDbLine
 62
7
  6
CONTINUOUS
 10
104.7521421583
 20
187.8678789765
 11
108.1770682032
 21
187.4054748386
  0
LINE
  5
222
100
AcDbEntity
  8
KONSTRUKTIONSELEMENTE
100
AcDbLine
 62
7
  6
CONTINUOUS
 10
108.4378351745
 20
188.2606570533
 11
105.7264343002
 21
188.6267271428
  0
LINE
  5
223
100
AcDbEntity
  8
KONSTRUKTIONSELEMENTE
100
AcDbLine
 62
7
  6
CONTINUOUS
 10
106.0215858837
 20
190.8128501958
 11
108.732986758
 21
190.4467801063
  0
LINE
  5
224
100
AcDbEntity
  8
KONSTRUKTIONSELEMENTE
100
AcDbLine
 62
7
  6
CONTINUOUS
 10
108.8510473749
 20
191.321229205
 11
106.1396465006
 21
191.6872992945
  0
LINE
  5
225
100
AcDbEntity
  8
KONSTRUKTIONSELEMENTE
100
AcDbLine
 62
7
  6
CONTINUOUS
 10
106.4151213284
 20
193.7276809331
 11
109.1265222027
 21
193.3616108436
  0
LINE
  5
226
100
AcDbEntity
  8
KONSTRUKTIONSELEMENTE
100
AcDbLine
 62
7
  6
CONTINUOUS
 10
109.101876479
 20
194.2553269284
 11
105.6769504341
 21
194.7177310663
  0
LINE
  5
227
100
AcDbEntity
  8
KONSTRUKTIONSELEMENTE
100
AcDbLine
 62
7
  6
CONTINUOUS
 10
80.1841903727
 20
198.4197177588
 11
80.8217568217
 21
198.3111107958
  0
LINE
  5
228
100
AcDbEntity
  8
KONSTRUKTIONSELEMENTE
100
AcDbLine
 62
7
  6
CONTINUOUS
 10
97.2059496333
 20
189.7157285498
 11
98.0413817554
 21
189.4953897895
  0
LINE
  5
229
100
AcDbEntity
  8
KONSTRUKTIONSELEMENTE
100
AcDbLine
 62
7
  6
CONTINUOUS
 10
101.9400660544
 20
188.4671419613
 11
102.7754981765
 21
188.246803201
  0
LINE
  5
22A
100
AcDbEntity
  8
KONSTRUKTIONSELEMENTE
100
AcDbLine
 62
7
  6
CONTINUOUS
 10
99.0483912027
 20
191.0549115456
 11
101.8331638809
 21
190.3204492915
  0
LINE
  5
22B
100
AcDbEntity
  8
KONSTRUKTIONSELEMENTE
100
AcDbLine
 62
7
  6
CONTINUOUS
 10
101.843941993
 20
190.9259774797
 11
99.3376456266
 21
191.5869937605
  0
LINE
  5
22C
100
AcDbEntity
  8
KONSTRUKTIONSELEMENTE
100
AcDbLine
 62
7
  6
CONTINUOUS
 10
102.3103882041
 20
195.5178304858
 11
101.1964797702
 21
195.8116152193
  0
LINE
  5
22D
100
AcDbEntity
  8
KONSTRUKTIONSELEMENTE
100
AcDbLine
 62
7
  6
CONTINUOUS
 10
74.1876818096
 20
203.3067723244
 11
74.8072296156
 21
203.12117083
  0
LINE
  5
22E
100
AcDbEntity
  8
KONSTRUKTIONSELEMENTE
100
AcDbLine
 62
7
  6
CONTINUOUS
 10
92.0674976624
 20
191.6606234843
 11
93.134939103
 21
191.2274142512
  0
LINE
  5
22F
100
AcDbEntity
  8
KONSTRUKTIONSELEMENTE
100
AcDbLine
 62
7
  6
CONTINUOUS
 10
80.5963164519
 20
199.2131206235
 11
80.0466759678
 21
199.4396122797
  0
LINE
  5
230
100
AcDbEntity
  8
KONSTRUKTIONSELEMENTE
100
AcDbLine
 62
7
  6
CONTINUOUS
 10
79.5191202546
 20
198.7323042233
 11
80.1841903727
 21
198.4197177588
  0
LINE
  5
231
100
AcDbEntity
  8
KONSTRUKTIONSELEMENTE
100
AcDbLine
 62
7
  6
CONTINUOUS
 10
74.6935520305
 20
204.043949953
 11
74.1756591214
 21
204.3358249537
  0
LINE
  5
232
100
AcDbEntity
  8
KONSTRUKTIONSELEMENTE
100
AcDbLine
 62
7
  6
CONTINUOUS
 10
73.5657298286
 20
203.6981840085
 11
74.1876818096
 21
203.3067723244
  0
LINE
  5
233
100
AcDbEntity
  8
KONSTRUKTIONSELEMENTE
100
AcDbLine
 62
7
  6
CONTINUOUS
 10
76.74883036
 20
200.7985641051
 11
79.5191202546
 21
198.7323042233
  0
LINE
  5
234
100
AcDbEntity
  8
KONSTRUKTIONSELEMENTE
100
AcDbLine
 62
7
  6
CONTINUOUS
 10
80.0466759678
 20
199.4396122797
 11
77.9689585468
 21
200.9893071911
  0
LINE
  5
235
100
AcDbEntity
  8
KONSTRUKTIONSELEMENTE
100
AcDbLine
 62
7
  6
CONTINUOUS
 10
80.8217568217
 20
198.3111107958
 11
81.6351751624
 21
198.4382731678
  0
LINE
  5
236
100
AcDbEntity
  8
KONSTRUKTIONSELEMENTE
100
AcDbLine
 62
7
  6
CONTINUOUS
 10
74.8072296156
 20
203.12117083
 11
75.6300871711
 21
203.1481163019
  0
LINE
  5
237
100
AcDbEntity
  8
KONSTRUKTIONSELEMENTE
100
AcDbLine
 62
7
  6
CONTINUOUS
 10
81.1184546342
 20
199.1906075454
 11
80.5963164519
 21
199.2131206235
  0
LINE
  5
238
100
AcDbEntity
  8
KONSTRUKTIONSELEMENTE
100
AcDbLine
 62
7
  6
CONTINUOUS
 10
75.2090402224
 20
203.9578857673
 11
74.6935520305
 21
204.043949953
  0
LINE
  5
239
100
AcDbEntity
  8
KONSTRUKTIONSELEMENTE
100
AcDbLine
 62
7
  6
CONTINUOUS
 10
109.7957248801
 20
194.0132513636
 11
109.101876479
 21
194.2553269284
  0
LINE
  5
23A
100
AcDbEntity
  8
KONSTRUKTIONSELEMENTE
100
AcDbLine
 62
7
  6
CONTINUOUS
 10
97.8690829155
 20
196.7656492973
 11
97.0685010715
 21
197.0905565319
  0
LINE
  5
23B
100
AcDbEntity
  8
KONSTRUKTIONSELEMENTE
100
AcDbLine
 62
7
  6
CONTINUOUS
 10
93.3324514484
 20
198.6067907068
 11
92.5318696045
 21
198.9316979415
  0
LINE
  5
23C
100
AcDbEntity
  8
KONSTRUKTIONSELEMENTE
100
AcDbLine
 62
7
  6
CONTINUOUS
 10
71.9191186068
 20
210.2869531749
 11
72.5120744117
 21
210.028708495
  0
LINE
  5
23D
100
AcDbEntity
  8
KONSTRUKTIONSELEMENTE
100
AcDbLine
 62
7
  6
CONTINUOUS
 10
108.732986758
 20
190.4467801063
 11
109.1414257442
 21
190.2432380726
  0
LINE
  5
23E
100
AcDbEntity
  8
KONSTRUKTIONSELEMENTE
100
AcDbLine
 62
7
  6
CONTINUOUS
 10
109.1265222027
 20
193.3616108436
 11
109.5349611889
 21
193.1580688099
  0
LINE
  5
23F
100
AcDbEntity
  8
KONSTRUKTIONSELEMENTE
100
AcDbLine
 62
7
  6
CONTINUOUS
 10
72.3957689479
 20
210.8650834831
 11
72.0078601642
 21
211.1054551544
  0
LINE
  5
240
100
AcDbEntity
  8
KONSTRUKTIONSELEMENTE
100
AcDbLine
 62
7
  6
CONTINUOUS
 10
109.9139812232
 20
190.5841285736
 11
109.6482485777
 21
190.7684036212
  0
LINE
  5
241
100
AcDbEntity
  8
KONSTRUKTIONSELEMENTE
100
AcDbLine
 62
7
  6
CONTINUOUS
 10
81.0463669457
 20
205.1152709501
 11
83.1240843667
 21
203.5655760387
  0
LINE
  5
242
100
AcDbEntity
  8
KONSTRUKTIONSELEMENTE
100
AcDbLine
 62
7
  6
CONTINUOUS
 10
83.6516400184
 20
204.2728840126
 11
80.8813501237
 21
206.3391438945
  0
LINE
  5
243
100
AcDbEntity
  8
KONSTRUKTIONSELEMENTE
100
AcDbLine
 62
7
  6
CONTINUOUS
 10
73.1494917898
 20
204.0963324877
 11
73.5657298286
 21
203.6981840085
  0
LINE
  5
244
100
AcDbEntity
  8
KONSTRUKTIONSELEMENTE
100
AcDbLine
 62
7
  6
CONTINUOUS
 10
74.1756591214
 20
204.3358249537
 11
73.7594210827
 21
204.7339734329
  0
LINE
  5
245
100
AcDbEntity
  8
KONSTRUKTIONSELEMENTE
100
AcDbLine
 62
7
  6
CONTINUOUS
 10
80.0084608606
 20
207.1004447443
 11
79.3841041002
 21
207.6976671784
  0
LINE
  5
246
100
AcDbEntity
  8
KONSTRUKTIONSELEMENTE
100
AcDbLine
 62
7
  6
CONTINUOUS
 10
76.8866770586
 20
210.0865569146
 11
76.2623200005
 21
210.6837796335
  0
LINE
  5
247
100
AcDbEntity
  8
KONSTRUKTIONSELEMENTE
100
AcDbLine
 62
7
  6
CONTINUOUS
 10
66.6544496829
 20
211.3655303279
 11
67.2030347091
 21
210.6980346582
  0
LINE
  5
248
100
AcDbEntity
  8
KONSTRUKTIONSELEMENTE
100
AcDbLine
 62
7
  6
CONTINUOUS
 10
69.4888055645
 20
207.9168028074
 11
70.1288216028
 21
207.1380576473
  0
LINE
  5
249
100
AcDbEntity
  8
KONSTRUKTIONSELEMENTE
100
AcDbLine
 62
7
  6
CONTINUOUS
 10
69.5889767111
 20
212.6589343543
 11
71.1433009084
 21
210.7676966766
  0
LINE
  5
24A
100
AcDbEntity
  8
KONSTRUKTIONSELEMENTE
100
AcDbLine
 62
7
  6
CONTINUOUS
 10
72.0078601642
 20
211.1054551544
 11
70.270674335
 21
213.2191913355
  0
LINE
  5
24B
100
AcDbEntity
  8
KONSTRUKTIONSELEMENTE
100
AcDbLine
 62
7
  6
CONTINUOUS
 10
72.7308495672
 20
204.7002911474
 11
73.1494917898
 21
204.0963324877
  0
LINE
  5
24C
100
AcDbEntity
  8
KONSTRUKTIONSELEMENTE
100
AcDbLine
 62
7
  6
CONTINUOUS
 10
73.7594210827
 20
204.7339734329
 11
73.4448385097
 21
205.2383948211
  0
LINE
  5
24D
100
AcDbEntity
  8
KONSTRUKTIONSELEMENTE
100
AcDbLine
 62
7
  6
CONTINUOUS
 10
61.7005589695
 20
219.2594198211
 11
62.1593746859
 21
218.4161593996
  0
LINE
  5
24E
100
AcDbEntity
  8
KONSTRUKTIONSELEMENTE
100
AcDbLine
 62
7
  6
CONTINUOUS
 10
72.5120744117
 20
210.028708495
 11
73.2408320074
 21
210.0684653143
  0
LINE
  5
24F
100
AcDbEntity
  8
0
100
AcDbLine
 62
7
  6
CONTINUOUS
 10
118.6333296318
 20
210.257289093
 11
112.4893296318
 21
210.257289093
  0
LINE
  5
250
100
AcDbEntity
  8
KONSTRUKTIONSELEMENTE
100
AcDbLine
 62
7
  6
CONTINUOUS
 10
72.8058632518
 20
210.8293371475
 11
72.3957689479
 21
210.8650834831
  0
LINE
  5
251
100
AcDbEntity
  8
KONSTRUKTIONSELEMENTE
100
AcDbLine
 62
7
  6
CONTINUOUS
 10
56.9984313657
 20
236.0659805384
 11
56.5932258422
 21
236.481927964
  0
LINE
  5
252
100
AcDbEntity
  8
KONSTRUKTIONSELEMENTE
100
AcDbLine
 62
7
  6
CONTINUOUS
 10
58.7233571739
 20
239.4570890121
 11
59.1285626974
 21
239.0411415865
  0
LINE
  5
253
100
AcDbEntity
  8
KONSTRUKTIONSELEMENTE
100
AcDbLine
 62
7
  6
CONTINUOUS
 10
59.9053799533
 20
239.3406053504
 11
59.0949688963
 21
240.172500258
  0
LINE
  5
254
100
AcDbEntity
  8
KONSTRUKTIONSELEMENTE
100
AcDbLine
 62
7
  6
CONTINUOUS
 10
84.1408582448
 20
203.7245282132
 11
83.6516400184
 21
204.2728840126
  0
LINE
  5
255
100
AcDbEntity
  8
KONSTRUKTIONSELEMENTE
100
AcDbLine
 62
7
  6
CONTINUOUS
 10
55.8164085473
 20
236.1824638445
 11
56.4381107371
 21
235.4797587573
  0
LINE
  5
256
100
AcDbEntity
  8
KONSTRUKTIONSELEMENTE
100
AcDbLine
 62
7
  6
CONTINUOUS
 10
71.9749187131
 20
214.6198340503
 11
73.7121045422
 21
212.5060978691
  0
LINE
  5
257
100
AcDbEntity
  8
KONSTRUKTIONSELEMENTE
100
AcDbLine
 62
7
  6
CONTINUOUS
 10
74.188755145
 20
213.084227859
 11
71.9944150401
 21
215.7542105377
  0
LINE
  5
258
100
AcDbEntity
  8
KONSTRUKTIONSELEMENTE
100
AcDbLine
 62
7
  6
CONTINUOUS
 10
83.1240843667
 20
203.5655760387
 11
83.4978729669
 21
203.1033150579
  0
LINE
  5
259
100
AcDbEntity
  8
KONSTRUKTIONSELEMENTE
100
AcDbLine
 62
7
  6
CONTINUOUS
 10
56.5932258422
 20
236.481927964
 11
56.3489413744
 21
236.9262542218
  0
LINE
  5
25A
100
AcDbEntity
  8
KONSTRUKTIONSELEMENTE
100
AcDbLine
 62
7
  6
CONTINUOUS
 10
59.1285626974
 20
239.0411415865
 11
59.372847205
 21
238.5968151033
  0
LINE
  5
25B
100
AcDbEntity
  8
KONSTRUKTIONSELEMENTE
100
AcDbLine
 62
7
  6
CONTINUOUS
 10
61.8642204197
 20
239.5235856449
 11
62.1085049273
 21
239.0792591617
  0
LINE
  5
25C
100
AcDbEntity
  8
KONSTRUKTIONSELEMENTE
100
AcDbLine
 62
7
  6
CONTINUOUS
 10
66.5054656975
 20
224.7881580592
 11
67.7289739829
 21
222.5394641381
  0
LINE
  5
25D
100
AcDbEntity
  8
KONSTRUKTIONSELEMENTE
100
AcDbLine
 62
7
  6
CONTINUOUS
 10
68.1877896993
 20
221.6962037167
 11
69.4112979847
 21
219.4475097956
  0
LINE
  5
25E
100
AcDbEntity
  8
KONSTRUKTIONSELEMENTE
100
AcDbLine
 62
7
  6
CONTINUOUS
 10
70.1289663429
 20
219.8379912098
 11
67.2231340557
 21
225.1786394734
  0
LINE
  5
25F
100
AcDbEntity
  8
KONSTRUKTIONSELEMENTE
100
AcDbLine
 62
7
  6
CONTINUOUS
 10
74.5322931501
 20
212.434605198
 11
74.188755145
 21
213.084227859
  0
LINE
  5
260
100
AcDbEntity
  8
KONSTRUKTIONSELEMENTE
100
AcDbLine
 62
7
  6
CONTINUOUS
 10
55.5165483381
 20
236.9419275027
 11
55.8164085473
 21
236.1824638445
  0
LINE
  5
261
100
AcDbEntity
  8
KONSTRUKTIONSELEMENTE
100
AcDbLine
 62
7
  6
CONTINUOUS
 10
60.2052401286
 20
238.5811418025
 11
59.9053799533
 21
239.3406053504
  0
LINE
  5
262
100
AcDbEntity
  8
KONSTRUKTIONSELEMENTE
100
AcDbLine
 62
7
  6
CONTINUOUS
 10
58.0378549246
 20
227.5118021401
 11
58.3790981796
 21
226.6144989356
  0
LINE
  5
263
100
AcDbEntity
  8
KONSTRUKTIONSELEMENTE
100
AcDbLine
 62
7
  6
CONTINUOUS
 10
55.5233966849
 20
232.3708127225
 11
55.7368714218
 21
231.5998206468
  0
LINE
  5
264
100
AcDbEntity
  8
KONSTRUKTIONSELEMENTE
100
AcDbLine
 62
7
  6
CONTINUOUS
 10
57.7253122983
 20
231.1542671004
 11
57.5118374392
 21
231.9252596173
  0
LINE
  5
265
100
AcDbEntity
  8
KONSTRUKTIONSELEMENTE
100
AcDbLine
 62
7
  6
CONTINUOUS
 10
55.3776091987
 20
237.7297699955
 11
55.5165483381
 21
236.9419275027
  0
LINE
  5
266
100
AcDbEntity
  8
KONSTRUKTIONSELEMENTE
100
AcDbLine
 62
7
  6
CONTINUOUS
 10
56.3489413744
 20
236.9262542218
 11
56.1544265474
 21
238.029233892
  0
LINE
  5
267
100
AcDbEntity
  8
KONSTRUKTIONSELEMENTE
100
AcDbLine
 62
7
  6
CONTINUOUS
 10
55.3995910694
 20
238.5459916611
 11
55.3776091987
 21
237.7297699955
  0
LINE
  5
268
100
AcDbEntity
  8
KONSTRUKTIONSELEMENTE
100
AcDbLine
 62
7
  6
CONTINUOUS
 10
75.7221235549
 20
204.0776322478
 11
75.2090402224
 21
203.9578857673
  0
LINE
  5
269
100
AcDbEntity
  8
KONSTRUKTIONSELEMENTE
100
AcDbLine
 62
7
  6
CONTINUOUS
 10
55.7368714218
 20
231.5998206468
 11
57.7253122983
 21
231.1542671004
  0
LINE
  5
26A
100
AcDbEntity
  8
KONSTRUKTIONSELEMENTE
100
AcDbLine
 62
7
  6
CONTINUOUS
 10
57.5118374392
 20
231.9252596173
 11
55.5233966849
 21
232.3708127225
  0
LINE
  5
26B
100
AcDbEntity
  8
KONSTRUKTIONSELEMENTE
100
AcDbLine
 62
7
  6
CONTINUOUS
 10
57.5367702139
 20
235.8359805536
 11
56.9984313657
 21
236.0659805384
  0
LINE
  5
26C
100
AcDbEntity
  8
KONSTRUKTIONSELEMENTE
100
AcDbLine
 62
7
  6
CONTINUOUS
 10
56.4381107371
 20
235.4797587573
 11
57.1651583489
 21
235.1205694569
  0
LINE
  5
26D
100
AcDbEntity
  8
KONSTRUKTIONSELEMENTE
100
AcDbLine
 62
7
  6
CONTINUOUS
 10
62.0193354685
 20
240.5257548416
 11
61.292287913
 21
240.8849441521
  0
LINE
  5
26E
100
AcDbEntity
  8
KONSTRUKTIONSELEMENTE
100
AcDbLine
 62
7
  6
CONTINUOUS
 10
58.3459394742
 20
239.7154679617
 11
58.7233571739
 21
239.4570890121
  0
LINE
  5
26F
100
AcDbEntity
  8
0
100
AcDbLine
 62
7
  6
CONTINUOUS
 10
87.632832033
 20
220.5531875114
 11
83.2883679694
 21
224.8976515751
  0
LINE
  5
270
100
AcDbEntity
  8
KONSTRUKTIONSELEMENTE
100
AcDbLine
 62
7
  6
CONTINUOUS
 10
110.3075166679
 20
193.4989593109
 11
109.7957248801
 21
194.0132513636
  0
LINE
  5
271
100
AcDbEntity
  8
KONSTRUKTIONSELEMENTE
100
AcDbLine
 62
7
  6
CONTINUOUS
 10
61.4590148962
 20
239.9395330705
 11
61.8642204197
 21
239.5235856449
  0
LINE
  5
272
100
AcDbEntity
  8
KONSTRUKTIONSELEMENTE
100
AcDbLine
 62
7
  6
CONTINUOUS
 10
62.6410376756
 20
239.8230494089
 11
62.0193354685
 21
240.5257548416
  0
LINE
  5
273
100
AcDbEntity
  8
KONSTRUKTIONSELEMENTE
100
AcDbLine
 62
7
  6
CONTINUOUS
 10
109.1414257442
 20
190.2432380726
 11
109.3874816202
 21
189.9132215085
  0
LINE
  5
274
100
AcDbEntity
  8
KONSTRUKTIONSELEMENTE
100
AcDbLine
 62
7
  6
CONTINUOUS
 10
84.4267209031
 20
203.14438257
 11
84.1408582448
 21
203.7245282132
  0
LINE
  5
275
100
AcDbEntity
  8
KONSTRUKTIONSELEMENTE
100
AcDbLine
 62
7
  6
CONTINUOUS
 10
62.9408978509
 20
239.0635858609
 11
62.6410376756
 21
239.8230494089
  0
LINE
  5
276
100
AcDbEntity
  8
KONSTRUKTIONSELEMENTE
100
AcDbLine
 62
7
  6
CONTINUOUS
 10
63.8838794833
 20
231.4468340498
 11
65.5900957586
 21
226.960318027
  0
LINE
  5
277
100
AcDbEntity
  8
KONSTRUKTIONSELEMENTE
100
AcDbLine
 62
7
  6
CONTINUOUS
 10
66.6950012243
 20
226.3534345794
 11
64.647541694
 21
231.7372538067
  0
LINE
  5
278
100
AcDbEntity
  8
KONSTRUKTIONSELEMENTE
100
AcDbLine
 62
7
  6
CONTINUOUS
 10
73.7121045422
 20
212.5060978691
 11
73.8727807847
 21
212.0789738708
  0
LINE
  5
279
100
AcDbEntity
  8
KONSTRUKTIONSELEMENTE
100
AcDbLine
 62
7
  6
CONTINUOUS
 10
72.5179212957
 20
205.3109866114
 11
72.7308495672
 21
204.7002911474
  0
LINE
  5
27A
100
AcDbEntity
  8
KONSTRUKTIONSELEMENTE
100
AcDbLine
 62
7
  6
CONTINUOUS
 10
73.4448385097
 20
205.2383948211
 11
73.3359699412
 21
205.7495530695
  0
LINE
  5
27B
100
AcDbEntity
  8
KONSTRUKTIONSELEMENTE
100
AcDbLine
 62
7
  6
CONTINUOUS
 10
59.372847205
 20
238.5968151033
 11
59.5673620319
 21
237.4938354331
  0
LINE
  5
27C
100
AcDbEntity
  8
KONSTRUKTIONSELEMENTE
100
AcDbLine
 62
7
  6
CONTINUOUS
 10
60.344179268
 20
237.7932993097
 11
60.2052401286
 21
238.5811418025
  0
LINE
  5
27D
100
AcDbEntity
  8
KONSTRUKTIONSELEMENTE
100
AcDbLine
 62
7
  6
CONTINUOUS
 10
61.5320084854
 20
236.7030254757
 11
61.670947585
 21
235.9151832083
  0
LINE
  5
27E
100
AcDbEntity
  8
KONSTRUKTIONSELEMENTE
100
AcDbLine
 62
7
  6
CONTINUOUS
 10
62.1085049273
 20
239.0792591617
 11
62.2752319104
 21
238.1338480802
  0
LINE
  5
27F
100
AcDbEntity
  8
KONSTRUKTIONSELEMENTE
100
AcDbLine
 62
7
  6
CONTINUOUS
 10
63.0520491465
 20
238.4333119569
 11
62.9408978509
 21
239.0635858609
  0
LINE
  5
280
100
AcDbEntity
  8
KONSTRUKTIONSELEMENTE
100
AcDbLine
 62
7
  6
CONTINUOUS
 10
60.3221974312
 20
236.9770775339
 11
60.344179268
 21
237.7932993097
  0
LINE
  5
281
100
AcDbEntity
  8
KONSTRUKTIONSELEMENTE
100
AcDbLine
 62
7
  6
CONTINUOUS
 10
63.0300672699
 20
237.6170904065
 11
63.0520491465
 21
238.4333119569
  0
LINE
  5
282
100
AcDbEntity
  8
KONSTRUKTIONSELEMENTE
100
AcDbLine
 62
7
  6
CONTINUOUS
 10
56.1544265474
 20
238.029233892
 11
56.2319840718
 21
238.5303184904
  0
LINE
  5
283
100
AcDbEntity
  8
KONSTRUKTIONSELEMENTE
100
AcDbLine
 62
7
  6
CONTINUOUS
 10
59.5673620319
 20
237.4938354331
 11
59.4898044678
 21
236.9927510601
  0
LINE
  5
284
100
AcDbEntity
  8
KONSTRUKTIONSELEMENTE
100
AcDbLine
 62
7
  6
CONTINUOUS
 10
62.2752319104
 20
238.1338480802
 11
62.1976743861
 21
237.6327634819
  0
LINE
  5
285
100
AcDbEntity
  8
0
100
AcDbLine
 62
7
  6
CONTINUOUS
 10
55.3427743206
 20
266.4940611521
 11
55.5826841527
 21
266.9882515056
  0
LINE
  5
286
100
AcDbEntity
  8
0
100
AcDbLine
 62
7
  6
CONTINUOUS
 10
57.4620381805
 20
285.2323337441
 11
85.963739578
 21
308.0600940243
  0
LINE
  5
287
100
AcDbEntity
  8
0
100
AcDbLine
 62
7
  6
CONTINUOUS
 10
86.7006566167
 20
308.5241912762
 11
85.963739578
 21
308.0600940243
  0
LINE
  5
288
100
AcDbEntity
  8
KONSTRUKTIONSELEMENTE
100
AcDbLine
 62
7
  6
CONTINUOUS
 10
58.3790981796
 20
226.6144989356
 11
65.9313390136
 21
226.0630148225
  0
LINE
  5
289
100
AcDbEntity
  8
KONSTRUKTIONSELEMENTE
100
AcDbLine
 62
7
  6
CONTINUOUS
 10
65.5900957586
 20
226.960318027
 11
58.0378549246
 21
227.5118021401
  0
LINE
  5
28A
100
AcDbEntity
  8
KONSTRUKTIONSELEMENTE
100
AcDbLine
 62
7
  6
CONTINUOUS
 10
58.0473210659
 20
235.763549363
 11
57.5367702139
 21
235.8359805536
  0
LINE
  5
28B
100
AcDbEntity
  8
KONSTRUKTIONSELEMENTE
100
AcDbLine
 62
7
  6
CONTINUOUS
 10
57.1651583489
 20
235.1205694569
 11
58.025339229
 21
234.9473275872
  0
LINE
  5
28C
100
AcDbEntity
  8
KONSTRUKTIONSELEMENTE
100
AcDbLine
 62
7
  6
CONTINUOUS
 10
60.9206761806
 20
240.1695329625
 11
61.4590148962
 21
239.9395330705
  0
LINE
  5
28D
100
AcDbEntity
  8
KONSTRUKTIONSELEMENTE
100
AcDbLine
 62
7
  6
CONTINUOUS
 10
109.5349611889
 20
193.1580688099
 11
109.7810170649
 21
192.8280522459
  0
LINE
  5
28E
100
AcDbEntity
  8
KONSTRUKTIONSELEMENTE
100
AcDbLine
 62
7
  6
CONTINUOUS
 10
83.4978729669
 20
203.1033150579
 11
83.6683073199
 21
202.609263248
  0
LINE
  5
28F
100
AcDbEntity
  8
KONSTRUKTIONSELEMENTE
100
AcDbLine
 62
7
  6
CONTINUOUS
 10
74.5571676017
 20
211.7094797004
 11
74.5322931501
 21
212.434605198
  0
LINE
  5
290
100
AcDbEntity
  8
KONSTRUKTIONSELEMENTE
100
AcDbLine
 62
7
  6
CONTINUOUS
 10
72.5083033691
 20
206.1342284722
 11
72.5179212957
 21
205.3109866114
  0
LINE
  5
291
100
AcDbEntity
  8
0
100
AcDbLine
 62
7
  6
CONTINUOUS
 10
72.9924695509
 20
249.7541491738
 11
72.9924695509
 21
255.8981491738
  0
LINE
  5
292
100
AcDbEntity
  8
KONSTRUKTIONSELEMENTE
100
AcDbLine
 62
7
  6
CONTINUOUS
 10
55.7434150003
 20
239.4189714468
 11
55.3995910694
 21
238.5459916611
  0
LINE
  5
293
100
AcDbEntity
  8
KONSTRUKTIONSELEMENTE
100
AcDbLine
 62
7
  6
CONTINUOUS
 10
59.9783734829
 20
236.1040980938
 11
60.3221974312
 21
236.9770775339
  0
LINE
  5
294
100
AcDbEntity
  8
KONSTRUKTIONSELEMENTE
100
AcDbLine
 62
7
  6
CONTINUOUS
 10
56.2319840718
 20
238.5303184904
 11
56.4704626122
 21
239.0597821463
  0
LINE
  5
295
100
AcDbEntity
  8
0
100
AcDbLine
 62
7
  6
CONTINUOUS
 10
78.2584573748
 20
299.6135171908
 11
76.1040063068
 21
297.8879608168
  0
LINE
  5
296
100
AcDbEntity
  8
0
100
AcDbLine
 62
7
  6
CONTINUOUS
 10
69.1011555171
 20
292.4814984247
 11
62.5989479077
 21
287.6539691731
  0
LINE
  5
297
100
AcDbEntity
  8
0
100
AcDbLine
 62
7
  6
CONTINUOUS
 10
83.2883679694
 20
224.8976515751
 11
89.2230162461
 21
226.4878357882
  0
LINE
  5
298
100
AcDbEntity
  8
KONSTRUKTIONSELEMENTE
100
AcDbLine
 62
7
  6
CONTINUOUS
 10
57.835388377
 20
239.7878992252
 11
58.3459394742
 21
239.7154679617
  0
LINE
  5
299
100
AcDbEntity
  8
KONSTRUKTIONSELEMENTE
100
AcDbLine
 62
7
  6
CONTINUOUS
 10
60.4101248579
 20
240.2419641863
 11
60.9206761806
 21
240.1695329625
  0
LINE
  5
29A
100
AcDbEntity
  8
0
100
AcDbLine
 62
7
  6
CONTINUOUS
 10
141.8996430174
 20
226.4878357882
 11
147.20722192
 21
225.5247209492
  0
LINE
  5
29B
100
AcDbEntity
  8
KONSTRUKTIONSELEMENTE
100
AcDbLine
 62
7
  6
CONTINUOUS
 10
61.292287913
 20
240.8849441521
 11
60.4321067221
 21
241.0581858071
  0
LINE
  5
29C
100
AcDbEntity
  8
0
100
AcDbLine
 62
7
  6
CONTINUOUS
 10
78.3133296318
 20
252.8261491738
 11
72.9924695509
 21
255.8981491738
  0
LINE
  5
29D
100
AcDbEntity
  8
KONSTRUKTIONSELEMENTE
100
AcDbLine
 62
7
  6
CONTINUOUS
 10
110.2633899009
 20
189.9433619905
 11
109.9139812232
 21
190.5841285736
  0
LINE
  5
29E
100
AcDbEntity
  8
KONSTRUKTIONSELEMENTE
100
AcDbLine
 62
7
  6
CONTINUOUS
 10
110.6569253456
 20
192.8581927278
 11
110.3075166679
 21
193.4989593109
  0
LINE
  5
29F
100
AcDbEntity
  8
KONSTRUKTIONSELEMENTE
100
AcDbLine
 62
7
  6
CONTINUOUS
 10
84.5367316774
 20
202.3284676021
 11
84.4267209031
 21
203.14438257
  0
LINE
  5
2A0
100
AcDbEntity
  8
KONSTRUKTIONSELEMENTE
100
AcDbLine
 62
7
  6
CONTINUOUS
 10
73.8727807847
 20
212.0789738708
 11
73.828410006
 21
211.669722881
  0
LINE
  5
2A1
100
AcDbEntity
  8
KONSTRUKTIONSELEMENTE
100
AcDbLine
 62
7
  6
CONTINUOUS
 10
73.3359699412
 20
205.7495530695
 11
73.4328152349
 21
206.2674480292
  0
LINE
  5
2A2
100
AcDbEntity
  8
KONSTRUKTIONSELEMENTE
100
AcDbLine
 62
7
  6
CONTINUOUS
 10
62.6862434012
 20
236.7441105155
 11
63.0300672699
 21
237.6170904065
  0
LINE
  5
2A3
100
AcDbEntity
  8
KONSTRUKTIONSELEMENTE
100
AcDbLine
 62
7
  6
CONTINUOUS
 10
59.4898044678
 20
236.9927510601
 11
59.2513259274
 21
236.4632874042
  0
LINE
  5
2A4
100
AcDbEntity
  8
KONSTRUKTIONSELEMENTE
100
AcDbLine
 62
7
  6
CONTINUOUS
 10
62.1976743861
 20
237.6327634819
 11
61.9591958457
 21
237.1032998259
  0
LINE
  5
2A5
100
AcDbEntity
  8
KONSTRUKTIONSELEMENTE
100
AcDbLine
 62
7
  6
CONTINUOUS
 10
127.2362795311
 20
326.7091474642
 11
133.6093909012
 21
331.511631349
  0
LINE
  5
2A6
100
AcDbEntity
  8
0
100
AcDbLine
 62
7
  6
CONTINUOUS
 10
126.4750993531
 20
325.5044806866
 11
111.9285798026
 21
314.5428919644
  0
LINE
  5
2A7
100
AcDbEntity
  8
0
100
AcDbLine
 62
7
  6
CONTINUOUS
 10
110.3732245084
 20
313.3708476831
 11
99.2359518267
 21
304.9783107467
  0
LINE
  5
2A8
100
AcDbEntity
  8
0
100
AcDbLine
 62
7
  6
CONTINUOUS
 10
128.0304546473
 20
326.6765249678
 11
130.3827367185
 21
328.4490966496
  0
LINE
  5
2A9
100
AcDbEntity
  8
0
100
AcDbLine
 62
7
  6
CONTINUOUS
 10
101.0413968961
 20
302.5824042165
 11
100.2427613861
 21
301.9805891934
  0
LINE
  5
2AA
100
AcDbEntity
  8
0
100
AcDbLine
 62
7
  6
CONTINUOUS
 10
102.6500214787
 20
298.7860471532
 11
105.0459280088
 21
300.5914922226
  0
LINE
  5
2AB
100
AcDbEntity
  8
0
100
AcDbLine
 62
7
  6
CONTINUOUS
 10
99.234492244
 20
301.9743553509
 11
100.755344608
 21
302.9620084242
  0
LINE
  5
2AC
100
AcDbEntity
  8
0
100
AcDbLine
 62
7
  6
CONTINUOUS
 10
99.9643297706
 20
304.011720568
 11
98.4566774539
 21
303.1720850944
  0
LINE
  5
2AD
100
AcDbEntity
  8
0
100
AcDbLine
 62
7
  6
CONTINUOUS
 10
105.0459280088
 20
300.5914922226
 11
159.7916559433
 21
327.10385298
  0
LINE
  5
2AE
100
AcDbEntity
  8
KONSTRUKTIONSELEMENTE
100
AcDbLine
 62
7
  6
CONTINUOUS
 10
58.025339229
 20
234.9473275872
 11
58.8299445343
 21
235.0892229149
  0
LINE
  5
2AF
100
AcDbEntity
  8
KONSTRUKTIONSELEMENTE
100
AcDbLine
 62
7
  6
CONTINUOUS
 10
58.5300841138
 20
235.8486865357
 11
58.0473210659
 21
235.763549363
  0
LINE
  5
2B0
100
AcDbEntity
  8
KONSTRUKTIONSELEMENTE
100
AcDbLine
 62
7
  6
CONTINUOUS
 10
60.4321067221
 20
241.0581858071
 11
59.2778717789
 21
241.0171009223
  0
LINE
  5
2B1
100
AcDbEntity
  8
KONSTRUKTIONSELEMENTE
100
AcDbLine
 62
7
  6
CONTINUOUS
 10
59.4168109283
 20
240.2292583732
 11
60.4101248579
 21
240.2419641863
  0
LINE
  5
2B2
100
AcDbEntity
  8
0
100
AcDbLine
 62
7
  6
CONTINUOUS
 10
176.7919831359
 20
172.4005819888
 11
184.9683370363
 21
164.9975768588
  0
LINE
  5
2B3
100
AcDbEntity
  8
0
100
AcDbLine
 62
7
  6
CONTINUOUS
 10
118.6333296318
 20
210.257289093
 11
115.5613296318
 21
215.5781491738
  0
LINE
  5
2B4
100
AcDbEntity
  8
KONSTRUKTIONSELEMENTE
100
AcDbLine
 62
7
  6
CONTINUOUS
 10
83.6683073199
 20
202.609263248
 11
83.6353871793
 21
202.0834202789
  0
LINE
  5
2B5
100
AcDbEntity
  8
KONSTRUKTIONSELEMENTE
100
AcDbLine
 62
7
  6
CONTINUOUS
 10
74.3769950322
 20
211.0022272114
 11
74.5571676017
 21
211.7094797004
  0
LINE
  5
2B6
100
AcDbEntity
  8
KONSTRUKTIONSELEMENTE
100
AcDbLine
 62
7
  6
CONTINUOUS
 10
72.706803902
 20
206.7583967001
 11
72.5083033691
 21
206.1342284722
  0
LINE
  5
2B7
100
AcDbEntity
  8
KONSTRUKTIONSELEMENTE
100
AcDbLine
 62
7
  6
CONTINUOUS
 10
59.2513259274
 20
236.4632874042
 11
58.9850595831
 21
236.0913921116
  0
LINE
  5
2B8
100
AcDbEntity
  8
KONSTRUKTIONSELEMENTE
100
AcDbLine
 62
7
  6
CONTINUOUS
 10
59.5789739266
 20
235.5462553802
 11
59.9783734829
 21
236.1040980938
  0
LINE
  5
2B9
100
AcDbEntity
  8
0
100
AcDbLine
 62
7
  6
CONTINUOUS
 10
90.1432547634
 20
272.6849257219
 11
96.6232236993
 21
280.9789077383
  0
LINE
  5
2BA
100
AcDbEntity
  8
KONSTRUKTIONSELEMENTE
100
AcDbLine
 62
7
  6
CONTINUOUS
 10
56.303735629
 20
240.0051932278
 11
55.7434150003
 21
239.4189714468
  0
LINE
  5
2BB
100
AcDbEntity
  8
0
100
AcDbLine
 62
7
  6
CONTINUOUS
 10
176.7813296318
 20
373.8261491738
 11
184.5613296318
 21
381.6358675099
  0
LINE
  5
2BC
100
AcDbEntity
  8
KONSTRUKTIONSELEMENTE
100
AcDbLine
 62
7
  6
CONTINUOUS
 10
57.3526253291
 20
239.7027620524
 11
57.835388377
 21
239.7878992252
  0
LINE
  5
2BD
100
AcDbEntity
  8
KONSTRUKTIONSELEMENTE
100
AcDbLine
 62
7
  6
CONTINUOUS
 10
59.0949688963
 20
240.172500258
 11
59.4168109283
 21
240.2292583732
  0
LINE
  5
2BE
100
AcDbEntity
  8
KONSTRUKTIONSELEMENTE
100
AcDbLine
 62
7
  6
CONTINUOUS
 10
59.2778717789
 20
241.0171009223
 11
58.1514246671
 21
240.8184475192
  0
LINE
  5
2BF
100
AcDbEntity
  8
BEZUGSACHSEN
100
AcDbLine
 62
2
  6
CENTER
 10
115.5613296318
 20
252.8261491738
 11
112.5612296318
 21
252.8261491738
  0
LINE
  5
2C0
100
AcDbEntity
  8
BG_STARTBEZUEGE
100
AcDbLine
 62
2
  6
CENTER
 10
188.7645648893
 20
252.8261491738
 11
35.7213296318
 21
252.8261491738
  0
LINE
  5
2C1
100
AcDbEntity
  8
BEZUGSACHSEN
100
AcDbLine
 62
2
  6
CENTER
 10
115.5613296318
 20
252.8261491738
 11
118.5614296318
 21
252.8261491738
  0
LINE
  5
2C2
100
AcDbEntity
  8
KONSTRUKTIONSELEMENTE
100
AcDbLine
 62
7
  6
CONTINUOUS
 10
109.3874816202
 20
189.9132215085
 11
109.4711576248
 21
189.4567297689
  0
LINE
  5
2C3
100
AcDbEntity
  8
KONSTRUKTIONSELEMENTE
100
AcDbLine
 62
7
  6
CONTINUOUS
 10
110.3470659055
 20
189.4868702509
 11
110.2633899009
 21
189.9433619905
  0
LINE
  5
2C4
100
AcDbEntity
  8
KONSTRUKTIONSELEMENTE
100
AcDbLine
 62
7
  6
CONTINUOUS
 10
109.7810170649
 20
192.8280522459
 11
109.864693042
 21
192.3715603022
  0
LINE
  5
2C5
100
AcDbEntity
  8
KONSTRUKTIONSELEMENTE
100
AcDbLine
 62
7
  6
CONTINUOUS
 10
102.7754981765
 20
188.246803201
 11
102.3103882041
 21
195.5178304858
  0
LINE
  5
2C6
100
AcDbEntity
  8
KONSTRUKTIONSELEMENTE
100
AcDbLine
 62
7
  6
CONTINUOUS
 10
101.8331638809
 20
190.3204492915
 11
101.9400660544
 21
188.4671419613
  0
LINE
  5
2C7
100
AcDbEntity
  8
KONSTRUKTIONSELEMENTE
100
AcDbLine
 62
7
  6
CONTINUOUS
 10
101.6034145323
 20
195.0959184915
 11
101.843941993
 21
190.9259774797
  0
LINE
  5
2C8
100
AcDbEntity
  8
KONSTRUKTIONSELEMENTE
100
AcDbLine
 62
7
  6
CONTINUOUS
 10
92.9330370095
 20
192.2616349856
 11
93.3324514484
 21
198.6067907068
  0
LINE
  5
2C9
100
AcDbEntity
  8
KONSTRUKTIONSELEMENTE
100
AcDbLine
 62
7
  6
CONTINUOUS
 10
92.5318696045
 20
198.9316979415
 11
92.0674976624
 21
191.6606234843
  0
LINE
  5
2CA
100
AcDbEntity
  8
KONSTRUKTIONSELEMENTE
100
AcDbLine
 62
7
  6
CONTINUOUS
 10
84.4158858412
 20
201.684740301
 11
84.5367316774
 21
202.3284676021
  0
LINE
  5
2CB
100
AcDbEntity
  8
0
100
AcDbLine
 62
7
  6
CONTINUOUS
 10
87.632832033
 20
220.5531875114
 11
89.2230162461
 21
226.4878357882
  0
LINE
  5
2CC
100
AcDbEntity
  8
KONSTRUKTIONSELEMENTE
100
AcDbLine
 62
7
  6
CONTINUOUS
 10
62.1259228289
 20
236.1578887444
 11
62.6862434012
 21
236.7441105155
  0
LINE
  5
2CD
100
AcDbEntity
  8
KONSTRUKTIONSELEMENTE
100
AcDbLine
 62
7
  6
CONTINUOUS
 10
56.4704626122
 20
239.0597821463
 11
56.8976501051
 21
239.4600564037
  0
LINE
  5
2CE
100
AcDbEntity
  8
KONSTRUKTIONSELEMENTE
100
AcDbLine
 62
7
  6
CONTINUOUS
 10
61.9591958457
 20
237.1032998259
 11
61.5320084854
 21
236.7030254757
  0
LINE
  5
2CF
100
AcDbEntity
  8
KONSTRUKTIONSELEMENTE
100
AcDbLine
 62
7
  6
CONTINUOUS
 10
110.7406013778
 20
192.4017011924
 11
110.6569253456
 21
192.8581927278
  0
LINE
  5
2D0
100
AcDbEntity
  8
KONSTRUKTIONSELEMENTE
100
AcDbLine
 62
7
  6
CONTINUOUS
 10
112.1113773918
 20
193.9077958394
 11
112.0385972195
 21
186.9961790208
  0
LINE
  5
2D1
100
AcDbEntity
  8
KONSTRUKTIONSELEMENTE
100
AcDbLine
 62
7
  6
CONTINUOUS
 10
70.1288216028
 20
207.1380576473
 11
71.9191186068
 21
210.2869531749
  0
LINE
  5
2D2
100
AcDbEntity
  8
KONSTRUKTIONSELEMENTE
100
AcDbLine
 62
7
  6
CONTINUOUS
 10
73.4328152349
 20
206.2674480292
 11
73.7353756529
 21
206.7920786357
  0
LINE
  5
2D3
100
AcDbEntity
  8
KONSTRUKTIONSELEMENTE
100
AcDbLine
 62
7
  6
CONTINUOUS
 10
71.1433009084
 20
210.7676966766
 11
69.4888055645
 21
207.9168028074
  0
LINE
  5
2D4
100
AcDbEntity
  8
KONSTRUKTIONSELEMENTE
100
AcDbLine
 62
7
  6
CONTINUOUS
 10
73.828410006
 20
211.669722881
 11
73.5789919445
 21
211.2783452182
  0
LINE
  5
2D5
100
AcDbEntity
  8
KONSTRUKTIONSELEMENTE
100
AcDbLine
 62
7
  6
CONTINUOUS
 10
57.0527651613
 20
240.4622255581
 11
56.303735629
 21
240.0051932278
  0
LINE
  5
2D6
100
AcDbEntity
  8
0
100
AcDbLine
 62
7
  6
CONTINUOUS
 10
72.9924695509
 20
249.7541491738
 11
78.3133296318
 21
252.8261491738
  0
LINE
  5
2D7
100
AcDbEntity
  8
BEZUGSACHSEN
100
AcDbLine
 62
2
  6
CENTER
 10
115.5613296318
 20
252.8261491738
 11
115.5613296318
 21
238.1466790405
  0
LINE
  5
2D8
100
AcDbEntity
  8
BEZUGSACHSEN
100
AcDbLine
 62
2
  6
CENTER
 10
115.5613296318
 20
252.8261491738
 11
115.5613296318
 21
268.2960542166
  0
LINE
  5
2D9
100
AcDbEntity
  8
KONSTRUKTIONSELEMENTE
100
AcDbLine
 62
7
  6
CONTINUOUS
 10
112.9025493218
 20
186.9870814993
 11
112.9366166368
 21
190.2223064194
  0
LINE
  5
2DA
100
AcDbEntity
  8
KONSTRUKTIONSELEMENTE
100
AcDbLine
 62
7
  6
CONTINUOUS
 10
112.9459077215
 20
191.1046403761
 11
112.9753294941
 21
193.8986983178
  0
LINE
  5
2DB
100
AcDbEntity
  8
KONSTRUKTIONSELEMENTE
100
AcDbLine
 62
7
  6
CONTINUOUS
 10
117.0071070702
 20
193.8562432058
 11
116.9776852976
 21
191.0621852641
  0
LINE
  5
2DC
100
AcDbEntity
  8
KONSTRUKTIONSELEMENTE
100
AcDbLine
 62
7
  6
CONTINUOUS
 10
116.9683942128
 20
190.1798513073
 11
116.9343268979
 21
186.9446263872
  0
LINE
  5
2DD
100
AcDbEntity
  8
KONSTRUKTIONSELEMENTE
100
AcDbLine
 62
7
  6
CONTINUOUS
 10
117.7982790002
 20
186.9355288657
 11
117.8710591725
 21
193.8471456842
  0
LINE
  5
2DE
100
AcDbEntity
  8
KONSTRUKTIONSELEMENTE
100
AcDbLine
 62
7
  6
CONTINUOUS
 10
105.6769504341
 20
194.7177310663
 11
104.7521421583
 21
187.8678789765
  0
LINE
  5
2DF
100
AcDbEntity
  8
KONSTRUKTIONSELEMENTE
100
AcDbLine
 62
7
  6
CONTINUOUS
 10
105.7264343002
 20
188.6267271428
 11
106.0215858837
 21
190.8128501958
  0
LINE
  5
2E0
100
AcDbEntity
  8
KONSTRUKTIONSELEMENTE
100
AcDbLine
 62
7
  6
CONTINUOUS
 10
106.1396465006
 20
191.6872992945
 11
106.4151213284
 21
193.7276809331
  0
LINE
  5
2E1
100
AcDbEntity
  8
KONSTRUKTIONSELEMENTE
100
AcDbLine
 62
7
  6
CONTINUOUS
 10
109.864693042
 20
192.3715603022
 11
109.825339503
 21
192.0800772692
  0
LINE
  5
2E2
100
AcDbEntity
  8
KONSTRUKTIONSELEMENTE
100
AcDbLine
 62
7
  6
CONTINUOUS
 10
109.4711576248
 20
189.4567297689
 11
109.4121273164
 21
189.0195052196
  0
LINE
  5
2E3
100
AcDbEntity
  8
KONSTRUKTIONSELEMENTE
100
AcDbLine
 62
7
  6
CONTINUOUS
 10
110.2486820581
 20
188.7581626687
 11
110.3470659055
 21
189.4868702509
  0
LINE
  5
2E4
100
AcDbEntity
  8
KONSTRUKTIONSELEMENTE
100
AcDbLine
 62
7
  6
CONTINUOUS
 10
110.6618942448
 20
191.8187347183
 11
110.7406013778
 21
192.4017011924
  0
LINE
  5
2E5
100
AcDbEntity
  8
KONSTRUKTIONSELEMENTE
100
AcDbLine
 62
7
  6
CONTINUOUS
 10
83.6353871793
 20
202.0834202789
 11
83.3991117168
 21
201.5257877963
  0
LINE
  5
2E6
100
AcDbEntity
  8
KONSTRUKTIONSELEMENTE
100
AcDbLine
 62
7
  6
CONTINUOUS
 10
84.0916841905
 20
201.0092228258
 11
84.4158858412
 21
201.684740301
  0
LINE
  5
2E7
100
AcDbEntity
  8
KONSTRUKTIONSELEMENTE
100
AcDbLine
 62
7
  6
CONTINUOUS
 10
74.1275769708
 20
210.6108495486
 11
74.3769950322
 21
211.0022272114
  0
LINE
  5
2E8
100
AcDbEntity
  8
KONSTRUKTIONSELEMENTE
100
AcDbLine
 62
7
  6
CONTINUOUS
 10
73.1110185948
 20
207.3893013546
 11
72.706803902
 21
206.7583967001
  0
LINE
  5
2E9
100
AcDbEntity
  8
KONSTRUKTIONSELEMENTE
100
AcDbLine
 62
7
  6
CONTINUOUS
 10
58.8299445343
 20
235.0892229149
 11
59.5789739266
 21
235.5462553802
  0
LINE
  5
2EA
100
AcDbEntity
  8
KONSTRUKTIONSELEMENTE
100
AcDbLine
 62
7
  6
CONTINUOUS
 10
56.8976501051
 20
239.4600564037
 11
57.3526253291
 21
239.7027620524
  0
LINE
  5
2EB
100
AcDbEntity
  8
KONSTRUKTIONSELEMENTE
100
AcDbLine
 62
7
  6
CONTINUOUS
 10
58.9850595831
 20
236.0913921116
 11
58.5300841138
 21
235.8486865357
  0
LINE
  5
2EC
100
AcDbEntity
  8
KONSTRUKTIONSELEMENTE
100
AcDbLine
 62
7
  6
CONTINUOUS
 10
61.670947585
 20
235.9151832083
 11
62.1259228289
 21
236.1578887444
  0
LINE
  5
2ED
100
AcDbEntity
  8
0
100
AcDbLine
 62
7
  6
CONTINUOUS
 10
100.2427613861
 20
301.9805891934
 11
102.6500214787
 21
298.7860471532
  0
LINE
  5
2EE
100
AcDbEntity
  8
0
100
AcDbLine
 62
7
  6
CONTINUOUS
 10
99.2359518267
 20
304.9783107467
 11
101.0413968961
 21
302.5824042165
  0
LINE
  5
2EF
100
AcDbEntity
  8
KONSTRUKTIONSELEMENTE
100
AcDbLine
 62
7
  6
CONTINUOUS
 10
80.8813501237
 20
206.3391438945
 11
76.74883036
 21
200.7985641051
  0
LINE
  5
2F0
100
AcDbEntity
  8
KONSTRUKTIONSELEMENTE
100
AcDbLine
 62
7
  6
CONTINUOUS
 10
77.9689585468
 20
200.9893071911
 11
81.0463669457
 21
205.1152709501
  0
LINE
  5
2F1
100
AcDbEntity
  8
KONSTRUKTIONSELEMENTE
100
AcDbLine
 62
7
  6
CONTINUOUS
 10
76.2623200005
 20
210.6837796335
 11
73.1110185948
 21
207.3893013546
  0
LINE
  5
2F2
100
AcDbEntity
  8
KONSTRUKTIONSELEMENTE
100
AcDbLine
 62
7
  6
CONTINUOUS
 10
73.7353756529
 20
206.7920786357
 11
76.8866770586
 21
210.0865569146
  0
LINE
  5
2F3
100
AcDbEntity
  8
KONSTRUKTIONSELEMENTE
100
AcDbLine
 62
7
  6
CONTINUOUS
 10
58.1514246671
 20
240.8184475192
 11
57.0527651613
 21
240.4622255581
  0
LINE
  5
2F4
100
AcDbEntity
  8
0
100
AcDbLine
 62
7
  6
CONTINUOUS
 10
143.7193505514
 20
221.4097802065
 11
141.8996430174
 21
226.4878357882
  0
LINE
  5
2F5
100
AcDbEntity
  8
KONSTRUKTIONSELEMENTE
100
AcDbLine
 62
7
  6
CONTINUOUS
 10
83.3991117168
 20
201.5257877963
 11
82.0802224646
 21
199.7575176964
  0
LINE
  5
2F6
100
AcDbEntity
  8
KONSTRUKTIONSELEMENTE
100
AcDbLine
 62
7
  6
CONTINUOUS
 10
82.7727949383
 20
199.240952726
 11
84.0916841905
 21
201.0092228258
  0
LINE
  5
2F7
100
AcDbEntity
  8
KONSTRUKTIONSELEMENTE
100
AcDbLine
 62
7
  6
CONTINUOUS
 10
79.3841041002
 20
207.6976671784
 11
76.2328026945
 21
204.4031888995
  0
LINE
  5
2F8
100
AcDbEntity
  8
KONSTRUKTIONSELEMENTE
100
AcDbLine
 62
7
  6
CONTINUOUS
 10
76.8571594549
 20
203.8059664654
 11
80.0084608606
 21
207.1004447443
  0
LINE
  5
2F9
100
AcDbEntity
  8
KONSTRUKTIONSELEMENTE
100
AcDbLine
 62
7
  6
CONTINUOUS
 10
71.9944150401
 20
215.7542105377
 11
66.6544496829
 21
211.3655303279
  0
LINE
  5
2FA
100
AcDbEntity
  8
KONSTRUKTIONSELEMENTE
100
AcDbLine
 62
7
  6
CONTINUOUS
 10
67.2030347091
 20
210.6980346582
 11
69.5889767111
 21
212.6589343543
  0
LINE
  5
2FB
100
AcDbEntity
  8
KONSTRUKTIONSELEMENTE
100
AcDbLine
 62
7
  6
CONTINUOUS
 10
70.270674335
 20
213.2191913355
 11
71.9749187131
 21
214.6198340503
  0
LINE
  5
2FC
100
AcDbEntity
  8
KONSTRUKTIONSELEMENTE
100
AcDbLine
 62
7
  6
CONTINUOUS
 10
73.5789919445
 20
211.2783452182
 11
73.2381428143
 21
210.998216466
  0
LINE
  5
2FD
100
AcDbEntity
  8
KONSTRUKTIONSELEMENTE
100
AcDbLine
 62
7
  6
CONTINUOUS
 10
73.6731115699
 20
210.2373446328
 11
74.1275769708
 21
210.6108495486
  0
LINE
  5
2FE
100
AcDbEntity
  8
KONSTRUKTIONSELEMENTE
100
AcDbLine
 62
7
  6
CONTINUOUS
 10
67.2231340557
 20
225.1786394734
 11
66.5054656975
 21
224.7881580592
  0
LINE
  5
2FF
100
AcDbEntity
  8
KONSTRUKTIONSELEMENTE
100
AcDbLine
 62
7
  6
CONTINUOUS
 10
67.7289739829
 20
222.5394641381
 11
61.7005589695
 21
219.2594198211
  0
LINE
  5
300
100
AcDbEntity
  8
KONSTRUKTIONSELEMENTE
100
AcDbLine
 62
7
  6
CONTINUOUS
 10
62.1593746859
 20
218.4161593996
 11
68.1877896993
 21
221.6962037167
  0
LINE
  5
301
100
AcDbEntity
  8
KONSTRUKTIONSELEMENTE
100
AcDbLine
 62
7
  6
CONTINUOUS
 10
69.4112979847
 20
219.4475097956
 11
70.1289663429
 21
219.8379912098
  0
LINE
  5
302
100
AcDbEntity
  8
KONSTRUKTIONSELEMENTE
100
AcDbLine
 62
7
  6
CONTINUOUS
 10
64.647541694
 20
231.7372538067
 11
63.8838794833
 21
231.4468340498
  0
LINE
  5
303
100
AcDbEntity
  8
0
100
AcDbLine
 62
7
  6
CONTINUOUS
 10
142.0613296318
 20
359.9263928013
 11
142.0613296318
 21
366.5769543887
  0
LINE
  5
304
100
AcDbEntity
  8
0
100
AcDbLine
 62
7
  6
CONTINUOUS
 10
143.799729376
 20
362.4286691785
 11
143.799729376
 21
365.2731729905
  0
LINE
  5
305
100
AcDbEntity
  8
KONSTRUKTIONSELEMENTE
100
AcDbLine
 62
7
  6
CONTINUOUS
 10
109.825339503
 20
192.0800772692
 11
109.623602854
 21
191.662119706
  0
LINE
  5
306
100
AcDbEntity
  8
KONSTRUKTIONSELEMENTE
100
AcDbLine
 62
7
  6
CONTINUOUS
 10
110.4601575957
 20
191.400777155
 11
110.6618942448
 21
191.8187347183
  0
LINE
  5
307
100
AcDbEntity
  8
KONSTRUKTIONSELEMENTE
100
AcDbLine
 62
7
  6
CONTINUOUS
 10
109.4121273164
 20
189.0195052196
 11
109.2103906673
 21
188.6015476563
  0
LINE
  5
308
100
AcDbEntity
  8
KONSTRUKTIONSELEMENTE
100
AcDbLine
 62
7
  6
CONTINUOUS
 10
110.0469453953
 20
188.3402050033
 11
110.2486820581
 21
188.7581626687
  0
LINE
  5
309
100
AcDbEntity
  8
0
100
AcDbLine
 62
7
  6
CONTINUOUS
 10
112.4893296318
 20
210.257289093
 11
115.5613296318
 21
215.5781491738
  0
LINE
  5
30A
100
AcDbEntity
  8
KONSTRUKTIONSELEMENTE
100
AcDbLine
 62
7
  6
CONTINUOUS
 10
99.3376456266
 20
191.5869937605
 11
101.6034145323
 21
195.0959184915
  0
LINE
  5
30B
100
AcDbEntity
  8
KONSTRUKTIONSELEMENTE
100
AcDbLine
 62
7
  6
CONTINUOUS
 10
98.0413817554
 20
189.4953897895
 11
99.0483912027
 21
191.0549115456
  0
LINE
  5
30C
100
AcDbEntity
  8
KONSTRUKTIONSELEMENTE
100
AcDbLine
 62
7
  6
CONTINUOUS
 10
101.1964797702
 20
195.8116152193
 11
97.2059496333
 21
189.7157285498
  0
LINE
  5
30D
100
AcDbEntity
  8
KONSTRUKTIONSELEMENTE
100
AcDbLine
 62
7
  6
CONTINUOUS
 10
82.2177369233
 20
198.7376232477
 11
82.7727949383
 21
199.240952726
  0
LINE
  5
30E
100
AcDbEntity
  8
KONSTRUKTIONSELEMENTE
100
AcDbLine
 62
7
  6
CONTINUOUS
 10
65.9313390136
 20
226.0630148225
 11
66.6950012243
 21
226.3534345794
  0
LINE
  5
30F
100
AcDbEntity
  8
0
100
AcDbLine
 62
7
  6
CONTINUOUS
 10
152.3713322488
 20
369.7502374185
 11
152.3713322488
 21
363.0882465303
  0
LINE
  5
310
100
AcDbEntity
  8
KONSTRUKTIONSELEMENTE
100
AcDbLine
 62
7
  6
CONTINUOUS
 10
93.134939103
 20
191.2274142512
 11
97.8690829155
 21
196.7656492973
  0
LINE
  5
311
100
AcDbEntity
  8
KONSTRUKTIONSELEMENTE
100
AcDbLine
 62
7
  6
CONTINUOUS
 10
97.0685010715
 20
197.0905565319
 11
92.9330370095
 21
192.2616349856
  0
LINE
  5
312
100
AcDbEntity
  8
KONSTRUKTIONSELEMENTE
100
AcDbLine
 62
7
  6
CONTINUOUS
 10
82.0802224646
 20
199.7575176964
 11
81.6130903916
 21
199.3720728805
  0
LINE
  5
313
100
AcDbEntity
  8
KONSTRUKTIONSELEMENTE
100
AcDbLine
 62
7
  6
CONTINUOUS
 10
76.244825445
 20
203.3741363353
 11
76.8571594549
 21
203.8059664654
  0
LINE
  5
314
100
AcDbEntity
  8
KONSTRUKTIONSELEMENTE
100
AcDbLine
 62
7
  6
CONTINUOUS
 10
76.2328026945
 20
204.4031888995
 11
75.7221235549
 21
204.0776322478
  0
LINE
  5
315
100
AcDbEntity
  8
KONSTRUKTIONSELEMENTE
100
AcDbLine
 62
7
  6
CONTINUOUS
 10
73.2381428143
 20
210.998216466
 11
72.8058632518
 21
210.8293371475
  0
LINE
  5
316
100
AcDbEntity
  8
KONSTRUKTIONSELEMENTE
100
AcDbLine
 62
7
  6
CONTINUOUS
 10
127.3308032987
 20
326.5837101879
 11
127.2362795311
 21
326.7091474642
  0
LINE
  5
317
100
AcDbEntity
  8
KONSTRUKTIONSELEMENTE
100
AcDbLine
 62
7
  6
CONTINUOUS
 10
127.4986003321
 20
326.6431612783
 11
127.371877641
 21
326.8113279692
  0
LINE
  5
318
100
AcDbEntity
  8
0
100
AcDbLine
 62
7
  6
CONTINUOUS
 10
152.9086329211
 20
248.2360887216
 11
140.9794045001
 21
232.9673726257
  0
LINE
  5
319
100
AcDbEntity
  8
KONSTRUKTIONSELEMENTE
100
AcDbLine
 62
7
  6
CONTINUOUS
 10
81.6351751624
 20
198.4382731678
 11
82.2177369233
 21
198.7376232477
  0
LINE
  5
31A
100
AcDbEntity
  8
KONSTRUKTIONSELEMENTE
100
AcDbLine
 62
7
  6
CONTINUOUS
 10
73.2408320074
 20
210.0684653143
 11
73.6731115699
 21
210.2373446328
  0
LINE
  5
31B
100
AcDbEntity
  8
KONSTRUKTIONSELEMENTE
100
AcDbLine
 62
7
  6
CONTINUOUS
 10
75.6300871711
 20
203.1481163019
 11
76.244825445
 21
203.3741363353
  0
LINE
  5
31C
100
AcDbEntity
  8
0
100
AcDbLine
 62
7
  6
CONTINUOUS
 10
158.6013296318
 20
323.9040236581
 11
154.5613296318
 21
323.9040236581
  0
LINE
  5
31D
100
AcDbEntity
  8
KONSTRUKTIONSELEMENTE
100
AcDbLine
 62
7
  6
CONTINUOUS
 10
127.8919757433
 20
326.6853850498
 11
127.6430738728
 21
327.015688988
  0
LINE
  5
31E
100
AcDbEntity
  8
KONSTRUKTIONSELEMENTE
100
AcDbLine
 62
7
  6
CONTINUOUS
 10
128.4887810844
 20
327.0218987108
 11
128.1854663127
 21
327.4244110078
  0
LINE
  5
31F
100
AcDbEntity
  8
KONSTRUKTIONSELEMENTE
100
AcDbLine
 62
7
  6
CONTINUOUS
 10
129.0311735717
 20
327.4306207664
 11
128.7278588
 21
327.8331330634
  0
LINE
  5
320
100
AcDbEntity
  8
KONSTRUKTIONSELEMENTE
100
AcDbLine
 62
7
  6
CONTINUOUS
 10
129.7091640622
 20
327.9415232464
 11
129.4058492905
 21
328.3440355435
  0
LINE
  5
321
100
AcDbEntity
  8
KONSTRUKTIONSELEMENTE
100
AcDbLine
 62
7
  6
CONTINUOUS
 10
131.7212980963
 20
329.5032103397
 11
131.4398209519
 21
329.8767431267
  0
LINE
  5
322
100
AcDbEntity
  8
KONSTRUKTIONSELEMENTE
100
AcDbLine
 62
7
  6
CONTINUOUS
 10
132.3720704904
 20
330.0502332439
 11
132.1178118222
 21
330.3876458929
  0
LINE
  5
323
100
AcDbEntity
  8
KONSTRUKTIONSELEMENTE
100
AcDbLine
 62
7
  6
CONTINUOUS
 10
132.8848345402
 20
330.4982733666
 11
132.6602042146
 21
330.796367877
  0
LINE
  5
324
100
AcDbEntity
  8
KONSTRUKTIONSELEMENTE
100
AcDbLine
 62
7
  6
CONTINUOUS
 10
133.390589992
 20
330.9556142128
 11
133.202596607
 21
331.205089861
  0
LINE
  5
325
100
AcDbEntity
  8
KONSTRUKTIONSELEMENTE
100
AcDbLine
 62
7
  6
CONTINUOUS
 10
133.6408296773
 20
331.1877854341
 11
133.4737928032
 21
331.409450853
  0
LINE
  5
326
100
AcDbEntity
  8
KONSTRUKTIONSELEMENTE
100
AcDbLine
 62
7
  6
CONTINUOUS
 10
133.7652880516
 20
331.304748843
 11
133.6093909012
 21
331.511631349
  0
LINE
  5
327
100
AcDbEntity
  8
0
100
AcDbLine
 62
7
  6
CONTINUOUS
 10
167.5613296318
 20
314.9440236581
 11
167.5613296318
 21
290.7906098961
  0
LINE
  5
328
100
AcDbEntity
  8
0
100
AcDbLine
 62
7
  6
CONTINUOUS
 10
169.4619738398
 20
343.2030049441
 11
169.4619683191
 21
371.0804541208
  0
LINE
  5
329
100
AcDbEntity
  8
0
100
AcDbLine
 62
7
  6
CONTINUOUS
 10
173.1537110492
 20
199.2619351175
 11
173.1537110492
 21
347.4941992466
  0
LINE
  5
32A
100
AcDbEntity
  8
0
100
AcDbLine
 62
7
  6
CONTINUOUS
 10
147.20722192
 20
225.5247209492
 11
143.7193505514
 21
221.4097802065
  0
LINE
  5
32B
100
AcDbEntity
  8
KONSTRUKTIONSELEMENTE
100
AcDbLine
 62
7
  6
CONTINUOUS
 10
109.9533347622
 20
190.8756116065
 11
110.4601575957
 21
191.400777155
  0
LINE
  5
32C
100
AcDbEntity
  8
KONSTRUKTIONSELEMENTE
100
AcDbLine
 62
7
  6
CONTINUOUS
 10
109.5401225549
 20
187.8150394037
 11
110.0469453953
 21
188.3402050033
  0
LINE
  5
32D
100
AcDbEntity
  8
KONSTRUKTIONSELEMENTE
100
AcDbLine
 62
7
  6
CONTINUOUS
 10
81.6130903916
 20
199.3720728805
 11
81.1184546342
 21
199.1906075454
  0
LINE
  5
32E
100
AcDbEntity
  8
0
100
AcDbLine
 62
7
  6
CONTINUOUS
 10
176.7813296318
 20
199.8628390497
 11
176.7813296318
 21
373.8261491738
  0
LINE
  5
32F
100
AcDbEntity
  8
0
100
AcDbLine
 62
7
  6
CONTINUOUS
 10
176.7919831359
 20
172.4005819888
 11
176.7919831359
 21
176.5523512532
  0
LINE
  5
330
100
AcDbEntity
  8
KONSTRUKTIONSELEMENTE
100
AcDbLine
 62
7
  6
CONTINUOUS
 10
109.623602854
 20
191.662119706
 11
109.2988399
 21
191.4091702042
  0
LINE
  5
331
100
AcDbEntity
  8
KONSTRUKTIONSELEMENTE
100
AcDbLine
 62
7
  6
CONTINUOUS
 10
109.2103906673
 20
188.6015476563
 11
108.8856276996
 21
188.3485980525
  0
LINE
  5
332
100
AcDbEntity
  8
0
100
AcDbLine
 62
7
  6
CONTINUOUS
 10
184.5613296318
 20
199.8628390497
 11
184.5613296318
 21
381.6358675099
  0
LINE
  5
333
100
AcDbEntity
  8
0
100
AcDbLine
 62
7
  6
CONTINUOUS
 10
184.9683370363
 20
164.9975768588
 11
184.9683370363
 21
169.2304548146
  0
LINE
  5
334
100
AcDbEntity
  8
KONSTRUKTIONSELEMENTE
100
AcDbLine
 62
7
  6
CONTINUOUS
 10
108.910270145
 20
187.4548823194
 11
109.5401225549
 21
187.8150394037
  0
LINE
  5
335
100
AcDbEntity
  8
KONSTRUKTIONSELEMENTE
100
AcDbLine
 62
7
  6
CONTINUOUS
 10
109.6482485777
 20
190.7684036212
 11
109.9533347622
 21
190.8756116065
  0
LINE
  5
336
100
AcDbEntity
  8
0
100
AcDbLine
 62
7
  6
CONTINUOUS
 10
155.7195454282
 20
356.3067010766
 11
164.1449557523
 21
345.1258039359
  0
LINE
  5
337
100
AcDbEntity
  8
0
100
AcDbLine
 62
7
  6
CONTINUOUS
 10
174.203235418
 20
373.8261491738
 11
176.7813296318
 21
373.8261491738
  0
LINE
  5
338
100
AcDbEntity
  8
0
100
AcDbLine
 62
7
  6
CONTINUOUS
 10
171.1487330039
 20
176.0063035733
 11
171.3518080658
 21
176.2613025168
  0
LINE
  5
339
100
AcDbEntity
  8
0
100
AcDbLine
 62
7
  6
CONTINUOUS
 10
295.3771299929
 20
164.9975768588
 11
335.5945160923
 21
169.2304548146
  0
LINE
  5
33A
100
AcDbEntity
  8
0
100
AcDbLine
 62
7
  6
CONTINUOUS
 10
307.2731299929
 20
170.3244691565
 11
295.3771299929
 21
169.0741491738
  0
LINE
  5
33B
100
AcDbEntity
  8
KONSTRUKTIONSELEMENTE
100
AcDbLine
 62
7
  6
CONTINUOUS
 10
295.3771299929
 20
169.0741491738
 11
283.4811299929
 21
170.3244691565
  0
LINE
  5
33C
100
AcDbEntity
  8
0
100
AcDbLine
 62
7
  6
CONTINUOUS
 10
255.1597438935
 20
169.2304548146
 11
295.3771299929
 21
164.9975768588
  0
LINE
  5
33D
100
AcDbEntity
  8
0
100
AcDbLine
 62
7
  6
CONTINUOUS
 10
332.4601260696
 20
176.0063035733
 11
334.7812846481
 21
176.2613025168
  0
LINE
  5
33E
100
AcDbEntity
  8
RUNDUNGEN
100
AcDbLine
 62
7
  6
CONTINUOUS
 10
258.2941339162
 20
176.0063035733
 11
255.9729753378
 21
176.2613025168
  0
LINE
  5
33F
100
AcDbEntity
  8
0
100
AcDbLine
 62
7
  6
CONTINUOUS
 10
307.2731299929
 20
182.1212881717
 11
307.5097327793
 21
182.1472149548
  0
LINE
  5
340
100
AcDbEntity
  8
KONSTRUKTIONSELEMENTE
100
AcDbLine
 62
7
  6
CONTINUOUS
 10
283.4811299929
 20
182.1212881717
 11
283.2445272065
 21
182.1472149548
  0
LINE
  5
341
100
AcDbEntity
  8
0
100
AcDbLine
 62
7
  6
CONTINUOUS
 10
227.5971299929
 20
347.5012123598
 11
227.5971299929
 21
199.8628390497
  0
LINE
  5
342
100
AcDbEntity
  8
0
100
AcDbLine
 62
7
  6
CONTINUOUS
 10
307.7271299929
 20
203.6741491738
 11
307.2731299929
 21
203.6741491738
  0
LINE
  5
343
100
AcDbEntity
  8
KONSTRUKTIONSELEMENTE
100
AcDbLine
 62
7
  6
CONTINUOUS
 10
283.4811299929
 20
203.6741491738
 11
283.0271299929
 21
203.6741491738
  0
LINE
  5
344
100
AcDbEntity
  8
RUNDUNGEN
100
AcDbLine
 62
7
  6
CONTINUOUS
 10
235.3771299929
 20
199.2619351175
 11
235.3771299929
 21
347.4941992466
  0
LINE
  5
345
100
AcDbEntity
  8
KONSTRUKTIONSELEMENTE
100
AcDbLine
 62
7
  6
CONTINUOUS
 10
289.7146299929
 20
329.7745626307
 11
289.3821298344
 21
329.5702016386
  0
LINE
  5
346
100
AcDbEntity
  8
KONSTRUKTIONSELEMENTE
100
AcDbLine
 62
7
  6
CONTINUOUS
 10
289.5483801515
 20
329.0592991586
 11
290.2133799929
 21
329.2636601506
  0
LINE
  5
347
100
AcDbEntity
  8
KONSTRUKTIONSELEMENTE
100
AcDbLine
 62
7
  6
CONTINUOUS
 10
296.5308796758
 20
326.8113279692
 11
297.1958799929
 21
327.015688988
  0
LINE
  5
348
100
AcDbEntity
  8
KONSTRUKTIONSELEMENTE
100
AcDbLine
 62
7
  6
CONTINUOUS
 10
296.5308796758
 20
326.4088156721
 11
297.1958799929
 21
326.613176691
  0
LINE
  5
349
100
AcDbEntity
  8
AUSFORMSCHRAEGEN
100
AcDbLine
 62
8
  6
HIDDEN
 10
295.3771299929
 20
220.5701491738
 11
287.3298840509
 21
219.8661063813
  0
LINE
  5
34A
100
AcDbEntity
  8
DEFAULT_2
100
AcDbLine
 62
8
  6
HIDDEN
 10
303.4243759349
 20
219.8661063813
 11
295.3771299929
 21
220.5701491738
  0
LINE
  5
34B
100
AcDbEntity
  8
KONSTRUKTIONSELEMENTE
100
AcDbLine
 62
7
  6
CONTINUOUS
 10
290.2133799929
 20
329.2636601506
 11
290.7121299929
 21
329.6723821347
  0
LINE
  5
34C
100
AcDbEntity
  8
KONSTRUKTIONSELEMENTE
100
AcDbLine
 62
7
  6
CONTINUOUS
 10
297.1958799929
 20
327.015688988
 11
297.86088031
 21
327.4244110078
  0
LINE
  5
34D
100
AcDbEntity
  8
KONSTRUKTIONSELEMENTE
100
AcDbLine
 62
7
  6
CONTINUOUS
 10
297.1958799929
 20
326.613176691
 11
297.86088031
 21
327.0218987108
  0
LINE
  5
34E
100
AcDbEntity
  8
KONSTRUKTIONSELEMENTE
100
AcDbLine
 62
7
  6
CONTINUOUS
 10
296.86338031
 20
327.6287720714
 11
296.36463031
 21
327.4244110078
  0
LINE
  5
34F
100
AcDbEntity
  8
KONSTRUKTIONSELEMENTE
100
AcDbLine
 62
7
  6
CONTINUOUS
 10
304.8433793587
 20
327.6287720714
 11
304.3446293587
 21
327.4244110078
  0
LINE
  5
350
100
AcDbEntity
  8
KONSTRUKTIONSELEMENTE
100
AcDbLine
 62
7
  6
CONTINUOUS
 10
304.5108806271
 20
326.8113279692
 11
305.1758799929
 21
327.015688988
  0
LINE
  5
351
100
AcDbEntity
  8
KONSTRUKTIONSELEMENTE
100
AcDbLine
 62
7
  6
CONTINUOUS
 10
304.5108806271
 20
326.4088156721
 11
305.1758799929
 21
326.613176691
  0
LINE
  5
352
100
AcDbEntity
  8
0
100
AcDbLine
 62
7
  6
CONTINUOUS
 10
310.7271299929
 20
225.5247209492
 11
310.4415555889
 21
225.5247209492
  0
LINE
  5
353
100
AcDbEntity
  8
KONSTRUKTIONSELEMENTE
100
AcDbLine
 62
7
  6
CONTINUOUS
 10
280.0271299929
 20
225.5247209492
 11
280.3128203362
 21
225.5247209492
  0
LINE
  5
354
100
AcDbEntity
  8
KONSTRUKTIONSELEMENTE
100
AcDbLine
 62
7
  6
CONTINUOUS
 10
297.1958799929
 20
327.9353135594
 11
296.86338031
 21
327.6287720714
  0
LINE
  5
355
100
AcDbEntity
  8
KONSTRUKTIONSELEMENTE
100
AcDbLine
 62
7
  6
CONTINUOUS
 10
305.1758799929
 20
327.9353135594
 11
304.8433793587
 21
327.6287720714
  0
LINE
  5
356
100
AcDbEntity
  8
KONSTRUKTIONSELEMENTE
100
AcDbLine
 62
7
  6
CONTINUOUS
 10
305.1758799929
 20
327.015688988
 11
305.8408793587
 21
327.4244110078
  0
LINE
  5
357
100
AcDbEntity
  8
KONSTRUKTIONSELEMENTE
100
AcDbLine
 62
7
  6
CONTINUOUS
 10
305.1758799929
 20
326.613176691
 11
305.8408793587
 21
327.0218987108
  0
LINE
  5
358
100
AcDbEntity
  8
KONSTRUKTIONSELEMENTE
100
AcDbLine
 62
7
  6
CONTINUOUS
 10
280.7490106359
 20
232.7953758504
 11
279.3771299929
 21
232.7953758504
  0
LINE
  5
359
100
AcDbEntity
  8
KONSTRUKTIONSELEMENTE
100
AcDbLine
 62
7
  6
CONTINUOUS
 10
280.7851299929
 20
235.5250660425
 11
279.3771299929
 21
235.5250660425
  0
LINE
  5
35A
100
AcDbEntity
  8
KONSTRUKTIONSELEMENTE
100
AcDbLine
 62
7
  6
CONTINUOUS
 10
280.7851299929
 20
236.4707220686
 11
279.3771299929
 21
236.4707220686
  0
LINE
  5
35B
100
AcDbEntity
  8
KONSTRUKTIONSELEMENTE
100
AcDbLine
 62
7
  6
CONTINUOUS
 10
265.2511159862
 20
343.2030049441
 11
265.2511299929
 21
371.0804541208
  0
LINE
  5
35C
100
AcDbEntity
  8
AUSFORMSCHRAEGEN
100
AcDbLine
 62
7
  6
CONTINUOUS
 10
277.6019712823
 20
356.3067010766
 11
276.3771299929
 21
345.1258039359
  0
LINE
  5
35D
100
AcDbEntity
  8
KONSTRUKTIONSELEMENTE
100
AcDbLine
 62
7
  6
CONTINUOUS
 10
289.8808798344
 20
330.0811041187
 11
289.7146299929
 21
329.7745626307
  0
LINE
  5
35E
100
AcDbEntity
  8
KONSTRUKTIONSELEMENTE
100
AcDbLine
 62
7
  6
CONTINUOUS
 10
290.7121299929
 20
329.6723821347
 11
290.8783798344
 21
329.9789236227
  0
LINE
  5
35F
100
AcDbEntity
  8
KONSTRUKTIONSELEMENTE
100
AcDbLine
 62
7
  6
CONTINUOUS
 10
283.1180047507
 20
308.0570179784
 11
279.7721765575
 21
303.3653798238
  0
LINE
  5
360
100
AcDbEntity
  8
KONSTRUKTIONSELEMENTE
100
AcDbLine
 62
7
  6
CONTINUOUS
 10
297.86088031
 20
327.4244110078
 11
298.1933799929
 21
327.8331330634
  0
LINE
  5
361
100
AcDbEntity
  8
KONSTRUKTIONSELEMENTE
100
AcDbLine
 62
7
  6
CONTINUOUS
 10
297.86088031
 20
327.0218987108
 11
298.1933799929
 21
327.4306207664
  0
LINE
  5
362
100
AcDbEntity
  8
KONSTRUKTIONSELEMENTE
100
AcDbLine
 62
7
  6
CONTINUOUS
 10
305.8408793587
 20
327.4244110078
 11
306.1733799929
 21
327.8331330634
  0
LINE
  5
363
100
AcDbEntity
  8
KONSTRUKTIONSELEMENTE
100
AcDbLine
 62
7
  6
CONTINUOUS
 10
305.8408793587
 20
327.0218987108
 11
306.1733799929
 21
327.4306207664
  0
LINE
  5
364
100
AcDbEntity
  8
KONSTRUKTIONSELEMENTE
100
AcDbLine
 62
7
  6
CONTINUOUS
 10
280.7851299929
 20
243.7330291738
 11
279.3771299929
 21
243.7330291738
  0
LINE
  5
365
100
AcDbEntity
  8
KONSTRUKTIONSELEMENTE
100
AcDbLine
 62
7
  6
CONTINUOUS
 10
276.057710938
 20
308.8132943433
 11
275.347118191
 21
327.10385298
  0
LINE
  5
366
100
AcDbEntity
  8
BEZUGSACHSEN
100
AcDbLine
 62
7
  6
CONTINUOUS
 10
277.9829213775
 20
313.2823011216
 11
277.9833663757
 21
313.2641721818
  0
LINE
  5
367
100
AcDbEntity
  8
KONSTRUKTIONSELEMENTE
100
AcDbLine
 62
7
  6
CONTINUOUS
 10
275.5071299929
 20
359.4389918355
 11
275.5071299929
 21
369.7502374185
  0
LINE
  5
368
100
AcDbEntity
  8
AUSFORMSCHRAEGEN
100
AcDbLine
 62
7
  6
CONTINUOUS
 10
276.9895506376
 20
327.2360556311
 11
276.9895506376
 21
328.4490966496
  0
LINE
  5
369
100
AcDbEntity
  8
KONSTRUKTIONSELEMENTE
100
AcDbLine
 62
7
  6
CONTINUOUS
 10
277.3771299929
 20
283.3357631813
 11
277.3771299929
 21
294.2731443459
  0
LINE
  5
36A
100
AcDbEntity
  8
KONSTRUKTIONSELEMENTE
100
AcDbLine
 62
7
  6
CONTINUOUS
 10
278.4811299929
 20
299.6135171908
 11
278.4811299929
 21
291.4935137631
  0
LINE
  5
36B
100
AcDbEntity
  8
KONSTRUKTIONSELEMENTE
100
AcDbLine
 62
7
  6
CONTINUOUS
 10
279.3771299929
 20
232.7953758504
 11
279.3771299929
 21
243.7330291738
  0
LINE
  5
36C
100
AcDbEntity
  8
KONSTRUKTIONSELEMENTE
100
AcDbLine
 62
7
  6
CONTINUOUS
 10
280.8235353696
 20
304.9783107467
 11
280.8051879925
 21
304.8139048474
  0
LINE
  5
36D
100
AcDbEntity
  8
BEZUGSACHSEN
100
AcDbLine
 62
7
  6
CONTINUOUS
 10
277.9989518528
 20
325.5347367936
 11
277.9833663757
 21
325.3967630486
  0
LINE
  5
36E
100
AcDbEntity
  8
BEZUGSACHSEN
100
AcDbLine
 62
7
  6
CONTINUOUS
 10
280.6930331201
 20
313.5404321073
 11
280.7025474655
 21
313.6120441874
  0
LINE
  5
36F
100
AcDbEntity
  8
KONSTRUKTIONSELEMENTE
100
AcDbLine
 62
7
  6
CONTINUOUS
 10
297.36213031
 20
328.3440355435
 11
297.1958799929
 21
327.9353135594
  0
LINE
  5
370
100
AcDbEntity
  8
BEZUGSACHSEN
100
AcDbLine
 62
7
  6
CONTINUOUS
 10
280.7440792293
 20
316.0867846638
 11
280.7343368334
 21
316.1866871293
  0
LINE
  5
371
100
AcDbEntity
  8
KONSTRUKTIONSELEMENTE
100
AcDbLine
 62
7
  6
CONTINUOUS
 10
280.0271299929
 20
227.1447300728
 11
280.0271299929
 21
221.8219814237
  0
LINE
  5
372
100
AcDbEntity
  8
KONSTRUKTIONSELEMENTE
100
AcDbLine
 62
8
  6
HIDDEN
 10
280.0271299929
 20
221.8219814237
 11
280.0271299929
 21
221.6491214349
  0
LINE
  5
373
100
AcDbEntity
  8
KONSTRUKTIONSELEMENTE
100
AcDbLine
 62
7
  6
CONTINUOUS
 10
280.0271299929
 20
172.0783558084
 11
280.0271299929
 21
221.6491214349
  0
LINE
  5
374
100
AcDbEntity
  8
BEZUGSACHSEN
100
AcDbLine
 62
7
  6
CONTINUOUS
 10
280.7851299929
 20
249.003155096
 11
280.7851299929
 21
232.8451872785
  0
LINE
  5
375
100
AcDbEntity
  8
KONSTRUKTIONSELEMENTE
100
AcDbLine
 62
7
  6
CONTINUOUS
 10
283.4811299929
 20
170.3247106353
 11
283.4811299929
 21
268.5241933403
  0
LINE
  5
376
100
AcDbEntity
  8
KONSTRUKTIONSELEMENTE
100
AcDbLine
 62
7
  6
CONTINUOUS
 10
284.7271299929
 20
326.3066351672
 11
284.7271299929
 21
331.511631349
  0
LINE
  5
377
100
AcDbEntity
  8
KONSTRUKTIONSELEMENTE
100
AcDbLine
 62
7
  6
CONTINUOUS
 10
285.3771299929
 20
332.9835621837
 11
285.3771299929
 21
353.6029033931
  0
LINE
  5
378
100
AcDbEntity
  8
KONSTRUKTIONSELEMENTE
100
AcDbLine
 62
7
  6
CONTINUOUS
 10
285.7246299929
 20
326.3066351672
 11
285.7246299929
 21
328.8549381666
  0
LINE
  5
379
100
AcDbEntity
  8
KONSTRUKTIONSELEMENTE
100
AcDbLine
 62
7
  6
CONTINUOUS
 10
285.7246299929
 20
329.4680211426
 11
285.7246299929
 21
331.000728869
  0
LINE
  5
37A
100
AcDbEntity
  8
KONSTRUKTIONSELEMENTE
100
AcDbLine
 62
7
  6
CONTINUOUS
 10
286.3771299929
 20
350.6047281309
 11
286.3771299929
 21
332.9835621837
  0
LINE
  5
37B
100
AcDbEntity
  8
KONSTRUKTIONSELEMENTE
100
AcDbLine
 62
7
  6
CONTINUOUS
 10
280.0271299929
 20
221.6491214349
 11
283.4740969514
 21
268.4287462274
  0
LINE
  5
37C
100
AcDbEntity
  8
KONSTRUKTIONSELEMENTE
100
AcDbLine
 62
7
  6
CONTINUOUS
 10
283.4811299929
 20
268.5241933403
 11
284.3907463666
 21
280.8688178117
  0
LINE
  5
37D
100
AcDbEntity
  8
KONSTRUKTIONSELEMENTE
100
AcDbLine
 62
7
  6
CONTINUOUS
 10
298.1933799929
 20
327.8331330634
 11
298.35963031
 21
328.3440355435
  0
LINE
  5
37E
100
AcDbEntity
  8
KONSTRUKTIONSELEMENTE
100
AcDbLine
 62
7
  6
CONTINUOUS
 10
298.1933799929
 20
327.4306207664
 11
298.35963031
 21
327.9415232464
  0
LINE
  5
37F
100
AcDbEntity
  8
KONSTRUKTIONSELEMENTE
100
AcDbLine
 62
7
  6
CONTINUOUS
 10
305.3421293587
 20
328.3440355435
 11
305.1758799929
 21
327.9353135594
  0
LWPOLYLINE
  5
380
100
AcDbEntity
  8
KONSTRUKTIONSELEMENTE
100
AcDbPolyline
 62
7
  6
CONTINUOUS
 90
3
 70
0
 10
282.3047736004
 20
276.7633412662
 10
282.3687819934
 20
276.6246885166
 10
282.4970318731
 20
276.3353770494
  0
LWPOLYLINE
  5
381
100
AcDbEntity
  8
KONSTRUKTIONSELEMENTE
100
AcDbPolyline
 62
7
  6
CONTINUOUS
 90
4
 70
0
 10
280.0990468176
 20
281.4833352826
 10
280.1239892842
 20
281.4281863409
 10
280.1484773429
 20
281.3747201074
 10
282.304773368
 20
276.7633420066
  0
LINE
  5
382
100
AcDbEntity
  8
KONSTRUKTIONSELEMENTE
100
AcDbLine
 62
7
  6
CONTINUOUS
 10
280.0511088629
 20
281.5911137863
 11
280.0990468176
 21
281.4833352826
  0
LINE
  5
383
100
AcDbEntity
  8
KONSTRUKTIONSELEMENTE
100
AcDbLine
 62
7
  6
CONTINUOUS
 10
280.0066825226
 20
281.6930664146
 11
280.0511088629
 21
281.5911137863
  0
LWPOLYLINE
  5
384
100
AcDbEntity
  8
KONSTRUKTIONSELEMENTE
100
AcDbPolyline
 62
7
  6
CONTINUOUS
 90
3
 70
0
 10
279.9436668056
 20
281.8390962424
 10
279.9711151822
 20
281.7759357068
 10
280.0066825226
 20
281.6930664146
  0
LINE
  5
385
100
AcDbEntity
  8
KONSTRUKTIONSELEMENTE
100
AcDbLine
 62
7
  6
CONTINUOUS
 10
282.4970318731
 20
276.3353770494
 11
282.6190663064
 21
276.0438563492
  0
LWPOLYLINE
  5
386
100
AcDbEntity
  8
KONSTRUKTIONSELEMENTE
100
AcDbPolyline
 62
7
  6
CONTINUOUS
 90
6
 70
0
 10
279.7730960781
 20
282.2349299656
 10
279.7988830987
 20
282.1726092643
 10
279.8249647112
 20
282.1105796868
 10
279.850866925
 20
282.0499935392
 10
279.8766679978
 20
281.9906022456
 10
279.9436668056
 20
281.8390962424
  0
LINE
  5
387
100
AcDbEntity
  8
KONSTRUKTIONSELEMENTE
100
AcDbLine
 62
7
  6
CONTINUOUS
 10
279.7235178477
 20
282.3570147979
 11
279.7730960781
 21
282.2349299656
  0
LINE
  5
388
100
AcDbEntity
  8
KONSTRUKTIONSELEMENTE
100
AcDbLine
 62
7
  6
CONTINUOUS
 10
279.6303243742
 20
282.5896501648
 11
279.7235178477
 21
282.3570147979
  0
LWPOLYLINE
  5
389
100
AcDbEntity
  8
KONSTRUKTIONSELEMENTE
100
AcDbPolyline
 62
7
  6
CONTINUOUS
 90
4
 70
0
 10
282.6190663064
 20
276.0438563492
 10
282.7347601643
 20
275.7502205818
 10
282.8439897252
 20
275.4545667135
 10
282.9008394285
 20
275.292376522
  0
LINE
  5
38A
100
AcDbEntity
  8
KONSTRUKTIONSELEMENTE
100
AcDbLine
 62
7
  6
CONTINUOUS
 10
279.5800603286
 20
282.7172326158
 11
279.6303243742
 21
282.5896501648
  0
LWPOLYLINE
  5
38B
100
AcDbEntity
  8
KONSTRUKTIONSELEMENTE
100
AcDbPolyline
 62
7
  6
CONTINUOUS
 90
7
 70
0
 10
279.3934155246
 20
283.2181281567
 10
279.4200496449
 20
283.1435207586
 10
279.446935615
 20
283.0693065937
 10
279.4739171526
 20
282.9959377484
 10
279.5008209676
 20
282.9238586614
 10
279.527565593
 20
282.8532231073
 10
279.5800603286
 20
282.7172326158
  0
LINE
  5
38C
100
AcDbEntity
  8
KONSTRUKTIONSELEMENTE
100
AcDbLine
 62
7
  6
CONTINUOUS
 10
282.9007961052
 20
275.2925029762
 11
282.9008395643
 21
275.2923765687
  0
LWPOLYLINE
  5
38D
100
AcDbEntity
  8
KONSTRUKTIONSELEMENTE
100
AcDbPolyline
 62
7
  6
CONTINUOUS
 90
7
 70
0
 10
282.9007961052
 20
275.2925029762
 10
283.1374527397
 20
274.520338898
 10
283.3584531176
 20
273.5545379925
 10
283.5080825446
 20
272.5627828854
 10
283.5881959964
 20
271.5555786097
 10
283.6024134998
 20
270.5441101537
 10
283.5576829359
 20
269.5631127487
  0
LINE
  5
38E
100
AcDbEntity
  8
KONSTRUKTIONSELEMENTE
100
AcDbLine
 62
7
  6
CONTINUOUS
 10
288.5510059378
 20
328.4522225451
 11
288.5508799136
 21
328.8549381666
  0
LINE
  5
38F
100
AcDbEntity
  8
KONSTRUKTIONSELEMENTE
100
AcDbLine
 62
7
  6
CONTINUOUS
 10
288.8833798344
 20
330.7257787257
 11
288.8833798344
 21
331.000728869
  0
LINE
  5
390
100
AcDbEntity
  8
KONSTRUKTIONSELEMENTE
100
AcDbLine
 62
7
  6
CONTINUOUS
 10
289.3821298344
 20
330.6117351098
 11
289.3821298344
 21
330.898548373
  0
LINE
  5
391
100
AcDbEntity
  8
KONSTRUKTIONSELEMENTE
100
AcDbLine
 62
7
  6
CONTINUOUS
 10
289.7146299929
 20
330.3853928778
 11
289.7146299929
 21
330.694187381
  0
LINE
  5
392
100
AcDbEntity
  8
KONSTRUKTIONSELEMENTE
100
AcDbLine
 62
7
  6
CONTINUOUS
 10
289.8808798344
 20
330.3876458929
 11
289.8808798344
 21
330.0811041187
  0
LINE
  5
393
100
AcDbEntity
  8
KONSTRUKTIONSELEMENTE
100
AcDbLine
 62
7
  6
CONTINUOUS
 10
289.8808798344
 20
326.3066351672
 11
289.8808798344
 21
326.7091474642
  0
LINE
  5
394
100
AcDbEntity
  8
KONSTRUKTIONSELEMENTE
100
AcDbLine
 62
7
  6
CONTINUOUS
 10
290.2133799929
 20
328.865828079
 11
290.2133799929
 21
329.2636601506
  0
LINE
  5
395
100
AcDbEntity
  8
KONSTRUKTIONSELEMENTE
100
AcDbLine
 62
7
  6
CONTINUOUS
 10
290.7121299929
 20
329.2884438262
 11
290.7121299929
 21
329.6723821347
  0
LINE
  5
396
100
AcDbEntity
  8
KONSTRUKTIONSELEMENTE
100
AcDbLine
 62
7
  6
CONTINUOUS
 10
290.8783798344
 20
329.6114591612
 11
290.8783798344
 21
330.3876458929
  0
LINE
  5
397
100
AcDbEntity
  8
KONSTRUKTIONSELEMENTE
100
AcDbLine
 62
7
  6
CONTINUOUS
 10
291.0446301515
 20
326.3066351672
 11
291.0446301515
 21
326.7091474642
  0
LINE
  5
398
100
AcDbEntity
  8
KONSTRUKTIONSELEMENTE
100
AcDbLine
 62
7
  6
CONTINUOUS
 10
292.3746298344
 20
327.9415232464
 11
292.3746298344
 21
331.511631349
  0
LINE
  5
399
100
AcDbEntity
  8
KONSTRUKTIONSELEMENTE
100
AcDbLine
 62
7
  6
CONTINUOUS
 10
292.5408801515
 20
327.4306207664
 11
292.5408801515
 21
327.8331330634
  0
LINE
  5
39A
100
AcDbEntity
  8
KONSTRUKTIONSELEMENTE
100
AcDbLine
 62
7
  6
CONTINUOUS
 10
292.87338031
 20
327.0218987108
 11
292.87338031
 21
327.4244110078
  0
LINE
  5
39B
100
AcDbEntity
  8
KONSTRUKTIONSELEMENTE
100
AcDbLine
 62
7
  6
CONTINUOUS
 10
293.37213031
 20
328.3440355435
 11
293.37213031
 21
331.511631349
  0
LINE
  5
39C
100
AcDbEntity
  8
KONSTRUKTIONSELEMENTE
100
AcDbLine
 62
7
  6
CONTINUOUS
 10
293.5383796758
 20
326.613176691
 11
293.5383796758
 21
327.015688988
  0
LINE
  5
39D
100
AcDbEntity
  8
KONSTRUKTIONSELEMENTE
100
AcDbLine
 62
7
  6
CONTINUOUS
 10
294.2033799929
 20
326.4088156721
 11
294.2033799929
 21
326.8113279692
  0
LINE
  5
39E
100
AcDbEntity
  8
KONSTRUKTIONSELEMENTE
100
AcDbLine
 62
7
  6
CONTINUOUS
 10
295.0346296758
 20
326.3066351672
 11
295.0346296758
 21
326.7091474642
  0
LINE
  5
39F
100
AcDbEntity
  8
BG_STARTBEZUEGE
100
AcDbLine
 62
2
  6
CENTER
 10
295.3771299929
 20
252.8261491738
 11
295.3771299929
 21
161.4390559556
  0
LINE
  5
3A0
100
AcDbEntity
  8
0
100
AcDbLine
 62
7
  6
CONTINUOUS
 10
295.3771299929
 20
169.0741491738
 11
295.3771299929
 21
164.9975768588
  0
LINE
  5
3A1
100
AcDbEntity
  8
0
100
AcDbLine
 62
7
  6
CONTINUOUS
 10
295.3771299929
 20
373.8261491738
 11
295.3771299929
 21
381.6358675099
  0
LINE
  5
3A2
100
AcDbEntity
  8
BG_STARTBEZUEGE
100
AcDbLine
 62
2
  6
CENTER
 10
295.3771299929
 20
252.8261491738
 11
295.3771299929
 21
386.7289043635
  0
LINE
  5
3A3
100
AcDbEntity
  8
KONSTRUKTIONSELEMENTE
100
AcDbLine
 62
7
  6
CONTINUOUS
 10
295.6996299929
 20
326.3066351672
 11
295.6996299929
 21
326.7091474642
  0
LINE
  5
3A4
100
AcDbEntity
  8
KONSTRUKTIONSELEMENTE
100
AcDbLine
 62
7
  6
CONTINUOUS
 10
306.1733799929
 20
327.8331330634
 11
306.3396293587
 21
328.3440355435
  0
LINE
  5
3A5
100
AcDbEntity
  8
KONSTRUKTIONSELEMENTE
100
AcDbLine
 62
7
  6
CONTINUOUS
 10
306.1733799929
 20
327.4306207664
 11
306.3396293587
 21
327.9415232464
  0
LINE
  5
3A6
100
AcDbEntity
  8
KONSTRUKTIONSELEMENTE
100
AcDbLine
 62
7
  6
CONTINUOUS
 10
279.9834662549
 20
292.4814984247
 11
282.8073157789
 21
287.6539691731
  0
LINE
  5
3A7
100
AcDbEntity
  8
KONSTRUKTIONSELEMENTE
100
AcDbLine
 62
7
  6
CONTINUOUS
 10
279.0567518979
 20
302.1366951053
 11
276.2734931879
 21
307.9702308665
  0
LINE
  5
3A8
100
AcDbEntity
  8
KONSTRUKTIONSELEMENTE
100
AcDbLine
 62
7
  6
CONTINUOUS
 10
278.2510717104
 20
312.8905065574
 11
280.7648652264
 21
305.1076261323
  0
LINE
  5
3A9
100
AcDbEntity
  8
BEZUGSACHSEN
100
AcDbLine
 62
7
  6
CONTINUOUS
 10
280.7440792293
 20
320.1309816194
 11
280.714759916
 21
320.3018396713
  0
LINE
  5
3AA
100
AcDbEntity
  8
KONSTRUKTIONSELEMENTE
100
AcDbLine
 62
7
  6
CONTINUOUS
 10
296.5308796758
 20
326.4088156721
 11
296.5308796758
 21
326.8113279692
  0
LINE
  5
3AB
100
AcDbEntity
  8
KONSTRUKTIONSELEMENTE
100
AcDbLine
 62
7
  6
CONTINUOUS
 10
297.1958799929
 20
326.613176691
 11
297.1958799929
 21
327.015688988
  0
LINE
  5
3AC
100
AcDbEntity
  8
KONSTRUKTIONSELEMENTE
100
AcDbLine
 62
7
  6
CONTINUOUS
 10
297.36213031
 20
331.511631349
 11
297.36213031
 21
328.3440355435
  0
LINE
  5
3AD
100
AcDbEntity
  8
KONSTRUKTIONSELEMENTE
100
AcDbLine
 62
7
  6
CONTINUOUS
 10
297.86088031
 20
327.0218987108
 11
297.86088031
 21
327.4244110078
  0
LINE
  5
3AE
100
AcDbEntity
  8
KONSTRUKTIONSELEMENTE
100
AcDbLine
 62
7
  6
CONTINUOUS
 10
298.1933799929
 20
327.4306207664
 11
298.1933799929
 21
327.8331330634
  0
LINE
  5
3AF
100
AcDbEntity
  8
KONSTRUKTIONSELEMENTE
100
AcDbLine
 62
7
  6
CONTINUOUS
 10
298.35963031
 20
327.9415232464
 11
298.35963031
 21
331.511631349
  0
LINE
  5
3B0
100
AcDbEntity
  8
KONSTRUKTIONSELEMENTE
100
AcDbLine
 62
7
  6
CONTINUOUS
 10
299.6896299929
 20
326.3066351672
 11
299.6896299929
 21
331.511631349
  0
LINE
  5
3B1
100
AcDbEntity
  8
KONSTRUKTIONSELEMENTE
100
AcDbLine
 62
7
  6
CONTINUOUS
 10
300.6871299929
 20
327.3222305118
 11
300.6871299929
 21
330.898548373
  0
LINE
  5
3B2
100
AcDbEntity
  8
KONSTRUKTIONSELEMENTE
100
AcDbLine
 62
7
  6
CONTINUOUS
 10
303.6796299929
 20
326.3066351672
 11
303.6796299929
 21
326.7091474642
  0
LINE
  5
3B3
100
AcDbEntity
  8
KONSTRUKTIONSELEMENTE
100
AcDbLine
 62
7
  6
CONTINUOUS
 10
303.6796299929
 20
330.6117351098
 11
303.6796299929
 21
330.898548373
  0
LINE
  5
3B4
100
AcDbEntity
  8
KONSTRUKTIONSELEMENTE
100
AcDbLine
 62
7
  6
CONTINUOUS
 10
304.3446293587
 20
330.4982733666
 11
304.3446293587
 21
330.796367877
  0
LINE
  5
3B5
100
AcDbEntity
  8
0
100
AcDbLine
 62
7
  6
CONTINUOUS
 10
304.3771299929
 20
350.6047281309
 11
304.3771299929
 21
332.9835621837
  0
LINE
  5
3B6
100
AcDbEntity
  8
KONSTRUKTIONSELEMENTE
100
AcDbLine
 62
7
  6
CONTINUOUS
 10
304.5108806271
 20
326.4088156721
 11
304.5108806271
 21
326.8113279692
  0
LINE
  5
3B7
100
AcDbEntity
  8
KONSTRUKTIONSELEMENTE
100
AcDbLine
 62
7
  6
CONTINUOUS
 10
304.8433793587
 20
330.2730930577
 11
304.8433793587
 21
330.592006885
  0
LINE
  5
3B8
100
AcDbEntity
  8
0
100
AcDbLine
 62
7
  6
CONTINUOUS
 10
310.0101807565
 20
320.1309816194
 11
310.0395000699
 21
320.3018396713
  0
LINE
  5
3B9
100
AcDbEntity
  8
0
100
AcDbLine
 62
7
  6
CONTINUOUS
 10
312.5031882754
 20
312.8905065574
 11
309.9893947595
 21
305.1076261323
  0
LINE
  5
3BA
100
AcDbEntity
  8
0
100
AcDbLine
 62
7
  6
CONTINUOUS
 10
311.6975080879
 20
302.1366951053
 11
314.4807667979
 21
307.9702308665
  0
LINE
  5
3BB
100
AcDbEntity
  8
0
100
AcDbLine
 62
7
  6
CONTINUOUS
 10
310.770793731
 20
292.4814984247
 11
307.9469442069
 21
287.6539691731
  0
LINE
  5
3BC
100
AcDbEntity
  8
0
100
AcDbLine
 62
7
  6
CONTINUOUS
 10
310.7271299929
 20
221.6491214349
 11
307.2801630345
 21
268.4287462274
  0
LINE
  5
3BD
100
AcDbEntity
  8
0
100
AcDbLine
 62
7
  6
CONTINUOUS
 10
307.2731299929
 20
268.5241933403
 11
306.3635136192
 21
280.8688178117
  0
LWPOLYLINE
  5
3BE
100
AcDbEntity
  8
0
100
AcDbPolyline
 62
7
  6
CONTINUOUS
 90
7
 70
0
 10
307.1965770499
 20
269.5631127486
 10
307.151846486
 20
270.5441101537
 10
307.1660639894
 20
271.5555786097
 10
307.2461774412
 20
272.5627828854
 10
307.3958068682
 20
273.5545379925
 10
307.6168072461
 20
274.520338898
 10
307.8534638806
 20
275.2925029762
  0
LINE
  5
3BF
100
AcDbEntity
  8
KONSTRUKTIONSELEMENTE
100
AcDbLine
 62
7
  6
CONTINUOUS
 10
305.1758799929
 20
326.613176691
 11
305.1758799929
 21
327.015688988
  0
LINE
  5
3C0
100
AcDbEntity
  8
KONSTRUKTIONSELEMENTE
100
AcDbLine
 62
7
  6
CONTINUOUS
 10
305.1758799929
 20
329.939671932
 11
305.1758799929
 21
330.2854651107
  0
LINE
  5
3C1
100
AcDbEntity
  8
KONSTRUKTIONSELEMENTE
100
AcDbLine
 62
7
  6
CONTINUOUS
 10
305.3421293587
 20
329.8767431267
 11
305.3421293587
 21
328.3440355435
  0
LINE
  5
3C2
100
AcDbEntity
  8
0
100
AcDbLine
 62
7
  6
CONTINUOUS
 10
305.3771299929
 20
332.9835621837
 11
305.3771299929
 21
353.6029033931
  0
LINE
  5
3C3
100
AcDbEntity
  8
KONSTRUKTIONSELEMENTE
100
AcDbLine
 62
7
  6
CONTINUOUS
 10
305.8408793587
 20
327.0218987108
 11
305.8408793587
 21
327.4244110078
  0
LINE
  5
3C4
100
AcDbEntity
  8
KONSTRUKTIONSELEMENTE
100
AcDbLine
 62
7
  6
CONTINUOUS
 10
306.1733799929
 20
327.4306207664
 11
306.1733799929
 21
327.8331330634
  0
LINE
  5
3C5
100
AcDbEntity
  8
KONSTRUKTIONSELEMENTE
100
AcDbLine
 62
7
  6
CONTINUOUS
 10
306.3396293587
 20
327.9415232464
 11
306.3396293587
 21
329.8767431267
  0
LINE
  5
3C6
100
AcDbEntity
  8
0
100
AcDbLine
 62
7
  6
CONTINUOUS
 10
307.2731299929
 20
170.3247106353
 11
307.2731299929
 21
268.5241933403
  0
LINE
  5
3C7
100
AcDbEntity
  8
DEFAULT_2
100
AcDbLine
 62
8
  6
HIDDEN
 10
310.7271299929
 20
221.8219814237
 11
310.7271299929
 21
221.6491214349
  0
LINE
  5
3C8
100
AcDbEntity
  8
0
100
AcDbLine
 62
7
  6
CONTINUOUS
 10
310.7271299929
 20
172.0783558084
 11
310.7271299929
 21
221.6491214349
  0
LINE
  5
3C9
100
AcDbEntity
  8
0
100
AcDbLine
 62
7
  6
CONTINUOUS
 10
310.7271299929
 20
221.8219814237
 11
310.7271299929
 21
227.1447300728
  0
LINE
  5
3CA
100
AcDbEntity
  8
0
100
AcDbLine
 62
7
  6
CONTINUOUS
 10
312.7713386083
 20
313.2823011216
 11
312.7708936101
 21
313.2641721818
  0
LINE
  5
3CB
100
AcDbEntity
  8
0
100
AcDbLine
 62
7
  6
CONTINUOUS
 10
314.6965490478
 20
308.8132943433
 11
315.4071417948
 21
327.10385298
  0
LINE
  5
3CC
100
AcDbEntity
  8
0
100
AcDbLine
 62
7
  6
CONTINUOUS
 10
310.0101807565
 20
316.0867846638
 11
310.0199231525
 21
316.1866871293
  0
LWPOLYLINE
  5
3CD
100
AcDbEntity
  8
0
100
AcDbPolyline
 62
7
  6
CONTINUOUS
 90
10
 70
0
 10
311.8746312037
 20
284.9871811293
 10
311.9597819583
 20
285.399589117
 10
312.034913807
 20
285.8200873649
 10
312.1013882803
 20
286.254218745
 10
312.1585937774
 20
286.7038820537
 10
312.2051739546
 20
287.1643213753
 10
312.2402942413
 20
287.6336097817
 10
312.26297538
 20
288.1112457197
 10
312.2727391141
 20
288.5986274209
 10
312.2731299929
 20
299.6135171908
  0
LWPOLYLINE
  5
3CE
100
AcDbEntity
  8
0
100
AcDbPolyline
 62
7
  6
CONTINUOUS
 90
4
 70
0
 10
311.6080047377
 20
283.96926219
 10
311.677609811
 20
284.20643786
 10
311.7801032255
 20
284.5882037928
 10
311.8746312037
 20
284.9871811293
  0
LWPOLYLINE
  5
3CF
100
AcDbEntity
  8
0
100
AcDbPolyline
 62
7
  6
CONTINUOUS
 90
8
 70
0
 10
311.4444444244
 20
283.4589959525
 10
311.4703831459
 20
283.5359632522
 10
311.4964163141
 20
283.6144819934
 10
311.52245543
 20
283.6944071647
 10
311.5483590754
 20
283.7753987501
 10
311.5740215698
 20
283.8571853373
 10
311.5993368847
 20
283.9394499021
 10
311.6083487503
 20
283.9691454848
  0
LINE
  5
3D0
100
AcDbEntity
  8
0
100
AcDbLine
 62
7
  6
CONTINUOUS
 10
307.8534638806
 20
275.2925029762
 11
307.8534204215
 21
275.2923765687
  0
LINE
  5
3D1
100
AcDbEntity
  8
0
100
AcDbLine
 62
7
  6
CONTINUOUS
 10
311.3933266964
 20
283.3105327901
 11
311.4444444244
 21
283.4589959525
  0
LWPOLYLINE
  5
3D2
100
AcDbEntity
  8
0
100
AcDbPolyline
 62
7
  6
CONTINUOUS
 90
3
 70
0
 10
307.8534205574
 20
275.292376522
 10
307.9102702607
 20
275.4545667135
 10
308.0194998215
 20
275.7502205818
  0
LWPOLYLINE
  5
3D3
100
AcDbEntity
  8
0
100
AcDbPolyline
 62
7
  6
CONTINUOUS
 90
6
 70
0
 10
311.2355256766
 20
282.8764393232
 10
311.2618346272
 20
282.9462387313
 10
311.2883013991
 20
283.017464525
 10
311.3148469505
 20
283.0899596698
 10
311.341284888
 20
283.1632329742
 10
311.3933266964
 20
283.3105327901
  0
LINE
  5
3D4
100
AcDbEntity
  8
0
100
AcDbLine
 62
7
  6
CONTINUOUS
 10
311.1839019021
 20
282.74212732
 11
311.2355256766
 21
282.8764393232
  0
LWPOLYLINE
  5
3D5
100
AcDbEntity
  8
0
100
AcDbPolyline
 62
7
  6
CONTINUOUS
 90
3
 70
0
 10
308.0194998215
 20
275.7502205818
 10
308.1351936794
 20
276.0438563492
 10
308.2572281127
 20
276.3353770494
  0
LINE
  5
3D6
100
AcDbEntity
  8
0
100
AcDbLine
 62
7
  6
CONTINUOUS
 10
311.1345148722
 20
282.6163332835
 11
311.1839019021
 21
282.74212732
  0
LINE
  5
3D7
100
AcDbEntity
  8
0
100
AcDbLine
 62
7
  6
CONTINUOUS
 10
311.0448365165
 20
282.3920150608
 11
311.1345148722
 21
282.6163332835
  0
LINE
  5
3D8
100
AcDbEntity
  8
0
100
AcDbLine
 62
7
  6
CONTINUOUS
 10
311.0012731486
 20
282.2841501462
 11
311.0448365165
 21
282.3920150608
  0
LWPOLYLINE
  5
3D9
100
AcDbEntity
  8
0
100
AcDbPolyline
 62
7
  6
CONTINUOUS
 90
3
 70
0
 10
310.7426571871
 20
281.681651703
 10
310.7915079939
 20
281.7953237257
 10
310.8046325046
 20
281.8255014162
  0
LWPOLYLINE
  5
3DA
100
AcDbEntity
  8
0
100
AcDbPolyline
 62
7
  6
CONTINUOUS
 90
5
 70
0
 10
310.8864758585
 20
282.0109512491
 10
310.9143258528
 20
282.0754436995
 10
310.9368811551
 20
282.1285146149
 10
310.9577984632
 20
282.1784205224
 10
311.0012731486
 20
282.2841501462
  0
LINE
  5
3DB
100
AcDbEntity
  8
0
100
AcDbLine
 62
7
  6
CONTINUOUS
 10
310.6978697544
 20
281.5791343339
 11
310.7426571871
 21
281.681651703
  0
LWPOLYLINE
  5
3DC
100
AcDbEntity
  8
0
100
AcDbPolyline
 62
7
  6
CONTINUOUS
 90
3
 70
0
 10
308.2572281127
 20
276.3353770494
 10
308.3854779925
 20
276.6246885166
 10
308.4494863855
 20
276.7633412662
  0
LINE
  5
3DD
100
AcDbEntity
  8
0
100
AcDbLine
 62
7
  6
CONTINUOUS
 10
310.8046325046
 20
281.8255014162
 11
310.8864758585
 21
282.0109512491
  0
LINE
  5
3DE
100
AcDbEntity
  8
0
100
AcDbLine
 62
7
  6
CONTINUOUS
 10
310.6532085402
 20
281.4788776582
 11
310.6978697544
 21
281.5791343339
  0
LINE
  5
3DF
100
AcDbEntity
  8
0
100
AcDbLine
 62
7
  6
CONTINUOUS
 10
310.6091208058
 20
281.3819693391
 11
310.6532085402
 21
281.4788776582
  0
LINE
  5
3E0
100
AcDbEntity
  8
0
100
AcDbLine
 62
7
  6
CONTINUOUS
 10
310.5683939492
 20
281.294276415
 11
310.6091208058
 21
281.3819693391
  0
LINE
  5
3E1
100
AcDbEntity
  8
0
100
AcDbLine
 62
7
  6
CONTINUOUS
 10
308.4494866178
 20
276.7633420066
 11
310.5683939492
 21
281.294276415
  0
LINE
  5
3E2
100
AcDbEntity
  8
KONSTRUKTIONSELEMENTE
100
AcDbLine
 62
7
  6
CONTINUOUS
 10
279.3521780004
 20
283.3357631813
 11
277.3771299929
 21
283.3357631813
  0
LINE
  5
3E3
100
AcDbEntity
  8
KONSTRUKTIONSELEMENTE
100
AcDbLine
 62
7
  6
CONTINUOUS
 10
279.1846504995
 20
284.2814192074
 11
277.3771299929
 21
284.2814192074
  0
LINE
  5
3E4
100
AcDbEntity
  8
KONSTRUKTIONSELEMENTE
100
AcDbLine
 62
7
  6
CONTINUOUS
 10
278.5553170199
 20
287.3073805012
 11
277.3771299929
 21
287.3073805012
  0
LINE
  5
3E5
100
AcDbEntity
  8
KONSTRUKTIONSELEMENTE
100
AcDbLine
 62
7
  6
CONTINUOUS
 10
278.8618123195
 20
288.1757746884
 11
277.3771299929
 21
288.1757746884
  0
LINE
  5
3E6
100
AcDbEntity
  8
KONSTRUKTIONSELEMENTE
100
AcDbLine
 62
7
  6
CONTINUOUS
 10
292.3746298344
 20
327.9415232464
 11
292.5408801515
 21
327.4306207664
  0
LINE
  5
3E7
100
AcDbEntity
  8
KONSTRUKTIONSELEMENTE
100
AcDbLine
 62
7
  6
CONTINUOUS
 10
292.3746298344
 20
328.3440355435
 11
292.5408801515
 21
327.8331330634
  0
LINE
  5
3E8
100
AcDbEntity
  8
0
100
AcDbLine
 62
7
  6
CONTINUOUS
 10
309.9307246162
 20
304.9783107467
 11
309.9490719933
 21
304.8139048474
  0
LINE
  5
3E9
100
AcDbEntity
  8
0
100
AcDbLine
 62
7
  6
CONTINUOUS
 10
313.7647093482
 20
327.2360556311
 11
313.7647093482
 21
328.4490966496
  0
LINE
  5
3EA
100
AcDbEntity
  8
0
100
AcDbLine
 62
7
  6
CONTINUOUS
 10
315.2471299929
 20
359.4389918355
 11
315.2471299929
 21
369.7502374185
  0
LINE
  5
3EB
100
AcDbEntity
  8
KONSTRUKTIONSELEMENTE
100
AcDbLine
 62
7
  6
CONTINUOUS
 10
278.4811299929
 20
294.2731443459
 11
277.3771299929
 21
294.2731443459
  0
LINE
  5
3EC
100
AcDbEntity
  8
KONSTRUKTIONSELEMENTE
100
AcDbLine
 62
7
  6
CONTINUOUS
 10
291.0446301515
 20
326.7091474642
 11
289.5483801515
 21
329.0592991586
  0
LINE
  5
3ED
100
AcDbEntity
  8
KONSTRUKTIONSELEMENTE
100
AcDbLine
 62
7
  6
CONTINUOUS
 10
288.5508799136
 20
328.4524258695
 11
289.8808798344
 21
326.3066351672
  0
LINE
  5
3EE
100
AcDbEntity
  8
KONSTRUKTIONSELEMENTE
100
AcDbLine
 62
7
  6
CONTINUOUS
 10
288.5508799136
 20
328.8549381666
 11
289.8808798344
 21
326.7091474642
  0
LINE
  5
3EF
100
AcDbEntity
  8
KONSTRUKTIONSELEMENTE
100
AcDbLine
 62
7
  6
CONTINUOUS
 10
289.7146299929
 20
330.694187381
 11
289.8808798344
 21
330.3876458929
  0
LINE
  5
3F0
100
AcDbEntity
  8
KONSTRUKTIONSELEMENTE
100
AcDbLine
 62
7
  6
CONTINUOUS
 10
290.8783798344
 20
330.3876458929
 11
290.7121299929
 21
330.694187381
  0
LINE
  5
3F1
100
AcDbEntity
  8
KONSTRUKTIONSELEMENTE
100
AcDbLine
 62
7
  6
CONTINUOUS
 10
293.5383796758
 20
327.9353135594
 11
293.37213031
 21
328.3440355435
  0
LINE
  5
3F2
100
AcDbEntity
  8
0
100
AcDbLine
 62
7
  6
CONTINUOUS
 10
310.0612268657
 20
313.5404321073
 11
310.0517125203
 21
313.6120441874
  0
LINE
  5
3F3
100
AcDbEntity
  8
0
100
AcDbLine
 62
7
  6
CONTINUOUS
 10
312.755308133
 20
325.5347367936
 11
312.7708936101
 21
325.3967630486
  0
LINE
  5
3F4
100
AcDbEntity
  8
0
100
AcDbLine
 62
7
  6
CONTINUOUS
 10
313.1522887035
 20
356.3067010766
 11
314.3771299929
 21
345.1258039359
  0
LINE
  5
3F5
100
AcDbEntity
  8
0
100
AcDbLine
 62
7
  6
CONTINUOUS
 10
325.5031439997
 20
343.2030049441
 11
325.5031299929
 21
371.0804541208
  0
LINE
  5
3F6
100
AcDbEntity
  8
0
100
AcDbLine
 62
7
  6
CONTINUOUS
 10
309.9307246162
 20
304.9783107467
 11
309.8318264013
 21
304.9783107467
  0
LINE
  5
3F7
100
AcDbEntity
  8
KONSTRUKTIONSELEMENTE
100
AcDbLine
 62
7
  6
CONTINUOUS
 10
280.8235353696
 20
304.9783107467
 11
280.9224335845
 21
304.9783107467
  0
LINE
  5
3F8
100
AcDbEntity
  8
KONSTRUKTIONSELEMENTE
100
AcDbLine
 62
7
  6
CONTINUOUS
 10
292.5408801515
 20
327.4306207664
 11
292.87338031
 21
327.0218987108
  0
LINE
  5
3F9
100
AcDbEntity
  8
KONSTRUKTIONSELEMENTE
100
AcDbLine
 62
7
  6
CONTINUOUS
 10
292.5408801515
 20
327.8331330634
 11
292.87338031
 21
327.4244110078
  0
LINE
  5
3FA
100
AcDbEntity
  8
0
100
AcDbLine
 62
7
  6
CONTINUOUS
 10
307.6362552351
 20
308.0570179784
 11
310.9820834283
 21
303.3653798238
  0
LINE
  5
3FB
100
AcDbEntity
  8
KONSTRUKTIONSELEMENTE
100
AcDbLine
 62
7
  6
CONTINUOUS
 10
305.1758799929
 20
330.2854651107
 11
305.3421293587
 21
329.8767431267
  0
LINE
  5
3FC
100
AcDbEntity
  8
KONSTRUKTIONSELEMENTE
100
AcDbLine
 62
7
  6
CONTINUOUS
 10
306.3396293587
 20
329.8767431267
 11
306.1733799929
 21
330.3876458929
  0
LINE
  5
3FD
100
AcDbEntity
  8
AUSFORMSCHRAEGEN
100
AcDbLine
 62
7
  6
CONTINUOUS
 10
295.3771299929
 20
310.8869491738
 11
285.6698768608
 21
310.0376745708
  0
LINE
  5
3FE
100
AcDbEntity
  8
0
100
AcDbLine
 62
7
  6
CONTINUOUS
 10
293.3771299929
 20
312.2000910245
 11
297.3771299929
 21
312.2000910245
  0
LINE
  5
3FF
100
AcDbEntity
  8
0
100
AcDbLine
 62
7
  6
CONTINUOUS
 10
305.084383125
 20
310.0376745708
 11
295.3771299929
 21
310.8869491738
  0
LINE
  5
400
100
AcDbEntity
  8
KONSTRUKTIONSELEMENTE
100
AcDbLine
 62
7
  6
CONTINUOUS
 10
290.7121299929
 20
330.694187381
 11
290.2133799929
 21
331.102909365
  0
LINE
  5
401
100
AcDbEntity
  8
KONSTRUKTIONSELEMENTE
100
AcDbLine
 62
7
  6
CONTINUOUS
 10
293.87088031
 20
327.6287720714
 11
293.5383796758
 21
327.9353135594
  0
LINE
  5
402
100
AcDbEntity
  8
KONSTRUKTIONSELEMENTE
100
AcDbLine
 62
7
  6
CONTINUOUS
 10
304.3446293587
 20
327.4244110078
 11
303.6796299929
 21
327.3222305118
  0
LINE
  5
403
100
AcDbEntity
  8
KONSTRUKTIONSELEMENTE
100
AcDbLine
 62
7
  6
CONTINUOUS
 10
303.6796299929
 20
326.3066351672
 11
304.5108806271
 21
326.4088156721
  0
LINE
  5
404
100
AcDbEntity
  8
KONSTRUKTIONSELEMENTE
100
AcDbLine
 62
7
  6
CONTINUOUS
 10
303.6796299929
 20
326.7091474642
 11
304.5108806271
 21
326.8113279692
  0
LINE
  5
405
100
AcDbEntity
  8
KONSTRUKTIONSELEMENTE
100
AcDbLine
 62
7
  6
CONTINUOUS
 10
293.5383796758
 20
326.613176691
 11
294.2033799929
 21
326.4088156721
  0
LINE
  5
406
100
AcDbEntity
  8
KONSTRUKTIONSELEMENTE
100
AcDbLine
 62
7
  6
CONTINUOUS
 10
293.5383796758
 20
327.015688988
 11
294.2033799929
 21
326.8113279692
  0
LINE
  5
407
100
AcDbEntity
  8
KONSTRUKTIONSELEMENTE
100
AcDbLine
 62
7
  6
CONTINUOUS
 10
294.36963031
 20
327.4244110078
 11
293.87088031
 21
327.6287720714
  0
LINE
  5
408
100
AcDbEntity
  8
KONSTRUKTIONSELEMENTE
100
AcDbLine
 62
7
  6
CONTINUOUS
 10
290.2133799929
 20
331.102909365
 11
289.5483801515
 21
331.409450853
  0
LINE
  5
409
100
AcDbEntity
  8
KONSTRUKTIONSELEMENTE
100
AcDbLine
 62
7
  6
CONTINUOUS
 10
292.87338031
 20
327.0218987108
 11
293.5383796758
 21
326.613176691
  0
LINE
  5
40A
100
AcDbEntity
  8
KONSTRUKTIONSELEMENTE
100
AcDbLine
 62
7
  6
CONTINUOUS
 10
292.87338031
 20
327.4244110078
 11
293.5383796758
 21
327.015688988
  0
LINE
  5
40B
100
AcDbEntity
  8
KONSTRUKTIONSELEMENTE
100
AcDbLine
 62
7
  6
CONTINUOUS
 10
289.3821298344
 20
330.898548373
 11
289.7146299929
 21
330.694187381
  0
LINE
  5
40C
100
AcDbEntity
  8
KONSTRUKTIONSELEMENTE
100
AcDbLine
 62
7
  6
CONTINUOUS
 10
304.8433793587
 20
330.592006885
 11
305.1758799929
 21
330.2854651107
  0
LINE
  5
40D
100
AcDbEntity
  8
KONSTRUKTIONSELEMENTE
100
AcDbLine
 62
7
  6
CONTINUOUS
 10
306.1733799929
 20
330.3876458929
 11
305.8408793587
 21
330.796367877
  0
LINE
  5
40E
100
AcDbEntity
  8
0
100
AcDbLine
 62
7
  6
CONTINUOUS
 10
355.3771299929
 20
199.2619351175
 11
355.3771299929
 21
347.4941992466
  0
LINE
  5
40F
100
AcDbEntity
  8
KONSTRUKTIONSELEMENTE
100
AcDbLine
 62
7
  6
CONTINUOUS
 10
289.3821298344
 20
329.5702016386
 11
288.8833798344
 21
329.4680211426
  0
LINE
  5
410
100
AcDbEntity
  8
KONSTRUKTIONSELEMENTE
100
AcDbLine
 62
7
  6
CONTINUOUS
 10
296.36463031
 20
327.4244110078
 11
295.6996299929
 21
327.3222305118
  0
LINE
  5
411
100
AcDbEntity
  8
KONSTRUKTIONSELEMENTE
100
AcDbLine
 62
7
  6
CONTINUOUS
 10
295.6996299929
 20
326.3066351672
 11
296.5308796758
 21
326.4088156721
  0
LINE
  5
412
100
AcDbEntity
  8
KONSTRUKTIONSELEMENTE
100
AcDbLine
 62
7
  6
CONTINUOUS
 10
295.6996299929
 20
326.7091474642
 11
296.5308796758
 21
326.8113279692
  0
LINE
  5
413
100
AcDbEntity
  8
KONSTRUKTIONSELEMENTE
100
AcDbLine
 62
7
  6
CONTINUOUS
 10
284.7271299929
 20
326.3066351672
 11
285.7246299929
 21
326.3066351672
  0
LINE
  5
414
100
AcDbEntity
  8
KONSTRUKTIONSELEMENTE
100
AcDbLine
 62
7
  6
CONTINUOUS
 10
289.8808798344
 20
326.3066351672
 11
291.0446301515
 21
326.3066351672
  0
LINE
  5
415
100
AcDbEntity
  8
KONSTRUKTIONSELEMENTE
100
AcDbLine
 62
7
  6
CONTINUOUS
 10
295.0346296758
 20
326.3066351672
 11
295.6996299929
 21
326.3066351672
  0
LINE
  5
416
100
AcDbEntity
  8
KONSTRUKTIONSELEMENTE
100
AcDbLine
 62
7
  6
CONTINUOUS
 10
299.6896299929
 20
326.3066351672
 11
303.6796299929
 21
326.3066351672
  0
LINE
  5
417
100
AcDbEntity
  8
KONSTRUKTIONSELEMENTE
100
AcDbLine
 62
7
  6
CONTINUOUS
 10
284.7271299929
 20
326.7091474642
 11
285.7246299929
 21
326.7091474642
  0
LINE
  5
418
100
AcDbEntity
  8
KONSTRUKTIONSELEMENTE
100
AcDbLine
 62
7
  6
CONTINUOUS
 10
289.8808798344
 20
326.7091474642
 11
291.0446301515
 21
326.7091474642
  0
LINE
  5
419
100
AcDbEntity
  8
KONSTRUKTIONSELEMENTE
100
AcDbLine
 62
7
  6
CONTINUOUS
 10
295.0346296758
 20
326.7091474642
 11
295.6996299929
 21
326.7091474642
  0
LINE
  5
41A
100
AcDbEntity
  8
KONSTRUKTIONSELEMENTE
100
AcDbLine
 62
7
  6
CONTINUOUS
 10
299.6896299929
 20
326.7091474642
 11
303.6796299929
 21
326.7091474642
  0
LINE
  5
41B
100
AcDbEntity
  8
KONSTRUKTIONSELEMENTE
100
AcDbLine
 62
7
  6
CONTINUOUS
 10
303.6796299929
 20
327.3222305118
 11
300.6871299929
 21
327.3222305118
  0
LINE
  5
41C
100
AcDbEntity
  8
KONSTRUKTIONSELEMENTE
100
AcDbLine
 62
7
  6
CONTINUOUS
 10
295.6996299929
 20
327.3222305118
 11
295.0346296758
 21
327.3222305118
  0
LINE
  5
41D
100
AcDbEntity
  8
KONSTRUKTIONSELEMENTE
100
AcDbLine
 62
7
  6
CONTINUOUS
 10
285.7246299929
 20
328.4524258695
 11
288.551911669
 21
328.4524258695
  0
LINE
  5
41E
100
AcDbEntity
  8
KONSTRUKTIONSELEMENTE
100
AcDbLine
 62
7
  6
CONTINUOUS
 10
285.7246299929
 20
328.8549381666
 11
288.5508799136
 21
328.8549381666
  0
LINE
  5
41F
100
AcDbEntity
  8
KONSTRUKTIONSELEMENTE
100
AcDbLine
 62
7
  6
CONTINUOUS
 10
288.8833798344
 20
329.4680211426
 11
285.7246299929
 21
329.4680211426
  0
LINE
  5
420
100
AcDbEntity
  8
KONSTRUKTIONSELEMENTE
100
AcDbLine
 62
7
  6
CONTINUOUS
 10
300.6871299929
 20
330.6117351098
 11
303.6796299929
 21
330.6117351098
  0
LINE
  5
421
100
AcDbEntity
  8
KONSTRUKTIONSELEMENTE
100
AcDbLine
 62
7
  6
CONTINUOUS
 10
285.7246299929
 20
330.7257787257
 11
288.8833798344
 21
330.7257787257
  0
LINE
  5
422
100
AcDbEntity
  8
KONSTRUKTIONSELEMENTE
100
AcDbLine
 62
7
  6
CONTINUOUS
 10
300.6871299929
 20
330.898548373
 11
303.6796299929
 21
330.898548373
  0
LINE
  5
423
100
AcDbEntity
  8
KONSTRUKTIONSELEMENTE
100
AcDbLine
 62
7
  6
CONTINUOUS
 10
285.7246299929
 20
331.000728869
 11
288.8833798344
 21
331.000728869
  0
LINE
  5
424
100
AcDbEntity
  8
KONSTRUKTIONSELEMENTE
100
AcDbLine
 62
7
  6
CONTINUOUS
 10
303.6796299929
 20
331.511631349
 11
299.6896299929
 21
331.511631349
  0
LINE
  5
425
100
AcDbEntity
  8
KONSTRUKTIONSELEMENTE
100
AcDbLine
 62
7
  6
CONTINUOUS
 10
298.35963031
 20
331.511631349
 11
297.36213031
 21
331.511631349
  0
LINE
  5
426
100
AcDbEntity
  8
KONSTRUKTIONSELEMENTE
100
AcDbLine
 62
7
  6
CONTINUOUS
 10
293.37213031
 20
331.511631349
 11
292.3746298344
 21
331.511631349
  0
LINE
  5
427
100
AcDbEntity
  8
KONSTRUKTIONSELEMENTE
100
AcDbLine
 62
7
  6
CONTINUOUS
 10
288.7171299929
 20
331.511631349
 11
284.7271299929
 21
331.511631349
  0
LINE
  5
428
100
AcDbEntity
  8
0
100
AcDbLine
 62
7
  6
CONTINUOUS
 10
305.3771299929
 20
332.9835621837
 11
285.3771299929
 21
332.9835621837
  0
LINE
  5
429
100
AcDbEntity
  8
KONSTRUKTIONSELEMENTE
100
AcDbLine
 62
7
  6
CONTINUOUS
 10
294.2033799929
 20
326.4088156721
 11
295.0346296758
 21
326.3066351672
  0
LINE
  5
42A
100
AcDbEntity
  8
KONSTRUKTIONSELEMENTE
100
AcDbLine
 62
7
  6
CONTINUOUS
 10
294.2033799929
 20
326.8113279692
 11
295.0346296758
 21
326.7091474642
  0
LINE
  5
42B
100
AcDbEntity
  8
KONSTRUKTIONSELEMENTE
100
AcDbLine
 62
7
  6
CONTINUOUS
 10
289.5483801515
 20
331.409450853
 11
288.7171299929
 21
331.511631349
  0
LINE
  5
42C
100
AcDbEntity
  8
KONSTRUKTIONSELEMENTE
100
AcDbLine
 62
7
  6
CONTINUOUS
 10
304.5108806271
 20
331.409450853
 11
303.6796299929
 21
331.511631349
  0
LINE
  5
42D
100
AcDbEntity
  8
KONSTRUKTIONSELEMENTE
100
AcDbLine
 62
7
  6
CONTINUOUS
 10
295.0346296758
 20
327.3222305118
 11
294.36963031
 21
327.4244110078
  0
LINE
  5
42E
100
AcDbEntity
  8
KONSTRUKTIONSELEMENTE
100
AcDbLine
 62
7
  6
CONTINUOUS
 10
303.6796299929
 20
330.898548373
 11
304.3446293587
 21
330.796367877
  0
LINE
  5
42F
100
AcDbEntity
  8
KONSTRUKTIONSELEMENTE
100
AcDbLine
 62
7
  6
CONTINUOUS
 10
288.8833798344
 20
331.000728869
 11
289.3821298344
 21
330.898548373
  0
LINE
  5
430
100
AcDbEntity
  8
KONSTRUKTIONSELEMENTE
100
AcDbLine
 62
7
  6
CONTINUOUS
 10
305.1758799929
 20
331.205089861
 11
304.5108806271
 21
331.409450853
  0
LINE
  5
431
100
AcDbEntity
  8
KONSTRUKTIONSELEMENTE
100
AcDbLine
 62
7
  6
CONTINUOUS
 10
304.3446293587
 20
330.796367877
 11
304.8433793587
 21
330.592006885
  0
LINE
  5
432
100
AcDbEntity
  8
KONSTRUKTIONSELEMENTE
100
AcDbLine
 62
7
  6
CONTINUOUS
 10
305.8408793587
 20
330.796367877
 11
305.1758799929
 21
331.205089861
  0
LINE
  5
433
100
AcDbEntity
  8
0
100
AcDbLine
 62
7
  6
CONTINUOUS
 10
363.1571299929
 20
199.8628390497
 11
363.1571299929
 21
347.5012123598
  0
LINE
  5
434
100
AcDbEntity
  8
KONSTRUKTIONSELEMENTE
100
AcDbLine
 62
7
  6
CONTINUOUS
 10
285.3771299929
 20
342.9040236581
 11
286.3771299929
 21
342.9040236581
  0
LINE
  5
435
100
AcDbEntity
  8
KONSTRUKTIONSELEMENTE
100
AcDbLine
 62
7
  6
CONTINUOUS
 10
304.3771299929
 20
342.9040236581
 11
305.3771299929
 21
342.9040236581
  0
LWPOLYLINE
  5
436
100
AcDbEntity
  8
0
100
AcDbPolyline
 62
7
  6
CONTINUOUS
 90
7
 70
0
 10
295.3771299929
 20
356.9347408314
 10
298.257228386
 20
357.3150609943
 10
301.5330020173
 20
357.7399042036
 10
304.9038018973
 20
358.1689511285
 10
308.3696436654
 20
358.6019709866
 10
311.9305397669
 20
359.0387559139
 10
315.2471299929
 20
359.4385602822
  0
LINE
  5
437
100
AcDbEntity
  8
0
100
AcDbLine
 62
7
  6
CONTINUOUS
 10
305.3771299929
 20
352.166962812
 11
285.3771299929
 21
352.166962812
  0
LINE
  5
438
100
AcDbEntity
  8
0
100
AcDbLine
 62
7
  6
CONTINUOUS
 10
285.3771299929
 20
353.6029033931
 11
305.3771299929
 21
353.6029033931
  0
LINE
  5
439
100
AcDbEntity
  8
KONSTRUKTIONSELEMENTE
100
AcDbLine
 62
7
  6
CONTINUOUS
 10
312.9207010648
 20
357.5012560071
 11
299.6928938264
 21
357.5012560071
  0
LINE
  5
43A
100
AcDbEntity
  8
KONSTRUKTIONSELEMENTE
100
AcDbLine
 62
7
  6
CONTINUOUS
 10
291.0613661595
 20
357.5012560071
 11
277.833558921
 21
357.5012560071
  0
LWPOLYLINE
  5
43B
100
AcDbEntity
  8
KONSTRUKTIONSELEMENTE
100
AcDbPolyline
 62
7
  6
CONTINUOUS
 90
7
 70
0
 10
275.5071299929
 20
359.4385602822
 10
278.823720219
 20
359.0387559139
 10
282.3846163204
 20
358.6019709866
 10
285.8504580885
 20
358.1689511285
 10
289.2212579685
 20
357.7399042036
 10
292.4970315999
 20
357.3150609943
 10
295.3771299929
 20
356.9347408314
  0
LINE
  5
43C
100
AcDbEntity
  8
0
100
AcDbLine
 62
7
  6
CONTINUOUS
 10
295.3771299929
 20
373.8261491738
 11
256.3725479097
 21
370.413690416
  0
LINE
  5
43D
100
AcDbEntity
  8
0
100
AcDbLine
 62
7
  6
CONTINUOUS
 10
295.3771299929
 20
373.8261491738
 11
334.3817120761
 21
370.413690416
  0
LINE
  5
43E
100
AcDbEntity
  8
0
100
AcDbLine
 62
7
  6
CONTINUOUS
 10
295.3771299929
 20
381.6358675099
 11
255.6944762311
 21
378.1640851671
  0
LINE
  5
43F
100
AcDbEntity
  8
0
100
AcDbLine
 62
7
  6
CONTINUOUS
 10
335.0597837547
 20
378.1640851671
 11
295.3771299929
 21
381.6358675099
  0
LINE
  5
440
100
AcDbEntity
  8
0
100
AcDbLine
 62
7
  6
CONTINUOUS
 10
39.9716496145
 20
67.6682702855
 11
38.7213296318
 21
79.5642702855
  0
LINE
  5
441
100
AcDbEntity
  8
KONSTRUKTIONSELEMENTE
100
AcDbLine
 62
7
  6
CONTINUOUS
 10
38.7213296318
 20
79.5642702855
 11
39.9716496145
 21
91.4602702855
  0
LINE
  5
442
100
AcDbEntity
  8
0
100
AcDbLine
 62
7
  6
CONTINUOUS
 10
173.1537110492
 20
19.5642702855
 11
176.7813296318
 21
19.5642702855
  0
LINE
  5
443
100
AcDbEntity
  8
KONSTRUKTIONSELEMENTE
100
AcDbLine
 62
7
  6
CONTINUOUS
 10
84.5840824761
 20
96.4602702855
 11
84.5840824761
 21
97.5642702855
  0
LINE
  5
444
100
AcDbEntity
  8
KONSTRUKTIONSELEMENTE
100
AcDbLine
 62
7
  6
CONTINUOUS
 10
69.1011555171
 20
94.9579340236
 11
62.5989479077
 21
92.1340844995
  0
LINE
  5
445
100
AcDbEntity
  8
0
100
AcDbLine
 62
7
  6
CONTINUOUS
 10
69.1011555171
 20
64.1706065475
 11
62.5989479077
 21
66.9944560716
  0
LINE
  5
446
100
AcDbEntity
  8
KONSTRUKTIONSELEMENTE
100
AcDbLine
 62
7
  6
CONTINUOUS
 10
89.3539881125
 20
96.4255662027
 11
89.3539881125
 21
97.5642702855
  0
LINE
  5
447
100
AcDbEntity
  8
KONSTRUKTIONSELEMENTE
100
AcDbLine
 62
7
  6
CONTINUOUS
 10
91.6785868515
 20
96.4579640832
 11
91.6785868515
 21
97.5642702855
  0
LINE
  5
448
100
AcDbEntity
  8
0
100
AcDbLine
 62
7
  6
CONTINUOUS
 10
143.799729376
 20
59.6942702855
 11
152.3713322488
 21
59.6942702855
  0
LINE
  5
449
100
AcDbEntity
  8
0
100
AcDbLine
 62
7
  6
CONTINUOUS
 10
122.0232370515
 20
60.2448512306
 11
143.8023787911
 21
59.8350882432
  0
LINE
  5
44A
100
AcDbEntity
  8
0
100
AcDbLine
 62
7
  6
CONTINUOUS
 10
152.3709485252
 20
59.6738751534
 11
159.7916559433
 21
59.5342584836
  0
LINE
  5
44B
100
AcDbEntity
  8
KONSTRUKTIONSELEMENTE
100
AcDbLine
 62
7
  6
CONTINUOUS
 10
94.0427269168
 20
96.4255978404
 11
94.0427269168
 21
97.5642702855
  0
LINE
  5
44C
100
AcDbEntity
  8
KONSTRUKTIONSELEMENTE
100
AcDbLine
 62
7
  6
CONTINUOUS
 10
95.2554096318
 20
96.2734357728
 11
95.2554096318
 21
97.5642702855
  0
LINE
  5
44D
100
AcDbEntity
  8
KONSTRUKTIONSELEMENTE
100
AcDbLine
 62
7
  6
CONTINUOUS
 10
99.2359518267
 20
94.1178649089
 11
99.2359518267
 21
93.2121296611
  0
LINE
  5
44E
100
AcDbEntity
  8
0
100
AcDbLine
 62
7
  6
CONTINUOUS
 10
99.2359518267
 20
65.0106756622
 11
99.2359518267
 21
65.91641091
  0
LINE
  5
44F
100
AcDbEntity
  8
KONSTRUKTIONSELEMENTE
100
AcDbLine
 62
7
  6
CONTINUOUS
 10
131.4398209519
 20
68.6017709197
 11
132.1178118222
 21
68.7680202855
  0
LWPOLYLINE
  5
450
100
AcDbEntity
  8
0
100
AcDbPolyline
 62
7
  6
CONTINUOUS
 90
10
 70
0
 10
93.4490947111
 20
62.6682705364
 10
93.9737295527
 20
62.6835696966
 10
94.6733293822
 20
62.7519798973
 10
95.3635769949
 20
62.8742661539
 10
96.0440252369
 20
63.0500132457
 10
96.7129373679
 20
63.2790366005
 10
97.3683449266
 20
63.5613597672
 10
98.0083605177
 20
63.8973157551
 10
98.6305625869
 20
64.2872128392
 10
99.233650407
 20
64.7324159546
  0
LINE
  5
451
100
AcDbEntity
  8
0
100
AcDbLine
 62
7
  6
CONTINUOUS
 10
128.7729769164
 20
61.1766909302
 11
130.3827367185
 21
61.1766909302
  0
LINE
  5
452
100
AcDbEntity
  8
0
100
AcDbLine
 62
7
  6
CONTINUOUS
 10
93.4498781581
 20
62.6682702855
 11
76.1040063068
 21
62.6682702855
  0
LINE
  5
453
100
AcDbEntity
  8
0
100
AcDbLine
 62
7
  6
CONTINUOUS
 10
98.5141600548
 20
64.2142702855
 11
102.4386354716
 21
64.2142702855
  0
LINE
  5
454
100
AcDbEntity
  8
0
100
AcDbLine
 62
7
  6
CONTINUOUS
 10
127.7744632858
 20
62.1705066683
 11
127.7163753737
 21
62.1714029243
  0
LINE
  5
455
100
AcDbEntity
  8
0
100
AcDbLine
 62
7
  6
CONTINUOUS
 10
116.3081800395
 20
61.0166352157
 11
120.9592048275
 21
60.3328497611
  0
LINE
  5
456
100
AcDbEntity
  8
0
100
AcDbLine
 62
7
  6
CONTINUOUS
 10
109.735790305
 20
62.438212003
 11
99.4075591396
 21
64.952005519
  0
LINE
  5
457
100
AcDbEntity
  8
KONSTRUKTIONSELEMENTE
100
AcDbLine
 62
7
  6
CONTINUOUS
 10
100.2427613861
 20
91.6686678548
 11
100.2427613861
 21
90.4563722889
  0
LINE
  5
458
100
AcDbEntity
  8
0
100
AcDbLine
 62
7
  6
CONTINUOUS
 10
100.2427613861
 20
67.4598727163
 11
100.2427613861
 21
68.6721682822
  0
LINE
  5
459
100
AcDbEntity
  8
0
100
AcDbLine
 62
7
  6
CONTINUOUS
 10
39.9716531562
 20
67.6682702855
 11
60.8189582116
 21
67.6682702855
  0
LINE
  5
45A
100
AcDbEntity
  8
KONSTRUKTIONSELEMENTE
100
AcDbLine
 62
7
  6
CONTINUOUS
 10
129.4058492905
 20
68.6017709197
 11
131.7212980963
 21
68.6017709197
  0
LINE
  5
45B
100
AcDbEntity
  8
KONSTRUKTIONSELEMENTE
100
AcDbLine
 62
7
  6
CONTINUOUS
 10
132.3720704904
 20
68.7680202855
 11
132.1178118222
 21
68.7680202855
  0
LINE
  5
45C
100
AcDbEntity
  8
KONSTRUKTIONSELEMENTE
100
AcDbLine
 62
7
  6
CONTINUOUS
 10
132.8848345402
 20
69.1005209197
 11
132.6602042146
 21
69.1005209197
  0
LINE
  5
45D
100
AcDbEntity
  8
0
100
AcDbLine
 62
7
  6
CONTINUOUS
 10
135.441554454
 20
69.5642702855
 11
142.936216267
 21
69.5642702855
  0
LINE
  5
45E
100
AcDbEntity
  8
KONSTRUKTIONSELEMENTE
100
AcDbLine
 62
7
  6
CONTINUOUS
 10
131.4398209519
 20
69.5992709197
 11
129.4058492905
 21
69.5992709197
  0
LINE
  5
45F
100
AcDbEntity
  8
KONSTRUKTIONSELEMENTE
100
AcDbLine
 62
7
  6
CONTINUOUS
 10
133.390589992
 20
69.7655202855
 11
133.202596607
 21
69.7655202855
  0
LINE
  5
460
100
AcDbEntity
  8
KONSTRUKTIONSELEMENTE
100
AcDbLine
 62
7
  6
CONTINUOUS
 10
129.1667716698
 20
69.7655202855
 11
128.8634568981
 21
69.7655202855
  0
LINE
  5
461
100
AcDbEntity
  8
KONSTRUKTIONSELEMENTE
100
AcDbLine
 62
7
  6
CONTINUOUS
 10
128.7599773755
 20
70.0980209197
 11
128.4566626039
 21
70.0980209197
  0
LINE
  5
462
100
AcDbEntity
  8
KONSTRUKTIONSELEMENTE
100
AcDbLine
 62
7
  6
CONTINUOUS
 10
133.6408296773
 20
70.4305196513
 11
133.4737928032
 21
70.4305196513
  0
LINE
  5
463
100
AcDbEntity
  8
KONSTRUKTIONSELEMENTE
100
AcDbLine
 62
7
  6
CONTINUOUS
 10
128.4887810844
 20
70.5967709197
 11
128.1854663127
 21
70.5967709197
  0
LINE
  5
464
100
AcDbEntity
  8
KONSTRUKTIONSELEMENTE
100
AcDbLine
 62
7
  6
CONTINUOUS
 10
133.7652880516
 20
71.2617702855
 11
133.6093909012
 21
71.2617702855
  0
LINE
  5
465
100
AcDbEntity
  8
KONSTRUKTIONSELEMENTE
100
AcDbLine
 62
7
  6
CONTINUOUS
 10
128.3531829863
 20
71.2617702855
 11
128.0498682146
 21
71.2617702855
  0
LINE
  5
466
100
AcDbEntity
  8
0
100
AcDbLine
 62
7
  6
CONTINUOUS
 10
104.5308132508
 20
70.7722774732
 11
103.4660459314
 21
70.8442282619
  0
LINE
  5
467
100
AcDbEntity
  8
0
100
AcDbLine
 62
7
  6
CONTINUOUS
 10
155.7195454282
 20
61.7891115749
 11
164.1449557523
 21
60.5642702855
  0
LINE
  5
468
100
AcDbEntity
  8
KONSTRUKTIONSELEMENTE
100
AcDbLine
 62
7
  6
CONTINUOUS
 10
128.7278588
 20
68.7680202855
 11
129.4058492905
 21
68.6017709197
  0
LINE
  5
469
100
AcDbEntity
  8
KONSTRUKTIONSELEMENTE
100
AcDbLine
 62
7
  6
CONTINUOUS
 10
107.7414889755
 20
79.5642702855
 11
107.4415792585
 21
82.3142702855
  0
LINE
  5
46A
100
AcDbEntity
  8
0
100
AcDbLine
 62
7
  6
CONTINUOUS
 10
108.8195779472
 20
81.5642702855
 11
108.8195779472
 21
77.5642702855
  0
LINE
  5
46B
100
AcDbEntity
  8
0
100
AcDbLine
 62
7
  6
CONTINUOUS
 10
107.4415792585
 20
76.8142702855
 11
107.7414889755
 21
79.5642702855
  0
LINE
  5
46C
100
AcDbEntity
  8
0
100
AcDbLine
 62
7
  6
CONTINUOUS
 10
104.5308132508
 20
70.7722774732
 11
105.8349549804
 21
76.8142702855
  0
LINE
  5
46D
100
AcDbEntity
  8
0
100
AcDbLine
 62
7
  6
CONTINUOUS
 10
88.0210288173
 20
67.3051450433
 11
82.7257981265
 21
63.9593168502
  0
LINE
  5
46E
100
AcDbEntity
  8
KONSTRUKTIONSELEMENTE
100
AcDbLine
 62
7
  6
CONTINUOUS
 10
129.4058492905
 20
82.5667704441
 11
128.7278588
 21
82.400520127
  0
LWPOLYLINE
  5
46F
100
AcDbEntity
  8
0
100
AcDbPolyline
 62
7
  6
CONTINUOUS
 90
15
 70
0
 10
53.3140723024
 20
67.6910619773
 10
53.4891564623
 20
67.7141486903
 10
53.8326690949
 20
67.7533663557
 10
54.2284126851
 20
67.7915972457
 10
54.6654153108
 20
67.8276949298
 10
55.134224841
 20
67.8609972696
 10
55.6287900127
 20
67.8912887571
 10
56.1427275234
 20
67.9184591458
 10
56.6708839478
 20
67.9424353273
 10
57.208323399
 20
67.9632724603
 10
57.750954495
 20
67.9810378687
 10
58.29474966
 20
67.9958038611
 10
58.837116358
 20
68.0077566445
 10
59.3755420184
 20
68.0170075225
 10
59.631234392
 20
68.0202185624
  0
LINE
  5
470
100
AcDbEntity
  8
KONSTRUKTIONSELEMENTE
100
AcDbLine
 62
7
  6
CONTINUOUS
 10
128.0498682146
 20
74.2542702855
 11
132.7958023127
 21
74.2542702855
  0
LINE
  5
471
100
AcDbEntity
  8
KONSTRUKTIONSELEMENTE
100
AcDbLine
 62
7
  6
CONTINUOUS
 10
133.7652880516
 20
75.2517702855
 11
127.2362795311
 21
75.2517702855
  0
LINE
  5
472
100
AcDbEntity
  8
0
100
AcDbLine
 62
7
  6
CONTINUOUS
 10
105.5651471186
 20
75.5642702855
 11
107.8297987315
 21
75.5642702855
  0
LINE
  5
473
100
AcDbEntity
  8
KONSTRUKTIONSELEMENTE
100
AcDbLine
 62
7
  6
CONTINUOUS
 10
129.4058492905
 20
76.5817699684
 11
133.7652880516
 21
76.5817699684
  0
LINE
  5
474
100
AcDbEntity
  8
0
100
AcDbLine
 62
7
  6
CONTINUOUS
 10
105.8349549804
 20
76.8142702855
 11
107.4411737617
 21
76.8142702855
  0
LINE
  5
475
100
AcDbEntity
  8
KONSTRUKTIONSELEMENTE
100
AcDbLine
 62
7
  6
CONTINUOUS
 10
133.7652880516
 20
77.5792699684
 11
129.4058492905
 21
77.5792699684
  0
LINE
  5
476
100
AcDbEntity
  8
KONSTRUKTIONSELEMENTE
100
AcDbLine
 62
7
  6
CONTINUOUS
 10
129.1667716698
 20
77.7455202855
 11
128.8634568981
 21
77.7455202855
  0
LINE
  5
477
100
AcDbEntity
  8
KONSTRUKTIONSELEMENTE
100
AcDbLine
 62
7
  6
CONTINUOUS
 10
128.7599773755
 20
78.0780199684
 11
128.4566626039
 21
78.0780199684
  0
LINE
  5
478
100
AcDbEntity
  8
KONSTRUKTIONSELEMENTE
100
AcDbLine
 62
7
  6
CONTINUOUS
 10
128.4887810844
 20
78.5767699684
 11
128.1854663127
 21
78.5767699684
  0
LINE
  5
479
100
AcDbEntity
  8
KONSTRUKTIONSELEMENTE
100
AcDbLine
 62
7
  6
CONTINUOUS
 10
128.3531829863
 20
79.2417702855
 11
128.0498682146
 21
79.2417702855
  0
LINE
  5
47A
100
AcDbEntity
  8
BG_STARTBEZUEGE
100
AcDbLine
 62
2
  6
CENTER
 10
188.7645648893
 20
79.5642702855
 11
35.7213296318
 21
79.5642702855
  0
LINE
  5
47B
100
AcDbEntity
  8
0
100
AcDbLine
 62
7
  6
CONTINUOUS
 10
174.203235418
 20
79.5642702855
 11
184.9683370363
 21
79.5642702855
  0
LINE
  5
47C
100
AcDbEntity
  8
KONSTRUKTIONSELEMENTE
100
AcDbLine
 62
7
  6
CONTINUOUS
 10
128.3531829863
 20
79.9067706026
 11
128.0498682146
 21
79.9067706026
  0
LINE
  5
47D
100
AcDbEntity
  8
KONSTRUKTIONSELEMENTE
100
AcDbLine
 62
7
  6
CONTINUOUS
 10
129.4058492905
 20
69.5992709197
 11
128.8634568981
 21
69.7655202855
  0
LINE
  5
47E
100
AcDbEntity
  8
KONSTRUKTIONSELEMENTE
100
AcDbLine
 62
7
  6
CONTINUOUS
 10
129.7091640622
 20
69.5992709197
 11
129.1667716698
 21
69.7655202855
  0
LINE
  5
47F
100
AcDbEntity
  8
KONSTRUKTIONSELEMENTE
100
AcDbLine
 62
7
  6
CONTINUOUS
 10
128.1854663127
 20
69.1005209197
 11
128.7278588
 21
68.7680202855
  0
LINE
  5
480
100
AcDbEntity
  8
KONSTRUKTIONSELEMENTE
100
AcDbLine
 62
7
  6
CONTINUOUS
 10
88.0210288173
 20
91.8233955277
 11
82.7257981265
 21
95.1692237209
  0
LINE
  5
481
100
AcDbEntity
  8
KONSTRUKTIONSELEMENTE
100
AcDbLine
 62
7
  6
CONTINUOUS
 10
104.5308132508
 20
88.3562630979
 11
105.8349549804
 21
82.3142702855
  0
LINE
  5
482
100
AcDbEntity
  8
BEZUGSACHSEN
100
AcDbLine
 62
2
  6
CENTER
 10
115.5613296318
 20
76.1170704752
 11
115.5613296318
 21
85.32056395
  0
LINE
  5
483
100
AcDbEntity
  8
0
100
AcDbLine
 62
7
  6
CONTINUOUS
 10
176.7813296318
 20
139.5642702855
 11
184.5613296318
 21
147.3442702855
  0
LINE
  5
484
100
AcDbEntity
  8
0
100
AcDbLine
 62
7
  6
CONTINUOUS
 10
99.233650407
 20
64.7324159546
 11
99.4439821607
 21
64.9084978117
  0
LINE
  5
485
100
AcDbEntity
  8
KONSTRUKTIONSELEMENTE
100
AcDbLine
 62
7
  6
CONTINUOUS
 10
128.7278588
 20
82.400520127
 11
128.1854663127
 21
82.0680199684
  0
LINE
  5
486
100
AcDbEntity
  8
0
100
AcDbLine
 62
7
  6
CONTINUOUS
 10
99.9276281652
 20
67.2758725906
 11
105.130637475
 21
70.3138079892
  0
LINE
  5
487
100
AcDbEntity
  8
0
100
AcDbLine
 62
7
  6
CONTINUOUS
 10
104.5308132508
 20
70.7722774732
 11
98.4566774539
 21
67.7974187689
  0
LINE
  5
488
100
AcDbEntity
  8
KONSTRUKTIONSELEMENTE
100
AcDbLine
 62
7
  6
CONTINUOUS
 10
127.2362795311
 20
83.896770127
 11
130.3550361671
 21
85.393020127
  0
LINE
  5
489
100
AcDbEntity
  8
KONSTRUKTIONSELEMENTE
100
AcDbLine
 62
7
  6
CONTINUOUS
 10
127.5395943027
 20
83.896770127
 11
130.3827367185
 21
85.2607918626
  0
LINE
  5
48A
100
AcDbEntity
  8
KONSTRUKTIONSELEMENTE
100
AcDbLine
 62
7
  6
CONTINUOUS
 10
130.0838399709
 20
86.3905203648
 11
127.2362795311
 21
85.0605204441
  0
LINE
  5
48B
100
AcDbEntity
  8
KONSTRUKTIONSELEMENTE
100
AcDbLine
 62
7
  6
CONTINUOUS
 10
132.5246061165
 20
85.2267702855
 11
132.1178118222
 21
85.0605204441
  0
LINE
  5
48C
100
AcDbEntity
  8
KONSTRUKTIONSELEMENTE
100
AcDbLine
 62
7
  6
CONTINUOUS
 10
132.1178118222
 20
84.0630204441
 11
132.5246061165
 21
84.2292702855
  0
LINE
  5
48D
100
AcDbEntity
  8
KONSTRUKTIONSELEMENTE
100
AcDbLine
 62
7
  6
CONTINUOUS
 10
128.8634568981
 20
81.4030206026
 11
129.4058492905
 21
81.5692699684
  0
LINE
  5
48E
100
AcDbEntity
  8
KONSTRUKTIONSELEMENTE
100
AcDbLine
 62
7
  6
CONTINUOUS
 10
129.1667716698
 20
81.4030206026
 11
129.7091640622
 21
81.5692699684
  0
LINE
  5
48F
100
AcDbEntity
  8
KONSTRUKTIONSELEMENTE
100
AcDbLine
 62
7
  6
CONTINUOUS
 10
128.4887810844
 20
80.5717699684
 11
128.1854663127
 21
80.5717699684
  0
LINE
  5
490
100
AcDbEntity
  8
KONSTRUKTIONSELEMENTE
100
AcDbLine
 62
7
  6
CONTINUOUS
 10
128.7599773755
 20
81.0705199684
 11
128.4566626039
 21
81.0705199684
  0
LINE
  5
491
100
AcDbEntity
  8
KONSTRUKTIONSELEMENTE
100
AcDbLine
 62
7
  6
CONTINUOUS
 10
129.1667716698
 20
81.4030206026
 11
128.8634568981
 21
81.4030206026
  0
LINE
  5
492
100
AcDbEntity
  8
KONSTRUKTIONSELEMENTE
100
AcDbLine
 62
7
  6
CONTINUOUS
 10
129.4058492905
 20
81.5692699684
 11
133.7652880516
 21
81.5692699684
  0
LINE
  5
493
100
AcDbEntity
  8
KONSTRUKTIONSELEMENTE
100
AcDbLine
 62
7
  6
CONTINUOUS
 10
105.8349549804
 20
82.3142702855
 11
107.4411737617
 21
82.3142702855
  0
LINE
  5
494
100
AcDbEntity
  8
KONSTRUKTIONSELEMENTE
100
AcDbLine
 62
7
  6
CONTINUOUS
 10
133.7652880516
 20
82.5667704441
 11
129.4058492905
 21
82.5667704441
  0
LINE
  5
495
100
AcDbEntity
  8
KONSTRUKTIONSELEMENTE
100
AcDbLine
 62
7
  6
CONTINUOUS
 10
105.5651471186
 20
83.5642702855
 11
107.8297987315
 21
83.5642702855
  0
LINE
  5
496
100
AcDbEntity
  8
KONSTRUKTIONSELEMENTE
100
AcDbLine
 62
7
  6
CONTINUOUS
 10
127.5395943027
 20
83.896770127
 11
127.2362795311
 21
83.896770127
  0
LINE
  5
497
100
AcDbEntity
  8
KONSTRUKTIONSELEMENTE
100
AcDbLine
 62
7
  6
CONTINUOUS
 10
131.57541905
 20
84.0630204441
 11
132.3720704904
 21
84.0630204441
  0
LINE
  5
498
100
AcDbEntity
  8
KONSTRUKTIONSELEMENTE
100
AcDbLine
 62
7
  6
CONTINUOUS
 10
132.757299465
 20
84.2292702855
 11
132.5246061165
 21
84.2292702855
  0
LINE
  5
499
100
AcDbEntity
  8
KONSTRUKTIONSELEMENTE
100
AcDbLine
 62
7
  6
CONTINUOUS
 10
133.2648098377
 20
84.7280202855
 11
133.0669985089
 21
84.7280202855
  0
LINE
  5
49A
100
AcDbEntity
  8
KONSTRUKTIONSELEMENTE
100
AcDbLine
 62
7
  6
CONTINUOUS
 10
132.1178118222
 20
85.0605204441
 11
131.7110171481
 21
85.0605204441
  0
LINE
  5
49B
100
AcDbEntity
  8
KONSTRUKTIONSELEMENTE
100
AcDbLine
 62
7
  6
CONTINUOUS
 10
131.5898379015
 20
85.2267702855
 11
131.3042228538
 21
85.2267702855
  0
LINE
  5
49C
100
AcDbEntity
  8
KONSTRUKTIONSELEMENTE
100
AcDbLine
 62
7
  6
CONTINUOUS
 10
133.6408296773
 20
85.393020127
 11
133.4737928032
 21
85.393020127
  0
LINE
  5
49D
100
AcDbEntity
  8
KONSTRUKTIONSELEMENTE
100
AcDbLine
 62
7
  6
CONTINUOUS
 10
131.3256136615
 20
85.5592704441
 11
131.0330266576
 21
85.5592704441
  0
LINE
  5
49E
100
AcDbEntity
  8
KONSTRUKTIONSELEMENTE
100
AcDbLine
 62
7
  6
CONTINUOUS
 10
131.1928499942
 20
86.0580204441
 11
130.8974285595
 21
86.0580204441
  0
LINE
  5
49F
100
AcDbEntity
  8
KONSTRUKTIONSELEMENTE
100
AcDbLine
 62
7
  6
CONTINUOUS
 10
133.7652880516
 20
86.2242702855
 11
133.6093909012
 21
86.2242702855
  0
LINE
  5
4A0
100
AcDbEntity
  8
KONSTRUKTIONSELEMENTE
100
AcDbLine
 62
7
  6
CONTINUOUS
 10
128.7278588
 20
76.7480202855
 11
129.4058492905
 21
76.5817699684
  0
LINE
  5
4A1
100
AcDbEntity
  8
KONSTRUKTIONSELEMENTE
100
AcDbLine
 62
7
  6
CONTINUOUS
 10
129.4058492905
 20
77.5792699684
 11
128.8634568981
 21
77.7455202855
  0
LINE
  5
4A2
100
AcDbEntity
  8
KONSTRUKTIONSELEMENTE
100
AcDbLine
 62
7
  6
CONTINUOUS
 10
129.7091640622
 20
77.5792699684
 11
129.1667716698
 21
77.7455202855
  0
LINE
  5
4A3
100
AcDbEntity
  8
KONSTRUKTIONSELEMENTE
100
AcDbLine
 62
7
  6
CONTINUOUS
 10
104.5308132508
 20
88.3562630979
 11
98.4566774539
 21
91.3311218022
  0
LINE
  5
4A4
100
AcDbEntity
  8
KONSTRUKTIONSELEMENTE
100
AcDbLine
 62
7
  6
CONTINUOUS
 10
99.9276281652
 20
91.8526679805
 11
105.130637475
 21
88.8147325818
  0
LINE
  5
4A5
100
AcDbEntity
  8
KONSTRUKTIONSELEMENTE
100
AcDbLine
 62
7
  6
CONTINUOUS
 10
128.1854663127
 20
77.0805199684
 11
128.7278588
 21
76.7480202855
  0
LINE
  5
4A6
100
AcDbEntity
  8
KONSTRUKTIONSELEMENTE
100
AcDbLine
 62
7
  6
CONTINUOUS
 10
128.8634568981
 20
69.7655202855
 11
128.4566626039
 21
70.0980209197
  0
LINE
  5
4A7
100
AcDbEntity
  8
KONSTRUKTIONSELEMENTE
100
AcDbLine
 62
7
  6
CONTINUOUS
 10
129.1667716698
 20
69.7655202855
 11
128.7599773755
 21
70.0980209197
  0
LWPOLYLINE
  5
4A8
100
AcDbEntity
  8
KONSTRUKTIONSELEMENTE
100
AcDbPolyline
 62
7
  6
CONTINUOUS
 90
10
 70
0
 10
99.4760420105
 20
94.1932031334
 10
99.2336234298
 20
94.3961461529
 10
98.6305226258
 20
94.8413549389
 10
98.0083280128
 20
95.231243493
 10
97.3683334579
 20
95.5671862735
 10
96.7129552218
 20
95.8494970809
 10
96.0440728723
 20
96.0785130418
 10
95.3636461543
 20
96.2542593802
 10
94.673403392
 20
96.3765505062
 10
94.582437386
 20
96.3885764443
  0
LINE
  5
4A9
100
AcDbEntity
  8
0
100
AcDbLine
 62
7
  6
CONTINUOUS
 10
176.7813330397
 20
19.5606358301
 11
180.6712887802
 21
15.6743111371
  0
LINE
  5
4AA
100
AcDbEntity
  8
0
100
AcDbLine
 62
7
  6
CONTINUOUS
 10
184.5613296318
 20
11.7842702855
 11
176.7813296318
 21
19.5642702855
  0
LINE
  5
4AB
100
AcDbEntity
  8
KONSTRUKTIONSELEMENTE
100
AcDbLine
 62
7
  6
CONTINUOUS
 10
127.6430738728
 20
69.7655202855
 11
128.1854663127
 21
69.1005209197
  0
LINE
  5
4AC
100
AcDbEntity
  8
KONSTRUKTIONSELEMENTE
100
AcDbLine
 62
7
  6
CONTINUOUS
 10
127.6430738728
 20
81.4030206026
 11
127.371877641
 21
80.7380202855
  0
LINE
  5
4AD
100
AcDbEntity
  8
KONSTRUKTIONSELEMENTE
100
AcDbLine
 62
7
  6
CONTINUOUS
 10
128.1854663127
 20
80.5717699684
 11
128.4566626039
 21
81.0705199684
  0
LINE
  5
4AE
100
AcDbEntity
  8
KONSTRUKTIONSELEMENTE
100
AcDbLine
 62
7
  6
CONTINUOUS
 10
128.4887810844
 20
80.5717699684
 11
128.7599773755
 21
81.0705199684
  0
LINE
  5
4AF
100
AcDbEntity
  8
KONSTRUKTIONSELEMENTE
100
AcDbLine
 62
7
  6
CONTINUOUS
 10
128.1854663127
 20
82.0680199684
 11
127.6430738728
 21
81.4030206026
  0
LINE
  5
4B0
100
AcDbEntity
  8
KONSTRUKTIONSELEMENTE
100
AcDbLine
 62
7
  6
CONTINUOUS
 10
132.7958023127
 20
85.5592704441
 11
132.5246061165
 21
85.2267702855
  0
LINE
  5
4B1
100
AcDbEntity
  8
KONSTRUKTIONSELEMENTE
100
AcDbLine
 62
7
  6
CONTINUOUS
 10
132.5246061165
 20
84.2292702855
 11
133.0669985089
 21
84.7280202855
  0
LINE
  5
4B2
100
AcDbEntity
  8
KONSTRUKTIONSELEMENTE
100
AcDbLine
 62
7
  6
CONTINUOUS
 10
128.4566626039
 20
81.0705199684
 11
128.8634568981
 21
81.4030206026
  0
LINE
  5
4B3
100
AcDbEntity
  8
KONSTRUKTIONSELEMENTE
100
AcDbLine
 62
7
  6
CONTINUOUS
 10
128.7599773755
 20
81.0705199684
 11
129.1667716698
 21
81.4030206026
  0
LINE
  5
4B4
100
AcDbEntity
  8
AUSFORMSCHRAEGEN
100
AcDbLine
 62
7
  6
CONTINUOUS
 10
155.7195454282
 20
97.3394289962
 11
164.1449557523
 21
98.5642702855
  0
LINE
  5
4B5
100
AcDbEntity
  8
KONSTRUKTIONSELEMENTE
100
AcDbLine
 62
7
  6
CONTINUOUS
 10
104.5308132508
 20
88.3562630979
 11
103.4660459314
 21
88.2843123092
  0
LINE
  5
4B6
100
AcDbEntity
  8
KONSTRUKTIONSELEMENTE
100
AcDbLine
 62
7
  6
CONTINUOUS
 10
127.2362795311
 20
89.2167702855
 11
130.0838399709
 21
89.2167702855
  0
LINE
  5
4B7
100
AcDbEntity
  8
KONSTRUKTIONSELEMENTE
100
AcDbLine
 62
7
  6
CONTINUOUS
 10
130.8974285595
 20
89.2167702855
 11
132.9314004108
 21
89.2167702855
  0
LINE
  5
4B8
100
AcDbEntity
  8
KONSTRUKTIONSELEMENTE
100
AcDbLine
 62
7
  6
CONTINUOUS
 10
135.441554454
 20
89.5642702855
 11
142.936216267
 21
89.5642702855
  0
LINE
  5
4B9
100
AcDbEntity
  8
KONSTRUKTIONSELEMENTE
100
AcDbLine
 62
7
  6
CONTINUOUS
 10
133.7652880516
 20
90.2142702855
 11
127.2362795311
 21
90.2142702855
  0
LINE
  5
4BA
100
AcDbEntity
  8
KONSTRUKTIONSELEMENTE
100
AcDbLine
 62
7
  6
CONTINUOUS
 10
39.9716531562
 20
91.4602702855
 11
60.8189582116
 21
91.4602702855
  0
LWPOLYLINE
  5
4BB
100
AcDbEntity
  8
KONSTRUKTIONSELEMENTE
100
AcDbPolyline
 62
7
  6
CONTINUOUS
 90
15
 70
0
 10
59.6310499179
 20
91.1082774675
 10
58.8684501809
 20
91.1201749837
 10
58.3708840629
 20
91.1308963946
 10
57.8723676252
 20
91.1439517999
 10
57.3748716454
 20
91.1594774663
 10
56.880825444
 20
91.1775646956
 10
56.392736317
 20
91.1982674868
 10
55.9134764527
 20
91.221700778
 10
55.4466752401
 20
91.2478945634
 10
54.9962586219
 20
91.2768337951
 10
54.5673491163
 20
91.3084788081
 10
54.1649319931
 20
91.3426747025
 10
53.7974946737
 20
91.3788941117
 10
53.4750512044
 20
91.4161599313
 10
53.3139599108
 20
91.4374944586
  0
LINE
  5
4BC
100
AcDbEntity
  8
KONSTRUKTIONSELEMENTE
100
AcDbLine
 62
7
  6
CONTINUOUS
 10
131.1686247557
 20
84.2292702855
 11
131.57541905
 21
84.0630204441
  0
LINE
  5
4BD
100
AcDbEntity
  8
KONSTRUKTIONSELEMENTE
100
AcDbLine
 62
7
  6
CONTINUOUS
 10
131.7110171481
 20
85.0605204441
 11
131.3042228538
 21
85.2267702855
  0
LINE
  5
4BE
100
AcDbEntity
  8
KONSTRUKTIONSELEMENTE
100
AcDbLine
 62
7
  6
CONTINUOUS
 10
128.8634568981
 20
77.7455202855
 11
128.4566626039
 21
78.0780199684
  0
LINE
  5
4BF
100
AcDbEntity
  8
KONSTRUKTIONSELEMENTE
100
AcDbLine
 62
7
  6
CONTINUOUS
 10
129.1667716698
 20
77.7455202855
 11
128.7599773755
 21
78.0780199684
  0
LINE
  5
4C0
100
AcDbEntity
  8
KONSTRUKTIONSELEMENTE
100
AcDbLine
 62
7
  6
CONTINUOUS
 10
127.6430738728
 20
77.7455202855
 11
128.1854663127
 21
77.0805199684
  0
LINE
  5
4C1
100
AcDbEntity
  8
KONSTRUKTIONSELEMENTE
100
AcDbLine
 62
7
  6
CONTINUOUS
 10
128.4566626039
 20
70.0980209197
 11
128.1854663127
 21
70.5967709197
  0
LINE
  5
4C2
100
AcDbEntity
  8
KONSTRUKTIONSELEMENTE
100
AcDbLine
 62
7
  6
CONTINUOUS
 10
128.7599773755
 20
70.0980209197
 11
128.4887810844
 21
70.5967709197
  0
LINE
  5
4C3
100
AcDbEntity
  8
KONSTRUKTIONSELEMENTE
100
AcDbLine
 62
7
  6
CONTINUOUS
 10
128.4566626039
 20
78.0780199684
 11
128.1854663127
 21
78.5767699684
  0
LINE
  5
4C4
100
AcDbEntity
  8
KONSTRUKTIONSELEMENTE
100
AcDbLine
 62
7
  6
CONTINUOUS
 10
128.7599773755
 20
78.0780199684
 11
128.4887810844
 21
78.5767699684
  0
LINE
  5
4C5
100
AcDbEntity
  8
KONSTRUKTIONSELEMENTE
100
AcDbLine
 62
7
  6
CONTINUOUS
 10
127.371877641
 20
70.4305196513
 11
127.6430738728
 21
69.7655202855
  0
LINE
  5
4C6
100
AcDbEntity
  8
KONSTRUKTIONSELEMENTE
100
AcDbLine
 62
7
  6
CONTINUOUS
 10
127.371877641
 20
78.4105206026
 11
127.6430738728
 21
77.7455202855
  0
LINE
  5
4C7
100
AcDbEntity
  8
KONSTRUKTIONSELEMENTE
100
AcDbLine
 62
7
  6
CONTINUOUS
 10
127.2362795311
 20
71.2617702855
 11
127.371877641
 21
70.4305196513
  0
LINE
  5
4C8
100
AcDbEntity
  8
KONSTRUKTIONSELEMENTE
100
AcDbLine
 62
7
  6
CONTINUOUS
 10
127.2362795311
 20
90.2142702855
 11
127.2362795311
 21
89.2167702855
  0
LINE
  5
4C9
100
AcDbEntity
  8
KONSTRUKTIONSELEMENTE
100
AcDbLine
 62
7
  6
CONTINUOUS
 10
127.2362795311
 20
85.0605204441
 11
127.2362795311
 21
83.896770127
  0
LINE
  5
4CA
100
AcDbEntity
  8
KONSTRUKTIONSELEMENTE
100
AcDbLine
 62
7
  6
CONTINUOUS
 10
127.2362795311
 20
79.9067706026
 11
127.2362795311
 21
79.2417702855
  0
LINE
  5
4CB
100
AcDbEntity
  8
KONSTRUKTIONSELEMENTE
100
AcDbLine
 62
7
  6
CONTINUOUS
 10
127.2362795311
 20
75.2517702855
 11
127.2362795311
 21
71.2617702855
  0
LINE
  5
4CC
100
AcDbEntity
  8
KONSTRUKTIONSELEMENTE
100
AcDbLine
 62
7
  6
CONTINUOUS
 10
128.0498682146
 20
71.2617702855
 11
128.0498682146
 21
74.2542702855
  0
LINE
  5
4CD
100
AcDbEntity
  8
KONSTRUKTIONSELEMENTE
100
AcDbLine
 62
7
  6
CONTINUOUS
 10
128.0498682146
 20
79.2417702855
 11
128.0498682146
 21
79.9067706026
  0
LINE
  5
4CE
100
AcDbEntity
  8
KONSTRUKTIONSELEMENTE
100
AcDbLine
 62
7
  6
CONTINUOUS
 10
128.3531829863
 20
71.2617702855
 11
128.3531829863
 21
74.2542702855
  0
LINE
  5
4CF
100
AcDbEntity
  8
KONSTRUKTIONSELEMENTE
100
AcDbLine
 62
7
  6
CONTINUOUS
 10
128.3531829863
 20
79.2417702855
 11
128.3531829863
 21
79.9067706026
  0
LINE
  5
4D0
100
AcDbEntity
  8
KONSTRUKTIONSELEMENTE
100
AcDbLine
 62
7
  6
CONTINUOUS
 10
130.0838399709
 20
89.2167702855
 11
130.0838399709
 21
86.3905203648
  0
LINE
  5
4D1
100
AcDbEntity
  8
KONSTRUKTIONSELEMENTE
100
AcDbLine
 62
7
  6
CONTINUOUS
 10
130.8974285595
 20
86.0580204441
 11
130.8974285595
 21
89.2167702855
  0
LINE
  5
4D2
100
AcDbEntity
  8
KONSTRUKTIONSELEMENTE
100
AcDbLine
 62
7
  6
CONTINUOUS
 10
131.1928499942
 20
89.2167702855
 11
131.1928499942
 21
86.0580204441
  0
LINE
  5
4D3
100
AcDbEntity
  8
KONSTRUKTIONSELEMENTE
100
AcDbLine
 62
7
  6
CONTINUOUS
 10
127.371877641
 20
80.7380202855
 11
127.2362795311
 21
79.9067706026
  0
LINE
  5
4D4
100
AcDbEntity
  8
KONSTRUKTIONSELEMENTE
100
AcDbLine
 62
7
  6
CONTINUOUS
 10
133.4737928032
 20
85.393020127
 11
133.6093909012
 21
86.2242702855
  0
LINE
  5
4D5
100
AcDbEntity
  8
KONSTRUKTIONSELEMENTE
100
AcDbLine
 62
7
  6
CONTINUOUS
 10
128.0498682146
 20
79.9067706026
 11
128.1854663127
 21
80.5717699684
  0
LINE
  5
4D6
100
AcDbEntity
  8
KONSTRUKTIONSELEMENTE
100
AcDbLine
 62
7
  6
CONTINUOUS
 10
128.3531829863
 20
79.9067706026
 11
128.4887810844
 21
80.5717699684
  0
LINE
  5
4D7
100
AcDbEntity
  8
KONSTRUKTIONSELEMENTE
100
AcDbLine
 62
7
  6
CONTINUOUS
 10
132.9314004108
 20
86.0580204441
 11
132.7958023127
 21
85.5592704441
  0
LINE
  5
4D8
100
AcDbEntity
  8
KONSTRUKTIONSELEMENTE
100
AcDbLine
 62
7
  6
CONTINUOUS
 10
133.0669985089
 20
84.7280202855
 11
133.4737928032
 21
85.393020127
  0
LINE
  5
4D9
100
AcDbEntity
  8
KONSTRUKTIONSELEMENTE
100
AcDbLine
 62
7
  6
CONTINUOUS
 10
132.3890080184
 20
70.0980209197
 11
131.9822133442
 21
69.7655202855
  0
LINE
  5
4DA
100
AcDbEntity
  8
KONSTRUKTIONSELEMENTE
100
AcDbLine
 62
7
  6
CONTINUOUS
 10
132.1178118222
 20
68.7680202855
 11
132.6602042146
 21
69.1005209197
  0
LINE
  5
4DB
100
AcDbEntity
  8
KONSTRUKTIONSELEMENTE
100
AcDbLine
 62
7
  6
CONTINUOUS
 10
131.9822133442
 20
69.7655202855
 11
131.4398209519
 21
69.5992709197
  0
LINE
  5
4DC
100
AcDbEntity
  8
KONSTRUKTIONSELEMENTE
100
AcDbLine
 62
7
  6
CONTINUOUS
 10
109.735790305
 20
96.6903285681
 11
99.4075591396
 21
94.1765350521
  0
LINE
  5
4DD
100
AcDbEntity
  8
KONSTRUKTIONSELEMENTE
100
AcDbLine
 62
7
  6
CONTINUOUS
 10
120.9592048275
 20
98.79569081
 11
117.2283623931
 21
98.2471889407
  0
LINE
  5
4DE
100
AcDbEntity
  8
KONSTRUKTIONSELEMENTE
100
AcDbLine
 62
7
  6
CONTINUOUS
 10
122.0232370515
 20
98.8836893405
 11
143.8023787911
 21
99.2934523279
  0
LINE
  5
4DF
100
AcDbEntity
  8
KONSTRUKTIONSELEMENTE
100
AcDbLine
 62
7
  6
CONTINUOUS
 10
152.3709485252
 20
99.4546654177
 11
159.7916559433
 21
99.5942820875
  0
LINE
  5
4E0
100
AcDbEntity
  8
BEZUGSACHSEN
100
AcDbLine
 62
7
  6
CONTINUOUS
 10
127.7744632858
 20
96.9580339027
 11
127.7163753737
 21
96.9571376468
  0
LINE
  5
4E1
100
AcDbEntity
  8
KONSTRUKTIONSELEMENTE
100
AcDbLine
 62
7
  6
CONTINUOUS
 10
102.4386354716
 20
94.9142702855
 11
98.5141623598
 21
94.9142702855
  0
LINE
  5
4E2
100
AcDbEntity
  8
KONSTRUKTIONSELEMENTE
100
AcDbLine
 62
7
  6
CONTINUOUS
 10
76.1040063068
 20
96.4602702855
 11
88.7797231676
 21
96.4602702855
  0
LINE
  5
4E3
100
AcDbEntity
  8
KONSTRUKTIONSELEMENTE
100
AcDbLine
 62
7
  6
CONTINUOUS
 10
84.5840824761
 20
97.5642702855
 11
95.2554096318
 21
97.5642702855
  0
LINE
  5
4E4
100
AcDbEntity
  8
AUSFORMSCHRAEGEN
100
AcDbLine
 62
7
  6
CONTINUOUS
 10
128.7729769164
 20
97.9518496409
 11
130.3827367185
 21
97.9518496409
  0
LINE
  5
4E5
100
AcDbEntity
  8
KONSTRUKTIONSELEMENTE
100
AcDbLine
 62
7
  6
CONTINUOUS
 10
143.799729376
 20
99.4342702855
 11
152.3713322488
 21
99.4342702855
  0
LINE
  5
4E6
100
AcDbEntity
  8
KONSTRUKTIONSELEMENTE
100
AcDbLine
 62
7
  6
CONTINUOUS
 10
93.5028513723
 20
96.4601136712
 11
89.9155174744
 21
96.4602702855
  0
LINE
  5
4E7
100
AcDbEntity
  8
KONSTRUKTIONSELEMENTE
100
AcDbLine
 62
7
  6
CONTINUOUS
 10
130.6262323633
 20
84.7280202855
 11
131.1686247557
 21
84.2292702855
  0
LINE
  5
4E8
100
AcDbEntity
  8
KONSTRUKTIONSELEMENTE
100
AcDbLine
 62
7
  6
CONTINUOUS
 10
131.3042228538
 20
85.2267702855
 11
131.0330266576
 21
85.5592704441
  0
LINE
  5
4E9
100
AcDbEntity
  8
KONSTRUKTIONSELEMENTE
100
AcDbLine
 62
7
  6
CONTINUOUS
 10
130.3550361671
 20
85.393020127
 11
130.6262323633
 21
84.7280202855
  0
LINE
  5
4EA
100
AcDbEntity
  8
KONSTRUKTIONSELEMENTE
100
AcDbLine
 62
7
  6
CONTINUOUS
 10
131.0330266576
 20
85.5592704441
 11
130.8974285595
 21
86.0580204441
  0
LINE
  5
4EB
100
AcDbEntity
  8
KONSTRUKTIONSELEMENTE
100
AcDbLine
 62
7
  6
CONTINUOUS
 10
128.1854663127
 20
70.5967709197
 11
128.0498682146
 21
71.2617702855
  0
LINE
  5
4EC
100
AcDbEntity
  8
KONSTRUKTIONSELEMENTE
100
AcDbLine
 62
7
  6
CONTINUOUS
 10
128.4887810844
 20
70.5967709197
 11
128.3531829863
 21
71.2617702855
  0
LINE
  5
4ED
100
AcDbEntity
  8
KONSTRUKTIONSELEMENTE
100
AcDbLine
 62
7
  6
CONTINUOUS
 10
128.1854663127
 20
78.5767699684
 11
128.0498682146
 21
79.2417702855
  0
LINE
  5
4EE
100
AcDbEntity
  8
KONSTRUKTIONSELEMENTE
100
AcDbLine
 62
7
  6
CONTINUOUS
 10
128.4887810844
 20
78.5767699684
 11
128.3531829863
 21
79.2417702855
  0
LINE
  5
4EF
100
AcDbEntity
  8
KONSTRUKTIONSELEMENTE
100
AcDbLine
 62
7
  6
CONTINUOUS
 10
127.2362795311
 20
79.2417702855
 11
127.371877641
 21
78.4105206026
  0
LINE
  5
4F0
100
AcDbEntity
  8
KONSTRUKTIONSELEMENTE
100
AcDbLine
 62
7
  6
CONTINUOUS
 10
132.7958023127
 20
74.2542702855
 11
132.7958023127
 21
71.2617702855
  0
LINE
  5
4F1
100
AcDbEntity
  8
KONSTRUKTIONSELEMENTE
100
AcDbLine
 62
7
  6
CONTINUOUS
 10
132.9314004108
 20
89.2167702855
 11
132.9314004108
 21
86.0580204441
  0
LINE
  5
4F2
100
AcDbEntity
  8
KONSTRUKTIONSELEMENTE
100
AcDbLine
 62
7
  6
CONTINUOUS
 10
133.6093909012
 20
71.2617702855
 11
133.6093909012
 21
75.2517702855
  0
LINE
  5
4F3
100
AcDbEntity
  8
KONSTRUKTIONSELEMENTE
100
AcDbLine
 62
7
  6
CONTINUOUS
 10
133.6093909012
 20
76.5817699684
 11
133.6093909012
 21
77.5792699684
  0
LINE
  5
4F4
100
AcDbEntity
  8
KONSTRUKTIONSELEMENTE
100
AcDbLine
 62
7
  6
CONTINUOUS
 10
133.6093909012
 20
81.5692699684
 11
133.6093909012
 21
82.5667704441
  0
LINE
  5
4F5
100
AcDbEntity
  8
KONSTRUKTIONSELEMENTE
100
AcDbLine
 62
7
  6
CONTINUOUS
 10
133.6093909012
 20
86.2242702855
 11
133.6093909012
 21
90.2142702855
  0
LINE
  5
4F6
100
AcDbEntity
  8
KONSTRUKTIONSELEMENTE
100
AcDbLine
 62
7
  6
CONTINUOUS
 10
133.7652880516
 20
90.2142702855
 11
133.7652880516
 21
86.2242702855
  0
LINE
  5
4F7
100
AcDbEntity
  8
KONSTRUKTIONSELEMENTE
100
AcDbLine
 62
7
  6
CONTINUOUS
 10
133.7652880516
 20
82.5667704441
 11
133.7652880516
 21
81.5692699684
  0
LINE
  5
4F8
100
AcDbEntity
  8
KONSTRUKTIONSELEMENTE
100
AcDbLine
 62
7
  6
CONTINUOUS
 10
133.7652880516
 20
77.5792699684
 11
133.7652880516
 21
76.5817699684
  0
LINE
  5
4F9
100
AcDbEntity
  8
KONSTRUKTIONSELEMENTE
100
AcDbLine
 62
7
  6
CONTINUOUS
 10
133.7652880516
 20
75.2517702855
 11
133.7652880516
 21
71.2617702855
  0
LINE
  5
4FA
100
AcDbEntity
  8
0
100
AcDbLine
 62
7
  6
CONTINUOUS
 10
135.441554454
 20
69.5642702855
 11
135.441554454
 21
89.5642702855
  0
LINE
  5
4FB
100
AcDbEntity
  8
KONSTRUKTIONSELEMENTE
100
AcDbLine
 62
7
  6
CONTINUOUS
 10
133.4737928032
 20
70.4305196513
 11
133.6093909012
 21
71.2617702855
  0
LINE
  5
4FC
100
AcDbEntity
  8
KONSTRUKTIONSELEMENTE
100
AcDbLine
 62
7
  6
CONTINUOUS
 10
132.7958023127
 20
71.2617702855
 11
132.6602042146
 21
70.5967709197
  0
LINE
  5
4FD
100
AcDbEntity
  8
KONSTRUKTIONSELEMENTE
100
AcDbLine
 62
7
  6
CONTINUOUS
 10
133.202596607
 20
69.7655202855
 11
133.4737928032
 21
70.4305196513
  0
LINE
  5
4FE
100
AcDbEntity
  8
KONSTRUKTIONSELEMENTE
100
AcDbLine
 62
7
  6
CONTINUOUS
 10
132.6602042146
 20
70.5967709197
 11
132.3890080184
 21
70.0980209197
  0
LINE
  5
4FF
100
AcDbEntity
  8
KONSTRUKTIONSELEMENTE
100
AcDbLine
 62
7
  6
CONTINUOUS
 10
132.6602042146
 20
69.1005209197
 11
133.202596607
 21
69.7655202855
  0
LINE
  5
500
100
AcDbEntity
  8
0
100
AcDbLine
 62
7
  6
CONTINUOUS
 10
141.1890005555
 20
72.3899587979
 11
140.5613296318
 21
79.5642702855
  0
LINE
  5
501
100
AcDbEntity
  8
0
100
AcDbLine
 62
7
  6
CONTINUOUS
 10
143.799729376
 20
59.6942702855
 11
142.0613296318
 21
79.5642702855
  0
LINE
  5
502
100
AcDbEntity
  8
0
100
AcDbLine
 62
7
  6
CONTINUOUS
 10
140.1254860449
 20
69.5642702855
 11
140.1254860449
 21
89.5642702855
  0
LINE
  5
503
100
AcDbEntity
  8
0
100
AcDbLine
 62
7
  6
CONTINUOUS
 10
140.335426955
 20
89.5642702855
 11
140.335426955
 21
69.5642702855
  0
LINE
  5
504
100
AcDbEntity
  8
AUSFORMSCHRAEGEN
100
AcDbLine
 62
7
  6
CONTINUOUS
 10
140.5613296318
 20
79.5642702855
 11
141.1890005555
 21
86.7385817732
  0
LINE
  5
505
100
AcDbEntity
  8
0
100
AcDbLine
 62
7
  6
CONTINUOUS
 10
143.799729376
 20
99.4342702855
 11
142.0613296318
 21
79.5642702855
  0
LINE
  5
506
100
AcDbEntity
  8
0
100
AcDbLine
 62
7
  6
CONTINUOUS
 10
152.3713322488
 20
59.6942702855
 11
152.8100523542
 21
62.1823756431
  0
LINE
  5
507
100
AcDbEntity
  8
KONSTRUKTIONSELEMENTE
100
AcDbLine
 62
7
  6
CONTINUOUS
 10
163.9945250447
 20
95.8187783747
 11
169.4619683191
 21
109.6902702855
  0
LINE
  5
508
100
AcDbEntity
  8
0
100
AcDbLine
 62
7
  6
CONTINUOUS
 10
163.9945250447
 20
63.3097621964
 11
169.4619683191
 21
49.4382702855
  0
LINE
  5
509
100
AcDbEntity
  8
KONSTRUKTIONSELEMENTE
100
AcDbLine
 62
7
  6
CONTINUOUS
 10
152.3713322488
 20
99.4342702855
 11
152.8100523542
 21
96.946164928
  0
LINE
  5
50A
100
AcDbEntity
  8
0
100
AcDbLine
 62
7
  6
CONTINUOUS
 10
171.1487330039
 20
42.4812742089
 11
173.1537110492
 21
19.5642702855
  0
LINE
  5
50B
100
AcDbEntity
  8
RUNDUNGEN
100
AcDbLine
 62
7
  6
CONTINUOUS
 10
171.1487330039
 20
116.6472663622
 11
173.1537110492
 21
139.5642702855
  0
LINE
  5
50C
100
AcDbEntity
  8
0
100
AcDbLine
 62
7
  6
CONTINUOUS
 10
174.203235418
 20
139.5642702855
 11
176.7813296318
 21
139.5642702855
  0
LINE
  5
50D
100
AcDbEntity
  8
RUNDUNGEN
100
AcDbLine
 62
7
  6
CONTINUOUS
 10
173.1537110492
 20
139.5642702855
 11
176.7813296318
 21
139.5642702855
  0
LINE
  5
50E
100
AcDbEntity
  8
0
100
AcDbLine
 62
7
  6
CONTINUOUS
 10
176.7813296318
 20
19.5642702855
 11
176.7813296318
 21
139.5642702855
  0
LINE
  5
50F
100
AcDbEntity
  8
0
100
AcDbLine
 62
7
  6
CONTINUOUS
 10
184.5613296318
 20
11.7842702855
 11
184.5613296318
 21
147.3442702855
  0
LINE
  5
510
100
AcDbEntity
  8
0
100
AcDbLine
 62
7
  6
CONTINUOUS
 10
184.9683370363
 20
119.7816563849
 11
184.9683370363
 21
39.3468841862
  0
ARC
  5
511
100
AcDbEntity
  8
0
100
AcDbCircle
 62
7
  6
CONTINUOUS
 10
87.722780871
 20
247.4501491738
 40
48.4066732909
100
AcDbArc
 50
128.692152864
 51
167.3734240923
  0
ARC
  5
512
100
AcDbEntity
  8
0
100
AcDbCircle
 62
7
  6
CONTINUOUS
 10
87.722780871
 20
247.4501491738
 40
47.1563533081
100
AcDbArc
 50
153.4552122978
 51
167.3734240923
  0
ARC
  5
513
100
AcDbEntity
  8
0
100
AcDbCircle
 62
7
  6
CONTINUOUS
 10
82.6070276062
 20
252.8700162406
 40
39.8026807466
100
AcDbArc
 50
127.8215489077
 51
135.2963408407
  0
ARC
  5
514
100
AcDbEntity
  8
0
100
AcDbCircle
 62
7
  6
CONTINUOUS
 10
61.1787298246
 20
263.9662645658
 40
6.359884608
100
AcDbArc
 50
348.423283736
 51
156.5805443717
  0
ARC
  5
515
100
AcDbEntity
  8
0
100
AcDbCircle
 62
7
  6
CONTINUOUS
 10
51.4488139113
 20
388.2146329293
 40
109.1472141487
100
AcDbArc
 50
298.3186734554
 51
298.739163588
  0
ARC
  5
516
100
AcDbEntity
  8
0
100
AcDbCircle
 62
7
  6
CONTINUOUS
 10
30.0520752346
 20
332.9899891738
 40
84.48
100
AcDbArc
 50
322.0
 51
335.7550363583
  0
ARC
  5
517
100
AcDbEntity
  8
0
100
AcDbCircle
 62
7
  6
CONTINUOUS
 10
30.0520752346
 20
332.9899891738
 40
84.2394061753
100
AcDbArc
 50
331.2815245644
 51
335.6090271875
  0
ARC
  5
518
100
AcDbEntity
  8
0
100
AcDbCircle
 62
7
  6
CONTINUOUS
 10
98.4413296318
 20
290.7906098961
 40
69.12
100
AcDbArc
 50
322.0
 51
360.0
  0
ARC
  5
519
100
AcDbEntity
  8
0
100
AcDbCircle
 62
7
  6
CONTINUOUS
 10
94.8860886598
 20
295.5269491738
 40
15.36
100
AcDbArc
 50
55.7358586983
 51
122.2019944822
  0
ARC
  5
51A
100
AcDbEntity
  8
0
100
AcDbCircle
 62
7
  6
CONTINUOUS
 10
99.962184623
 20
301.2931732684
 40
7.4793158083
100
AcDbArc
 50
335.5913338654
 51
3.4630161642
  0
ARC
  5
51B
100
AcDbEntity
  8
0
100
AcDbCircle
 62
7
  6
CONTINUOUS
 10
100.2625695647
 20
301.3724855064
 40
7.4788312483
100
AcDbArc
 50
335.7369112192
 51
3.9396108714
  0
ARC
  5
51C
100
AcDbEntity
  8
0
100
AcDbCircle
 62
7
  6
CONTINUOUS
 10
100.323770314
 20
300.297014215
 40
2.0
100
AcDbArc
 50
123.0
 51
214.7365015759
  0
ARC
  5
51D
100
AcDbEntity
  8
0
100
AcDbCircle
 62
7
  6
CONTINUOUS
 10
150.5991451894
 20
263.7641950018
 40
108.9613948504
100
AcDbArc
 50
80.0310339601
 51
82.9383680929
  0
ARC
  5
51E
100
AcDbEntity
  8
0
100
AcDbCircle
 62
7
  6
CONTINUOUS
 10
174.203235418
 20
268.9661491738
 40
104.86
100
AcDbArc
 50
90.0
 51
106.6292554642
  0
ARC
  5
51F
100
AcDbEntity
  8
0
100
AcDbCircle
 62
7
  6
CONTINUOUS
 10
174.203235418
 20
268.9661491738
 40
103.1216002557
100
AcDbArc
 50
102.2225980487
 51
105.8896236316
  0
ARC
  5
520
100
AcDbEntity
  8
0
100
AcDbCircle
 62
7
  6
CONTINUOUS
 10
111.7213296318
 20
242.0741491738
 40
73.0
100
AcDbArc
 50
167.3734240923
 51
273.015306652
  0
ARC
  5
521
100
AcDbEntity
  8
0
100
AcDbCircle
 62
7
  6
CONTINUOUS
 10
111.7213296318
 20
242.0741491738
 40
71.7496800173
100
AcDbArc
 50
167.3734240923
 51
273.015306652
  0
ARC
  5
522
100
AcDbEntity
  8
0
100
AcDbCircle
 62
7
  6
CONTINUOUS
 10
111.7213296318
 20
242.0741491738
 40
61.44
100
AcDbArc
 50
156.5805443717
 51
273.767027135
  0
ARC
  5
523
100
AcDbEntity
  8
0
100
AcDbCircle
 62
7
  6
CONTINUOUS
 10
115.5613296318
 20
252.8261491738
 40
49.152
100
AcDbArc
 50
168.423283736
 51
295.3361329433
  0
ARC
  5
524
100
AcDbEntity
  8
0
100
AcDbCircle
 62
7
  6
CONTINUOUS
 10
115.5613296318
 20
252.8261491738
 40
32.256
100
AcDbArc
 50
142.0
 51
322.0
  0
ARC
  5
525
100
AcDbEntity
  8
0
100
AcDbCircle
 62
7
  6
CONTINUOUS
 10
139.8813296318
 20
201.4606566326
 40
7.68
100
AcDbArc
 50
111.3613943932
 51
115.3361329433
  0
ARC
  5
526
100
AcDbEntity
  8
0
100
AcDbCircle
 62
7
  6
CONTINUOUS
 10
137.6174759147
 20
175.7278446513
 40
6.5256260925
100
AcDbArc
 50
62.3040607323
 51
64.4013781771
  0
ARC
  5
527
100
AcDbEntity
  8
0
100
AcDbCircle
 62
7
  6
CONTINUOUS
 10
154.5613296318
 20
337.9040236581
 40
68.0
100
AcDbArc
 50
214.7365015759
 51
221.8762173803
  0
ARC
  5
528
100
AcDbEntity
  8
0
100
AcDbCircle
 62
7
  6
CONTINUOUS
 10
106.3101357924
 20
360.3945170515
 40
40.0
100
AcDbArc
 50
307.0
 51
350.1918441469
  0
ARC
  5
529
100
AcDbEntity
  8
0
100
AcDbCircle
 62
7
  6
CONTINUOUS
 10
105.6553489964
 20
338.0073200969
 40
25.5124460644
100
AcDbArc
 50
297.0011427723
 51
306.9907640251
  0
ARC
  5
52A
100
AcDbEntity
  8
0
100
AcDbCircle
 62
7
  6
CONTINUOUS
 10
105.692996962
 20
337.9539762812
 40
25.4471864409
100
AcDbArc
 50
306.9953247506
 51
335.090706388
  0
ARC
  5
52B
100
AcDbEntity
  8
0
100
AcDbCircle
 62
7
  6
CONTINUOUS
 10
106.2124461176
 20
336.9825120641
 40
24.3482788631
100
AcDbArc
 50
278.3202597794
 51
292.3568345271
  0
ARC
  5
52C
100
AcDbEntity
  8
0
100
AcDbCircle
 62
7
  6
CONTINUOUS
 10
106.2673424905
 20
336.807896455
 40
24.1659125383
100
AcDbArc
 50
292.3939377985
 51
296.999396815
  0
ARC
  5
52D
100
AcDbEntity
  8
0
100
AcDbCircle
 62
7
  6
CONTINUOUS
 10
154.5613296318
 20
337.9040236581
 40
22.7383997443
100
AcDbArc
 50
101.6387548987
 51
107.5858670094
  0
ARC
  5
52E
100
AcDbEntity
  8
0
100
AcDbCircle
 62
7
  6
CONTINUOUS
 10
154.5613296318
 20
337.9040236581
 40
21.0
100
AcDbArc
 50
100.1033142492
 51
113.3594464908
  0
ARC
  5
52F
100
AcDbEntity
  8
0
100
AcDbCircle
 62
7
  6
CONTINUOUS
 10
155.961780165
 20
337.7072031712
 40
20.0
100
AcDbArc
 50
98.9275130641
 51
115.3561677678
  0
ARC
  5
530
100
AcDbEntity
  8
0
100
AcDbCircle
 62
7
  6
CONTINUOUS
 10
154.5613296318
 20
337.9040236581
 40
14.0
100
AcDbArc
 50
264.8727689465
 51
270.0
  0
ARC
  5
531
100
AcDbEntity
  8
0
100
AcDbCircle
 62
7
  6
CONTINUOUS
 10
154.5613296318
 20
337.9040236581
 40
14.0
100
AcDbArc
 50
138.8176693047
 51
171.3015155184
  0
ARC
  5
532
100
AcDbEntity
  8
0
100
AcDbCircle
 62
7
  6
CONTINUOUS
 10
154.5613296318
 20
337.9040236581
 40
12.0
100
AcDbArc
 50
295.8400631278
 51
37.0
  0
ARC
  5
533
100
AcDbEntity
  8
0
100
AcDbCircle
 62
7
  6
CONTINUOUS
 10
158.6013296318
 20
314.9440236581
 40
8.96
100
AcDbArc
 50
0.0
 51
90.0
  0
CIRCLE
  5
534
100
AcDbEntity
  8
0
100
AcDbCircle
 62
7
  6
CONTINUOUS
 10
154.5613296318
 20
337.9040236581
 40
5.0
  0
ARC
  5
535
100
AcDbEntity
  8
0
100
AcDbCircle
 62
7
  6
CONTINUOUS
 10
151.5820280057
 20
354.6295232288
 40
4.0112221899
100
AcDbArc
 50
78.2110548317
 51
100.1154640194
  0
ARC
  5
536
100
AcDbEntity
  8
0
100
AcDbCircle
 62
7
  6
CONTINUOUS
 10
151.5926242896
 20
354.6799138268
 40
3.9597295935
100
AcDbArc
 50
73.8231346974
 51
78.2121778698
  0
ARC
  5
537
100
AcDbEntity
  8
0
100
AcDbCircle
 62
7
  6
CONTINUOUS
 10
153.3236388981
 20
354.5012560071
 40
3.0
100
AcDbArc
 50
37.0
 51
98.9275130641
  0
ARC
  5
538
100
AcDbEntity
  8
0
100
AcDbCircle
 62
7
  6
CONTINUOUS
 10
148.6816331628
 20
353.0694770792
 40
3.0
100
AcDbArc
 50
115.3561677678
 51
170.1918441469
  0
ARC
  5
539
100
AcDbEntity
  8
0
100
AcDbCircle
 62
7
  6
CONTINUOUS
 10
145.04743536
 20
366.5788003025
 40
2.986091306
100
AcDbArc
 50
106.5938290159
 51
180.0354264226
  0
ARC
  5
53A
100
AcDbEntity
  8
0
100
AcDbCircle
 62
7
  6
CONTINUOUS
 10
146.7857695956
 20
365.2750945285
 40
2.9860239254
100
AcDbArc
 50
105.8527677209
 51
180.036855911
  0
ARC
  5
53B
100
AcDbEntity
  8
0
100
AcDbCircle
 62
7
  6
CONTINUOUS
 10
111.7534086597
 20
313.1587553821
 40
1.4
100
AcDbArc
 50
25.8820318276
 51
182.3846210317
  0
ARC
  5
53C
100
AcDbEntity
  8
0
100
AcDbCircle
 62
7
  6
CONTINUOUS
 10
114.6775499827
 20
314.8613996558
 40
1.4
100
AcDbArc
 50
35.7444056065
 51
187.4542829352
  0
ARC
  5
53D
100
AcDbEntity
  8
0
100
AcDbCircle
 62
7
  6
CONTINUOUS
 10
118.1433248266
 20
315.8452719706
 40
1.4
100
AcDbArc
 50
35.1091272942
 51
203.7982710701
  0
ARC
  5
53E
100
AcDbEntity
  8
0
100
AcDbCircle
 62
7
  6
CONTINUOUS
 10
127.8539005423
 20
325.2913462488
 40
1.4
100
AcDbArc
 50
71.6153789683
 51
228.1179681724
  0
ARC
  5
53F
100
AcDbEntity
  8
0
100
AcDbCircle
 62
7
  6
CONTINUOUS
 10
125.4112112378
 20
322.949793567
 40
1.4
100
AcDbArc
 50
66.5549996621
 51
218.2577066871
  0
ARC
  5
540
100
AcDbEntity
  8
0
100
AcDbCircle
 62
7
  6
CONTINUOUS
 10
123.5101554541
 20
319.8894689261
 40
1.4
100
AcDbArc
 50
50.2036493673
 51
218.8888868747
  0
ARC
  5
541
100
AcDbEntity
  8
0
100
AcDbCircle
 62
7
  6
CONTINUOUS
 10
120.5258326288
 20
318.2666882034
 40
1.4
100
AcDbArc
 50
45.9752053111
 51
208.0404335021
  0
ARC
  5
542
100
AcDbEntity
  8
BEZUGSACHSEN
100
AcDbCircle
 62
7
  6
CONTINUOUS
 10
111.7534086597
 20
313.1587553821
 40
1.4
100
AcDbArc
 50
116.7511466803
 51
127.0
  0
ARC
  5
543
100
AcDbEntity
  8
KONSTRUKTIONSELEMENTE
100
AcDbCircle
 62
7
  6
CONTINUOUS
 10
223.9677386808
 20
539.6434160947
 40
220.9426998509
100
AcDbArc
 50
287.3247347318
 51
287.4474992724
  0
ARC
  5
544
100
AcDbEntity
  8
0
100
AcDbCircle
 62
7
  6
CONTINUOUS
 10
258.3914470721
 20
199.8527330074
 40
30.7933263355
100
AcDbArc
 50
179.98119674
 51
263.9756248296
  0
ARC
  5
545
100
AcDbEntity
  8
0
100
AcDbCircle
 62
7
  6
CONTINUOUS
 10
258.3771299929
 20
347.5012123598
 40
30.78
100
AcDbArc
 50
95.0
 51
180.0
  0
ARC
  5
546
100
AcDbEntity
  8
KONSTRUKTIONSELEMENTE
100
AcDbCircle
 62
7
  6
CONTINUOUS
 10
312.3505528817
 20
-309.0930109488
 40
681.8022427518
100
AcDbArc
 50
92.793441463
 51
93.9611913187
  0
ARC
  5
547
100
AcDbEntity
  8
0
100
AcDbCircle
 62
7
  6
CONTINUOUS
 10
278.4037071041
 20
-309.0930109488
 40
681.8022427518
100
AcDbArc
 50
86.0388086813
 51
87.206558537
  0
ARC
  5
548
100
AcDbEntity
  8
KONSTRUKTIONSELEMENTE
100
AcDbCircle
 62
7
  6
CONTINUOUS
 10
288.5124076406
 20
222.6832502623
 40
8.4856120267
100
AcDbArc
 50
167.0945306352
 51
176.7215761348
  0
ARC
  5
549
100
AcDbEntity
  8
0
100
AcDbCircle
 62
7
  6
CONTINUOUS
 10
302.2418523452
 20
222.6832502623
 40
8.4856120267
100
AcDbArc
 50
3.2784238652
 51
12.9054693648
  0
ARC
  5
54A
100
AcDbEntity
  8
KONSTRUKTIONSELEMENTE
100
AcDbCircle
 62
7
  6
CONTINUOUS
 10
288.4200963841
 20
222.6915198858
 40
8.3929794488
100
AcDbArc
 50
176.7418989279
 51
178.4100684809
  0
ARC
  5
54B
100
AcDbEntity
  8
0
100
AcDbCircle
 62
7
  6
CONTINUOUS
 10
302.3341636022
 20
222.6915198858
 40
8.3929794484
100
AcDbArc
 50
1.589931519
 51
3.2581010721
  0
ARC
  5
54C
100
AcDbEntity
  8
KONSTRUKTIONSELEMENTE
100
AcDbCircle
 62
7
  6
CONTINUOUS
 10
288.386363705
 20
222.6924585448
 40
8.3592337126
100
AcDbArc
 50
178.4100845978
 51
179.9993849084
  0
ARC
  5
54D
100
AcDbEntity
  8
0
100
AcDbCircle
 62
7
  6
CONTINUOUS
 10
302.3678962808
 20
222.6924585448
 40
8.3592337126
100
AcDbArc
 50
0.0006150916
 51
1.5899154022
  0
ARC
  5
54E
100
AcDbEntity
  8
DEFAULT_2
100
AcDbCircle
 62
8
  6
HIDDEN
 10
302.7271299929
 20
211.8965487965
 40
8.0
100
AcDbArc
 50
27.4000169325
 51
85.0
  0
ARC
  5
54F
100
AcDbEntity
  8
KONSTRUKTIONSELEMENTE
100
AcDbCircle
 62
8
  6
HIDDEN
 10
288.0271299929
 20
211.8965487965
 40
8.0
100
AcDbArc
 50
95.0
 51
152.5999830675
  0
ARC
  5
550
100
AcDbEntity
  8
KONSTRUKTIONSELEMENTE
100
AcDbCircle
 62
8
  6
HIDDEN
 10
287.5981172538
 20
211.9501455541
 40
7.570987261
100
AcDbArc
 50
179.0431045646
 51
179.9997343181
  0
ARC
  5
551
100
AcDbEntity
  8
DEFAULT_2
100
AcDbCircle
 62
8
  6
HIDDEN
 10
303.156142732
 20
211.9501455541
 40
7.570987261
100
AcDbArc
 50
0.0002656819
 51
0.9568954354
  0
ARC
  5
552
100
AcDbEntity
  8
KONSTRUKTIONSELEMENTE
100
AcDbCircle
 62
7
  6
CONTINUOUS
 10
283.3340926215
 20
178.7025277904
 40
3.7229977056
100
AcDbArc
 50
128.5800734762
 51
131.1523005497
  0
ARC
  5
553
100
AcDbEntity
  8
KONSTRUKTIONSELEMENTE
100
AcDbCircle
 62
7
  6
CONTINUOUS
 10
283.0271299929
 20
206.6741491738
 40
3.0
100
AcDbArc
 50
180.0
 51
270.0
  0
ARC
  5
554
100
AcDbEntity
  8
KONSTRUKTIONSELEMENTE
100
AcDbCircle
 62
7
  6
CONTINUOUS
 10
282.6127783012
 20
179.6090395933
 40
2.5645267171
100
AcDbArc
 50
118.9586334478
 51
128.6120089227
  0
ARC
  5
555
100
AcDbEntity
  8
KONSTRUKTIONSELEMENTE
100
AcDbCircle
 62
7
  6
CONTINUOUS
 10
282.2870701499
 20
284.34412392
 40
3.103285889
100
AcDbArc
 50
193.8645534589
 51
198.9615304078
  0
ARC
  5
556
100
AcDbEntity
  8
KONSTRUKTIONSELEMENTE
100
AcDbCircle
 62
7
  6
CONTINUOUS
 10
282.1516370506
 20
284.311264914
 40
2.963924776
100
AcDbArc
 50
183.3055012066
 51
193.8752209665
  0
ARC
  5
557
100
AcDbEntity
  8
BEZUGSACHSEN
100
AcDbCircle
 62
7
  6
CONTINUOUS
 10
279.3899023745
 20
313.1559139918
 40
1.4128832377
100
AcDbArc
 50
169.0956823134
 51
174.8685931297
  0
ARC
  5
558
100
AcDbEntity
  8
BEZUGSACHSEN
100
AcDbCircle
 62
7
  6
CONTINUOUS
 10
279.3858962789
 20
325.2882139555
 40
1.4091380345
100
AcDbArc
 50
162.6683072897
 51
169.9225854215
  0
ARC
  5
559
100
AcDbEntity
  8
BEZUGSACHSEN
100
AcDbCircle
 62
7
  6
CONTINUOUS
 10
283.3771189517
 20
318.266707573
 40
1.3999757322
100
AcDbArc
 50
30.2069852235
 51
188.9119780982
  0
ARC
  5
55A
100
AcDbEntity
  8
BEZUGSACHSEN
100
AcDbCircle
 62
7
  6
CONTINUOUS
 10
279.3771428162
 20
325.2914164895
 40
1.3999149438
100
AcDbArc
 50
36.9358875669
 51
162.6867033095
  0
ARC
  5
55B
100
AcDbEntity
  8
BEZUGSACHSEN
100
AcDbCircle
 62
7
  6
CONTINUOUS
 10
283.3771610687
 20
314.8614929828
 40
1.3998971441
100
AcDbArc
 50
31.4515194806
 51
182.2181323452
  0
ARC
  5
55C
100
AcDbEntity
  8
BEZUGSACHSEN
100
AcDbCircle
 62
7
  6
CONTINUOUS
 10
279.3771723789
 20
315.845395468
 40
1.3998909469
100
AcDbArc
 50
14.0752584673
 51
181.2551246001
  0
ARC
  5
55D
100
AcDbEntity
  8
BEZUGSACHSEN
100
AcDbCircle
 62
7
  6
CONTINUOUS
 10
283.37710825
 20
322.9499012611
 40
1.3998840152
100
AcDbArc
 50
46.5322248845
 51
183.3849126891
  0
ARC
  5
55E
100
AcDbEntity
  8
BEZUGSACHSEN
100
AcDbCircle
 62
7
  6
CONTINUOUS
 10
279.3771103458
 20
319.8895821795
 40
1.3998637386
100
AcDbArc
 50
17.1277089015
 51
181.5343744354
  0
ARC
  5
55F
100
AcDbEntity
  8
BEZUGSACHSEN
100
AcDbCircle
 62
7
  6
CONTINUOUS
 10
279.3797098583
 20
313.1601091721
 40
1.3970959027
100
AcDbArc
 50
18.8668543607
 51
169.114988683
  0
ARC
  5
560
100
AcDbEntity
  8
BEZUGSACHSEN
100
AcDbCircle
 62
7
  6
CONTINUOUS
 10
282.8224275977
 20
322.9172093577
 40
0.8443249667
100
AcDbArc
 50
183.4005752602
 51
193.7961251719
  0
ARC
  5
561
100
AcDbEntity
  8
0
100
AcDbCircle
 62
7
  6
CONTINUOUS
 10
332.3628129137
 20
199.8527330074
 40
30.7933263355
100
AcDbArc
 50
276.0243751704
 51
0.01880326
  0
ARC
  5
562
100
AcDbEntity
  8
0
100
AcDbCircle
 62
7
  6
CONTINUOUS
 10
307.4201673642
 20
178.7025277903
 40
3.7229977058
100
AcDbArc
 50
48.8476994504
 51
51.4199265237
  0
ARC
  5
563
100
AcDbEntity
  8
0
100
AcDbCircle
 62
7
  6
CONTINUOUS
 10
307.7271299929
 20
206.6741491738
 40
3.0
100
AcDbArc
 50
270.0
 51
360.0
  0
ARC
  5
564
100
AcDbEntity
  8
0
100
AcDbCircle
 62
7
  6
CONTINUOUS
 10
308.1414816847
 20
179.6090395933
 40
2.5645267171
100
AcDbArc
 50
51.3879910773
 51
61.0413665522
  0
ARC
  5
565
100
AcDbEntity
  8
0
100
AcDbCircle
 62
7
  6
CONTINUOUS
 10
332.3771299929
 20
347.5012123598
 40
30.78
100
AcDbArc
 50
0.0
 51
85.0
  0
ARC
  5
566
100
AcDbEntity
  8
0
100
AcDbCircle
 62
7
  6
CONTINUOUS
 10
311.3643576114
 20
313.1559139918
 40
1.4128832376
100
AcDbArc
 50
5.1314068702
 51
10.9043176867
  0
ARC
  5
567
100
AcDbEntity
  8
0
100
AcDbCircle
 62
7
  6
CONTINUOUS
 10
311.3683637069
 20
325.2882139555
 40
1.4091380344
100
AcDbArc
 50
10.0774145785
 51
17.3316927103
  0
ARC
  5
568
100
AcDbEntity
  8
0
100
AcDbCircle
 62
7
  6
CONTINUOUS
 10
307.3771409214
 20
318.2667076986
 40
1.3999756051
100
AcDbArc
 50
351.0880219018
 51
149.7930169006
  0
ARC
  5
569
100
AcDbEntity
  8
0
100
AcDbCircle
 62
7
  6
CONTINUOUS
 10
311.3771172794
 20
325.2914165874
 40
1.3999148885
100
AcDbArc
 50
17.3132942016
 51
143.0641183381
  0
ARC
  5
56A
100
AcDbEntity
  8
0
100
AcDbCircle
 62
7
  6
CONTINUOUS
 10
307.3770989171
 20
314.8614929827
 40
1.3998971442
100
AcDbArc
 50
357.7818676546
 51
148.5484805194
  0
ARC
  5
56B
100
AcDbEntity
  8
0
100
AcDbCircle
 62
7
  6
CONTINUOUS
 10
311.3770876069
 20
315.8453954681
 40
1.3998909468
100
AcDbArc
 50
358.7448753999
 51
165.9247415327
  0
ARC
  5
56C
100
AcDbEntity
  8
0
100
AcDbCircle
 62
7
  6
CONTINUOUS
 10
307.377151687
 20
322.9499012438
 40
1.3998840092
100
AcDbArc
 50
356.6150873111
 51
133.467773176
  0
ARC
  5
56D
100
AcDbEntity
  8
0
100
AcDbCircle
 62
7
  6
CONTINUOUS
 10
311.3771495575
 20
319.8895822238
 40
1.3998637138
100
AcDbArc
 50
358.4656255642
 51
162.8722918362
  0
ARC
  5
56E
100
AcDbEntity
  8
0
100
AcDbCircle
 62
7
  6
CONTINUOUS
 10
311.3745501275
 20
313.1601091721
 40
1.3970959027
100
AcDbArc
 50
10.8850132159
 51
161.1331456393
  0
ARC
  5
56F
100
AcDbEntity
  8
0
100
AcDbCircle
 62
7
  6
CONTINUOUS
 10
307.9318323881
 20
322.9172093577
 40
0.8443249667
100
AcDbArc
 50
346.2038748281
 51
356.5994247398
  0
ARC
  5
570
100
AcDbEntity
  8
0
100
AcDbCircle
 62
7
  6
CONTINUOUS
 10
-5.1102393778
 20
-470.3138885332
 40
544.9902853809
100
AcDbArc
 50
77.6804330679
 51
77.8348400735
  0
ARC
  5
571
100
AcDbEntity
  8
0
100
AcDbCircle
 62
7
  6
CONTINUOUS
 10
4.465894461
 20
-426.6777250405
 40
500.3157072307
100
AcDbArc
 50
77.180762493
 51
77.630332513
  0
ARC
  5
572
100
AcDbEntity
  8
0
100
AcDbCircle
 62
7
  6
CONTINUOUS
 10
52.9891458777
 20
69.9932561841
 40
2.3249859437
100
AcDbArc
 50
270.0112843512
 51
278.0335446903
  0
ARC
  5
573
100
AcDbEntity
  8
KONSTRUKTIONSELEMENTE
100
AcDbCircle
 62
7
  6
CONTINUOUS
 10
-5.1102393741
 20
629.442429087
 40
544.9902853633
100
AcDbArc
 50
282.1651599265
 51
282.3195669321
  0
ARC
  5
574
100
AcDbEntity
  8
KONSTRUKTIONSELEMENTE
100
AcDbCircle
 62
7
  6
CONTINUOUS
 10
4.4658944617
 20
585.8062656083
 40
500.3157072273
100
AcDbArc
 50
282.369667487
 51
282.819237507
  0
ARC
  5
575
100
AcDbEntity
  8
KONSTRUKTIONSELEMENTE
100
AcDbCircle
 62
7
  6
CONTINUOUS
 10
52.9891462038
 20
89.1352893139
 40
2.3249810166
100
AcDbArc
 50
81.9692434583
 51
89.9887236605
  0
ARC
  5
576
100
AcDbEntity
  8
KONSTRUKTIONSELEMENTE
100
AcDbCircle
 62
7
  6
CONTINUOUS
 10
121.0620532099
 20
-117.4032923944
 40
215.6174050016
100
AcDbArc
 50
90.0149380921
 51
91.0161588464
  0
ARC
  5
577
100
AcDbEntity
  8
0
100
AcDbCircle
 62
7
  6
CONTINUOUS
 10
147.4313296318
 20
40.4062702855
 40
23.808
100
AcDbArc
 50
5.0
 51
22.2924506164
  0
ARC
  5
578
100
AcDbEntity
  8
0
100
AcDbCircle
 62
7
  6
CONTINUOUS
 10
147.4313296318
 20
40.4062702855
 40
23.808
100
AcDbArc
 50
23.0313104736
 51
53.3866661905
  0
ARC
  5
579
100
AcDbEntity
  8
0
100
AcDbCircle
 62
7
  6
CONTINUOUS
 10
117.4905833102
 20
69.9949466663
 40
9.0548126354
100
AcDbArc
 50
257.1311347259
 51
261.6312123052
  0
ARC
  5
57A
100
AcDbEntity
  8
0
100
AcDbCircle
 62
7
  6
CONTINUOUS
 10
158.5613296318
 20
61.1682702855
 40
5.84
100
AcDbArc
 50
21.5118605372
 51
170.0
  0
ARC
  5
57B
100
AcDbEntity
  8
0
100
AcDbCircle
 62
7
  6
CONTINUOUS
 10
98.4084255947
 20
67.5871731319
 40
2.6474060823
100
AcDbArc
 50
284.5841665328
 51
288.2081621256
  0
ARC
  5
57C
100
AcDbEntity
  8
0
100
AcDbCircle
 62
7
  6
CONTINUOUS
 10
143.1813899515
 20
72.5642702855
 40
2.0
100
AcDbArc
 50
185.0000000612
 51
260.3258303522
  0
ARC
  5
57D
100
AcDbEntity
  8
0
100
AcDbCircle
 62
7
  6
CONTINUOUS
 10
127.8569910603
 20
63.5779265781
 40
1.4137853017
100
AcDbArc
 50
258.766849821
 51
264.2926392325
  0
ARC
  5
57E
100
AcDbEntity
  8
0
100
AcDbCircle
 62
7
  6
CONTINUOUS
 10
120.5254628016
 20
67.5678977649
 40
1.4036275281
100
AcDbArc
 50
270.015096267
 51
281.6244013438
  0
ARC
  5
57F
100
AcDbEntity
  8
0
100
AcDbCircle
 62
7
  6
CONTINUOUS
 10
114.6776411739
 20
67.564319641
 40
1.4000644196
100
AcDbArc
 50
160.1178405589
 51
275.523655288
  0
ARC
  5
580
100
AcDbEntity
  8
0
100
AcDbCircle
 62
7
  6
CONTINUOUS
 10
120.5258847556
 20
67.5643003894
 40
1.3999905547
100
AcDbArc
 50
128.7588579175
 51
269.9978667257
  0
ARC
  5
581
100
AcDbEntity
  8
0
100
AcDbCircle
 62
7
  6
CONTINUOUS
 10
118.1432872932
 20
63.5642886328
 40
1.3999275414
100
AcDbArc
 50
114.8677417654
 51
272.2201313123
  0
ARC
  5
582
100
AcDbEntity
  8
0
100
AcDbCircle
 62
7
  6
CONTINUOUS
 10
127.8538650063
 20
63.564309681
 40
1.3999216711
100
AcDbArc
 50
111.1249943231
 51
258.7837775687
  0
ARC
  5
583
100
AcDbEntity
  8
0
100
AcDbCircle
 62
7
  6
CONTINUOUS
 10
125.4111384014
 20
67.5642932171
 40
1.3998920051
100
AcDbArc
 50
126.4173168929
 51
272.5925219628
  0
ARC
  5
584
100
AcDbEntity
  8
0
100
AcDbCircle
 62
7
  6
CONTINUOUS
 10
123.5100583853
 20
63.5642821026
 40
1.3998676291
100
AcDbArc
 50
107.4599279617
 51
271.5562075639
  0
ARC
  5
585
100
AcDbEntity
  8
0
100
AcDbCircle
 62
7
  6
CONTINUOUS
 10
111.7531132223
 20
63.5641505335
 40
1.399629503
100
AcDbArc
 50
166.4860061513
 51
246.84223434
  0
ARC
  5
586
100
AcDbEntity
  8
0
100
AcDbCircle
 62
7
  6
CONTINUOUS
 10
118.1567563546
 20
63.2153804091
 40
1.0508500895
100
AcDbArc
 50
272.2254284891
 51
284.8027547551
  0
ARC
  5
587
100
AcDbEntity
  8
0
100
AcDbCircle
 62
7
  6
CONTINUOUS
 10
121.0620532099
 20
276.5318329646
 40
215.6174050008
100
AcDbArc
 50
268.9838411536
 51
269.9850619079
  0
ARC
  5
588
100
AcDbEntity
  8
BEZUGSACHSEN
100
AcDbCircle
 62
7
  6
CONTINUOUS
 10
147.4313296318
 20
118.7222702855
 40
23.808
100
AcDbArc
 50
306.6171908063
 51
337.6775071568
  0
ARC
  5
589
100
AcDbEntity
  8
KONSTRUKTIONSELEMENTE
100
AcDbCircle
 62
7
  6
CONTINUOUS
 10
147.4313296318
 20
118.7222702855
 40
23.808
100
AcDbArc
 50
337.7075493836
 51
355.0
  0
ARC
  5
58A
100
AcDbEntity
  8
KONSTRUKTIONSELEMENTE
100
AcDbCircle
 62
7
  6
CONTINUOUS
 10
117.4905833102
 20
89.1335939048
 40
9.0548126354
100
AcDbArc
 50
98.3687876948
 51
102.8688652741
  0
ARC
  5
58B
100
AcDbEntity
  8
KONSTRUKTIONSELEMENTE
100
AcDbCircle
 62
7
  6
CONTINUOUS
 10
158.5613296318
 20
97.9602702855
 40
5.84
100
AcDbArc
 50
190.0
 51
338.4881394628
  0
ARC
  5
58C
100
AcDbEntity
  8
KONSTRUKTIONSELEMENTE
100
AcDbCircle
 62
7
  6
CONTINUOUS
 10
93.4498780966
 20
91.2590075495
 40
5.201262736
100
AcDbArc
 50
89.6825883527
 51
89.9999993225
  0
ARC
  5
58D
100
AcDbEntity
  8
KONSTRUKTIONSELEMENTE
100
AcDbCircle
 62
7
  6
CONTINUOUS
 10
93.474515666
 20
91.7806449112
 40
4.6795781583
100
AcDbArc
 50
83.0257300023
 51
88.2205865076
  0
ARC
  5
58E
100
AcDbEntity
  8
KONSTRUKTIONSELEMENTE
100
AcDbCircle
 62
7
  6
CONTINUOUS
 10
93.9933989873
 20
91.7538751581
 40
4.6719830976
100
AcDbArc
 50
82.7569355782
 51
89.3950460384
  0
ARC
  5
58F
100
AcDbEntity
  8
KONSTRUKTIONSELEMENTE
100
AcDbCircle
 62
7
  6
CONTINUOUS
 10
93.4759938766
 20
91.8099906855
 40
4.6502006687
100
AcDbArc
 50
88.2275635212
 51
89.6690831564
  0
ARC
  5
590
100
AcDbEntity
  8
KONSTRUKTIONSELEMENTE
100
AcDbCircle
 62
7
  6
CONTINUOUS
 10
98.4084255947
 20
91.5413674392
 40
2.6474060823
100
AcDbArc
 50
71.7918378744
 51
75.4158334672
  0
ARC
  5
591
100
AcDbEntity
  8
KONSTRUKTIONSELEMENTE
100
AcDbCircle
 62
7
  6
CONTINUOUS
 10
143.1813899515
 20
86.5642702855
 40
2.0
100
AcDbArc
 50
99.6741696478
 51
174.9999999388
  0
ARC
  5
592
100
AcDbEntity
  8
BEZUGSACHSEN
100
AcDbCircle
 62
7
  6
CONTINUOUS
 10
127.8569910603
 20
95.550613993
 40
1.4137853017
100
AcDbArc
 50
95.7073607675
 51
101.233150179
  0
ARC
  5
593
100
AcDbEntity
  8
BEZUGSACHSEN
100
AcDbCircle
 62
7
  6
CONTINUOUS
 10
120.5254628016
 20
91.5606428062
 40
1.4036275281
100
AcDbArc
 50
78.3755986562
 51
89.984903733
  0
ARC
  5
594
100
AcDbEntity
  8
BEZUGSACHSEN
100
AcDbCircle
 62
7
  6
CONTINUOUS
 10
114.6776411739
 20
91.5642209299
 40
1.4000644197
100
AcDbArc
 50
84.476344712
 51
199.8821594372
  0
ARC
  5
595
100
AcDbEntity
  8
BEZUGSACHSEN
100
AcDbCircle
 62
7
  6
CONTINUOUS
 10
120.5258846001
 20
91.5642401339
 40
1.3999902313
100
AcDbArc
 50
90.0021269113
 51
231.2411458206
  0
ARC
  5
596
100
AcDbEntity
  8
BEZUGSACHSEN
100
AcDbCircle
 62
7
  6
CONTINUOUS
 10
118.1432871911
 20
95.5642519147
 40
1.3999274256
100
AcDbArc
 50
87.7798686878
 51
245.132261622
  0
ARC
  5
597
100
AcDbEntity
  8
BEZUGSACHSEN
100
AcDbCircle
 62
7
  6
CONTINUOUS
 10
127.8538650062
 20
95.5642308901
 40
1.399921671
100
AcDbArc
 50
101.2162224289
 51
248.8750056797
  0
ARC
  5
598
100
AcDbEntity
  8
BEZUGSACHSEN
100
AcDbCircle
 62
7
  6
CONTINUOUS
 10
125.4111384015
 20
91.564247354
 40
1.3998920062
100
AcDbArc
 50
87.4074780371
 51
233.5826831018
  0
ARC
  5
599
100
AcDbEntity
  8
BEZUGSACHSEN
100
AcDbCircle
 62
7
  6
CONTINUOUS
 10
123.5100583891
 20
95.5642584688
 40
1.3998676291
100
AcDbArc
 50
88.443792436
 51
252.5400718957
  0
ARC
  5
59A
100
AcDbEntity
  8
BEZUGSACHSEN
100
AcDbCircle
 62
7
  6
CONTINUOUS
 10
111.7531132263
 20
95.5643900457
 40
1.399629503
100
AcDbArc
 50
113.1577659422
 51
193.513994131
  0
ARC
  5
59B
100
AcDbEntity
  8
BEZUGSACHSEN
100
AcDbCircle
 62
7
  6
CONTINUOUS
 10
118.1567563546
 20
95.9131601619
 40
1.0508500895
100
AcDbArc
 50
75.1972452449
 51
87.7745715109
  0
SPLINE
  5
59C
100
AcDbEntity
  8
0
100
AcDbSpline
 62
7
  6
CONTINUOUS
 70
0
 71
3
 72
15
 73
11
 74
0
 42
0.0000001
 43
0.0000001
 44
0.0000000001
 40
0.0
 40
0.0
 40
0.0
 40
0.0
 40
0.0510194398
 40
0.1168996347
 40
0.2086839062
 40
0.3278759274
 40
0.4717847228
 40
0.6358999203
 40
0.8145026011
 40
1.0
 40
1.0
 40
1.0
 40
1.0
 10
115.8168770371
 20
315.6749034315
 30
0.0
 10
115.8315368404
 20
315.6544271025
 30
0.0
 10
115.8449493405
 20
315.592310613
 30
0.0
 10
115.7989696169
 20
315.4959577011
 30
0.0
 10
115.7104808559
 20
315.3916811987
 30
0.0
 10
115.576325626
 20
315.2778298895
 30
0.0
 10
115.402198171
 20
315.1586278232
 30
0.0
 10
115.1938050833
 20
315.0387016326
 30
0.0
 10
114.9598291942
 20
314.9233626855
 30
0.0
 10
114.7943391443
 20
314.8529938043
 30
0.0
 10
114.7091242737
 20
314.8194991565
 30
0.0
  0
SPLINE
  5
59D
100
AcDbEntity
  8
0
100
AcDbSpline
 62
7
  6
CONTINUOUS
 70
0
 71
3
 72
15
 73
11
 74
0
 42
0.0000001
 43
0.0000001
 44
0.0000000001
 40
0.0
 40
0.0
 40
0.0
 40
0.0
 40
0.0268106784
 40
0.0513879004
 40
0.0845598342
 40
0.1263362655
 40
0.176525715
 40
0.300161396
 40
0.6222852946
 40
1.0
 40
1.0
 40
1.0
 40
1.0
 10
113.0166918977
 20
313.7620270824
 30
0.0
 10
113.022333305
 20
313.7503339288
 30
0.0
 10
113.0045845384
 20
313.7228921375
 30
0.0
 10
112.9736202263
 20
313.6999404022
 30
0.0
 10
112.9321503368
 20
313.6735776415
 30
0.0
 10
112.878551666
 20
313.6459049544
 30
0.0
 10
112.7835549336
 20
313.6021922218
 30
0.0
 10
112.5598896594
 20
313.514627548
 30
0.0
 10
112.1794737436
 20
313.3937787771
 30
0.0
 10
111.8518008934
 20
313.306964462
 30
0.0
 10
111.6739714033
 20
313.2641721818
 30
0.0
  0
SPLINE
  5
59E
100
AcDbEntity
  8
0
100
AcDbSpline
 62
7
  6
CONTINUOUS
 70
0
 71
3
 72
15
 73
11
 74
0
 42
0.0000001
 43
0.0000001
 44
0.0000000001
 40
0.0
 40
0.0
 40
0.0
 40
0.0
 40
0.0507836722
 40
0.1171503836
 40
0.2096564279
 40
0.3295610611
 40
0.4738640669
 40
0.6378868658
 40
0.8157776385
 40
1.0
 40
1.0
 40
1.0
 40
1.0
 10
125.9614424571
 20
324.237037182
 30
0.0
 10
125.9847514765
 20
324.2266631542
 30
0.0
 10
126.0281749252
 20
324.1784920749
 30
0.0
 10
126.0373057439
 20
324.0699148658
 30
0.0
 10
126.0142524131
 20
323.9316738935
 30
0.0
 10
125.9563821028
 20
323.7612327922
 30
0.0
 10
125.8669435637
 20
323.5654109918
 30
0.0
 10
125.7484008807
 20
323.3515544972
 30
0.0
 10
125.6057345035
 20
323.1288763526
 30
0.0
 10
125.499073576
 20
322.9813609036
 30
0.0
 10
125.4427855288
 20
322.9078930676
 30
0.0
  0
SPLINE
  5
59F
100
AcDbEntity
  8
0
100
AcDbSpline
 62
7
  6
CONTINUOUS
 70
0
 71
3
 72
14
 73
10
 74
0
 42
0.0000001
 43
0.0000001
 44
0.0000000001
 40
0.0
 40
0.0
 40
0.0
 40
0.0
 40
0.0284073208
 40
0.0536979111
 40
0.0873791649
 40
0.1795921328
 40
0.3026523582
 40
0.6226318278
 40
1.0
 40
1.0
 40
1.0
 40
1.0
 10
119.289171029
 20
316.6496460036
 30
0.0
 10
119.2967310747
 20
316.6385485218
 30
0.0
 10
119.2851524354
 20
316.6084183247
 30
0.0
 10
119.2615616398
 20
316.5772458101
 30
0.0
 10
119.2126074935
 20
316.5235704981
 30
0.0
 10
119.1238484572
 20
316.447034005
 30
0.0
 10
118.9223724169
 20
316.2932418581
 30
0.0
 10
118.598446171
 20
316.0797990206
 30
0.0
 10
118.3149219867
 20
315.9113677034
 30
0.0
 10
118.1595504546
 20
315.8237398349
 30
0.0
  0
SPLINE
  5
5A0
100
AcDbEntity
  8
0
100
AcDbSpline
 62
7
  6
CONTINUOUS
 70
0
 71
3
 72
14
 73
10
 74
0
 42
0.0000001
 43
0.0000001
 44
0.0000000001
 40
0.0
 40
0.0
 40
0.0
 40
0.0
 40
0.0282541183
 40
0.0534548703
 40
0.087123682
 40
0.1793970843
 40
0.3026249545
 40
0.6228350893
 40
1.0
 40
1.0
 40
1.0
 40
1.0
 10
124.4049997654
 20
320.9661276579
 30
0.0
 10
124.4152820756
 20
320.9574970064
 30
0.0
 10
124.4122108588
 20
320.925287151
 30
0.0
 10
124.3975842362
 20
320.8889441495
 30
0.0
 10
124.3642317649
 20
320.8240025653
 30
0.0
 10
124.2981993283
 20
320.7263221209
 30
0.0
 10
124.1430265498
 20
320.523978765
 30
0.0
 10
123.8848334809
 20
320.2316600023
 30
0.0
 10
123.6540273315
 20
319.9937141259
 30
0.0
 10
123.5263810821
 20
319.8679367905
 30
0.0
  0
SPLINE
  5
5A1
100
AcDbEntity
  8
0
100
AcDbSpline
 62
7
  6
CONTINUOUS
 70
0
 71
3
 72
15
 73
11
 74
0
 42
0.0000001
 43
0.0000001
 44
0.0000000001
 40
0.0
 40
0.0
 40
0.0
 40
0.0
 40
0.3822860846
 40
0.7028328718
 40
0.8248804637
 40
0.8743763128
 40
0.9155801134
 40
0.9483201197
 40
0.9727122724
 40
1.0
 40
1.0
 40
1.0
 40
1.0
 10
111.6739714033
 20
313.2641721818
 30
0.0
 10
111.5068944797
 20
313.2239673625
 30
0.0
 10
111.1981319657
 20
313.1566755447
 30
0.0
 10
110.8320864132
 20
313.0952268232
 30
0.0
 10
110.6119119712
 20
313.0733808933
 30
0.0
 10
110.5162073487
 20
313.0696156859
 30
0.0
 10
110.4609459587
 20
313.070049289
 30
0.0
 10
110.4161596431
 20
313.0745084588
 30
0.0
 10
110.3808143913
 20
313.0808671798
 30
0.0
 10
110.3549303183
 20
313.0962427228
 30
0.0
 10
110.3543468304
 20
313.1084952871
 30
0.0
  0
SPLINE
  5
5A2
100
AcDbEntity
  8
0
100
AcDbSpline
 62
7
  6
CONTINUOUS
 70
0
 71
3
 72
15
 73
11
 74
0
 42
0.0000001
 43
0.0000001
 44
0.0000000001
 40
0.0
 40
0.0
 40
0.0
 40
0.0
 40
0.1842033911
 40
0.3620808273
 40
0.5260921676
 40
0.6703923203
 40
0.7903058287
 40
0.8828275214
 40
0.9492121252
 40
1.0
 40
1.0
 40
1.0
 40
1.0
 10
114.7091242737
 20
314.8194991565
 30
0.0
 10
114.6229997088
 20
314.7856469433
 30
0.0
 10
114.4518211645
 20
314.7237869086
 30
0.0
 10
114.1984776172
 20
314.6480305939
 30
0.0
 10
113.9602553059
 20
314.5930270258
 30
0.0
 10
113.7473788966
 20
314.5610226636
 30
0.0
 10
113.5675877175
 20
314.5523607704
 30
0.0
 10
113.4283273509
 20
314.5682904815
 30
0.0
 10
113.3264588232
 20
314.6069707479
 30
0.0
 10
113.2920737799
 20
314.6619714809
 30
0.0
 10
113.2885171516
 20
314.6872368033
 30
0.0
  0
SPLINE
  5
5A3
100
AcDbEntity
  8
0
100
AcDbSpline
 62
7
  6
CONTINUOUS
 70
0
 71
3
 72
14
 73
10
 74
0
 42
0.0000001
 43
0.0000001
 44
0.0000000001
 40
0.0
 40
0.0
 40
0.0
 40
0.0
 40
0.3771637833
 40
0.6973733741
 40
0.8206021827
 40
0.9128755058
 40
0.9465452814
 40
0.9717462118
 40
1.0
 40
1.0
 40
1.0
 40
1.0
 10
118.1595504546
 20
315.8237398349
 30
0.0
 10
118.0034620833
 20
315.7357076768
 30
0.0
 10
117.7111162004
 20
315.5794296129
 30
0.0
 10
117.358954052
 20
315.411813476
 30
0.0
 10
117.1216784534
 20
315.3184241215
 30
0.0
 10
117.0095797474
 20
315.2818744604
 30
0.0
 10
116.9379609235
 20
315.2677136482
 30
0.0
 10
116.898992854
 20
315.2636702655
 30
0.0
 10
116.8671868693
 20
315.2695981607
 30
0.0
 10
116.8617233455
 20
315.2818602709
 30
0.0
  0
SPLINE
  5
5A4
100
AcDbEntity
  8
0
100
AcDbSpline
 62
7
  6
CONTINUOUS
 70
0
 71
3
 72
15
 73
11
 74
0
 42
0.0000001
 43
0.0000001
 44
0.0000000001
 40
0.0
 40
0.0
 40
0.0
 40
0.0
 40
0.3777147054
 40
0.699838604
 40
0.823474285
 40
0.8736637345
 40
0.9154401658
 40
0.9486120996
 40
0.9731893216
 40
1.0
 40
1.0
 40
1.0
 40
1.0
 10
127.7744632858
 20
325.3967630486
 30
0.0
 10
127.6843122556
 20
325.2376175222
 30
0.0
 10
127.5105421018
 20
324.9465674308
 30
0.0
 10
127.2895179703
 20
324.6141986182
 30
0.0
 10
127.1436948986
 20
324.4233338525
 30
0.0
 10
127.0754908751
 20
324.3440659945
 30
0.0
 10
127.034116385
 20
324.3001712715
 30
0.0
 10
126.9973442223
 20
324.2675744169
 30
0.0
 10
126.9667466772
 20
324.2441359654
 30
0.0
 10
126.9354757112
 20
324.2346387387
 30
0.0
 10
126.9257905131
 20
324.2432846773
 30
0.0
  0
SPLINE
  5
5A5
100
AcDbEntity
  8
0
100
AcDbSpline
 62
7
  6
CONTINUOUS
 70
0
 71
3
 72
15
 73
11
 74
0
 42
0.0000001
 43
0.0000001
 44
0.0000000001
 40
0.0
 40
0.0
 40
0.0
 40
0.0
 40
0.1855049909
 40
0.3640841067
 40
0.5281774081
 40
0.672082292
 40
0.7912937727
 40
0.8830864335
 40
0.9489728054
 40
1.0
 40
1.0
 40
1.0
 40
1.0
 10
125.4427855288
 20
322.9078930676
 30
0.0
 10
125.3870962299
 20
322.8352067252
 30
0.0
 10
125.2738424454
 20
322.695523948
 30
0.0
 10
125.0984826221
 20
322.5024166201
 30
0.0
 10
124.9257803094
 20
322.3351577258
 30
0.0
 10
124.7631918034
 20
322.2006396995
 30
0.0
 10
124.6167679753
 20
322.103037774
 30
0.0
 10
124.4921179492
 20
322.046721932
 30
0.0
 10
124.3868043964
 20
322.0290835829
 30
0.0
 10
124.3307925915
 20
322.0591233045
 30
0.0
 10
124.3151521864
 20
322.0788665187
 30
0.0
  0
SPLINE
  5
5A6
100
AcDbEntity
  8
0
100
AcDbSpline
 62
7
  6
CONTINUOUS
 70
0
 71
3
 72
14
 73
10
 74
0
 42
0.0000001
 43
0.0000001
 44
0.0000000001
 40
0.0
 40
0.0
 40
0.0
 40
0.0
 40
0.3773400867
 40
0.697305651
 40
0.8203690802
 40
0.9125920508
 40
0.9462808102
 40
0.9715793691
 40
1.0
 40
1.0
 40
1.0
 40
1.0
 10
123.5263810821
 20
319.8679367905
 30
0.0
 10
123.3993327613
 20
319.7427486291
 30
0.0
 10
123.1592947285
 20
319.5166495174
 30
0.0
 10
122.8648531016
 20
319.2641191625
 30
0.0
 10
122.6614913191
 20
319.1128354398
 30
0.0
 10
122.5634489663
 20
319.048605068
 30
0.0
 10
122.4983542355
 20
319.0163281718
 30
0.0
 10
122.4618746649
 20
319.0022379429
 30
0.0
 10
122.4297173397
 20
318.999388425
 30
0.0
 10
122.4211182052
 20
319.0097096341
 30
0.0
  0
SPLINE
  5
5A7
100
AcDbEntity
  8
0
100
AcDbSpline
 62
7
  6
CONTINUOUS
 70
0
 71
3
 72
15
 73
11
 74
0
 42
0.0000001
 43
0.0000001
 44
0.0000000001
 40
0.0
 40
0.0
 40
0.0
 40
0.0
 40
0.1828937536
 40
0.3595707563
 40
0.5225916315
 40
0.6664386652
 40
0.7866843297
 40
0.880493578
 40
0.9486224728
 40
1.0
 40
1.0
 40
1.0
 40
1.0
 10
120.6311652213
 20
318.1269071319
 30
0.0
 10
120.5576068013
 20
318.0714768866
 30
0.0
 10
120.4099671351
 20
317.9664459603
 30
0.0
 10
120.1873257134
 20
317.8258643595
 30
0.0
 10
119.9734507213
 20
317.7089740792
 30
0.0
 10
119.7772622332
 20
317.620374677
 30
0.0
 10
119.6058699702
 20
317.5625538917
 30
0.0
 10
119.4655190925
 20
317.5383872034
 30
0.0
 10
119.3555738111
 20
317.545399616
 30
0.0
 10
119.3031700117
 20
317.5850724724
 30
0.0
 10
119.2907067766
 20
317.6077465716
 30
0.0
  0
SPLINE
  5
5A8
100
AcDbEntity
  8
0
100
AcDbSpline
 62
7
  6
CONTINUOUS
 70
0
 71
3
 72
15
 73
11
 74
0
 42
0.0000001
 43
0.0000001
 44
0.0000000001
 40
0.0
 40
0.0
 40
0.0
 40
0.0
 40
0.0272877276
 40
0.0516798803
 40
0.0844198866
 40
0.1256236872
 40
0.1751195363
 40
0.2971671282
 40
0.6177139154
 40
1.0
 40
1.0
 40
1.0
 40
1.0
 10
128.2878473497
 20
326.6223572359
 30
0.0
 10
128.2994644393
 20
326.6184190869
 30
0.0
 10
128.3071097425
 20
326.589299645
 30
0.0
 10
128.3034796656
 20
326.5535709073
 30
0.0
 10
128.2954213131
 20
326.5092904238
 30
0.0
 10
128.2806060157
 20
326.4560502491
 30
0.0
 10
128.250606897
 20
326.3650908931
 30
0.0
 10
128.1689189404
 20
326.15946719
 30
0.0
 10
128.0089548099
 20
325.8245391846
 30
0.0
 10
127.8591632801
 20
325.5462857454
 30
0.0
 10
127.7744632858
 20
325.3967630486
 30
0.0
  0
SPLINE
  5
5A9
100
AcDbEntity
  8
0
100
AcDbSpline
 62
7
  6
CONTINUOUS
 70
0
 71
3
 72
14
 73
10
 74
0
 42
0.0000001
 43
0.0000001
 44
0.0000000001
 40
0.0
 40
0.0
 40
0.0
 40
0.0
 40
0.0513818466
 40
0.1194799253
 40
0.2132900761
 40
0.3335619859
 40
0.477544272
 40
0.6405969153
 40
1.0
 40
1.0
 40
1.0
 40
1.0
 10
121.4997176967
 20
319.2724093076
 30
0.0
 10
121.518069715
 20
319.2541710901
 30
0.0
 10
121.5417189548
 20
319.192879692
 30
0.0
 10
121.5182652789
 20
319.0852757581
 30
0.0
 10
121.4563385239
 20
318.9570287943
 30
0.0
 10
121.3535019139
 20
318.808155558
 30
0.0
 10
121.2141936237
 20
318.6439233005
 30
0.0
 10
120.9780693897
 20
318.4051266484
 30
0.0
 10
120.7757002189
 20
318.2358220647
 30
0.0
 10
120.6311652213
 20
318.1269071319
 30
0.0
  0
LINE
  5
5AA
100
AcDbEntity
  8
0
100
AcDbLine
 62
7
  6
CONTINUOUS
 10
184.9683370363
 20
169.2304548146
 11
184.5613296318
 21
199.8628390497
  0
LINE
  5
5AB
100
AcDbEntity
  8
0
100
AcDbLine
 62
7
  6
CONTINUOUS
 10
176.7919831359
 20
176.5523512532
 11
176.7813296318
 21
199.8628390497
  0
SPLINE
  5
5AC
100
AcDbEntity
  8
0
100
AcDbSpline
 62
7
  6
CONTINUOUS
 70
0
 71
3
 72
9
 73
5
 74
0
 42
0.0000001
 43
0.0000001
 44
0.0000000001
 40
0.0
 40
0.0
 40
0.0
 40
0.0
 40
0.5000901639
 40
1.0
 40
1.0
 40
1.0
 40
1.0
 10
152.6763184836
 20
358.4883690084
 30
0.0
 10
153.0446174995
 20
358.383609924
 30
0.0
 10
153.7537289071
 20
358.0599657433
 30
0.0
 10
154.3269616933
 20
357.5295854904
 30
0.0
 10
154.5617973264
 20
357.2273188254
 30
0.0
  0
SPLINE
  5
5AD
100
AcDbEntity
  8
0
100
AcDbSpline
 62
7
  6
CONTINUOUS
 70
0
 71
3
 72
15
 73
11
 74
0
 42
0.0000001
 43
0.0000001
 44
0.0000000001
 40
0.0
 40
0.0
 40
0.0
 40
0.0
 40
0.1250099197
 40
0.2500059263
 40
0.3750045008
 40
0.5000014394
 40
0.6249986958
 40
0.7499968173
 40
0.8749918637
 40
1.0
 40
1.0
 40
1.0
 40
1.0
 10
142.0613296262
 20
359.9264035656
 30
0.0
 10
142.0613294781
 20
359.6803153047
 30
0.0
 10
142.1216512091
 20
359.1860295219
 30
0.0
 10
142.389398429
 20
358.4903691024
 30
0.0
 10
142.8196712574
 20
357.8810626091
 30
0.0
 10
143.3870521637
 20
357.3968723522
 30
0.0
 10
144.0565208162
 20
357.0679776702
 30
0.0
 10
144.786486713
 20
356.91456259
 30
0.0
 10
145.5312825552
 20
356.9445961615
 30
0.0
 10
146.0089655329
 20
357.0852026227
 30
0.0
 10
146.2348801317
 20
357.1827746392
 30
0.0
  0
SPLINE
  5
5AE
100
AcDbEntity
  8
0
100
AcDbSpline
 62
7
  6
CONTINUOUS
 70
0
 71
3
 72
15
 73
11
 74
0
 42
0.0000001
 43
0.0000001
 44
0.0000000001
 40
0.0
 40
0.0
 40
0.0
 40
0.0
 40
0.1249993233
 40
0.250003355
 40
0.3750000546
 40
0.499999847
 40
0.6250046387
 40
0.7500018243
 40
0.8749996591
 40
1.0
 40
1.0
 40
1.0
 40
1.0
 10
147.6912686672
 20
359.5797493731
 30
0.0
 10
147.4686752774
 20
359.5091990213
 30
0.0
 10
147.0052835626
 20
359.419449616
 30
0.0
 10
146.2992457477
 20
359.4494168208
 30
0.0
 10
145.619142825
 20
359.6429784109
 30
0.0
 10
145.0032972493
 20
359.9903912966
 30
0.0
 10
144.4860544635
 20
360.4724946068
 30
0.0
 10
144.0960634997
 20
361.0623344158
 30
0.0
 10
143.8541818151
 20
361.7263124837
 30
0.0
 10
143.7997294891
 20
362.1951544979
 30
0.0
 10
143.799729376
 20
362.4286626499
 30
0.0
  0
SPLINE
  5
5AF
100
AcDbEntity
  8
0
100
AcDbSpline
 62
7
  6
CONTINUOUS
 70
0
 71
3
 72
9
 73
5
 74
0
 42
0.0000001
 43
0.0000001
 44
0.0000000001
 40
0.0
 40
0.0
 40
0.0
 40
0.0
 40
0.5152675224
 40
1.0
 40
1.0
 40
1.0
 40
1.0
 10
143.7406802518
 20
211.4189603431
 30
0.0
 10
143.1932270512
 20
211.2159641033
 30
0.0
 10
142.1483648588
 20
210.7735168331
 30
0.0
 10
141.1366160569
 20
210.2623378776
 30
0.0
 10
140.6504518024
 20
210.0067039862
 30
0.0
  0
SPLINE
  5
5B0
100
AcDbEntity
  8
0
100
AcDbSpline
 62
7
  6
CONTINUOUS
 70
0
 71
3
 72
21
 73
17
 74
0
 42
0.0000001
 43
0.0000001
 44
0.0000000001
 40
0.0
 40
0.0
 40
0.0
 40
0.0
 40
0.0370067899
 40
0.0856595673
 40
0.144745352
 40
0.2127040881
 40
0.3677085025
 40
0.5342181984
 40
0.6951523156
 40
0.768550624
 40
0.8348523165
 40
0.8924576983
 40
0.9399308873
 40
0.976056045
 40
0.9895824019
 40
1.0
 40
1.0
 40
1.0
 40
1.0
 10
163.9945250447
 20
371.8990615632
 30
0.0
 10
163.8547924727
 20
371.916371476
 30
0.0
 10
163.5291751989
 20
371.9378549502
 30
0.0
 10
162.9784277945
 20
371.9449730757
 30
0.0
 10
162.3100048026
 20
371.9275807096
 30
0.0
 10
161.238510352
 20
371.8664930096
 30
0.0
 10
159.7631232965
 20
371.7209872751
 30
0.0
 10
157.9459986458
 20
371.4574393367
 30
0.0
 10
156.4474196957
 20
371.1709075453
 30
0.0
 10
155.3326295935
 20
370.9142924151
 30
0.0
 10
154.6057558393
 20
370.7263464675
 30
0.0
 10
153.9795667165
 20
370.5439024296
 30
0.0
 10
153.4700004762
 20
370.3735335665
 30
0.0
 10
153.1256913289
 20
370.2379228463
 30
0.0
 10
152.9206565081
 20
370.1367882605
 30
0.0
 10
152.8422372847
 20
370.0899193396
 30
0.0
 10
152.8100523542
 20
370.0667860236
 30
0.0
  0
SPLINE
  5
5B1
100
AcDbEntity
  8
0
100
AcDbSpline
 62
7
  6
CONTINUOUS
 70
0
 71
3
 72
9
 73
5
 74
0
 42
0.0000001
 43
0.0000001
 44
0.0000000001
 40
0.0
 40
0.0
 40
0.0
 40
0.0
 40
0.4847377405
 40
1.0
 40
1.0
 40
1.0
 40
1.0
 10
140.6504518024
 20
181.5058073687
 30
0.0
 10
141.1366213443
 20
181.2501706972
 30
0.0
 10
142.1483695444
 20
180.7389903753
 30
0.0
 10
143.1932326328
 20
180.296545182
 30
0.0
 10
143.7406802518
 20
180.0935510118
 30
0.0
  0
SPLINE
  5
5B2
100
AcDbEntity
  8
0
100
AcDbSpline
 62
7
  6
CONTINUOUS
 70
0
 71
3
 72
11
 73
7
 74
0
 42
0.0000001
 43
0.0000001
 44
0.0000000001
 40
0.0
 40
0.0
 40
0.0
 40
0.0
 40
0.1501157151
 40
0.3648976306
 40
0.6480475826
 40
1.0
 40
1.0
 40
1.0
 40
1.0
 10
171.1487330039
 20
370.5358888273
 30
0.0
 10
171.0844394773
 20
370.5982779239
 30
0.0
 10
170.8932572815
 20
370.7109351497
 30
0.0
 10
170.531253001
 20
370.8463348848
 30
0.0
 10
170.039498827
 20
370.9748154699
 30
0.0
 10
169.6670805115
 20
371.0457348568
 30
0.0
 10
169.4599127623
 20
371.08037194
 30
0.0
  0
SPLINE
  5
5B3
100
AcDbEntity
  8
0
100
AcDbSpline
 62
7
  6
CONTINUOUS
 70
0
 71
3
 72
9
 73
5
 74
0
 42
0.0000001
 43
0.0000001
 44
0.0000000001
 40
0.0
 40
0.0
 40
0.0
 40
0.0
 40
0.251232788
 40
1.0
 40
1.0
 40
1.0
 40
1.0
 10
140.4369643937
 20
181.6129343376
 30
0.0
 10
140.3883703024
 20
181.6362571012
 30
0.0
 10
140.1933237768
 20
181.7256906644
 30
0.0
 10
139.9924327806
 20
181.8021949732
 30
0.0
 10
139.840006595
 20
181.852922261
 30
0.0
  0
SPLINE
  5
5B4
100
AcDbEntity
  8
0
100
AcDbSpline
 62
7
  6
CONTINUOUS
 70
0
 71
3
 72
17
 73
13
 74
0
 42
0.0000001
 43
0.0000001
 44
0.0000000001
 40
0.0
 40
0.0
 40
0.0
 40
0.0
 40
0.1861697107
 40
0.3722012082
 40
0.5463351058
 40
0.6968556894
 40
0.8168186903
 40
0.8647855204
 40
0.9049661423
 40
0.9377887925
 40
0.9638933253
 40
1.0
 40
1.0
 40
1.0
 40
1.0
 10
97.6106339023
 20
297.4568447803
 30
0.0
 10
97.8817635133
 20
297.0449248075
 30
0.0
 10
98.4462008423
 20
296.235838878
 30
0.0
 10
99.3416955079
 20
295.0979301973
 30
0.0
 10
100.2444981081
 20
294.0890661892
 30
0.0
 10
101.0911464876
 20
293.2689250782
 30
0.0
 10
101.7450820654
 20
292.7336094713
 30
0.0
 10
102.2027396973
 20
292.4253139741
 30
0.0
 10
102.4808887491
 20
292.2662452147
 30
0.0
 10
102.7221084554
 20
292.1584703575
 30
0.0
 10
102.9607463344
 20
292.0872371697
 30
0.0
 10
103.1413431391
 20
292.0844822172
 30
0.0
 10
103.225539488
 20
292.1298524118
 30
0.0
  0
SPLINE
  5
5B5
100
AcDbEntity
  8
0
100
AcDbSpline
 62
7
  6
CONTINUOUS
 70
0
 71
3
 72
11
 73
7
 74
0
 42
0.0000001
 43
0.0000001
 44
0.0000000001
 40
0.0
 40
0.0
 40
0.0
 40
0.0
 40
0.2497381832
 40
0.4991631021
 40
0.7488303167
 40
1.0
 40
1.0
 40
1.0
 40
1.0
 10
137.0838945404
 20
208.6130518195
 30
0.0
 10
137.3808883413
 20
208.7292116316
 30
0.0
 10
137.9774839989
 20
208.95374701
 30
0.0
 10
138.8779630663
 20
209.2756626579
 30
0.0
 10
139.7775073167
 20
209.604547351
 30
0.0
 10
140.3665738939
 20
209.8574358866
 30
0.0
 10
140.6504518024
 20
210.0067039862
 30
0.0
  0
SPLINE
  5
5B6
100
AcDbEntity
  8
0
100
AcDbSpline
 62
7
  6
CONTINUOUS
 70
0
 71
3
 72
18
 73
14
 74
0
 42
0.0000001
 43
0.0000001
 44
0.0000000001
 40
0.0
 40
0.0
 40
0.0
 40
0.0
 40
0.1768811824
 40
0.2441376935
 40
0.2933154776
 40
0.3303008611
 40
0.3626516987
 40
0.4276554779
 40
0.487914784
 40
0.5426983893
 40
0.64496661
 40
0.8297409972
 40
1.0
 40
1.0
 40
1.0
 40
1.0
 10
167.5613296318
 20
314.9440236581
 30
0.0
 10
167.5781968094
 20
315.0832361083
 30
0.0
 10
167.6032405343
 20
315.2752783114
 30
0.0
 10
167.6467553057
 20
315.5038157363
 30
0.0
 10
167.6798097954
 20
315.6211557182
 30
0.0
 10
167.7164137006
 20
315.7078815952
 30
0.0
 10
167.7652113909
 20
315.8025648826
 30
0.0
 10
167.8181031043
 20
315.9157965024
 30
0.0
 10
167.8856678576
 20
316.0416663254
 30
0.0
 10
167.9770077891
 20
316.1878053223
 30
0.0
 10
168.1292250865
 20
316.4121769862
 30
0.0
 10
168.3579449525
 20
316.6942119004
 30
0.0
 10
168.5495728156
 20
316.9005389092
 30
0.0
 10
168.6439490263
 20
316.997042131
 30
0.0
  0
SPLINE
  5
5B7
100
AcDbEntity
  8
0
100
AcDbSpline
 62
7
  6
CONTINUOUS
 70
0
 71
3
 72
20
 73
16
 74
0
 42
0.0000001
 43
0.0000001
 44
0.0000000001
 40
0.0
 40
0.0
 40
0.0
 40
0.0
 40
0.0063879394
 40
0.0145265613
 40
0.0364765676
 40
0.0662236324
 40
0.103718159
 40
0.1487370455
 40
0.2009531261
 40
0.2599595702
 40
0.3252763566
 40
0.4726139441
 40
0.638013388
 40
0.8158376676
 40
1.0
 40
1.0
 40
1.0
 40
1.0
 10
171.3168499955
 20
370.3726203838
 30
0.0
 10
171.3520575519
 20
370.3384006993
 30
0.0
 10
171.4205018578
 20
370.2488879957
 30
0.0
 10
171.5543486994
 20
370.0020486069
 30
0.0
 10
171.7091709535
 20
369.5667777172
 30
0.0
 10
171.8801928996
 20
368.9029016787
 30
0.0
 10
172.0464909617
 20
368.0557280207
 30
0.0
 10
172.2066158956
 20
367.0325505303
 30
0.0
 10
172.3584513858
 20
365.8411749174
 30
0.0
 10
172.5005403555
 20
364.4916828153
 30
0.0
 10
172.6823976435
 20
362.4115549519
 30
0.0
 10
172.8701146337
 20
359.5115601233
 30
0.0
 10
173.0318804607
 20
355.744377926
 30
0.0
 10
173.1314267286
 20
351.6919312231
 30
0.0
 10
173.1537110492
 20
348.9096634476
 30
0.0
 10
173.1537110492
 20
347.4941992466
 30
0.0
  0
LINE
  5
5B8
100
AcDbEntity
  8
0
100
AcDbLine
 62
7
  6
CONTINUOUS
 10
171.1487330039
 20
370.5358888273
 11
171.3168499955
 21
370.3726203838
  0
SPLINE
  5
5B9
100
AcDbEntity
  8
0
100
AcDbSpline
 62
7
  6
CONTINUOUS
 70
0
 71
3
 72
11
 73
7
 74
0
 42
0.0000001
 43
0.0000001
 44
0.0000000001
 40
0.0
 40
0.0
 40
0.0
 40
0.0
 40
0.249978627
 40
0.4999542037
 40
0.7499561779
 40
1.0
 40
1.0
 40
1.0
 40
1.0
 10
152.3713322488
 20
363.0882465303
 30
0.0
 10
152.3713322535
 20
362.7495119961
 30
0.0
 10
152.2527395413
 20
362.0662197683
 30
0.0
 10
151.7382946145
 20
361.1669732592
 30
0.0
 10
150.9519720668
 20
360.4930231538
 30
0.0
 10
150.305930743
 20
360.2432538277
 30
0.0
 10
149.9740743993
 20
360.1748995358
 30
0.0
  0
SPLINE
  5
5BA
100
AcDbEntity
  8
0
100
AcDbSpline
 62
7
  6
CONTINUOUS
 70
0
 71
3
 72
9
 73
5
 74
0
 42
0.0000001
 43
0.0000001
 44
0.0000000001
 40
0.0
 40
0.0
 40
0.0
 40
0.0
 40
0.5008888611
 40
1.0
 40
1.0
 40
1.0
 40
1.0
 10
139.840006595
 20
181.852922261
 30
0.0
 10
139.3416458356
 20
182.0187703988
 30
0.0
 10
138.2951231625
 20
182.1955678686
 30
0.0
 10
137.244322309
 20
182.1816000764
 30
0.0
 10
136.7220848183
 20
182.1472149548
 30
0.0
  0
SPLINE
  5
5BB
100
AcDbEntity
  8
DEFAULT_2
100
AcDbSpline
 62
8
  6
HIDDEN
 70
0
 71
3
 72
9
 73
5
 74
0
 42
0.0000001
 43
0.0000001
 44
0.0000000001
 40
0.0
 40
0.0
 40
0.0
 40
0.0
 40
0.5034986784
 40
1.0
 40
1.0
 40
1.0
 40
1.0
 10
309.829651986
 20
215.5781491738
 30
0.0
 10
310.120384723
 20
215.0172692718
 30
0.0
 10
310.5708082408
 20
213.8322405784
 30
0.0
 10
310.7271299929
 20
212.5731538437
 30
0.0
 10
310.7271299929
 20
211.9501806609
 30
0.0
  0
SPLINE
  5
5BC
100
AcDbEntity
  8
KONSTRUKTIONSELEMENTE
100
AcDbSpline
 62
8
  6
HIDDEN
 70
0
 71
3
 72
9
 73
5
 74
0
 42
0.0000001
 43
0.0000001
 44
0.0000000001
 40
0.0
 40
0.0
 40
0.0
 40
0.0
 40
0.5034986784
 40
1.0
 40
1.0
 40
1.0
 40
1.0
 10
280.9246079998
 20
215.5781491738
 30
0.0
 10
280.6338752628
 20
215.0172692718
 30
0.0
 10
280.183451745
 20
213.8322405784
 30
0.0
 10
280.0271299929
 20
212.5731538437
 30
0.0
 10
280.0271299929
 20
211.9501806609
 30
0.0
  0
SPLINE
  5
5BD
100
AcDbEntity
  8
AUSFORMSCHRAEGEN
100
AcDbSpline
 62
7
  6
CONTINUOUS
 70
0
 71
3
 72
9
 73
5
 74
0
 42
0.0000001
 43
0.0000001
 44
0.0000000001
 40
0.0
 40
0.0
 40
0.0
 40
0.0
 40
0.4501551615
 40
1.0
 40
1.0
 40
1.0
 40
1.0
 10
276.7272949995
 20
317.6296999862
 30
0.0
 10
276.7272949995
 20
319.0717709206
 30
0.0
 10
276.7871285241
 20
322.2751844211
 30
0.0
 10
276.9096127188
 20
325.476443891
 30
0.0
 10
276.9895506376
 20
327.2360556311
 30
0.0
  0
SPLINE
  5
5BE
100
AcDbEntity
  8
BEZUGSACHSEN
100
AcDbSpline
 62
7
  6
CONTINUOUS
 70
0
 71
3
 72
8
 73
4
 74
0
 42
0.0000001
 43
0.0000001
 44
0.0000000001
 40
0.0
 40
0.0
 40
0.0
 40
0.0
 40
1.0
 40
1.0
 40
1.0
 40
1.0
 10
277.9776325375
 20
319.8519808203
 30
0.0
 10
277.9800525196
 20
319.7618371752
 30
0.0
 10
278.0012990173
 20
319.6705627252
 30
0.0
 10
278.0383698219
 20
319.5883587807
 30
0.0
  0
SPLINE
  5
5BF
100
AcDbEntity
  8
BEZUGSACHSEN
100
AcDbSpline
 62
7
  6
CONTINUOUS
 70
0
 71
3
 72
15
 73
11
 74
0
 42
0.0000001
 43
0.0000001
 44
0.0000000001
 40
0.0
 40
0.0
 40
0.0
 40
0.0
 40
0.1063304722
 40
0.2270875895
 40
0.3620431307
 40
0.504926709
 40
0.6467376073
 40
0.7788118468
 40
0.8959910629
 40
1.0
 40
1.0
 40
1.0
 40
1.0
 10
278.0383698219
 20
319.5883587807
 30
0.0
 10
278.0888428088
 20
319.4764357012
 30
0.0
 10
278.2617466035
 20
319.2652017351
 30
0.0
 10
278.639044755
 20
319.0678841294
 30
0.0
 10
279.0974184984
 20
318.9835459079
 30
0.0
 10
279.5855471333
 20
319.0198329877
 30
0.0
 10
280.0475497991
 20
319.1716214561
 30
0.0
 10
280.4298692766
 20
319.4234233287
 30
0.0
 10
280.6880650019
 20
319.7508252509
 30
0.0
 10
280.7489671137
 20
320.0109843197
 30
0.0
 10
280.7440792293
 20
320.1309816194
 30
0.0
  0
SPLINE
  5
5C0
100
AcDbEntity
  8
0
100
AcDbSpline
 62
7
  6
CONTINUOUS
 70
0
 71
3
 72
8
 73
4
 74
0
 42
0.0000001
 43
0.0000001
 44
0.0000000001
 40
0.0
 40
0.0
 40
0.0
 40
0.0
 40
1.0
 40
1.0
 40
1.0
 40
1.0
 10
312.7766274483
 20
319.8519808203
 30
0.0
 10
312.7742074662
 20
319.7618371752
 30
0.0
 10
312.7529609685
 20
319.6705627252
 30
0.0
 10
312.7158901639
 20
319.5883587807
 30
0.0
  0
SPLINE
  5
5C1
100
AcDbEntity
  8
0
100
AcDbSpline
 62
7
  6
CONTINUOUS
 70
0
 71
3
 72
15
 73
11
 74
0
 42
0.0000001
 43
0.0000001
 44
0.0000000001
 40
0.0
 40
0.0
 40
0.0
 40
0.0
 40
0.1063304722
 40
0.2270875895
 40
0.3620431307
 40
0.504926709
 40
0.6467376073
 40
0.7788118468
 40
0.8959910629
 40
1.0
 40
1.0
 40
1.0
 40
1.0
 10
312.7158901639
 20
319.5883587807
 30
0.0
 10
312.6654171771
 20
319.4764357012
 30
0.0
 10
312.4925133824
 20
319.2652017351
 30
0.0
 10
312.1152152308
 20
319.0678841294
 30
0.0
 10
311.6568414874
 20
318.9835459079
 30
0.0
 10
311.1687128525
 20
319.0198329877
 30
0.0
 10
310.7067101867
 20
319.1716214561
 30
0.0
 10
310.3243907092
 20
319.4234233287
 30
0.0
 10
310.0661949839
 20
319.7508252509
 30
0.0
 10
310.0052928721
 20
320.0109843197
 30
0.0
 10
310.0101807565
 20
320.1309816194
 30
0.0
  0
SPLINE
  5
5C2
100
AcDbEntity
  8
BEZUGSACHSEN
100
AcDbSpline
 62
7
  6
CONTINUOUS
 70
0
 71
3
 72
17
 73
13
 74
0
 42
0.0000001
 43
0.0000001
 44
0.0000000001
 40
0.0
 40
0.0
 40
0.0
 40
0.0
 40
0.0449885741
 40
0.0913394922
 40
0.1416899698
 40
0.197717227
 40
0.3275292941
 40
0.4760663431
 40
0.6307174091
 40
0.7058657467
 40
0.7771577568
 40
1.0
 40
1.0
 40
1.0
 40
1.0
 10
281.9941373148
 20
318.0496753487
 30
0.0
 10
282.0020891886
 20
317.9994946227
 30
0.0
 10
282.0349729259
 20
317.8993810316
 30
0.0
 10
282.133492562
 20
317.7700500423
 30
0.0
 10
282.2746128592
 20
317.6674225474
 30
0.0
 10
282.522610074
 20
317.564283878
 30
0.0
 10
282.9050135885
 20
317.5227739301
 30
0.0
 10
283.3924701109
 20
317.5940948389
 30
0.0
 10
283.7955776476
 20
317.7452266147
 30
0.0
 10
284.0907788914
 20
317.9179034622
 30
0.0
 10
284.4192421347
 20
318.1659633656
 30
0.0
 10
284.6514426919
 20
318.4780468776
 30
0.0
 10
284.6514426919
 20
318.7297089062
 30
0.0
  0
SPLINE
  5
5C3
100
AcDbEntity
  8
KONSTRUKTIONSELEMENTE
100
AcDbSpline
 62
7
  6
CONTINUOUS
 70
0
 71
3
 72
9
 73
5
 74
0
 42
0.0000001
 43
0.0000001
 44
0.0000000001
 40
0.0
 40
0.0
 40
0.0
 40
0.0
 40
0.275959109
 40
1.0
 40
1.0
 40
1.0
 40
1.0
 10
276.7272949995
 20
317.6296999862
 30
0.0
 10
276.7272949995
 20
317.4131452622
 30
0.0
 10
276.729774872
 20
316.6284227196
 30
0.0
 10
276.7421723232
 20
315.8436567279
 30
0.0
 10
276.7611970923
 20
315.2757952227
 30
0.0
  0
SPLINE
  5
5C4
100
AcDbEntity
  8
0
100
AcDbSpline
 62
7
  6
CONTINUOUS
 70
0
 71
3
 72
17
 73
13
 74
0
 42
0.0000001
 43
0.0000001
 44
0.0000000001
 40
0.0
 40
0.0
 40
0.0
 40
0.0
 40
0.0449885741
 40
0.0913394922
 40
0.1416899698
 40
0.197717227
 40
0.3275292941
 40
0.4760663431
 40
0.6307174091
 40
0.7058657467
 40
0.7771577568
 40
1.0
 40
1.0
 40
1.0
 40
1.0
 10
308.7601226711
 20
318.0496753487
 30
0.0
 10
308.7521707972
 20
317.9994946227
 30
0.0
 10
308.7192870599
 20
317.8993810316
 30
0.0
 10
308.6207674238
 20
317.7700500423
 30
0.0
 10
308.4796471266
 20
317.6674225474
 30
0.0
 10
308.2316499118
 20
317.564283878
 30
0.0
 10
307.8492463973
 20
317.5227739301
 30
0.0
 10
307.3617898749
 20
317.5940948389
 30
0.0
 10
306.9586823382
 20
317.7452266147
 30
0.0
 10
306.6634810944
 20
317.9179034622
 30
0.0
 10
306.3350178511
 20
318.1659633656
 30
0.0
 10
306.1028172939
 20
318.4780468776
 30
0.0
 10
306.1028172939
 20
318.7297089062
 30
0.0
  0
SPLINE
  5
5C5
100
AcDbEntity
  8
0
100
AcDbSpline
 62
7
  6
CONTINUOUS
 70
0
 71
3
 72
9
 73
5
 74
0
 42
0.0000001
 43
0.0000001
 44
0.0000000001
 40
0.0
 40
0.0
 40
0.0
 40
0.0
 40
0.4763353332
 40
1.0
 40
1.0
 40
1.0
 40
1.0
 10
312.7767926168
 20
315.814608246
 30
0.0
 10
312.7757234437
 20
315.766494752
 30
0.0
 10
312.750139261
 20
315.664945488
 30
0.0
 10
312.6861195082
 20
315.5835843502
 30
0.0
 10
312.6479692264
 20
315.546927493
 30
0.0
  0
SPLINE
  5
5C6
100
AcDbEntity
  8
0
100
AcDbSpline
 62
7
  6
CONTINUOUS
 70
0
 71
3
 72
15
 73
11
 74
0
 42
0.0000001
 43
0.0000001
 44
0.0000000001
 40
0.0
 40
0.0
 40
0.0
 40
0.0
 40
0.0981845354
 40
0.2198259691
 40
0.3599513036
 40
0.5093741703
 40
0.6572288505
 40
0.7929330052
 40
0.9081957707
 40
1.0
 40
1.0
 40
1.0
 40
1.0
 10
312.6479692264
 20
315.546927493
 30
0.0
 10
312.5799771476
 20
315.4815970206
 30
0.0
 10
312.3926747285
 20
315.3730135678
 30
0.0
 10
312.0567361245
 20
315.2838840652
 30
0.0
 10
311.6608462247
 20
315.2547273864
 30
0.0
 10
311.2407020088
 20
315.2893717479
 30
0.0
 10
310.834242787
 20
315.3842570698
 30
0.0
 10
310.4782510375
 20
315.5314870849
 30
0.0
 10
310.2031709499
 20
315.7163551471
 30
0.0
 10
310.0751800946
 20
315.8771842996
 30
0.0
 10
310.0410890039
 20
315.958491201
 30
0.0
  0
SPLINE
  5
5C7
100
AcDbEntity
  8
0
100
AcDbSpline
 62
7
  6
CONTINUOUS
 70
0
 71
3
 72
9
 73
5
 74
0
 42
0.0000001
 43
0.0000001
 44
0.0000000001
 40
0.0
 40
0.0
 40
0.0
 40
0.0
 40
0.2607079111
 40
1.0
 40
1.0
 40
1.0
 40
1.0
 10
310.0410890039
 20
315.958491201
 30
0.0
 10
310.0366429009
 20
315.9690951109
 30
0.0
 10
310.0210956868
 20
316.0103649188
 30
0.0
 10
310.0120591093
 20
316.0542329864
 30
0.0
 10
310.0101807565
 20
316.0867846638
 30
0.0
  0
SPLINE
  5
5C8
100
AcDbEntity
  8
AUSFORMSCHRAEGEN
100
AcDbSpline
 62
7
  6
CONTINUOUS
 70
0
 71
3
 72
21
 73
17
 74
0
 42
0.0000001
 43
0.0000001
 44
0.0000000001
 40
0.0
 40
0.0
 40
0.0
 40
0.0
 40
0.1560496556
 40
0.2300832397
 40
0.2998538943
 40
0.3646027597
 40
0.4240228249
 40
0.4784078403
 40
0.5287881106
 40
0.5769588211
 40
0.6252334124
 40
0.6758938334
 40
0.7306750747
 40
0.7905450416
 40
0.855743074
 40
1.0
 40
1.0
 40
1.0
 40
1.0
 10
276.9895506376
 20
327.2360556311
 30
0.0
 10
278.3185664225
 20
327.1951834273
 30
0.0
 10
280.2821560918
 20
326.9405268208
 30
0.0
 10
282.7293276251
 20
326.1910890338
 30
0.0
 10
284.3564252723
 20
325.4635357772
 30
0.0
 10
285.7606037015
 20
324.5804085106
 30
0.0
 10
286.9031841418
 20
323.5632751449
 30
0.0
 10
287.7500396447
 20
322.4358756463
 30
0.0
 10
288.2701542459
 20
321.2253419269
 30
0.0
 10
288.4365806154
 20
319.9683240944
 30
0.0
 10
288.238339793
 20
318.7136669452
 30
0.0
 10
287.6886446263
 20
317.5092835027
 30
0.0
 10
286.8149479751
 20
316.3907659301
 30
0.0
 10
285.6482323816
 20
315.3844062692
 30
0.0
 10
283.68341445
 20
314.1847749784
 30
0.0
 10
281.9746628839
 20
313.589037473
 30
0.0
 10
280.7787068718
 20
313.3052602793
 30
0.0
  0
SPLINE
  5
5C9
100
AcDbEntity
  8
AUSFORMSCHRAEGEN
100
AcDbSpline
 62
7
  6
CONTINUOUS
 70
0
 71
3
 72
9
 73
5
 74
0
 42
0.0000001
 43
0.0000001
 44
0.0000000001
 40
0.0
 40
0.0
 40
0.0
 40
0.0
 40
0.246374824
 40
1.0
 40
1.0
 40
1.0
 40
1.0
 10
280.7787068718
 20
313.3052602793
 30
0.0
 10
280.573939869
 20
313.2566730363
 30
0.0
 10
279.7392987142
 20
313.0745227178
 30
0.0
 10
278.8919212884
 20
312.9514820143
 30
0.0
 10
278.2510717104
 20
312.8905065574
 30
0.0
  0
SPLINE
  5
5CA
100
AcDbEntity
  8
KONSTRUKTIONSELEMENTE
100
AcDbSpline
 62
7
  6
CONTINUOUS
 70
0
 71
3
 72
9
 73
5
 74
0
 42
0.0000001
 43
0.0000001
 44
0.0000000001
 40
0.0
 40
0.0
 40
0.0
 40
0.0
 40
0.23573969
 40
1.0
 40
1.0
 40
1.0
 40
1.0
 10
278.2510717104
 20
312.8905065574
 30
0.0
 10
278.2209817212
 20
312.9109178806
 30
0.0
 10
278.0957154754
 20
313.0009981411
 30
0.0
 10
277.9798821279
 20
313.1038085931
 30
0.0
 10
277.8961358332
 20
313.186763714
 30
0.0
  0
SPLINE
  5
5CB
100
AcDbEntity
  8
KONSTRUKTIONSELEMENTE
100
AcDbSpline
 62
7
  6
CONTINUOUS
 70
0
 71
3
 72
9
 73
5
 74
0
 42
0.0000001
 43
0.0000001
 44
0.0000000001
 40
0.0
 40
0.0
 40
0.0
 40
0.0
 40
0.4538930038
 40
1.0
 40
1.0
 40
1.0
 40
1.0
 10
277.8961358332
 20
313.186763714
 30
0.0
 10
277.7267642347
 20
313.3545352137
 30
0.0
 10
277.3938751242
 20
313.7646125573
 30
0.0
 10
277.1193791394
 20
314.213493722
 30
0.0
 10
276.9804292156
 20
314.4644236416
 30
0.0
  0
SPLINE
  5
5CC
100
AcDbEntity
  8
BEZUGSACHSEN
100
AcDbSpline
 62
7
  6
CONTINUOUS
 70
0
 71
3
 72
9
 73
5
 74
0
 42
0.0000001
 43
0.0000001
 44
0.0000000001
 40
0.0
 40
0.0
 40
0.0
 40
0.0
 40
0.254311277
 40
1.0
 40
1.0
 40
1.0
 40
1.0
 10
284.6514426919
 20
318.7297089062
 30
0.0
 10
284.6514426919
 20
318.7510263106
 30
0.0
 10
284.6462927175
 20
318.8347830268
 30
0.0
 10
284.6184197246
 20
318.917046084
 30
0.0
 10
284.5869597447
 20
318.9710586007
 30
0.0
  0
SPLINE
  5
5CD
100
AcDbEntity
  8
BEZUGSACHSEN
100
AcDbSpline
 62
7
  6
CONTINUOUS
 70
0
 71
3
 72
9
 73
5
 74
0
 42
0.0000001
 43
0.0000001
 44
0.0000000001
 40
0.0
 40
0.0
 40
0.0
 40
0.0
 40
0.4973329541
 40
1.0
 40
1.0
 40
1.0
 40
1.0
 10
284.5833912234
 20
323.5172935552
 30
0.0
 10
284.5683689928
 20
323.601659014
 30
0.0
 10
284.5107242524
 20
323.7676269325
 30
0.0
 10
284.4030843796
 20
323.9063715006
 30
0.0
 10
284.3401928295
 20
323.9659215894
 30
0.0
  0
SPLINE
  5
5CE
100
AcDbEntity
  8
BEZUGSACHSEN
100
AcDbSpline
 62
7
  6
CONTINUOUS
 70
0
 71
3
 72
15
 73
11
 74
0
 42
0.0000001
 43
0.0000001
 44
0.0000000001
 40
0.0
 40
0.0
 40
0.0
 40
0.0
 40
0.1160764945
 40
0.234843927
 40
0.3606868018
 40
0.4930848416
 40
0.6275961938
 40
0.7586105677
 40
0.8824677867
 40
1.0
 40
1.0
 40
1.0
 40
1.0
 10
277.9833663757
 20
325.3967630486
 30
0.0
 10
277.9763390515
 20
325.2346520622
 30
0.0
 10
278.042441323
 20
324.8974191829
 30
0.0
 10
278.3716703073
 20
324.4923749106
 30
0.0
 10
278.8584557251
 20
324.2545800257
 30
0.0
 10
279.4181454511
 20
324.2134526664
 30
0.0
 10
279.9640489985
 20
324.3697604262
 30
0.0
 10
280.4119498794
 20
324.7010042024
 30
0.0
 10
280.6884498007
 20
325.1597490722
 30
0.0
 10
280.7190258966
 20
325.5107939191
 30
0.0
 10
280.6930331201
 20
325.673022974
 30
0.0
  0
SPLINE
  5
5CF
100
AcDbEntity
  8
BEZUGSACHSEN
100
AcDbSpline
 62
7
  6
CONTINUOUS
 70
0
 71
3
 72
9
 73
5
 74
0
 42
0.0000001
 43
0.0000001
 44
0.0000000001
 40
0.0
 40
0.0
 40
0.0
 40
0.0
 40
0.746357998
 40
1.0
 40
1.0
 40
1.0
 40
1.0
 10
280.6930331201
 20
325.673022974
 30
0.0
 10
280.6732420873
 20
325.7965450055
 30
0.0
 10
280.6145824587
 20
325.9590165213
 30
0.0
 10
280.5217217904
 20
326.0987221423
 30
0.0
 10
280.4961459964
 20
326.1326815334
 30
0.0
  0
SPLINE
  5
5D0
100
AcDbEntity
  8
BEZUGSACHSEN
100
AcDbSpline
 62
7
  6
CONTINUOUS
 70
0
 71
3
 72
9
 73
5
 74
0
 42
0.0000001
 43
0.0000001
 44
0.0000000001
 40
0.0
 40
0.0
 40
0.0
 40
0.0
 40
0.5204164849
 40
1.0
 40
1.0
 40
1.0
 40
1.0
 10
284.5833912234
 20
315.4288996441
 30
0.0
 10
284.5928585874
 20
315.4563983941
 30
0.0
 10
284.6030756849
 20
315.5132385388
 30
0.0
 10
284.5853300219
 20
315.5689138219
 30
0.0
 10
284.5714231475
 20
315.5918242943
 30
0.0
  0
SPLINE
  5
5D1
100
AcDbEntity
  8
BEZUGSACHSEN
100
AcDbSpline
 62
7
  6
CONTINUOUS
 70
0
 71
3
 72
10
 73
6
 74
0
 42
0.0000001
 43
0.0000001
 44
0.0000000001
 40
0.0
 40
0.0
 40
0.0
 40
0.0
 40
0.3744322788
 40
0.6521494712
 40
1.0
 40
1.0
 40
1.0
 40
1.0
 10
277.9833663757
 20
313.2641721818
 30
0.0
 10
277.9887483827
 20
313.230788233
 30
0.0
 10
278.0381176739
 20
313.184181156
 30
0.0
 10
278.1187506
 20
313.1475863889
 30
0.0
 10
278.1733855558
 20
313.1308529196
 30
0.0
 10
278.2038365319
 20
313.1231326561
 30
0.0
  0
SPLINE
  5
5D2
100
AcDbEntity
  8
BEZUGSACHSEN
100
AcDbSpline
 62
7
  6
CONTINUOUS
 70
0
 71
3
 72
12
 73
8
 74
0
 42
0.0000001
 43
0.0000001
 44
0.0000000001
 40
0.0
 40
0.0
 40
0.0
 40
0.0
 40
0.0929611527
 40
0.2077902701
 40
0.4802619482
 40
0.763403182
 40
1.0
 40
1.0
 40
1.0
 40
1.0
 10
278.2038365319
 20
313.1231326561
 30
0.0
 10
278.2705881784
 20
313.1062090509
 30
0.0
 10
278.4232169634
 20
313.0822557887
 30
0.0
 10
278.7786058681
 20
313.0616590673
 30
0.0
 10
279.276224877
 20
313.0870454443
 30
0.0
 10
279.8565624643
 20
313.1765393994
 30
0.0
 10
280.2304900189
 20
313.2771843215
 30
0.0
 10
280.3930176231
 20
313.3427803587
 30
0.0
  0
SPLINE
  5
5D3
100
AcDbEntity
  8
BEZUGSACHSEN
100
AcDbSpline
 62
7
  6
CONTINUOUS
 70
0
 71
3
 72
10
 73
6
 74
0
 42
0.0000001
 43
0.0000001
 44
0.0000000001
 40
0.0
 40
0.0
 40
0.0
 40
0.0
 40
0.6071545133
 40
0.8295303246
 40
1.0
 40
1.0
 40
1.0
 40
1.0
 10
280.3930176231
 20
313.3427803587
 30
0.0
 10
280.4613479088
 20
313.3703584183
 30
0.0
 10
280.5538447898
 20
313.4128002012
 30
0.0
 10
280.651331243
 20
313.4855357968
 30
0.0
 10
280.6831677477
 20
313.5222471621
 30
0.0
 10
280.6930331201
 20
313.5404321073
 30
0.0
  0
SPLINE
  5
5D4
100
AcDbEntity
  8
KONSTRUKTIONSELEMENTE
100
AcDbSpline
 62
7
  6
CONTINUOUS
 70
0
 71
3
 72
9
 73
5
 74
0
 42
0.0000001
 43
0.0000001
 44
0.0000000001
 40
0.0
 40
0.0
 40
0.0
 40
0.0
 40
0.5083480285
 40
1.0
 40
1.0
 40
1.0
 40
1.0
 10
276.7611970923
 20
315.2757952227
 30
0.0
 10
276.7659998752
 20
315.1324391856
 30
0.0
 10
276.8060047623
 20
314.8502119915
 30
0.0
 10
276.9132266094
 20
314.5857849502
 30
0.0
 10
276.9804292156
 20
314.4644236416
 30
0.0
  0
SPLINE
  5
5D5
100
AcDbEntity
  8
0
100
AcDbSpline
 62
7
  6
CONTINUOUS
 70
0
 71
3
 72
9
 73
5
 74
0
 42
0.0000001
 43
0.0000001
 44
0.0000000001
 40
0.0
 40
0.0
 40
0.0
 40
0.0
 40
0.275959109
 40
1.0
 40
1.0
 40
1.0
 40
1.0
 10
314.0269649864
 20
317.6296999862
 30
0.0
 10
314.0269649864
 20
317.4131452622
 30
0.0
 10
314.0244851138
 20
316.6284227196
 30
0.0
 10
314.0120876627
 20
315.8436567279
 30
0.0
 10
313.9930628935
 20
315.2757952227
 30
0.0
  0
SPLINE
  5
5D6
100
AcDbEntity
  8
0
100
AcDbSpline
 62
7
  6
CONTINUOUS
 70
0
 71
3
 72
9
 73
5
 74
0
 42
0.0000001
 43
0.0000001
 44
0.0000000001
 40
0.0
 40
0.0
 40
0.0
 40
0.0
 40
0.4501551615
 40
1.0
 40
1.0
 40
1.0
 40
1.0
 10
314.0269649864
 20
317.6296999862
 30
0.0
 10
314.0269649864
 20
319.0717709206
 30
0.0
 10
313.9671314618
 20
322.2751844211
 30
0.0
 10
313.8446472671
 20
325.476443891
 30
0.0
 10
313.7647093482
 20
327.2360556311
 30
0.0
  0
SPLINE
  5
5D7
100
AcDbEntity
  8
0
100
AcDbSpline
 62
7
  6
CONTINUOUS
 70
0
 71
3
 72
11
 73
7
 74
0
 42
0.0000001
 43
0.0000001
 44
0.0000000001
 40
0.0
 40
0.0
 40
0.0
 40
0.0
 40
0.1981354227
 40
0.4143620294
 40
0.6773813451
 40
1.0
 40
1.0
 40
1.0
 40
1.0
 10
308.7760740175
 20
314.8072149343
 30
0.0
 10
308.7750133558
 20
314.7805619168
 30
0.0
 10
308.7589853562
 20
314.7243871138
 30
0.0
 10
308.6940299511
 20
314.6567361612
 30
0.0
 10
308.596709822
 20
314.6073416216
 30
0.0
 10
308.5200874353
 20
314.5869922568
 30
0.0
 10
308.4774583352
 20
314.5786757806
 30
0.0
  0
SPLINE
  5
5D8
100
AcDbEntity
  8
0
100
AcDbSpline
 62
7
  6
CONTINUOUS
 70
0
 71
3
 72
13
 73
9
 74
0
 42
0.0000001
 43
0.0000001
 44
0.0000000001
 40
0.0
 40
0.0
 40
0.0
 40
0.0
 40
0.104079232
 40
0.2296751234
 40
0.516809318
 40
0.7944042714
 40
0.9091118696
 40
1.0
 40
1.0
 40
1.0
 40
1.0
 10
308.4774583352
 20
314.5786757806
 30
0.0
 10
308.3944498703
 20
314.5624817273
 30
0.0
 10
308.2069382051
 20
314.5497264914
 30
0.0
 10
307.7873902894
 20
314.5804850863
 30
0.0
 10
307.2386456365
 20
314.7119660121
 30
0.0
 10
306.7258489564
 20
314.9278625294
 30
0.0
 10
306.3976060004
 20
315.1447116241
 30
0.0
 10
306.2749173081
 20
315.2611227155
 30
0.0
 10
306.2308449211
 20
315.3203857241
 30
0.0
  0
SPLINE
  5
5D9
100
AcDbEntity
  8
0
100
AcDbSpline
 62
7
  6
CONTINUOUS
 70
0
 71
3
 72
9
 73
5
 74
0
 42
0.0000001
 43
0.0000001
 44
0.0000000001
 40
0.0
 40
0.0
 40
0.0
 40
0.0
 40
0.2740165452
 40
1.0
 40
1.0
 40
1.0
 40
1.0
 10
306.2308449211
 20
315.3203857241
 30
0.0
 10
306.2240731649
 20
315.329491531
 30
0.0
 10
306.2003501855
 20
315.3633991819
 30
0.0
 10
306.1806558489
 20
315.4004722333
 30
0.0
 10
306.1708687624
 20
315.4288996441
 30
0.0
  0
SPLINE
  5
5DA
100
AcDbEntity
  8
BEZUGSACHSEN
100
AcDbSpline
 62
7
  6
CONTINUOUS
 70
0
 71
3
 72
11
 73
7
 74
0
 42
0.0000001
 43
0.0000001
 44
0.0000000001
 40
0.0
 40
0.0
 40
0.0
 40
0.0
 40
0.1981354227
 40
0.4143620294
 40
0.6773813451
 40
1.0
 40
1.0
 40
1.0
 40
1.0
 10
281.9781859683
 20
314.8072149343
 30
0.0
 10
281.97924663
 20
314.7805619168
 30
0.0
 10
281.9952746296
 20
314.7243871138
 30
0.0
 10
282.0602300347
 20
314.6567361612
 30
0.0
 10
282.1575501638
 20
314.6073416216
 30
0.0
 10
282.2341725505
 20
314.5869922568
 30
0.0
 10
282.2768016507
 20
314.5786757806
 30
0.0
  0
SPLINE
  5
5DB
100
AcDbEntity
  8
BEZUGSACHSEN
100
AcDbSpline
 62
7
  6
CONTINUOUS
 70
0
 71
3
 72
13
 73
9
 74
0
 42
0.0000001
 43
0.0000001
 44
0.0000000001
 40
0.0
 40
0.0
 40
0.0
 40
0.0
 40
0.104079232
 40
0.2296751234
 40
0.516809318
 40
0.7944042714
 40
0.9091118696
 40
1.0
 40
1.0
 40
1.0
 40
1.0
 10
282.2768016507
 20
314.5786757806
 30
0.0
 10
282.3598101155
 20
314.5624817273
 30
0.0
 10
282.5473217807
 20
314.5497264914
 30
0.0
 10
282.9668696964
 20
314.5804850863
 30
0.0
 10
283.5156143493
 20
314.7119660121
 30
0.0
 10
284.0284110294
 20
314.9278625294
 30
0.0
 10
284.3566539854
 20
315.1447116241
 30
0.0
 10
284.4793426777
 20
315.2611227155
 30
0.0
 10
284.5234150647
 20
315.3203857241
 30
0.0
  0
SPLINE
  5
5DC
100
AcDbEntity
  8
BEZUGSACHSEN
100
AcDbSpline
 62
7
  6
CONTINUOUS
 70
0
 71
3
 72
9
 73
5
 74
0
 42
0.0000001
 43
0.0000001
 44
0.0000000001
 40
0.0
 40
0.0
 40
0.0
 40
0.0
 40
0.2740165452
 40
1.0
 40
1.0
 40
1.0
 40
1.0
 10
284.5234150647
 20
315.3203857241
 30
0.0
 10
284.5301868209
 20
315.329491531
 30
0.0
 10
284.5539098003
 20
315.3633991819
 30
0.0
 10
284.5736041369
 20
315.4004722333
 30
0.0
 10
284.5833912234
 20
315.4288996441
 30
0.0
  0
SPLINE
  5
5DD
100
AcDbEntity
  8
0
100
AcDbSpline
 62
7
  6
CONTINUOUS
 70
0
 71
3
 72
15
 73
11
 74
0
 42
0.0000001
 43
0.0000001
 44
0.0000000001
 40
0.0
 40
0.0
 40
0.0
 40
0.0
 40
0.1078297675
 40
0.2218707249
 40
0.3480645294
 40
0.4848337032
 40
0.6254573999
 40
0.7615826629
 40
0.8867747102
 40
1.0
 40
1.0
 40
1.0
 40
1.0
 10
308.7517989251
 20
322.7158650567
 30
0.0
 10
308.7198694962
 20
322.5862971588
 30
0.0
 10
308.5826076586
 20
322.3322885645
 30
0.0
 10
308.2080246607
 20
322.0914227144
 30
0.0
 10
307.7382058319
 20
322.0108712726
 30
0.0
 10
307.2372267771
 20
322.0902337631
 30
0.0
 10
306.7696288903
 20
322.3152552323
 30
0.0
 10
306.3973126439
 20
322.657029975
 30
0.0
 10
306.1710523873
 20
323.0729602619
 30
0.0
 10
306.1463049392
 20
323.379342124
 30
0.0
 10
306.1708687624
 20
323.5172935552
 30
0.0
  0
SPLINE
  5
5DE
100
AcDbEntity
  8
0
100
AcDbSpline
 62
7
  6
CONTINUOUS
 70
0
 71
3
 72
9
 73
5
 74
0
 42
0.0000001
 43
0.0000001
 44
0.0000000001
 40
0.0
 40
0.0
 40
0.0
 40
0.0
 40
0.23573969
 40
1.0
 40
1.0
 40
1.0
 40
1.0
 10
312.5031882754
 20
312.8905065574
 30
0.0
 10
312.5332782646
 20
312.9109178806
 30
0.0
 10
312.6585445104
 20
313.0009981411
 30
0.0
 10
312.7743778579
 20
313.1038085931
 30
0.0
 10
312.8581241526
 20
313.186763714
 30
0.0
  0
SPLINE
  5
5DF
100
AcDbEntity
  8
0
100
AcDbSpline
 62
7
  6
CONTINUOUS
 70
0
 71
3
 72
9
 73
5
 74
0
 42
0.0000001
 43
0.0000001
 44
0.0000000001
 40
0.0
 40
0.0
 40
0.0
 40
0.0
 40
0.4538930038
 40
1.0
 40
1.0
 40
1.0
 40
1.0
 10
312.8581241526
 20
313.186763714
 30
0.0
 10
313.0274957511
 20
313.3545352137
 30
0.0
 10
313.3603848616
 20
313.7646125573
 30
0.0
 10
313.6348808464
 20
314.213493722
 30
0.0
 10
313.7738307702
 20
314.4644236416
 30
0.0
  0
SPLINE
  5
5E0
100
AcDbEntity
  8
0
100
AcDbSpline
 62
7
  6
CONTINUOUS
 70
0
 71
3
 72
21
 73
17
 74
0
 42
0.0000001
 43
0.0000001
 44
0.0000000001
 40
0.0
 40
0.0
 40
0.0
 40
0.0
 40
0.1560496556
 40
0.2300832397
 40
0.2998538943
 40
0.3646027597
 40
0.4240228249
 40
0.4784078403
 40
0.5287881106
 40
0.5769588211
 40
0.6252334124
 40
0.6758938334
 40
0.7306750747
 40
0.7905450416
 40
0.855743074
 40
1.0
 40
1.0
 40
1.0
 40
1.0
 10
313.7647093482
 20
327.2360556311
 30
0.0
 10
312.4356935633
 20
327.1951834273
 30
0.0
 10
310.472103894
 20
326.9405268208
 30
0.0
 10
308.0249323608
 20
326.1910890338
 30
0.0
 10
306.3978347135
 20
325.4635357772
 30
0.0
 10
304.9936562843
 20
324.5804085106
 30
0.0
 10
303.851075844
 20
323.5632751449
 30
0.0
 10
303.0042203412
 20
322.4358756463
 30
0.0
 10
302.48410574
 20
321.2253419269
 30
0.0
 10
302.3176793704
 20
319.9683240944
 30
0.0
 10
302.5159201929
 20
318.7136669452
 30
0.0
 10
303.0656153595
 20
317.5092835027
 30
0.0
 10
303.9393120107
 20
316.3907659301
 30
0.0
 10
305.1060276042
 20
315.3844062692
 30
0.0
 10
307.0708455358
 20
314.1847749784
 30
0.0
 10
308.7795971019
 20
313.589037473
 30
0.0
 10
309.975553114
 20
313.3052602793
 30
0.0
  0
SPLINE
  5
5E1
100
AcDbEntity
  8
0
100
AcDbSpline
 62
7
  6
CONTINUOUS
 70
0
 71
3
 72
9
 73
5
 74
0
 42
0.0000001
 43
0.0000001
 44
0.0000000001
 40
0.0
 40
0.0
 40
0.0
 40
0.0
 40
0.246374824
 40
1.0
 40
1.0
 40
1.0
 40
1.0
 10
309.975553114
 20
313.3052602793
 30
0.0
 10
310.1803201169
 20
313.2566730363
 30
0.0
 10
311.0149612716
 20
313.0745227178
 30
0.0
 10
311.8623386974
 20
312.9514820143
 30
0.0
 10
312.5031882754
 20
312.8905065574
 30
0.0
  0
SPLINE
  5
5E2
100
AcDbEntity
  8
0
100
AcDbSpline
 62
7
  6
CONTINUOUS
 70
0
 71
3
 72
9
 73
5
 74
0
 42
0.0000001
 43
0.0000001
 44
0.0000000001
 40
0.0
 40
0.0
 40
0.0
 40
0.0
 40
0.254311277
 40
1.0
 40
1.0
 40
1.0
 40
1.0
 10
306.1028172939
 20
318.7297089062
 30
0.0
 10
306.1028172939
 20
318.7510263106
 30
0.0
 10
306.1079672683
 20
318.8347830268
 30
0.0
 10
306.1358402612
 20
318.917046084
 30
0.0
 10
306.1673002411
 20
318.9710586007
 30
0.0
  0
SPLINE
  5
5E3
100
AcDbEntity
  8
0
100
AcDbSpline
 62
7
  6
CONTINUOUS
 70
0
 71
3
 72
9
 73
5
 74
0
 42
0.0000001
 43
0.0000001
 44
0.0000000001
 40
0.0
 40
0.0
 40
0.0
 40
0.0
 40
0.4973329541
 40
1.0
 40
1.0
 40
1.0
 40
1.0
 10
306.1708687624
 20
323.5172935552
 30
0.0
 10
306.185890993
 20
323.601659014
 30
0.0
 10
306.2435357334
 20
323.7676269325
 30
0.0
 10
306.3511756062
 20
323.9063715006
 30
0.0
 10
306.4140671564
 20
323.9659215894
 30
0.0
  0
SPLINE
  5
5E4
100
AcDbEntity
  8
0
100
AcDbSpline
 62
7
  6
CONTINUOUS
 70
0
 71
3
 72
15
 73
11
 74
0
 42
0.0000001
 43
0.0000001
 44
0.0000000001
 40
0.0
 40
0.0
 40
0.0
 40
0.0
 40
0.1160764945
 40
0.234843927
 40
0.3606868018
 40
0.4930848416
 40
0.6275961938
 40
0.7586105677
 40
0.8824677867
 40
1.0
 40
1.0
 40
1.0
 40
1.0
 10
312.7708936101
 20
325.3967630486
 30
0.0
 10
312.7779209344
 20
325.2346520622
 30
0.0
 10
312.7118186628
 20
324.8974191829
 30
0.0
 10
312.3825896785
 20
324.4923749106
 30
0.0
 10
311.8958042607
 20
324.2545800257
 30
0.0
 10
311.3361145347
 20
324.2134526664
 30
0.0
 10
310.7902109873
 20
324.3697604262
 30
0.0
 10
310.3423101064
 20
324.7010042024
 30
0.0
 10
310.0658101851
 20
325.1597490722
 30
0.0
 10
310.0352340892
 20
325.5107939191
 30
0.0
 10
310.0612268657
 20
325.673022974
 30
0.0
  0
SPLINE
  5
5E5
100
AcDbEntity
  8
0
100
AcDbSpline
 62
7
  6
CONTINUOUS
 70
0
 71
3
 72
9
 73
5
 74
0
 42
0.0000001
 43
0.0000001
 44
0.0000000001
 40
0.0
 40
0.0
 40
0.0
 40
0.0
 40
0.746357998
 40
1.0
 40
1.0
 40
1.0
 40
1.0
 10
310.0612268657
 20
325.673022974
 30
0.0
 10
310.0810178986
 20
325.7965450055
 30
0.0
 10
310.1396775271
 20
325.9590165213
 30
0.0
 10
310.2325381954
 20
326.0987221423
 30
0.0
 10
310.2581139894
 20
326.1326815334
 30
0.0
  0
SPLINE
  5
5E6
100
AcDbEntity
  8
0
100
AcDbSpline
 62
7
  6
CONTINUOUS
 70
0
 71
3
 72
9
 73
5
 74
0
 42
0.0000001
 43
0.0000001
 44
0.0000000001
 40
0.0
 40
0.0
 40
0.0
 40
0.0
 40
0.5204164849
 40
1.0
 40
1.0
 40
1.0
 40
1.0
 10
306.1708687624
 20
315.4288996441
 30
0.0
 10
306.1614013984
 20
315.4563983941
 30
0.0
 10
306.1511843009
 20
315.5132385388
 30
0.0
 10
306.168929964
 20
315.5689138219
 30
0.0
 10
306.1828368384
 20
315.5918242943
 30
0.0
  0
SPLINE
  5
5E7
100
AcDbEntity
  8
0
100
AcDbSpline
 62
7
  6
CONTINUOUS
 70
0
 71
3
 72
10
 73
6
 74
0
 42
0.0000001
 43
0.0000001
 44
0.0000000001
 40
0.0
 40
0.0
 40
0.0
 40
0.0
 40
0.3744322788
 40
0.6521494712
 40
1.0
 40
1.0
 40
1.0
 40
1.0
 10
312.7708936101
 20
313.2641721818
 30
0.0
 10
312.7655116031
 20
313.230788233
 30
0.0
 10
312.7161423119
 20
313.184181156
 30
0.0
 10
312.6355093858
 20
313.1475863889
 30
0.0
 10
312.58087443
 20
313.1308529196
 30
0.0
 10
312.550423454
 20
313.1231326561
 30
0.0
  0
SPLINE
  5
5E8
100
AcDbEntity
  8
0
100
AcDbSpline
 62
7
  6
CONTINUOUS
 70
0
 71
3
 72
12
 73
8
 74
0
 42
0.0000001
 43
0.0000001
 44
0.0000000001
 40
0.0
 40
0.0
 40
0.0
 40
0.0
 40
0.0929611527
 40
0.2077902701
 40
0.4802619482
 40
0.763403182
 40
1.0
 40
1.0
 40
1.0
 40
1.0
 10
312.550423454
 20
313.1231326561
 30
0.0
 10
312.4836718074
 20
313.1062090509
 30
0.0
 10
312.3310430224
 20
313.0822557887
 30
0.0
 10
311.9756541177
 20
313.0616590673
 30
0.0
 10
311.4780351089
 20
313.0870454443
 30
0.0
 10
310.8976975215
 20
313.1765393994
 30
0.0
 10
310.5237699669
 20
313.2771843215
 30
0.0
 10
310.3612423627
 20
313.3427803587
 30
0.0
  0
SPLINE
  5
5E9
100
AcDbEntity
  8
0
100
AcDbSpline
 62
7
  6
CONTINUOUS
 70
0
 71
3
 72
10
 73
6
 74
0
 42
0.0000001
 43
0.0000001
 44
0.0000000001
 40
0.0
 40
0.0
 40
0.0
 40
0.0
 40
0.6071545133
 40
0.8295303246
 40
1.0
 40
1.0
 40
1.0
 40
1.0
 10
310.3612423627
 20
313.3427803587
 30
0.0
 10
310.2929120771
 20
313.3703584183
 30
0.0
 10
310.200415196
 20
313.4128002012
 30
0.0
 10
310.1029287428
 20
313.4855357968
 30
0.0
 10
310.0710922381
 20
313.5222471621
 30
0.0
 10
310.0612268657
 20
313.5404321073
 30
0.0
  0
SPLINE
  5
5EA
100
AcDbEntity
  8
0
100
AcDbSpline
 62
7
  6
CONTINUOUS
 70
0
 71
3
 72
9
 73
5
 74
0
 42
0.0000001
 43
0.0000001
 44
0.0000000001
 40
0.0
 40
0.0
 40
0.0
 40
0.0
 40
0.5083480285
 40
1.0
 40
1.0
 40
1.0
 40
1.0
 10
313.9930628935
 20
315.2757952227
 30
0.0
 10
313.9882601106
 20
315.1324391856
 30
0.0
 10
313.9482552236
 20
314.8502119915
 30
0.0
 10
313.8410333764
 20
314.5857849502
 30
0.0
 10
313.7738307702
 20
314.4644236416
 30
0.0
  0
SPLINE
  5
5EB
100
AcDbEntity
  8
BEZUGSACHSEN
100
AcDbSpline
 62
7
  6
CONTINUOUS
 70
0
 71
3
 72
9
 73
5
 74
0
 42
0.0000001
 43
0.0000001
 44
0.0000000001
 40
0.0
 40
0.0
 40
0.0
 40
0.0
 40
0.4763353332
 40
1.0
 40
1.0
 40
1.0
 40
1.0
 10
277.977467369
 20
315.814608246
 30
0.0
 10
277.9785365421
 20
315.766494752
 30
0.0
 10
278.0041207248
 20
315.664945488
 30
0.0
 10
278.0681404776
 20
315.5835843502
 30
0.0
 10
278.1062907594
 20
315.546927493
 30
0.0
  0
SPLINE
  5
5EC
100
AcDbEntity
  8
BEZUGSACHSEN
100
AcDbSpline
 62
7
  6
CONTINUOUS
 70
0
 71
3
 72
15
 73
11
 74
0
 42
0.0000001
 43
0.0000001
 44
0.0000000001
 40
0.0
 40
0.0
 40
0.0
 40
0.0
 40
0.0981845354
 40
0.2198259691
 40
0.3599513036
 40
0.5093741703
 40
0.6572288505
 40
0.7929330052
 40
0.9081957707
 40
1.0
 40
1.0
 40
1.0
 40
1.0
 10
278.1062907594
 20
315.546927493
 30
0.0
 10
278.1742828382
 20
315.4815970206
 30
0.0
 10
278.3615852573
 20
315.3730135678
 30
0.0
 10
278.6975238613
 20
315.2838840652
 30
0.0
 10
279.0934137612
 20
315.2547273864
 30
0.0
 10
279.513557977
 20
315.289371748
 30
0.0
 10
279.9200171988
 20
315.3842570698
 30
0.0
 10
280.2760089483
 20
315.5314870849
 30
0.0
 10
280.5510890359
 20
315.7163551471
 30
0.0
 10
280.6790798912
 20
315.8771842996
 30
0.0
 10
280.7131709819
 20
315.958491201
 30
0.0
  0
SPLINE
  5
5ED
100
AcDbEntity
  8
BEZUGSACHSEN
100
AcDbSpline
 62
7
  6
CONTINUOUS
 70
0
 71
3
 72
9
 73
5
 74
0
 42
0.0000001
 43
0.0000001
 44
0.0000000001
 40
0.0
 40
0.0
 40
0.0
 40
0.0
 40
0.2607079111
 40
1.0
 40
1.0
 40
1.0
 40
1.0
 10
280.7131709819
 20
315.958491201
 30
0.0
 10
280.7176170849
 20
315.9690951109
 30
0.0
 10
280.733164299
 20
316.0103649188
 30
0.0
 10
280.7422008765
 20
316.0542329864
 30
0.0
 10
280.7440792293
 20
316.0867846638
 30
0.0
  0
SPLINE
  5
5EE
100
AcDbEntity
  8
BEZUGSACHSEN
100
AcDbSpline
 62
7
  6
CONTINUOUS
 70
0
 71
3
 72
15
 73
11
 74
0
 42
0.0000001
 43
0.0000001
 44
0.0000000001
 40
0.0
 40
0.0
 40
0.0
 40
0.0
 40
0.1078297675
 40
0.2218707249
 40
0.3480645294
 40
0.4848337032
 40
0.6254573999
 40
0.7615826629
 40
0.8867747102
 40
1.0
 40
1.0
 40
1.0
 40
1.0
 10
282.0024610607
 20
322.7158650567
 30
0.0
 10
282.0343904897
 20
322.5862971588
 30
0.0
 10
282.1716523272
 20
322.3322885645
 30
0.0
 10
282.5462353252
 20
322.0914227144
 30
0.0
 10
283.0160541539
 20
322.0108712726
 30
0.0
 10
283.5170332087
 20
322.0902337631
 30
0.0
 10
283.9846310956
 20
322.3152552323
 30
0.0
 10
284.3569473419
 20
322.657029975
 30
0.0
 10
284.5832075985
 20
323.0729602619
 30
0.0
 10
284.6079550466
 20
323.379342124
 30
0.0
 10
284.5833912234
 20
323.5172935552
 30
0.0
  0
SPLINE
  5
5EF
100
AcDbEntity
  8
0
100
AcDbSpline
 62
7
  6
CONTINUOUS
 70
0
 71
3
 72
11
 73
7
 74
0
 42
0.0000001
 43
0.0000001
 44
0.0000000001
 40
0.0
 40
0.0
 40
0.0
 40
0.0
 40
0.2201514612
 40
0.4645650253
 40
0.7273617293
 40
1.0
 40
1.0
 40
1.0
 40
1.0
 10
303.9342335904
 20
310.1436343807
 30
0.0
 10
303.5450998717
 20
310.4788396819
 30
0.0
 10
302.6288200452
 20
311.0778889676
 30
0.0
 10
301.0472224488
 20
311.7144422753
 30
0.0
 10
299.2642543332
 20
312.111019807
 30
0.0
 10
298.0131817717
 20
312.2000910245
 30
0.0
 10
297.3771299929
 20
312.2000910245
 30
0.0
  0
SPLINE
  5
5F0
100
AcDbEntity
  8
KONSTRUKTIONSELEMENTE
100
AcDbSpline
 62
7
  6
CONTINUOUS
 70
0
 71
3
 72
11
 73
7
 74
0
 42
0.0000001
 43
0.0000001
 44
0.0000000001
 40
0.0
 40
0.0
 40
0.0
 40
0.0
 40
0.2201514612
 40
0.4645650253
 40
0.7273617293
 40
1.0
 40
1.0
 40
1.0
 40
1.0
 10
286.8200263954
 20
310.1436343807
 30
0.0
 10
287.2091601142
 20
310.4788396819
 30
0.0
 10
288.1254399406
 20
311.0778889676
 30
0.0
 10
289.707037537
 20
311.7144422753
 30
0.0
 10
291.4900056527
 20
312.111019807
 30
0.0
 10
292.7410782141
 20
312.2000910245
 30
0.0
 10
293.3771299929
 20
312.2000910245
 30
0.0
  0
SPLINE
  5
5F1
100
AcDbEntity
  8
0
100
AcDbSpline
 62
7
  6
CONTINUOUS
 70
0
 71
3
 72
16
 73
12
 74
0
 42
0.0000001
 43
0.0000001
 44
0.0000000001
 40
0.0
 40
0.0
 40
0.0
 40
0.0
 40
0.0370060934
 40
0.0649623449
 40
0.1001271975
 40
0.1426103032
 40
0.1922912019
 40
0.312172093
 40
0.45696441
 40
0.6229483641
 40
1.0
 40
1.0
 40
1.0
 40
1.0
 10
307.9331300788
 20
371.5419983092
 30
0.0
 10
307.9330653248
 20
371.4785363919
 30
0.0
 10
308.0084771781
 20
371.3769264261
 30
0.0
 10
308.140437287
 20
371.272613704
 30
0.0
 10
308.2959419611
 20
371.1767750916
 30
0.0
 10
308.4908305547
 20
371.0788648259
 30
0.0
 10
308.8252537885
 20
370.9351780776
 30
0.0
 10
309.3351504077
 20
370.758656227
 30
0.0
 10
310.0466425682
 20
370.5593938152
 30
0.0
 10
311.1969683544
 20
370.2969521448
 30
0.0
 10
312.1175480172
 20
370.1480849699
 30
0.0
 10
312.7590246353
 20
370.0667860236
 30
0.0
  0
SPLINE
  5
5F2
100
AcDbEntity
  8
KONSTRUKTIONSELEMENTE
100
AcDbSpline
 62
7
  6
CONTINUOUS
 70
0
 71
3
 72
16
 73
12
 74
0
 42
0.0000001
 43
0.0000001
 44
0.0000000001
 40
0.0
 40
0.0
 40
0.0
 40
0.0
 40
0.0370060934
 40
0.0649623449
 40
0.1001271975
 40
0.1426103032
 40
0.1922912019
 40
0.312172093
 40
0.45696441
 40
0.6229483641
 40
1.0
 40
1.0
 40
1.0
 40
1.0
 10
282.821129907
 20
371.5419983092
 30
0.0
 10
282.821194661
 20
371.4785363919
 30
0.0
 10
282.7457828077
 20
371.3769264261
 30
0.0
 10
282.6138226988
 20
371.272613704
 30
0.0
 10
282.4583180247
 20
371.1767750916
 30
0.0
 10
282.2634294311
 20
371.0788648259
 30
0.0
 10
281.9290061973
 20
370.9351780776
 30
0.0
 10
281.4191095781
 20
370.758656227
 30
0.0
 10
280.7076174176
 20
370.5593938152
 30
0.0
 10
279.5572916314
 20
370.2969521448
 30
0.0
 10
278.6367119686
 20
370.1480849699
 30
0.0
 10
277.9952353505
 20
370.0667860236
 30
0.0
  0
SPLINE
  5
5F3
100
AcDbEntity
  8
BEZUGSACHSEN
100
AcDbSpline
 62
7
  6
CONTINUOUS
 70
0
 71
3
 72
10
 73
6
 74
0
 42
0.0000001
 43
0.0000001
 44
0.0000000001
 40
0.0
 40
0.0
 40
0.0
 40
0.0
 40
0.5730060519
 40
0.8060851033
 40
1.0
 40
1.0
 40
1.0
 40
1.0
 10
280.7851299929
 20
232.8451872785
 30
0.0
 10
280.5677518699
 20
232.5578497543
 30
0.0
 10
280.2851145988
 20
232.1330916285
 30
0.0
 10
280.018524658
 20
231.562667198
 30
0.0
 10
279.9348070478
 20
231.3063407534
 30
0.0
 10
279.9076906574
 20
231.1874626033
 30
0.0
  0
SPLINE
  5
5F4
100
AcDbEntity
  8
BEZUGSACHSEN
100
AcDbSpline
 62
7
  6
CONTINUOUS
 70
0
 71
3
 72
11
 73
7
 74
0
 42
0.0000001
 43
0.0000001
 44
0.0000000001
 40
0.0
 40
0.0
 40
0.0
 40
0.0
 40
0.3193227835
 40
0.5746398442
 40
0.7887915314
 40
1.0
 40
1.0
 40
1.0
 40
1.0
 10
279.9076906574
 20
231.1874626033
 30
0.0
 10
279.880390508
 20
231.0677788547
 30
0.0
 10
279.8177886678
 20
230.8547682446
 30
0.0
 10
279.6674725902
 20
230.586319325
 30
0.0
 10
279.4570615152
 20
230.4166006807
 30
0.0
 10
279.289845391
 20
230.3850759831
 30
0.0
 10
279.2086501618
 20
230.3849805654
 30
0.0
  0
SPLINE
  5
5F5
100
AcDbEntity
  8
0
100
AcDbSpline
 62
7
  6
CONTINUOUS
 70
0
 71
3
 72
15
 73
11
 74
0
 42
0.0000001
 43
0.0000001
 44
0.0000000001
 40
0.0
 40
0.0
 40
0.0
 40
0.0
 40
0.124767452
 40
0.2495743156
 40
0.374452021
 40
0.499414729
 40
0.6244647509
 40
0.7495922525
 40
0.8747774593
 40
1.0
 40
1.0
 40
1.0
 40
1.0
 10
334.3817120761
 20
370.3726203838
 30
0.0
 10
335.792992677
 20
370.2526137451
 30
0.0
 10
338.6006386791
 20
369.7490012572
 30
0.0
 10
342.5957993835
 20
368.2300307261
 30
0.0
 10
346.2451358407
 20
365.9979027032
 30
0.0
 10
349.420912545
 20
363.1281527195
 30
0.0
 10
352.0137136412
 20
359.718924383
 30
0.0
 10
353.9330498143
 20
355.8866627718
 30
0.0
 10
355.1121256639
 20
351.7654549431
 30
0.0
 10
355.3771299929
 20
348.9157391877
 30
0.0
 10
355.3771299929
 20
347.4941992466
 30
0.0
  0
LINE
  5
5F6
100
AcDbEntity
  8
0
100
AcDbLine
 62
7
  6
CONTINUOUS
 10
332.4601260696
 20
370.5358888273
 11
334.3817120761
 21
370.3726203838
  0
SPLINE
  5
5F7
100
AcDbEntity
  8
RUNDUNGEN
100
AcDbSpline
 62
7
  6
CONTINUOUS
 70
0
 71
3
 72
15
 73
11
 74
0
 42
0.0000001
 43
0.0000001
 44
0.0000000001
 40
0.0
 40
0.0
 40
0.0
 40
0.0
 40
0.124767452
 40
0.2495743156
 40
0.374452021
 40
0.499414729
 40
0.6244647509
 40
0.7495922525
 40
0.8747774593
 40
1.0
 40
1.0
 40
1.0
 40
1.0
 10
256.3725479097
 20
370.3726203838
 30
0.0
 10
254.9612673089
 20
370.2526137451
 30
0.0
 10
252.1536213067
 20
369.7490012572
 30
0.0
 10
248.1584606023
 20
368.2300307261
 30
0.0
 10
244.5091241452
 20
365.9979027032
 30
0.0
 10
241.3333474408
 20
363.1281527195
 30
0.0
 10
238.7405463446
 20
359.718924383
 30
0.0
 10
236.8212101715
 20
355.8866627718
 30
0.0
 10
235.6421343219
 20
351.7654549431
 30
0.0
 10
235.3771299929
 20
348.9157391877
 30
0.0
 10
235.3771299929
 20
347.4941992466
 30
0.0
  0
LINE
  5
5F8
100
AcDbEntity
  8
RUNDUNGEN
100
AcDbLine
 62
7
  6
CONTINUOUS
 10
258.2941339162
 20
370.5358888273
 11
256.3725479097
 21
370.3726203838
  0
SPLINE
  5
5F9
100
AcDbEntity
  8
BEZUGSACHSEN
100
AcDbSpline
 62
7
  6
CONTINUOUS
 70
0
 71
3
 72
23
 73
19
 74
0
 42
0.0000001
 43
0.0000001
 44
0.0000000001
 40
0.0
 40
0.0
 40
0.0
 40
0.0
 40
0.0241343498
 40
0.0393996645
 40
0.0569446331
 40
0.0987165743
 40
0.1487710422
 40
0.2061346527
 40
0.2698742209
 40
0.3391505282
 40
0.4131477971
 40
0.4908668338
 40
0.570849707
 40
0.6511322617
 40
0.7296676743
 40
0.875334567
 40
0.9407389286
 40
1.0
 40
1.0
 40
1.0
 40
1.0
 10
279.2086501618
 20
230.3849805654
 30
0.0
 10
279.0533844542
 20
230.3847981027
 30
0.0
 10
278.8024151674
 20
230.466916308
 30
0.0
 10
278.4847602828
 20
230.6470239415
 30
0.0
 10
278.0942460304
 20
230.9282171843
 30
0.0
 10
277.5786598079
 20
231.4100206801
 30
0.0
 10
276.9498984156
 20
232.136928573
 30
0.0
 10
276.3057531217
 20
233.0316920671
 30
0.0
 10
275.6760991695
 20
234.083990711
 30
0.0
 10
275.0972473175
 20
235.2856684931
 30
0.0
 10
274.6135506783
 20
236.6256599376
 30
0.0
 10
274.2767879239
 20
238.0819318869
 30
0.0
 10
274.1357001132
 20
239.6115747176
 30
0.0
 10
274.2150663259
 20
241.1512922654
 30
0.0
 10
274.586325819
 20
243.079705469
 30
0.0
 10
275.267299819
 20
244.8327134533
 30
0.0
 10
276.1237046055
 20
246.3476757313
 30
0.0
 10
276.5772156705
 20
247.0107492187
 30
0.0
 10
276.8067302608
 20
247.3151741557
 30
0.0
  0
SPLINE
  5
5FA
100
AcDbEntity
  8
BEZUGSACHSEN
100
AcDbSpline
 62
7
  6
CONTINUOUS
 70
0
 71
3
 72
11
 73
7
 74
0
 42
0.0000001
 43
0.0000001
 44
0.0000000001
 40
0.0
 40
0.0
 40
0.0
 40
0.0
 40
0.2247224938
 40
0.4637834778
 40
0.7222401306
 40
1.0
 40
1.0
 40
1.0
 40
1.0
 10
276.8067302608
 20
247.3151741557
 30
0.0
 10
277.0063188806
 20
247.5799057043
 30
0.0
 10
277.5255427634
 20
248.0483519369
 30
0.0
 10
278.4913556756
 20
248.5168664923
 30
0.0
 10
279.5961624287
 20
248.8272562568
 30
0.0
 10
280.3784749964
 20
248.9525873617
 30
0.0
 10
280.7851299929
 20
249.003155096
 30
0.0
  0
LINE
  5
5FB
100
AcDbEntity
  8
0
100
AcDbLine
 62
7
  6
CONTINUOUS
 10
295.3771299929
 20
352.1666423086
 11
295.3771298599
 21
351.7093108996
  0
SPLINE
  5
5FC
100
AcDbEntity
  8
KONSTRUKTIONSELEMENTE
100
AcDbSpline
 62
7
  6
CONTINUOUS
 70
0
 71
3
 72
11
 73
7
 74
0
 42
0.0000001
 43
0.0000001
 44
0.0000000001
 40
0.0
 40
0.0
 40
0.0
 40
0.0
 40
0.2037409091
 40
0.4290430471
 40
0.6913522782
 40
1.0
 40
1.0
 40
1.0
 40
1.0
 10
280.0271299929
 20
225.7047303971
 30
0.0
 10
280.0271299929
 20
225.7457834009
 30
0.0
 10
280.0431561751
 20
225.8327343003
 30
0.0
 10
280.1105318399
 20
225.9565175579
 30
0.0
 10
280.218009722
 20
226.0769554241
 30
0.0
 10
280.307947758
 20
226.1493666018
 30
0.0
 10
280.3584447058
 20
226.1856683725
 30
0.0
  0
SPLINE
  5
5FD
100
AcDbEntity
  8
KONSTRUKTIONSELEMENTE
100
AcDbSpline
 62
7
  6
CONTINUOUS
 70
0
 71
3
 72
16
 73
12
 74
0
 42
0.0000001
 43
0.0000001
 44
0.0000000001
 40
0.0
 40
0.0
 40
0.0
 40
0.0
 40
0.2072902269
 40
0.3973173593
 40
0.5657782124
 40
0.7090845613
 40
0.770401853
 40
0.8244704983
 40
0.8711524035
 40
0.9104206147
 40
1.0
 40
1.0
 40
1.0
 40
1.0
 10
279.1226219038
 20
371.8990615632
 30
0.0
 10
279.384709121
 20
371.9118584456
 30
0.0
 10
279.8872943099
 20
371.9320056719
 30
0.0
 10
280.6034339804
 20
371.9446637936
 30
0.0
 10
281.2387657937
 20
371.936891274
 30
0.0
 10
281.7104114734
 20
371.9117374558
 30
0.0
 10
282.0365388575
 20
371.8775933483
 30
0.0
 10
282.2387168235
 20
371.8480128813
 30
0.0
 10
282.4150708978
 20
371.8113726674
 30
0.0
 10
282.6178452278
 20
371.7547576938
 30
0.0
 10
282.8210142038
 20
371.6553927961
 30
0.0
 10
282.821129907
 20
371.5419983092
 30
0.0
  0
SPLINE
  5
5FE
100
AcDbEntity
  8
KONSTRUKTIONSELEMENTE
100
AcDbSpline
 62
7
  6
CONTINUOUS
 70
0
 71
3
 72
9
 73
5
 74
0
 42
0.0000001
 43
0.0000001
 44
0.0000000001
 40
0.0
 40
0.0
 40
0.0
 40
0.0
 40
0.2561238108
 40
1.0
 40
1.0
 40
1.0
 40
1.0
 10
258.2941339162
 20
370.5358888273
 30
0.0
 10
258.8876996797
 20
370.5862808828
 30
0.0
 10
261.2054278803
 20
370.780154635
 30
0.0
 10
263.5242388421
 20
370.9620572337
 30
0.0
 10
265.250319796
 20
371.08037194
 30
0.0
  0
SPLINE
  5
5FF
100
AcDbEntity
  8
KONSTRUKTIONSELEMENTE
100
AcDbSpline
 62
7
  6
CONTINUOUS
 70
0
 71
3
 72
9
 73
5
 74
0
 42
0.0000001
 43
0.0000001
 44
0.0000000001
 40
0.0
 40
0.0
 40
0.0
 40
0.0
 40
0.516731978
 40
1.0
 40
1.0
 40
1.0
 40
1.0
 10
284.3907463666
 20
280.8688178117
 30
0.0
 10
284.4345490846
 20
281.4632751236
 30
0.0
 10
284.4407460539
 20
282.621355671
 30
0.0
 10
284.2728220162
 20
283.7678679241
 30
0.0
 10
284.1477640865
 20
284.3111266405
 30
0.0
  0
SPLINE
  5
600
100
AcDbEntity
  8
0
100
AcDbSpline
 62
7
  6
CONTINUOUS
 70
0
 71
3
 72
9
 73
5
 74
0
 42
0.0000001
 43
0.0000001
 44
0.0000000001
 40
0.0
 40
0.0
 40
0.0
 40
0.0
 40
0.516731978
 40
1.0
 40
1.0
 40
1.0
 40
1.0
 10
306.3635136192
 20
280.8688178117
 30
0.0
 10
306.3197109012
 20
281.4632751236
 30
0.0
 10
306.3135139319
 20
282.621355671
 30
0.0
 10
306.4814379696
 20
283.7678679241
 30
0.0
 10
306.6064958993
 20
284.3111266405
 30
0.0
  0
SPLINE
  5
601
100
AcDbEntity
  8
KONSTRUKTIONSELEMENTE
100
AcDbSpline
 62
7
  6
CONTINUOUS
 70
0
 71
3
 72
10
 73
6
 74
0
 42
0.0000001
 43
0.0000001
 44
0.0000000001
 40
0.0
 40
0.0
 40
0.0
 40
0.0
 40
0.2601933724
 40
0.5095389501
 40
1.0
 40
1.0
 40
1.0
 40
1.0
 10
281.3710907977
 20
181.852922261
 30
0.0
 10
281.5170315233
 20
181.9337516919
 30
0.0
 10
281.8211518968
 20
182.0608552598
 30
0.0
 10
282.4514985064
 20
182.191750157
 30
0.0
 10
282.9319269526
 20
182.181469492
 30
0.0
 10
283.2445272065
 20
182.1472149548
 30
0.0
  0
SPLINE
  5
602
100
AcDbEntity
  8
KONSTRUKTIONSELEMENTE
100
AcDbSpline
 62
7
  6
CONTINUOUS
 70
0
 71
3
 72
13
 73
9
 74
0
 42
0.0000001
 43
0.0000001
 44
0.0000000001
 40
0.0
 40
0.0
 40
0.0
 40
0.0
 40
0.1004813038
 40
0.2057106
 40
0.3186884182
 40
0.4407988532
 40
0.7097908471
 40
1.0
 40
1.0
 40
1.0
 40
1.0
 10
280.0271299929
 20
221.5984272328
 30
0.0
 10
280.0271299929
 20
221.4643742285
 30
0.0
 10
280.0681747979
 20
221.1885033432
 30
0.0
 10
280.2458313451
 20
220.7971801062
 30
0.0
 10
280.5297976326
 20
220.4379285987
 30
0.0
 10
281.0495942689
 20
220.0051383171
 30
0.0
 10
281.892693569
 20
219.6237819327
 30
0.0
 10
282.6400359935
 20
219.5126769134
 30
0.0
 10
283.0271299929
 20
219.5049745893
 30
0.0
  0
LINE
  5
603
100
AcDbEntity
  8
KONSTRUKTIONSELEMENTE
100
AcDbLine
 62
7
  6
CONTINUOUS
 10
279.1926434006
 20
284.1403653622
 11
279.1846504995
 21
284.2814192074
  0
SPLINE
  5
604
100
AcDbEntity
  8
KONSTRUKTIONSELEMENTE
100
AcDbSpline
 62
7
  6
CONTINUOUS
 70
0
 71
3
 72
11
 73
7
 74
0
 42
0.0000001
 43
0.0000001
 44
0.0000000001
 40
0.0
 40
0.0
 40
0.0
 40
0.0
 40
0.3070325764
 40
0.5754866561
 40
0.8051226656
 40
1.0
 40
1.0
 40
1.0
 40
1.0
 10
280.8841261887
 20
181.5058073687
 30
0.0
 10
280.7537093242
 20
181.3916785241
 30
0.0
 10
280.5222292024
 20
181.1621051173
 30
0.0
 10
280.2490292881
 20
180.7963952901
 30
0.0
 10
280.0751418724
 20
180.4432264972
 30
0.0
 10
280.0271299929
 20
180.2035485873
 30
0.0
 10
280.0271299929
 20
180.0935510118
 30
0.0
  0
SPLINE
  5
605
100
AcDbEntity
  8
0
100
AcDbSpline
 62
7
  6
CONTINUOUS
 70
0
 71
3
 72
11
 73
7
 74
0
 42
0.0000001
 43
0.0000001
 44
0.0000000001
 40
0.0
 40
0.0
 40
0.0
 40
0.0
 40
0.3070325764
 40
0.5754866561
 40
0.8051226656
 40
1.0
 40
1.0
 40
1.0
 40
1.0
 10
309.8701337971
 20
181.5058073687
 30
0.0
 10
310.0005506616
 20
181.3916785241
 30
0.0
 10
310.2320307834
 20
181.1621051173
 30
0.0
 10
310.5052306977
 20
180.7963952901
 30
0.0
 10
310.6791181134
 20
180.4432264972
 30
0.0
 10
310.7271299929
 20
180.2035485873
 30
0.0
 10
310.7271299929
 20
180.0935510118
 30
0.0
  0
SPLINE
  5
606
100
AcDbEntity
  8
0
100
AcDbSpline
 62
7
  6
CONTINUOUS
 70
0
 71
3
 72
13
 73
9
 74
0
 42
0.0000001
 43
0.0000001
 44
0.0000000001
 40
0.0
 40
0.0
 40
0.0
 40
0.0
 40
0.1004813038
 40
0.2057106
 40
0.3186884182
 40
0.4407988532
 40
0.7097908471
 40
1.0
 40
1.0
 40
1.0
 40
1.0
 10
310.7271299929
 20
221.5984272328
 30
0.0
 10
310.7271299929
 20
221.4643742285
 30
0.0
 10
310.6860851879
 20
221.1885033432
 30
0.0
 10
310.5084286408
 20
220.7971801062
 30
0.0
 10
310.2244623532
 20
220.4379285987
 30
0.0
 10
309.7046657169
 20
220.0051383171
 30
0.0
 10
308.8615664168
 20
219.6237819327
 30
0.0
 10
308.1142239923
 20
219.5126769134
 30
0.0
 10
307.7271299929
 20
219.5049745893
 30
0.0
  0
SPLINE
  5
607
100
AcDbEntity
  8
0
100
AcDbSpline
 62
7
  6
CONTINUOUS
 70
0
 71
3
 72
10
 73
6
 74
0
 42
0.0000001
 43
0.0000001
 44
0.0000000001
 40
0.0
 40
0.0
 40
0.0
 40
0.0
 40
0.2601933724
 40
0.5095389501
 40
1.0
 40
1.0
 40
1.0
 40
1.0
 10
309.3831691881
 20
181.852922261
 30
0.0
 10
309.2372284625
 20
181.9337516919
 30
0.0
 10
308.933108089
 20
182.0608552598
 30
0.0
 10
308.3027614794
 20
182.191750157
 30
0.0
 10
307.8223330332
 20
182.181469492
 30
0.0
 10
307.5097327793
 20
182.1472149548
 30
0.0
  0
SPLINE
  5
608
100
AcDbEntity
  8
0
100
AcDbSpline
 62
7
  6
CONTINUOUS
 70
0
 71
3
 72
11
 73
7
 74
0
 42
0.0000001
 43
0.0000001
 44
0.0000000001
 40
0.0
 40
0.0
 40
0.0
 40
0.0
 40
0.2037409091
 40
0.4290430471
 40
0.6913522782
 40
1.0
 40
1.0
 40
1.0
 40
1.0
 10
310.7271299929
 20
225.7047303971
 30
0.0
 10
310.7271299929
 20
225.7457834009
 30
0.0
 10
310.7111038108
 20
225.8327343003
 30
0.0
 10
310.643728146
 20
225.9565175579
 30
0.0
 10
310.5362502639
 20
226.0769554241
 30
0.0
 10
310.4463122278
 20
226.1493666018
 30
0.0
 10
310.3958152801
 20
226.1856683725
 30
0.0
  0
SPLINE
  5
609
100
AcDbEntity
  8
0
100
AcDbSpline
 62
7
  6
CONTINUOUS
 70
0
 71
3
 72
16
 73
12
 74
0
 42
0.0000001
 43
0.0000001
 44
0.0000000001
 40
0.0
 40
0.0
 40
0.0
 40
0.0
 40
0.2072902269
 40
0.3973173593
 40
0.5657782124
 40
0.7090845613
 40
0.770401853
 40
0.8244704983
 40
0.8711524035
 40
0.9104206147
 40
1.0
 40
1.0
 40
1.0
 40
1.0
 10
311.631638082
 20
371.8990615632
 30
0.0
 10
311.3695508648
 20
371.9118584456
 30
0.0
 10
310.8669656759
 20
371.9320056719
 30
0.0
 10
310.1508260054
 20
371.9446637936
 30
0.0
 10
309.5154941921
 20
371.936891274
 30
0.0
 10
309.0438485124
 20
371.9117374558
 30
0.0
 10
308.7177211284
 20
371.8775933483
 30
0.0
 10
308.5155431624
 20
371.8480128813
 30
0.0
 10
308.339189088
 20
371.8113726674
 30
0.0
 10
308.136414758
 20
371.7547576938
 30
0.0
 10
307.933245782
 20
371.6553927961
 30
0.0
 10
307.9331300788
 20
371.5419983092
 30
0.0
  0
SPLINE
  5
60A
100
AcDbEntity
  8
0
100
AcDbSpline
 62
7
  6
CONTINUOUS
 70
0
 71
3
 72
9
 73
5
 74
0
 42
0.0000001
 43
0.0000001
 44
0.0000000001
 40
0.0
 40
0.0
 40
0.0
 40
0.0
 40
0.2561238108
 40
1.0
 40
1.0
 40
1.0
 40
1.0
 10
332.4601260696
 20
370.5358888273
 30
0.0
 10
331.8665603061
 20
370.5862808828
 30
0.0
 10
329.5488321055
 20
370.780154635
 30
0.0
 10
327.2300211437
 20
370.9620572337
 30
0.0
 10
325.5039401898
 20
371.08037194
 30
0.0
  0
SPLINE
  5
60B
100
AcDbEntity
  8
0
100
AcDbSpline
 62
7
  6
CONTINUOUS
 70
0
 71
3
 72
9
 73
5
 74
0
 42
0.0000001
 43
0.0000001
 44
0.0000000001
 40
0.0
 40
0.0
 40
0.0
 40
0.0
 40
0.4818309449
 40
1.0
 40
1.0
 40
1.0
 40
1.0
 10
107.8297987315
 20
75.5642702855
 30
0.0
 10
107.9912308716
 20
75.5642702855
 30
0.0
 10
108.3304158946
 20
75.6543311611
 30
0.0
 10
108.587505021
 20
75.8868008217
 30
0.0
 10
108.6932360494
 20
76.0244971491
 30
0.0
  0
SPLINE
  5
60C
100
AcDbEntity
  8
KONSTRUKTIONSELEMENTE
100
AcDbSpline
 62
7
  6
CONTINUOUS
 70
0
 71
3
 72
9
 73
5
 74
0
 42
0.0000001
 43
0.0000001
 44
0.0000000001
 40
0.0
 40
0.0
 40
0.0
 40
0.0
 40
0.4818309449
 40
1.0
 40
1.0
 40
1.0
 40
1.0
 10
107.8297987315
 20
83.5642702855
 30
0.0
 10
107.9912308716
 20
83.5642702855
 30
0.0
 10
108.3304158946
 20
83.47420941
 30
0.0
 10
108.587505021
 20
83.2417397494
 30
0.0
 10
108.6932360494
 20
83.104043422
 30
0.0
  0
SPLINE
  5
60D
100
AcDbEntity
  8
0
100
AcDbSpline
 62
7
  6
CONTINUOUS
 70
0
 71
3
 72
9
 73
5
 74
0
 42
0.0000001
 43
0.0000001
 44
0.0000000001
 40
0.0
 40
0.0
 40
0.0
 40
0.0
 40
0.5250227277
 40
1.0
 40
1.0
 40
1.0
 40
1.0
 10
99.2359518267
 20
65.91641091
 30
0.0
 10
99.2359518267
 20
66.1922514343
 30
0.0
 10
99.3488523524
 20
66.7258464368
 30
0.0
 10
99.7121258465
 20
67.1500450005
 30
0.0
 10
99.9276281652
 20
67.2758725906
 30
0.0
  0
SPLINE
  5
60E
100
AcDbEntity
  8
0
100
AcDbSpline
 62
7
  6
CONTINUOUS
 70
0
 71
3
 72
11
 73
7
 74
0
 42
0.0000001
 43
0.0000001
 44
0.0000000001
 40
0.0
 40
0.0
 40
0.0
 40
0.0
 40
0.2304104901
 40
0.4758194165
 40
0.734195046
 40
1.0
 40
1.0
 40
1.0
 40
1.0
 10
105.130637475
 20
70.3138079892
 30
0.0
 10
105.6928913316
 20
70.6420970221
 30
0.0
 10
106.7453132826
 20
71.5180928401
 30
0.0
 10
107.9156029624
 20
73.2590155792
 30
0.0
 10
108.6529825373
 20
75.326304482
 30
0.0
 10
108.8195779472
 20
76.8131765952
 30
0.0
 10
108.8195779472
 20
77.5642702855
 30
0.0
  0
SPLINE
  5
60F
100
AcDbEntity
  8
KONSTRUKTIONSELEMENTE
100
AcDbSpline
 62
7
  6
CONTINUOUS
 70
0
 71
3
 72
11
 73
7
 74
0
 42
0.0000001
 43
0.0000001
 44
0.0000000001
 40
0.0
 40
0.0
 40
0.0
 40
0.0
 40
0.2304104901
 40
0.4758194165
 40
0.734195046
 40
1.0
 40
1.0
 40
1.0
 40
1.0
 10
105.130637475
 20
88.8147325818
 30
0.0
 10
105.6928913316
 20
88.486443549
 30
0.0
 10
106.7453132826
 20
87.6104477309
 30
0.0
 10
107.9156029624
 20
85.8695249919
 30
0.0
 10
108.6529825373
 20
83.8022360891
 30
0.0
 10
108.8195779472
 20
82.3153639759
 30
0.0
 10
108.8195779472
 20
81.5642702855
 30
0.0
  0
SPLINE
  5
610
100
AcDbEntity
  8
KONSTRUKTIONSELEMENTE
100
AcDbSpline
 62
7
  6
CONTINUOUS
 70
0
 71
3
 72
9
 73
5
 74
0
 42
0.0000001
 43
0.0000001
 44
0.0000000001
 40
0.0
 40
0.0
 40
0.0
 40
0.0
 40
0.5250227277
 40
1.0
 40
1.0
 40
1.0
 40
1.0
 10
99.2359518267
 20
93.2121296611
 30
0.0
 10
99.2359518267
 20
92.9362891368
 30
0.0
 10
99.3488523524
 20
92.4026941343
 30
0.0
 10
99.7121258465
 20
91.9784955706
 30
0.0
 10
99.9276281652
 20
91.8526679805
 30
0.0
  0
LINE
  5
611
100
AcDbEntity
  8
KONSTRUKTIONSELEMENTE
100
AcDbLine
 62
7
  6
CONTINUOUS
 10
111.1710908325
 20
97.0017625468
 11
111.6426470222
 21
97.1049758525
  0
LINE
  5
612
100
AcDbEntity
  8
0
100
AcDbLine
 62
7
  6
CONTINUOUS
 10
111.1710908325
 20
62.1267780243
 11
111.6426470222
 21
62.0235647186
  0
SPLINE
  5
613
100
AcDbEntity
  8
AUSFORMSCHRAEGEN
100
AcDbSpline
 62
7
  6
CONTINUOUS
 70
0
 71
3
 72
21
 73
17
 74
0
 42
0.0000001
 43
0.0000001
 44
0.0000000001
 40
0.0
 40
0.0
 40
0.0
 40
0.0
 40
0.1377323248
 40
0.2044986482
 40
0.2689784889
 40
0.3309242976
 40
0.3904129241
 40
0.4478687587
 40
0.5040391441
 40
0.5599051408
 40
0.6165041107
 40
0.6747334687
 40
0.7352177082
 40
0.7982397013
 40
0.8637344338
 40
1.0
 40
1.0
 40
1.0
 40
1.0
 10
128.7729769164
 20
97.9518496409
 30
0.0
 10
128.7141015975
 20
96.5092368943
 30
0.0
 10
128.3144665329
 20
94.359718334
 30
0.0
 10
127.1682045807
 20
91.7738929232
 30
0.0
 10
126.0496281296
 20
90.0731252252
 30
0.0
 10
124.6992344335
 20
88.6525530582
 30
0.0
 10
123.1589857048
 20
87.5604974662
 30
0.0
 10
121.4787480485
 20
86.8377115526
 30
0.0
 10
119.7161093299
 20
86.513121787
 30
0.0
 10
117.9346835116
 20
86.600752645
 30
0.0
 10
116.1996822922
 20
87.0966058584
 30
0.0
 10
114.5724558555
 20
87.9799422962
 30
0.0
 10
113.1072385106
 20
89.2162071736
 30
0.0
 10
111.8501997134
 20
90.7620321991
 30
0.0
 10
110.488169698
 20
93.1916438211
 30
0.0
 10
109.9147318887
 20
95.2731429873
 30
0.0
 10
109.735790305
 20
96.6903285681
 30
0.0
  0
SPLINE
  5
614
100
AcDbEntity
  8
BEZUGSACHSEN
100
AcDbSpline
 62
7
  6
CONTINUOUS
 70
0
 71
3
 72
15
 73
11
 74
0
 42
0.0000001
 43
0.0000001
 44
0.0000000001
 40
0.0
 40
0.0
 40
0.0
 40
0.0
 40
0.1169913677
 40
0.2457729746
 40
0.3834025586
 40
0.5230878645
 40
0.6572243007
 40
0.7804919981
 40
0.8926729004
 40
1.0
 40
1.0
 40
1.0
 40
1.0
 10
120.1769215029
 20
90.2899575865
 30
0.0
 10
120.319738084
 20
90.2899575865
 30
0.0
 10
120.6214554929
 20
90.3619470458
 30
0.0
 10
121.0128271826
 20
90.6331114955
 30
0.0
 10
121.3213216427
 20
91.0301717347
 30
0.0
 10
121.5097278626
 20
91.5029255239
 30
0.0
 10
121.5550966735
 20
91.9930007954
 30
0.0
 10
121.447657276
 20
92.4414285218
 30
0.0
 10
121.1901623171
 20
92.788593848
 30
0.0
 10
120.9366137738
 20
92.9090627299
 30
0.0
 10
120.8082839242
 20
92.9354714843
 30
0.0
  0
SPLINE
  5
615
100
AcDbEntity
  8
BEZUGSACHSEN
100
AcDbSpline
 62
7
  6
CONTINUOUS
 70
0
 71
3
 72
15
 73
11
 74
0
 42
0.0000001
 43
0.0000001
 44
0.0000000001
 40
0.0
 40
0.0
 40
0.0
 40
0.0
 40
0.1058188011
 40
0.2248385355
 40
0.3576725356
 40
0.4990399205
 40
0.6406420374
 40
0.7740909987
 40
0.8937816343
 40
1.0
 40
1.0
 40
1.0
 40
1.0
 10
123.328162586
 20
94.1973210491
 30
0.0
 10
123.4492851043
 20
94.2021528316
 30
0.0
 10
123.7056350573
 20
94.2808569763
 30
0.0
 10
124.023041948
 20
94.5525034895
 30
0.0
 10
124.2634983707
 20
94.9403987604
 30
0.0
 10
124.403298246
 20
95.4008801793
 30
0.0
 10
124.4281076015
 20
95.8821548897
 30
0.0
 10
124.3339400525
 20
96.3304196965
 30
0.0
 10
124.1288027923
 20
96.6962790721
 30
0.0
 10
123.9156258023
 20
96.8606464459
 30
0.0
 10
123.8035673586
 20
96.9080604992
 30
0.0
  0
SPLINE
  5
616
100
AcDbEntity
  8
BEZUGSACHSEN
100
AcDbSpline
 62
7
  6
CONTINUOUS
 70
0
 71
3
 72
8
 73
4
 74
0
 42
0.0000001
 43
0.0000001
 44
0.0000000001
 40
0.0
 40
0.0
 40
0.0
 40
0.0
 40
1.0
 40
1.0
 40
1.0
 40
1.0
 10
123.8035673586
 20
96.9080604992
 30
0.0
 10
123.7233225258
 20
96.9420136101
 30
0.0
 10
123.6352708685
 20
96.96135573
 30
0.0
 10
123.5481714215
 20
96.9637501542
 30
0.0
  0
SPLINE
  5
617
100
AcDbEntity
  8
BEZUGSACHSEN
100
AcDbSpline
 62
7
  6
CONTINUOUS
 70
0
 71
3
 72
15
 73
11
 74
0
 42
0.0000001
 43
0.0000001
 44
0.0000000001
 40
0.0
 40
0.0
 40
0.0
 40
0.0
 40
0.1047227634
 40
0.2297605009
 40
0.3707457067
 40
0.5188865193
 40
0.6635590954
 40
0.7949262022
 40
0.9067124326
 40
1.0
 40
1.0
 40
1.0
 40
1.0
 10
124.9835693232
 20
90.358009055
 30
0.0
 10
125.0873944946
 20
90.3804237652
 30
0.0
 10
125.302413532
 20
90.4874049982
 30
0.0
 10
125.5735057064
 20
90.7530509538
 30
0.0
 10
125.8013514349
 20
91.109772315
 30
0.0
 10
125.9627626578
 20
91.5218623925
 30
0.0
 10
126.041947296
 20
91.9476450972
 30
0.0
 10
126.0299123948
 20
92.3444936844
 30
0.0
 10
125.9275552684
 20
92.6758090772
 30
0.0
 10
125.7852940784
 20
92.8408917827
 30
0.0
 10
125.7051351561
 20
92.89116366
 30
0.0
  0
SPLINE
  5
618
100
AcDbEntity
  8
BEZUGSACHSEN
100
AcDbSpline
 62
7
  6
CONTINUOUS
 70
0
 71
3
 72
9
 73
5
 74
0
 42
0.0000001
 43
0.0000001
 44
0.0000000001
 40
0.0
 40
0.0
 40
0.0
 40
0.0
 40
0.7468850195
 40
1.0
 40
1.0
 40
1.0
 40
1.0
 10
125.7051351561
 20
92.89116366
 30
0.0
 10
125.6538833361
 20
92.9233063727
 30
0.0
 10
125.5756422607
 20
92.9532683662
 30
0.0
 10
125.4950146782
 20
92.9618770565
 30
0.0
 10
125.4745343418
 20
92.9628220319
 30
0.0
  0
SPLINE
  5
619
100
AcDbEntity
  8
BEZUGSACHSEN
100
AcDbSpline
 62
7
  6
CONTINUOUS
 70
0
 71
3
 72
15
 73
11
 74
0
 42
0.0000001
 43
0.0000001
 44
0.0000000001
 40
0.0
 40
0.0
 40
0.0
 40
0.0
 40
0.0888443188
 40
0.2019982414
 40
0.3374696497
 40
0.4867756035
 40
0.6383711188
 40
0.7802690768
 40
0.9024567749
 40
1.0
 40
1.0
 40
1.0
 40
1.0
 10
127.5662865002
 20
94.2483671583
 30
0.0
 10
127.6499826092
 20
94.2709434139
 30
0.0
 10
127.8220326011
 20
94.3840216809
 30
0.0
 10
128.0191681921
 20
94.651362176
 30
0.0
 10
128.177214062
 20
95.0088816069
 30
0.0
 10
128.279527638
 20
95.4240625744
 30
0.0
 10
128.3168727204
 20
95.8562262704
 30
0.0
 10
128.2849089766
 20
96.2629635514
 30
0.0
 10
128.1883595527
 20
96.6045714922
 30
0.0
 10
128.0697115871
 20
96.7911692834
 30
0.0
 10
127.9991485144
 20
96.8550377485
 30
0.0
  0
SPLINE
  5
61A
100
AcDbEntity
  8
BEZUGSACHSEN
100
AcDbSpline
 62
7
  6
CONTINUOUS
 70
0
 71
3
 72
9
 73
5
 74
0
 42
0.0000001
 43
0.0000001
 44
0.0000000001
 40
0.0
 40
0.0
 40
0.0
 40
0.0
 40
0.5192157404
 40
1.0
 40
1.0
 40
1.0
 40
1.0
 10
127.9991485144
 20
96.8550377485
 30
0.0
 10
127.9669878039
 20
96.8841472408
 30
0.0
 10
127.897156986
 20
96.9326336767
 30
0.0
 10
127.8145136671
 20
96.9549690618
 30
0.0
 10
127.7744632858
 20
96.9580339027
 30
0.0
  0
SPLINE
  5
61B
100
AcDbEntity
  8
BEZUGSACHSEN
100
AcDbSpline
 62
7
  6
CONTINUOUS
 70
0
 71
3
 72
15
 73
11
 74
0
 42
0.0000001
 43
0.0000001
 44
0.0000000001
 40
0.0
 40
0.0
 40
0.0
 40
0.0
 40
0.1179462853
 40
0.2417750228
 40
0.3716405541
 40
0.5046971091
 40
0.6366630105
 40
0.7637055835
 40
0.8842292152
 40
1.0
 40
1.0
 40
1.0
 40
1.0
 10
117.9613319584
 20
94.1973210491
 30
0.0
 10
118.1117872252
 20
94.1923894746
 30
0.0
 10
118.4253979046
 20
94.2504008186
 30
0.0
 10
118.8314715734
 20
94.5151500968
 30
0.0
 10
119.1338986941
 20
94.9169437447
 30
0.0
 10
119.2969417397
 20
95.4027216252
 30
0.0
 10
119.3019421118
 20
95.9116826965
 30
0.0
 10
119.1462057976
 20
96.380729657
 30
0.0
 10
118.845750448
 20
96.7486159103
 30
0.0
 10
118.5680717739
 20
96.8912911979
 30
0.0
 10
118.4252404
 20
96.9291336989
 30
0.0
  0
SPLINE
  5
61C
100
AcDbEntity
  8
BEZUGSACHSEN
100
AcDbSpline
 62
7
  6
CONTINUOUS
 70
0
 71
3
 72
15
 73
11
 74
0
 42
0.0000001
 43
0.0000001
 44
0.0000000001
 40
0.0
 40
0.0
 40
0.0
 40
0.0
 40
0.1236083136
 40
0.2523864619
 40
0.3840308872
 40
0.5146841662
 40
0.6410331936
 40
0.7621636183
 40
0.8803626921
 40
1.0
 40
1.0
 40
1.0
 40
1.0
 10
114.2499080682
 20
90.358009055
 30
0.0
 10
114.4165846283
 20
90.3330396814
 30
0.0
 10
114.7712769559
 20
90.3568673413
 30
0.0
 10
115.2514729935
 20
90.5932613848
 30
0.0
 10
115.6246290545
 20
90.9899337096
 30
0.0
 10
115.8358436414
 20
91.4884628278
 30
0.0
 10
115.8522556291
 20
92.0167504461
 30
0.0
 10
115.6640706212
 20
92.4949327505
 30
0.0
 10
115.2959816686
 20
92.8416720872
 30
0.0
 10
114.9746907407
 20
92.941861099
 30
0.0
 10
114.8123399947
 20
92.957706068
 30
0.0
  0
SPLINE
  5
61D
100
AcDbEntity
  8
BEZUGSACHSEN
100
AcDbSpline
 62
7
  6
CONTINUOUS
 70
0
 71
3
 72
17
 73
13
 74
0
 42
0.0000001
 43
0.0000001
 44
0.0000000001
 40
0.0
 40
0.0
 40
0.0
 40
0.0
 40
0.1238427333
 40
0.1867830694
 40
0.2501191218
 40
0.3770680793
 40
0.504040117
 40
0.5674303734
 40
0.6303834834
 40
0.7542640216
 40
0.8769765076
 40
1.0
 40
1.0
 40
1.0
 40
1.0
 10
111.4657946176
 20
94.2483671583
 30
0.0
 10
111.6472167902
 20
94.2225286794
 30
0.0
 10
111.9336031912
 20
94.2436914729
 30
0.0
 10
112.2780627707
 20
94.384119946
 30
0.0
 10
112.5914647627
 20
94.5938231151
 30
0.0
 10
112.8943816464
 20
94.9700070999
 30
0.0
 10
113.0264213078
 20
95.4346162641
 30
0.0
 10
113.0171035412
 20
95.8116387728
 30
0.0
 10
112.9329498416
 20
96.1744816342
 30
0.0
 10
112.6905819706
 20
96.5805416814
 30
0.0
 10
112.2272532417
 20
96.900849714
 30
0.0
 10
111.8558752399
 20
96.9650907392
 30
0.0
 10
111.6739714033
 20
96.9580339027
 30
0.0
  0
SPLINE
  5
61E
100
AcDbEntity
  8
BEZUGSACHSEN
100
AcDbSpline
 62
7
  6
CONTINUOUS
 70
0
 71
3
 72
9
 73
5
 74
0
 42
0.0000001
 43
0.0000001
 44
0.0000000001
 40
0.0
 40
0.0
 40
0.0
 40
0.0
 40
0.7478504749
 40
1.0
 40
1.0
 40
1.0
 40
1.0
 10
111.6739714033
 20
96.9580339027
 30
0.0
 10
111.553219415
 20
96.9533494109
 30
0.0
 10
111.3914960731
 20
96.9240612526
 30
0.0
 10
111.2400953312
 20
96.8673817961
 30
0.0
 10
111.2026268105
 20
96.8513759269
 30
0.0
  0
SPLINE
  5
61F
100
AcDbEntity
  8
BEZUGSACHSEN
100
AcDbSpline
 62
7
  6
CONTINUOUS
 70
0
 71
3
 72
11
 73
7
 74
0
 42
0.0000001
 43
0.0000001
 44
0.0000000001
 40
0.0
 40
0.0
 40
0.0
 40
0.0
 40
0.25251503
 40
0.5025223719
 40
0.7513664759
 40
1.0
 40
1.0
 40
1.0
 40
1.0
 10
110.3921437311
 20
95.2372954466
 30
0.0
 10
110.4224490493
 20
95.1108279134
 30
0.0
 10
110.5200615952
 20
94.8664320452
 30
0.0
 10
110.7654698255
 20
94.5600279583
 30
0.0
 10
111.0892363479
 20
94.3413613833
 30
0.0
 10
111.3390250023
 20
94.2664219197
 30
0.0
 10
111.4657946176
 20
94.2483671583
 30
0.0
  0
SPLINE
  5
620
100
AcDbEntity
  8
KONSTRUKTIONSELEMENTE
100
AcDbSpline
 62
7
  6
CONTINUOUS
 70
0
 71
3
 72
9
 73
5
 74
0
 42
0.0000001
 43
0.0000001
 44
0.0000000001
 40
0.0
 40
0.0
 40
0.0
 40
0.0
 40
0.247697802
 40
1.0
 40
1.0
 40
1.0
 40
1.0
 10
117.2382105205
 20
98.1802031861
 30
0.0
 10
117.1499135351
 20
98.1786964882
 30
0.0
 10
116.793562399
 20
98.1666206585
 30
0.0
 10
116.4380751289
 20
98.1309599223
 30
0.0
 10
116.1727088143
 20
98.0919887764
 30
0.0
  0
SPLINE
  5
621
100
AcDbEntity
  8
BEZUGSACHSEN
100
AcDbSpline
 62
7
  6
CONTINUOUS
 70
0
 71
3
 72
9
 73
5
 74
0
 42
0.0000001
 43
0.0000001
 44
0.0000000001
 40
0.0
 40
0.0
 40
0.0
 40
0.0
 40
0.5006291217
 40
1.0
 40
1.0
 40
1.0
 40
1.0
 10
113.361116856
 20
91.0881197707
 30
0.0
 10
113.4289478385
 20
90.9007209745
 30
0.0
 10
113.6663119084
 20
90.5533484729
 30
0.0
 10
114.0533056827
 20
90.3874615373
 30
0.0
 10
114.2499080682
 20
90.358009055
 30
0.0
  0
SPLINE
  5
622
100
AcDbEntity
  8
0
100
AcDbSpline
 62
7
  6
CONTINUOUS
 70
0
 71
3
 72
10
 73
6
 74
0
 42
0.0000001
 43
0.0000001
 44
0.0000000001
 40
0.0
 40
0.0
 40
0.0
 40
0.0
 40
0.5758628317
 40
0.8086621238
 40
1.0
 40
1.0
 40
1.0
 40
1.0
 10
121.0058376797
 20
60.9144352921
 30
0.0
 10
122.4980587338
 20
60.9144352921
 30
0.0
 10
124.5940034065
 20
60.9368504135
 30
0.0
 10
127.1830111353
 20
61.0490396245
 30
0.0
 10
128.2795243747
 20
61.1284011941
 30
0.0
 10
128.7729769164
 20
61.1766909302
 30
0.0
  0
SPLINE
  5
623
100
AcDbEntity
  8
BEZUGSACHSEN
100
AcDbSpline
 62
7
  6
CONTINUOUS
 70
0
 71
3
 72
8
 73
4
 74
0
 42
0.0000001
 43
0.0000001
 44
0.0000000001
 40
0.0
 40
0.0
 40
0.0
 40
0.0
 40
1.0
 40
1.0
 40
1.0
 40
1.0
 10
117.5545743604
 20
94.2941013082
 30
0.0
 10
117.6810498912
 20
94.2355506434
 30
0.0
 10
117.8220358936
 20
94.2018868509
 30
0.0
 10
117.9613319584
 20
94.1973210491
 30
0.0
  0
SPLINE
  5
624
100
AcDbEntity
  8
0
100
AcDbSpline
 62
7
  6
CONTINUOUS
 70
0
 71
3
 72
9
 73
5
 74
0
 42
0.0000001
 43
0.0000001
 44
0.0000000001
 40
0.0
 40
0.0
 40
0.0
 40
0.0
 40
0.7430467926
 40
1.0
 40
1.0
 40
1.0
 40
1.0
 10
127.3493310894
 20
64.8700967782
 30
0.0
 10
127.4000347955
 20
64.8895554878
 30
0.0
 10
127.4763231622
 20
64.8991683281
 30
0.0
 10
127.5481538491
 20
64.8850645286
 30
0.0
 10
127.5662865002
 20
64.8801734128
 30
0.0
  0
SPLINE
  5
625
100
AcDbEntity
  8
BEZUGSACHSEN
100
AcDbSpline
 62
7
  6
CONTINUOUS
 70
0
 71
3
 72
9
 73
5
 74
0
 42
0.0000001
 43
0.0000001
 44
0.0000000001
 40
0.0
 40
0.0
 40
0.0
 40
0.0
 40
0.7430467926
 40
1.0
 40
1.0
 40
1.0
 40
1.0
 10
127.3493310894
 20
94.2584437929
 30
0.0
 10
127.4000347955
 20
94.2389850833
 30
0.0
 10
127.4763231622
 20
94.229372243
 30
0.0
 10
127.5481538491
 20
94.2434760425
 30
0.0
 10
127.5662865002
 20
94.2483671583
 30
0.0
  0
SPLINE
  5
626
100
AcDbEntity
  8
AUSFORMSCHRAEGEN
100
AcDbSpline
 62
7
  6
CONTINUOUS
 70
0
 71
3
 72
10
 73
6
 74
0
 42
0.0000001
 43
0.0000001
 44
0.0000000001
 40
0.0
 40
0.0
 40
0.0
 40
0.0
 40
0.5758628317
 40
0.8086621238
 40
1.0
 40
1.0
 40
1.0
 40
1.0
 10
121.0058376797
 20
98.214105279
 30
0.0
 10
122.4980587338
 20
98.214105279
 30
0.0
 10
124.5940034065
 20
98.1916901576
 30
0.0
 10
127.1830111353
 20
98.0795009466
 30
0.0
 10
128.2795243747
 20
98.000139377
 30
0.0
 10
128.7729769164
 20
97.9518496409
 30
0.0
  0
SPLINE
  5
627
100
AcDbEntity
  8
0
100
AcDbSpline
 62
7
  6
CONTINUOUS
 70
0
 71
3
 72
9
 73
5
 74
0
 42
0.0000001
 43
0.0000001
 44
0.0000000001
 40
0.0
 40
0.0
 40
0.0
 40
0.0
 40
0.4904583712
 40
1.0
 40
1.0
 40
1.0
 40
1.0
 10
124.5800536865
 20
68.6908425745
 30
0.0
 10
124.6354747716
 20
68.7317128829
 30
0.0
 10
124.768713725
 20
68.7911819922
 30
0.0
 10
124.9136397774
 20
68.7856285343
 30
0.0
 10
124.9835693232
 20
68.7705315161
 30
0.0
  0
SPLINE
  5
628
100
AcDbEntity
  8
BEZUGSACHSEN
100
AcDbSpline
 62
7
  6
CONTINUOUS
 70
0
 71
3
 72
9
 73
5
 74
0
 42
0.0000001
 43
0.0000001
 44
0.0000000001
 40
0.0
 40
0.0
 40
0.0
 40
0.0
 40
0.4904583712
 40
1.0
 40
1.0
 40
1.0
 40
1.0
 10
124.5800536865
 20
90.4376979965
 30
0.0
 10
124.6354747716
 20
90.3968276882
 30
0.0
 10
124.768713725
 20
90.3373585789
 30
0.0
 10
124.9136397774
 20
90.3429120368
 30
0.0
 10
124.9835693232
 20
90.358009055
 30
0.0
  0
SPLINE
  5
629
100
AcDbEntity
  8
BEZUGSACHSEN
100
AcDbSpline
 62
7
  6
CONTINUOUS
 70
0
 71
3
 72
8
 73
4
 74
0
 42
0.0000001
 43
0.0000001
 44
0.0000000001
 40
0.0
 40
0.0
 40
0.0
 40
0.0
 40
1.0
 40
1.0
 40
1.0
 40
1.0
 10
123.090046364
 20
94.2289464206
 30
0.0
 10
123.1664677783
 20
94.2050545199
 30
0.0
 10
123.2481571519
 20
94.1941294968
 30
0.0
 10
123.328162586
 20
94.1973210491
 30
0.0
  0
SPLINE
  5
62A
100
AcDbEntity
  8
0
100
AcDbSpline
 62
7
  6
CONTINUOUS
 70
0
 71
3
 72
21
 73
17
 74
0
 42
0.0000001
 43
0.0000001
 44
0.0000000001
 40
0.0
 40
0.0
 40
0.0
 40
0.0
 40
0.1377323248
 40
0.2044986482
 40
0.2689784889
 40
0.3309242976
 40
0.3904129241
 40
0.4478687587
 40
0.5040391441
 40
0.5599051408
 40
0.6165041107
 40
0.6747334687
 40
0.7352177082
 40
0.7982397013
 40
0.8637344338
 40
1.0
 40
1.0
 40
1.0
 40
1.0
 10
128.7729769164
 20
61.1766909302
 30
0.0
 10
128.7141015975
 20
62.6193036768
 30
0.0
 10
128.3144665329
 20
64.7688222371
 30
0.0
 10
127.1682045807
 20
67.3546476479
 30
0.0
 10
126.0496281296
 20
69.0554153458
 30
0.0
 10
124.6992344335
 20
70.4759875129
 30
0.0
 10
123.1589857048
 20
71.5680431048
 30
0.0
 10
121.4787480485
 20
72.2908290185
 30
0.0
 10
119.7161093299
 20
72.6154187841
 30
0.0
 10
117.9346835116
 20
72.5277879261
 30
0.0
 10
116.1996822922
 20
72.0319347126
 30
0.0
 10
114.5724558555
 20
71.1485982749
 30
0.0
 10
113.1072385106
 20
69.9123333975
 30
0.0
 10
111.8501997134
 20
68.366508372
 30
0.0
 10
110.488169698
 20
65.93689675
 30
0.0
 10
109.9147318887
 20
63.8553975838
 30
0.0
 10
109.735790305
 20
62.438212003
 30
0.0
  0
SPLINE
  5
62B
100
AcDbEntity
  8
0
100
AcDbSpline
 62
7
  6
CONTINUOUS
 70
0
 71
3
 72
11
 73
7
 74
0
 42
0.0000001
 43
0.0000001
 44
0.0000000001
 40
0.0
 40
0.0
 40
0.0
 40
0.0
 40
0.25251503
 40
0.5025223719
 40
0.7513664759
 40
1.0
 40
1.0
 40
1.0
 40
1.0
 10
110.3921437311
 20
63.8912451245
 30
0.0
 10
110.4224490493
 20
64.0177126577
 30
0.0
 10
110.5200615952
 20
64.2621085258
 30
0.0
 10
110.7654698255
 20
64.5685126128
 30
0.0
 10
111.0892363479
 20
64.7871791878
 30
0.0
 10
111.3390250023
 20
64.8621186514
 30
0.0
 10
111.4657946176
 20
64.8801734128
 30
0.0
  0
SPLINE
  5
62C
100
AcDbEntity
  8
0
100
AcDbSpline
 62
7
  6
CONTINUOUS
 70
0
 71
3
 72
15
 73
11
 74
0
 42
0.0000001
 43
0.0000001
 44
0.0000000001
 40
0.0
 40
0.0
 40
0.0
 40
0.0
 40
0.1169913677
 40
0.2457729746
 40
0.3834025586
 40
0.5230878645
 40
0.6572243007
 40
0.7804919981
 40
0.8926729004
 40
1.0
 40
1.0
 40
1.0
 40
1.0
 10
120.1769215029
 20
68.8385829846
 30
0.0
 10
120.319738084
 20
68.8385829846
 30
0.0
 10
120.6214554929
 20
68.7665935253
 30
0.0
 10
121.0128271826
 20
68.4954290756
 30
0.0
 10
121.3213216427
 20
68.0983688364
 30
0.0
 10
121.5097278626
 20
67.6256150472
 30
0.0
 10
121.5550966735
 20
67.1355397757
 30
0.0
 10
121.447657276
 20
66.6871120493
 30
0.0
 10
121.1901623171
 20
66.3399467231
 30
0.0
 10
120.9366137738
 20
66.2194778411
 30
0.0
 10
120.8082839242
 20
66.1930690868
 30
0.0
  0
SPLINE
  5
62D
100
AcDbEntity
  8
0
100
AcDbSpline
 62
7
  6
CONTINUOUS
 70
0
 71
3
 72
15
 73
11
 74
0
 42
0.0000001
 43
0.0000001
 44
0.0000000001
 40
0.0
 40
0.0
 40
0.0
 40
0.0
 40
0.1058188011
 40
0.2248385355
 40
0.3576725356
 40
0.4990399205
 40
0.6406420374
 40
0.7740909987
 40
0.8937816343
 40
1.0
 40
1.0
 40
1.0
 40
1.0
 10
123.328162586
 20
64.931219522
 30
0.0
 10
123.4492851043
 20
64.9263877395
 30
0.0
 10
123.7056350573
 20
64.8476835947
 30
0.0
 10
124.023041948
 20
64.5760370815
 30
0.0
 10
124.2634983707
 20
64.1881418107
 30
0.0
 10
124.403298246
 20
63.7276603917
 30
0.0
 10
124.4281076015
 20
63.2463856814
 30
0.0
 10
124.3339400525
 20
62.7981208746
 30
0.0
 10
124.1288027923
 20
62.432261499
 30
0.0
 10
123.9156258023
 20
62.2678941252
 30
0.0
 10
123.8035673586
 20
62.2204800719
 30
0.0
  0
SPLINE
  5
62E
100
AcDbEntity
  8
0
100
AcDbSpline
 62
7
  6
CONTINUOUS
 70
0
 71
3
 72
8
 73
4
 74
0
 42
0.0000001
 43
0.0000001
 44
0.0000000001
 40
0.0
 40
0.0
 40
0.0
 40
0.0
 40
1.0
 40
1.0
 40
1.0
 40
1.0
 10
123.8035673586
 20
62.2204800719
 30
0.0
 10
123.7233225258
 20
62.1865269609
 30
0.0
 10
123.6352708685
 20
62.1671848411
 30
0.0
 10
123.5481714215
 20
62.1647904169
 30
0.0
  0
SPLINE
  5
62F
100
AcDbEntity
  8
0
100
AcDbSpline
 62
7
  6
CONTINUOUS
 70
0
 71
3
 72
15
 73
11
 74
0
 42
0.0000001
 43
0.0000001
 44
0.0000000001
 40
0.0
 40
0.0
 40
0.0
 40
0.0
 40
0.1047227634
 40
0.2297605009
 40
0.3707457067
 40
0.5188865193
 40
0.6635590954
 40
0.7949262022
 40
0.9067124326
 40
1.0
 40
1.0
 40
1.0
 40
1.0
 10
124.9835693232
 20
68.7705315161
 30
0.0
 10
125.0873944946
 20
68.7481168059
 30
0.0
 10
125.302413532
 20
68.6411355729
 30
0.0
 10
125.5735057064
 20
68.3754896173
 30
0.0
 10
125.8013514349
 20
68.0187682561
 30
0.0
 10
125.9627626578
 20
67.6066781786
 30
0.0
 10
126.041947296
 20
67.1808954739
 30
0.0
 10
126.0299123948
 20
66.7840468866
 30
0.0
 10
125.9275552684
 20
66.4527314939
 30
0.0
 10
125.7852940784
 20
66.2876487884
 30
0.0
 10
125.7051351561
 20
66.2373769111
 30
0.0
  0
SPLINE
  5
630
100
AcDbEntity
  8
0
100
AcDbSpline
 62
7
  6
CONTINUOUS
 70
0
 71
3
 72
9
 73
5
 74
0
 42
0.0000001
 43
0.0000001
 44
0.0000000001
 40
0.0
 40
0.0
 40
0.0
 40
0.0
 40
0.7468850195
 40
1.0
 40
1.0
 40
1.0
 40
1.0
 10
125.7051351561
 20
66.2373769111
 30
0.0
 10
125.6538833361
 20
66.2052341983
 30
0.0
 10
125.5756422607
 20
66.1752722049
 30
0.0
 10
125.4950146782
 20
66.1666635146
 30
0.0
 10
125.4745343418
 20
66.1657185391
 30
0.0
  0
SPLINE
  5
631
100
AcDbEntity
  8
0
100
AcDbSpline
 62
7
  6
CONTINUOUS
 70
0
 71
3
 72
15
 73
11
 74
0
 42
0.0000001
 43
0.0000001
 44
0.0000000001
 40
0.0
 40
0.0
 40
0.0
 40
0.0
 40
0.0888443188
 40
0.2019982414
 40
0.3374696497
 40
0.4867756035
 40
0.6383711188
 40
0.7802690768
 40
0.9024567749
 40
1.0
 40
1.0
 40
1.0
 40
1.0
 10
127.5662865002
 20
64.8801734128
 30
0.0
 10
127.6499826092
 20
64.8575971572
 30
0.0
 10
127.8220326011
 20
64.7445188901
 30
0.0
 10
128.0191681921
 20
64.4771783951
 30
0.0
 10
128.177214062
 20
64.1196589642
 30
0.0
 10
128.279527638
 20
63.7044779967
 30
0.0
 10
128.3168727204
 20
63.2723143007
 30
0.0
 10
128.2849089766
 20
62.8655770197
 30
0.0
 10
128.1883595527
 20
62.5239690789
 30
0.0
 10
128.0697115871
 20
62.3373712877
 30
0.0
 10
127.9991485144
 20
62.2735028225
 30
0.0
  0
SPLINE
  5
632
100
AcDbEntity
  8
0
100
AcDbSpline
 62
7
  6
CONTINUOUS
 70
0
 71
3
 72
9
 73
5
 74
0
 42
0.0000001
 43
0.0000001
 44
0.0000000001
 40
0.0
 40
0.0
 40
0.0
 40
0.0
 40
0.5192157404
 40
1.0
 40
1.0
 40
1.0
 40
1.0
 10
127.9991485144
 20
62.2735028225
 30
0.0
 10
127.9669878039
 20
62.2443933303
 30
0.0
 10
127.897156986
 20
62.1959068944
 30
0.0
 10
127.8145136671
 20
62.1735715093
 30
0.0
 10
127.7744632858
 20
62.1705066683
 30
0.0
  0
SPLINE
  5
633
100
AcDbEntity
  8
0
100
AcDbSpline
 62
7
  6
CONTINUOUS
 70
0
 71
3
 72
15
 73
11
 74
0
 42
0.0000001
 43
0.0000001
 44
0.0000000001
 40
0.0
 40
0.0
 40
0.0
 40
0.0
 40
0.1179462853
 40
0.2417750228
 40
0.3716405541
 40
0.5046971091
 40
0.6366630105
 40
0.7637055835
 40
0.8842292152
 40
1.0
 40
1.0
 40
1.0
 40
1.0
 10
117.9613319584
 20
64.931219522
 30
0.0
 10
118.1117872252
 20
64.9361510965
 30
0.0
 10
118.4253979046
 20
64.8781397525
 30
0.0
 10
118.8314715734
 20
64.6133904743
 30
0.0
 10
119.1338986941
 20
64.2115968263
 30
0.0
 10
119.2969417397
 20
63.7258189458
 30
0.0
 10
119.3019421118
 20
63.2168578746
 30
0.0
 10
119.1462057976
 20
62.7478109141
 30
0.0
 10
118.845750448
 20
62.3799246608
 30
0.0
 10
118.5680717739
 20
62.2372493731
 30
0.0
 10
118.4252404
 20
62.1994068721
 30
0.0
  0
SPLINE
  5
634
100
AcDbEntity
  8
0
100
AcDbSpline
 62
7
  6
CONTINUOUS
 70
0
 71
3
 72
15
 73
11
 74
0
 42
0.0000001
 43
0.0000001
 44
0.0000000001
 40
0.0
 40
0.0
 40
0.0
 40
0.0
 40
0.1236083136
 40
0.2523864619
 40
0.3840308872
 40
0.5146841662
 40
0.6410331936
 40
0.7621636183
 40
0.8803626921
 40
1.0
 40
1.0
 40
1.0
 40
1.0
 10
114.2499080682
 20
68.7705315161
 30
0.0
 10
114.4165846283
 20
68.7955008897
 30
0.0
 10
114.7712769559
 20
68.7716732298
 30
0.0
 10
115.2514729935
 20
68.5352791862
 30
0.0
 10
115.6246290545
 20
68.1386068615
 30
0.0
 10
115.8358436414
 20
67.6400777433
 30
0.0
 10
115.8522556291
 20
67.111790125
 30
0.0
 10
115.6640706212
 20
66.6336078206
 30
0.0
 10
115.2959816686
 20
66.2868684838
 30
0.0
 10
114.9746907407
 20
66.1866794721
 30
0.0
 10
114.8123399947
 20
66.1708345031
 30
0.0
  0
SPLINE
  5
635
100
AcDbEntity
  8
0
100
AcDbSpline
 62
7
  6
CONTINUOUS
 70
0
 71
3
 72
17
 73
13
 74
0
 42
0.0000001
 43
0.0000001
 44
0.0000000001
 40
0.0
 40
0.0
 40
0.0
 40
0.0
 40
0.1238427333
 40
0.1867830694
 40
0.2501191218
 40
0.3770680793
 40
0.504040117
 40
0.5674303734
 40
0.6303834834
 40
0.7542640216
 40
0.8769765076
 40
1.0
 40
1.0
 40
1.0
 40
1.0
 10
111.4657946176
 20
64.8801734128
 30
0.0
 10
111.6472167902
 20
64.9060118917
 30
0.0
 10
111.9336031912
 20
64.8848490982
 30
0.0
 10
112.2780627707
 20
64.7444206251
 30
0.0
 10
112.5914647627
 20
64.5347174559
 30
0.0
 10
112.8943816464
 20
64.1585334712
 30
0.0
 10
113.0264213078
 20
63.693924307
 30
0.0
 10
113.0171035412
 20
63.3169017983
 30
0.0
 10
112.9329498416
 20
62.9540589369
 30
0.0
 10
112.6905819706
 20
62.5479988897
 30
0.0
 10
112.2272532417
 20
62.2276908571
 30
0.0
 10
111.8558752399
 20
62.1634498318
 30
0.0
 10
111.6739714033
 20
62.1705066683
 30
0.0
  0
SPLINE
  5
636
100
AcDbEntity
  8
0
100
AcDbSpline
 62
7
  6
CONTINUOUS
 70
0
 71
3
 72
9
 73
5
 74
0
 42
0.0000001
 43
0.0000001
 44
0.0000000001
 40
0.0
 40
0.0
 40
0.0
 40
0.0
 40
0.7478504749
 40
1.0
 40
1.0
 40
1.0
 40
1.0
 10
111.6739714033
 20
62.1705066683
 30
0.0
 10
111.553219415
 20
62.1751911602
 30
0.0
 10
111.3914960731
 20
62.2044793185
 30
0.0
 10
111.2400953312
 20
62.261158775
 30
0.0
 10
111.2026268105
 20
62.2771646442
 30
0.0
  0
SPLINE
  5
637
100
AcDbEntity
  8
0
100
AcDbSpline
 62
7
  6
CONTINUOUS
 70
0
 71
3
 72
8
 73
4
 74
0
 42
0.0000001
 43
0.0000001
 44
0.0000000001
 40
0.0
 40
0.0
 40
0.0
 40
0.0
 40
1.0
 40
1.0
 40
1.0
 40
1.0
 10
123.090046364
 20
64.8995941505
 30
0.0
 10
123.1664677782
 20
64.9234860512
 30
0.0
 10
123.2481571519
 20
64.9344110742
 30
0.0
 10
123.328162586
 20
64.931219522
 30
0.0
  0
SPLINE
  5
638
100
AcDbEntity
  8
0
100
AcDbSpline
 62
7
  6
CONTINUOUS
 70
0
 71
3
 72
9
 73
5
 74
0
 42
0.0000001
 43
0.0000001
 44
0.0000000001
 40
0.0
 40
0.0
 40
0.0
 40
0.0
 40
0.247697802
 40
1.0
 40
1.0
 40
1.0
 40
1.0
 10
117.2382105205
 20
60.948337385
 30
0.0
 10
117.1499135351
 20
60.9498440829
 30
0.0
 10
116.793562399
 20
60.9619199126
 30
0.0
 10
116.4380751289
 20
60.9975806487
 30
0.0
 10
116.1727088143
 20
61.0365517947
 30
0.0
  0
SPLINE
  5
639
100
AcDbEntity
  8
BEZUGSACHSEN
100
AcDbSpline
 62
7
  6
CONTINUOUS
 70
0
 71
3
 72
9
 73
5
 74
0
 42
0.0000001
 43
0.0000001
 44
0.0000000001
 40
0.0
 40
0.0
 40
0.0
 40
0.0
 40
0.4971533388
 40
1.0
 40
1.0
 40
1.0
 40
1.0
 10
119.6494118996
 20
90.472514258
 30
0.0
 10
119.7226082399
 20
90.4137639833
 30
0.0
 10
119.8916484985
 20
90.320415242
 30
0.0
 10
120.0819887912
 20
90.2899575865
 30
0.0
 10
120.1769215029
 20
90.2899575865
 30
0.0
  0
SPLINE
  5
63A
100
AcDbEntity
  8
0
100
AcDbSpline
 62
7
  6
CONTINUOUS
 70
0
 71
3
 72
9
 73
5
 74
0
 42
0.0000001
 43
0.0000001
 44
0.0000000001
 40
0.0
 40
0.0
 40
0.0
 40
0.0
 40
0.5006291217
 40
1.0
 40
1.0
 40
1.0
 40
1.0
 10
113.361116856
 20
68.0404208004
 30
0.0
 10
113.4289478385
 20
68.2278195966
 30
0.0
 10
113.6663119084
 20
68.5751920982
 30
0.0
 10
114.0533056827
 20
68.7410790338
 30
0.0
 10
114.2499080682
 20
68.7705315161
 30
0.0
  0
SPLINE
  5
63B
100
AcDbEntity
  8
0
100
AcDbSpline
 62
7
  6
CONTINUOUS
 70
0
 71
3
 72
9
 73
5
 74
0
 42
0.0000001
 43
0.0000001
 44
0.0000000001
 40
0.0
 40
0.0
 40
0.0
 40
0.0
 40
0.4971533388
 40
1.0
 40
1.0
 40
1.0
 40
1.0
 10
119.6494118996
 20
68.6560263131
 30
0.0
 10
119.7226082399
 20
68.7147765878
 30
0.0
 10
119.8916484985
 20
68.8081253291
 30
0.0
 10
120.0819887912
 20
68.8385829846
 30
0.0
 10
120.1769215029
 20
68.8385829846
 30
0.0
  0
SPLINE
  5
63C
100
AcDbEntity
  8
0
100
AcDbSpline
 62
7
  6
CONTINUOUS
 70
0
 71
3
 72
8
 73
4
 74
0
 42
0.0000001
 43
0.0000001
 44
0.0000000001
 40
0.0
 40
0.0
 40
0.0
 40
0.0
 40
1.0
 40
1.0
 40
1.0
 40
1.0
 10
117.5545743604
 20
64.8344392629
 30
0.0
 10
117.6810498912
 20
64.8929899277
 30
0.0
 10
117.8220358936
 20
64.9266537202
 30
0.0
 10
117.9613319584
 20
64.931219522
 30
0.0
  0
SPLINE
  5
63D
100
AcDbEntity
  8
0
100
AcDbSpline
 62
7
  6
CONTINUOUS
 70
0
 71
3
 72
9
 73
5
 74
0
 42
0.0000001
 43
0.0000001
 44
0.0000000001
 40
0.0
 40
0.0
 40
0.0
 40
0.0
 40
0.2432045014
 40
1.0
 40
1.0
 40
1.0
 40
1.0
 10
55.7583832133
 20
68.6038663858
 30
0.0
 10
55.9574847551
 20
68.596969414
 30
0.0
 10
56.7755452693
 20
68.5519190542
 30
0.0
 10
57.5896091554
 20
68.4440346627
 30
0.0
 10
58.199857114
 20
68.3349043791
 30
0.0
  0
SPLINE
  5
63E
100
AcDbEntity
  8
KONSTRUKTIONSELEMENTE
100
AcDbSpline
 62
7
  6
CONTINUOUS
 70
0
 71
3
 72
9
 73
5
 74
0
 42
0.0000001
 43
0.0000001
 44
0.0000000001
 40
0.0
 40
0.0
 40
0.0
 40
0.0
 40
0.2432045014
 40
1.0
 40
1.0
 40
1.0
 40
1.0
 10
55.7583832133
 20
90.5246741853
 30
0.0
 10
55.9574847551
 20
90.531571157
 30
0.0
 10
56.7755452693
 20
90.5766215169
 30
0.0
 10
57.5896091554
 20
90.6845059084
 30
0.0
 10
58.199857114
 20
90.793636192
 30
0.0
  0
SPLINE
  5
63F
100
AcDbEntity
  8
0
100
AcDbSpline
 62
7
  6
CONTINUOUS
 70
0
 71
3
 72
28
 73
24
 74
0
 42
0.0000001
 43
0.0000001
 44
0.0000000001
 40
0.0
 40
0.0
 40
0.0
 40
0.0
 40
0.2003405481
 40
0.3900661901
 40
0.4789440823
 40
0.5628251046
 40
0.6410062421
 40
0.7128333286
 40
0.7777011582
 40
0.835069009
 40
0.8844554853
 40
0.9060233514
 40
0.9254459513
 40
0.9426849587
 40
0.9577025129
 40
0.9704672578
 40
0.9809564332
 40
0.9891488887
 40
0.9950305741
 40
0.9971060521
 40
0.9986086926
 40
0.9995510759
 40
1.0
 40
1.0
 40
1.0
 40
1.0
 10
184.9683370363
 20
39.3468841862
 30
0.0
 10
184.9657635607
 20
37.5053470166
 30
0.0
 10
184.9564379008
 20
33.919849731
 30
0.0
 10
184.9335440008
 20
29.5174282798
 30
0.0
 10
184.9085000087
 20
26.1855473907
 30
0.0
 10
184.887255688
 20
23.8789921806
 30
0.0
 10
184.8633354652
 20
21.7292036766
 30
0.0
 10
184.8369534429
 20
19.7542280461
 30
0.0
 10
184.8083533984
 20
17.9706211953
 30
0.0
 10
184.77780082
 20
16.393355762
 30
0.0
 10
184.749884914
 20
15.2141366303
 30
0.0
 10
184.7262871329
 20
14.3837219386
 30
0.0
 10
184.7090752155
 20
13.8487484651
 30
0.0
 10
184.6915968674
 20
13.3740337907
 30
0.0
 10
184.6738958636
 20
12.9605627445
 30
0.0
 10
184.6560494632
 20
12.609243417
 30
0.0
 10
184.6381182931
 20
12.3206631485
 30
0.0
 10
184.6203608157
 20
12.0957455892
 30
0.0
 10
184.6043223827
 20
11.9477410154
 30
0.0
 10
184.5910855519
 20
11.8622837864
 30
0.0
 10
184.5815611273
 20
11.8208950648
 30
0.0
 10
184.5744987917
 20
11.7970007282
 30
0.0
 10
184.5654561613
 20
11.7842702855
 30
0.0
 10
184.5613296318
 20
11.7842702855
 30
0.0
  0
SPLINE
  5
640
100
AcDbEntity
  8
0
100
AcDbSpline
 62
7
  6
CONTINUOUS
 70
0
 71
3
 72
28
 73
24
 74
0
 42
0.0000001
 43
0.0000001
 44
0.0000000001
 40
0.0
 40
0.0
 40
0.0
 40
0.0
 40
0.0004489241
 40
0.0013913074
 40
0.0028939479
 40
0.0049694259
 40
0.0108511113
 40
0.0190435668
 40
0.0295327422
 40
0.0422974871
 40
0.0573150413
 40
0.0745540487
 40
0.0939766486
 40
0.1155445147
 40
0.164930991
 40
0.2222988418
 40
0.2871666714
 40
0.3589937579
 40
0.4371748954
 40
0.5210559177
 40
0.6099338099
 40
0.7996594519
 40
1.0
 40
1.0
 40
1.0
 40
1.0
 10
184.5613296318
 20
147.3442702855
 30
0.0
 10
184.5654561613
 20
147.3442702855
 30
0.0
 10
184.5744987917
 20
147.3315398428
 30
0.0
 10
184.5815611273
 20
147.3076455063
 30
0.0
 10
184.5910855519
 20
147.2662567847
 30
0.0
 10
184.6043223827
 20
147.1807995557
 30
0.0
 10
184.6203608157
 20
147.0327949819
 30
0.0
 10
184.6381182931
 20
146.8078774226
 30
0.0
 10
184.6560494632
 20
146.5192971541
 30
0.0
 10
184.6738958636
 20
146.1679778266
 30
0.0
 10
184.6915968674
 20
145.7545067804
 30
0.0
 10
184.7090752155
 20
145.279792106
 30
0.0
 10
184.7262871329
 20
144.7448186325
 30
0.0
 10
184.749884914
 20
143.9144039408
 30
0.0
 10
184.77780082
 20
142.7351848091
 30
0.0
 10
184.8083533984
 20
141.1579193758
 30
0.0
 10
184.8369534429
 20
139.374312525
 30
0.0
 10
184.8633354652
 20
137.3993368945
 30
0.0
 10
184.887255688
 20
135.2495483905
 30
0.0
 10
184.9085000087
 20
132.9429931803
 30
0.0
 10
184.9335440008
 20
129.6111122912
 30
0.0
 10
184.9564379008
 20
125.20869084
 30
0.0
 10
184.9657635607
 20
121.6231935545
 30
0.0
 10
184.9683370363
 20
119.7816563849
 30
0.0
  0
SPLINE
  5
641
100
AcDbEntity
  8
KONSTRUKTIONSELEMENTE
100
AcDbSpline
 62
7
  6
CONTINUOUS
 70
0
 71
3
 72
9
 73
5
 74
0
 42
0.0000001
 43
0.0000001
 44
0.0000000001
 40
0.0
 40
0.0
 40
0.0
 40
0.0
 40
0.2455810427
 40
1.0
 40
1.0
 40
1.0
 40
1.0
 10
54.3170911412
 20
90.5506539118
 30
0.0
 10
54.4348025246
 20
90.5418876974
 30
0.0
 10
54.9146357591
 20
90.5132800053
 30
0.0
 10
55.3959927189
 20
90.512120807
 30
0.0
 10
55.7583832133
 20
90.5246741853
 30
0.0
  0
SPLINE
  5
642
100
AcDbEntity
  8
KONSTRUKTIONSELEMENTE
100
AcDbSpline
 62
7
  6
CONTINUOUS
 70
0
 71
3
 72
9
 73
5
 74
0
 42
0.0000001
 43
0.0000001
 44
0.0000000001
 40
0.0
 40
0.0
 40
0.0
 40
0.0
 40
0.4873020228
 40
1.0
 40
1.0
 40
1.0
 40
1.0
 10
97.6106339023
 20
94.0097839371
 30
0.0
 10
97.8344072813
 20
94.1007942718
 30
0.0
 10
98.3255687252
 20
94.2197469371
 30
0.0
 10
98.8290564132
 20
94.1673998571
 30
0.0
 10
99.075047545
 20
94.1034708993
 30
0.0
  0
SPLINE
  5
643
100
AcDbEntity
  8
0
100
AcDbSpline
 62
7
  6
CONTINUOUS
 70
0
 71
3
 72
9
 73
5
 74
0
 42
0.0000001
 43
0.0000001
 44
0.0000000001
 40
0.0
 40
0.0
 40
0.0
 40
0.0
 40
0.2455810427
 40
1.0
 40
1.0
 40
1.0
 40
1.0
 10
54.3170911412
 20
68.5778866592
 30
0.0
 10
54.4348025246
 20
68.5866528737
 30
0.0
 10
54.9146357591
 20
68.6152605658
 30
0.0
 10
55.3959927189
 20
68.6164197641
 30
0.0
 10
55.7583832133
 20
68.6038663858
 30
0.0
  0
SPLINE
  5
644
100
AcDbEntity
  8
0
100
AcDbSpline
 62
7
  6
CONTINUOUS
 70
0
 71
3
 72
9
 73
5
 74
0
 42
0.0000001
 43
0.0000001
 44
0.0000000001
 40
0.0
 40
0.0
 40
0.0
 40
0.0
 40
0.4873020228
 40
1.0
 40
1.0
 40
1.0
 40
1.0
 10
97.6106339023
 20
65.1187566339
 30
0.0
 10
97.8344072813
 20
65.0277462993
 30
0.0
 10
98.3255687252
 20
64.908793634
 30
0.0
 10
98.8290564132
 20
64.9611407139
 30
0.0
 10
99.075047545
 20
65.0250696718
 30
0.0
  0
ELLIPSE
  5
645
100
AcDbEntity
  8
0
100
AcDbEllipse
 62
7
  6
CONTINUOUS
 10
57.798071954
 20
280.9169488002
 30
0.0
 11
20.1124440973
 21
15.9152139774
 31
0.0
 40
0.0944783471
 41
1.2558285943
 42
1.4762506564
  0
ELLIPSE
  5
646
100
AcDbEntity
  8
0
100
AcDbEllipse
 62
7
  6
CONTINUOUS
 10
73.8529595712
 20
299.1876032556
 30
0.0
 11
19.3749902157
 21
15.3983861071
 31
0.0
 40
0.0977754624
 41
-1.895370031
 42
-1.5322535739
  0
ELLIPSE
  5
647
100
AcDbEntity
  8
0
100
AcDbEllipse
 62
7
  6
CONTINUOUS
 10
77.0578991158
 20
300.3066598248
 30
0.0
 11
10.333328115
 21
8.2124725905
 31
0.0
 40
0.0977754624
 41
-1.5322535739
 42
-1.0697413222
  0
ELLIPSE
  5
648
100
AcDbEntity
  8
0
100
AcDbEllipse
 62
7
  6
CONTINUOUS
 10
147.4313296318
 20
174.9753675644
 30
0.0
 11
23.8076279842
 21
1.2680907531
 31
0.0
 40
0.1049554763
 41
-1.576386607
 42
-0.0928567584
  0
ELLIPSE
  5
649
100
AcDbEntity
  8
0
100
AcDbEllipse
 62
7
  6
CONTINUOUS
 10
120.6915696318
 20
173.9307871711
 30
0.0
 11
30.7195199796
 21
1.636246133
 31
0.0
 40
0.1049554763
 41
-1.5763866226
 42
-1.2224381927
  0
ELLIPSE
  5
64A
100
AcDbEntity
  8
0
100
AcDbEllipse
 62
7
  6
CONTINUOUS
 10
171.1414717881
 20
199.1559390697
 30
0.0
 11
0.0093317425
 21
23.0321311338
 31
0.0
 40
0.0873656724
 41
-3.0322353903
 42
-1.5661588186
  0
ELLIPSE
  5
64B
100
AcDbEntity
  8
0
100
AcDbEllipse
 62
7
  6
CONTINUOUS
 10
249.2097961159
 20
268.9661491738
 30
0.0
 11
151.1702184967
 21
-0.0
 31
0.0
 40
0.8682237535
 41
2.2622920589
 42
2.2660655664
  0
ELLIPSE
  5
64C
100
AcDbEntity
  8
0
100
AcDbEllipse
 62
7
  6
CONTINUOUS
 10
100.1826824354
 20
300.0526428409
 30
0.0
 11
1.786655971
 21
3.0945789174
 31
0.0
 40
0.9968771855
 41
1.030357271
 42
2.6656584265
  0
ELLIPSE
  5
64D
100
AcDbEntity
  8
0
100
AcDbEllipse
 62
7
  6
CONTINUOUS
 10
151.9852291962
 20
333.4420868184
 30
0.0
 11
32.6222583504
 21
56.5034089205
 31
0.0
 40
0.9968771855
 41
-3.6175268807
 42
-3.6054129089
  0
ELLIPSE
  5
64E
100
AcDbEntity
  8
0
100
AcDbEllipse
 62
7
  6
CONTINUOUS
 10
140.0043541022
 20
169.4471070088
 30
0.0
 11
24.9996093584
 21
1.3315805119
 31
0.0
 40
0.1049554763
 41
1.565206031
 42
1.9191544607
  0
ELLIPSE
  5
64F
100
AcDbEntity
  8
0
100
AcDbEllipse
 62
7
  6
CONTINUOUS
 10
87.722780871
 20
247.814115447
 30
0.0
 11
-0.0000000005
 21
46.9959614439
 31
0.0
 40
0.9999700099
 41
0.7906942597
 42
1.1144426998
  0
ELLIPSE
  5
650
100
AcDbEntity
  8
AUSFORMSCHRAEGEN
100
AcDbEllipse
 62
7
  6
CONTINUOUS
 10
276.3771299929
 20
337.9040236581
 30
0.0
 11
0.8407724527
 21
11.9999191398
 31
0.0
 40
0.0523954879
 41
0.9286955687
 42
2.6942695382
  0
ELLIPSE
  5
651
100
AcDbEntity
  8
KONSTRUKTIONSELEMENTE
100
AcDbEllipse
 62
7
  6
CONTINUOUS
 10
286.0957828002
 20
308.8165507744
 30
0.0
 11
10.0394711207
 21
-0.090536537
 31
0.0
 40
0.4417039506
 41
-3.1204447762
 42
-2.9291913634
  0
ELLIPSE
  5
652
100
AcDbEntity
  8
0
100
AcDbEllipse
 62
7
  6
CONTINUOUS
 10
314.3771299929
 20
337.9040236581
 30
0.0
 11
-0.8407724527
 21
11.9999191398
 31
0.0
 40
0.0523954879
 41
-2.6942695382
 42
-0.9286955687
  0
ELLIPSE
  5
653
100
AcDbEntity
  8
0
100
AcDbEllipse
 62
7
  6
CONTINUOUS
 10
304.6584771856
 20
308.8165507744
 30
0.0
 11
10.0394711207
 21
0.090536537
 31
0.0
 40
0.4417039506
 41
-0.2124012902
 42
-0.0211478773
  0
ELLIPSE
  5
654
100
AcDbEntity
  8
AUSFORMSCHRAEGEN
100
AcDbEllipse
 62
7
  6
CONTINUOUS
 10
276.3771299929
 20
337.9040236581
 30
0.0
 11
0.3503218553
 21
4.9999663082
 31
0.0
 40
0.0523954879
 41
0.0
 42
6.2831853072
  0
ELLIPSE
  5
655
100
AcDbEntity
  8
KONSTRUKTIONSELEMENTE
100
AcDbEllipse
 62
7
  6
CONTINUOUS
 10
305.7591069473
 20
360.3945170515
 30
0.0
 11
-6.1189371643
 21
39.9828889406
 31
0.0
 40
0.1911881624
 41
-3.8762144576
 42
-3.8592133411
  0
ELLIPSE
  5
656
100
AcDbEntity
  8
KONSTRUKTIONSELEMENTE
100
AcDbEllipse
 62
7
  6
CONTINUOUS
 10
306.7311593183
 20
360.3945170515
 30
0.0
 11
-19.8398538356
 21
39.0595870538
 31
0.0
 40
0.4346083861
 41
-4.0769950333
 42
-4.0642331254
  0
ELLIPSE
  5
657
100
AcDbEntity
  8
KONSTRUKTIONSELEMENTE
100
AcDbEllipse
 62
7
  6
CONTINUOUS
 10
309.0908801326
 20
360.3945170515
 30
0.0
 11
57.119375217
 21
-30.8786256953
 31
0.0
 40
0.4451479058
 41
-1.415515887
 42
-1.4070015217
  0
ELLIPSE
  5
658
100
AcDbEntity
  8
AUSFORMSCHRAEGEN
100
AcDbEllipse
 62
7
  6
CONTINUOUS
 10
276.2896413294
 20
337.7072031712
 30
0.0
 11
1.4012874212
 21
19.999865233
 31
0.0
 40
0.0523954879
 41
-0.4388775481
 42
-0.1521434318
  0
ELLIPSE
  5
659
100
AcDbEntity
  8
KONSTRUKTIONSELEMENTE
100
AcDbEllipse
 62
7
  6
CONTINUOUS
 10
282.2433547051
 20
305.2792182582
 30
0.0
 11
1.5059458203
 21
-0.0
 31
0.0
 40
0.5994389191
 41
-2.9503460585
 42
-2.8017557441
  0
ELLIPSE
  5
65A
100
AcDbEntity
  8
AUSFORMSCHRAEGEN
100
AcDbEllipse
 62
7
  6
CONTINUOUS
 10
280.4890971786
 20
360.3945170515
 30
0.0
 11
2.8025748423
 21
39.9997304659
 31
0.0
 40
0.0523954879
 41
-4.537533302
 42
-3.7836934117
  0
ELLIPSE
  5
65B
100
AcDbEntity
  8
0
100
AcDbEllipse
 62
7
  6
CONTINUOUS
 10
314.3771299929
 20
337.9040236581
 30
0.0
 11
-0.3503218553
 21
4.9999663082
 31
0.0
 40
0.0523954879
 41
0.0
 42
6.2831853072
  0
ELLIPSE
  5
65C
100
AcDbEntity
  8
0
100
AcDbEllipse
 62
7
  6
CONTINUOUS
 10
310.2651628072
 20
360.3945170515
 30
0.0
 11
-2.8025748423
 21
39.9997304659
 31
0.0
 40
0.0523954879
 41
-2.4994918955
 42
-1.7456520051
  0
ELLIPSE
  5
65D
100
AcDbEntity
  8
0
100
AcDbEllipse
 62
7
  6
CONTINUOUS
 10
314.4646186564
 20
337.7072031712
 30
0.0
 11
-1.4012874212
 21
19.999865233
 31
0.0
 40
0.0523954879
 41
0.1521434318
 42
0.4388775481
  0
ELLIPSE
  5
65E
100
AcDbEntity
  8
KONSTRUKTIONSELEMENTE
100
AcDbEllipse
 62
7
  6
CONTINUOUS
 10
317.0012860188
 20
360.3945170515
 30
0.0
 11
156.5870226034
 21
-25.078037776
 31
0.0
 40
0.1990097832
 41
-1.6240696223
 42
-1.6198102741
  0
ELLIPSE
  5
65F
100
AcDbEntity
  8
0
100
AcDbEllipse
 62
7
  6
CONTINUOUS
 10
313.1522887035
 20
354.5012560071
 30
0.0
 11
-0.2101931132
 21
2.9999797849
 31
0.0
 40
0.0523954879
 41
5.3544897385
 42
6.435328739
  0
ELLIPSE
  5
660
100
AcDbEntity
  8
AUSFORMSCHRAEGEN
100
AcDbEllipse
 62
7
  6
CONTINUOUS
 10
277.6019712823
 20
354.5012560071
 30
0.0
 11
0.2101931132
 21
2.9999797849
 31
0.0
 40
0.0523954879
 41
-0.1521434318
 42
0.9286955687
  0
ELLIPSE
  5
661
100
AcDbEntity
  8
KONSTRUKTIONSELEMENTE
100
AcDbEllipse
 62
7
  6
CONTINUOUS
 10
290.7139347674
 20
360.3945170515
 30
0.0
 11
-8.3939026192
 21
39.9447702641
 31
0.0
 40
0.2503327014
 41
-3.9165378715
 42
-3.9043880653
  0
ELLIPSE
  5
662
100
AcDbEntity
  8
KONSTRUKTIONSELEMENTE
100
AcDbEllipse
 62
7
  6
CONTINUOUS
 10
292.712548605
 20
360.3945170515
 30
0.0
 11
34.8041833892
 21
-36.0430927314
 31
0.0
 40
0.4983980951
 41
-1.1794554785
 42
-1.170938252
  0
ELLIPSE
  5
663
100
AcDbEntity
  8
0
100
AcDbEllipse
 62
7
  6
CONTINUOUS
 10
313.0079184722
 20
353.0694770792
 30
0.0
 11
-0.2101931132
 21
2.9999797849
 31
0.0
 40
0.0523954879
 41
0.4388775481
 42
1.3959406485
  0
ELLIPSE
  5
664
100
AcDbEntity
  8
0
100
AcDbEllipse
 62
7
  6
CONTINUOUS
 10
308.5109052807
 20
305.2792182582
 30
0.0
 11
1.5059458203
 21
0.0
 31
0.0
 40
0.5994389191
 41
-0.3398369095
 42
-0.1912465951
  0
ELLIPSE
  5
665
100
AcDbEntity
  8
AUSFORMSCHRAEGEN
100
AcDbEllipse
 62
7
  6
CONTINUOUS
 10
277.7463415136
 20
353.0694770792
 30
0.0
 11
0.2101931132
 21
2.9999797849
 31
0.0
 40
0.0523954879
 41
-1.3959406485
 42
-0.4388775481
  0
ELLIPSE
  5
666
100
AcDbEntity
  8
KONSTRUKTIONSELEMENTE
100
AcDbEllipse
 62
7
  6
CONTINUOUS
 10
299.3733813821
 20
360.3945170515
 30
0.0
 11
117.3072672751
 21
-25.862138721
 31
0.0
 40
0.2601266541
 41
-1.6029058885
 42
-1.5986449914
  0
ELLIPSE
  5
667
100
AcDbEntity
  8
KONSTRUKTIONSELEMENTE
100
AcDbEllipse
 62
7
  6
CONTINUOUS
 10
289.7105674553
 20
360.3945170515
 30
0.0
 11
23.3575102312
 21
38.5134547243
 31
0.0
 40
0.4625243127
 41
-2.2052212377
 42
-2.1882367427
  0
ELLIPSE
  5
668
100
AcDbEntity
  8
KONSTRUKTIONSELEMENTE
100
AcDbEllipse
 62
7
  6
CONTINUOUS
 10
290.2669915118
 20
360.3945170515
 30
0.0
 11
8.3939026192
 21
39.9447702641
 31
0.0
 40
0.2503327014
 41
-2.4091625799
 42
-2.3964180151
  0
ELLIPSE
  5
669
100
AcDbEntity
  8
KONSTRUKTIONSELEMENTE
100
AcDbEllipse
 62
7
  6
CONTINUOUS
 10
279.7233818878
 20
296.0554566221
 30
0.0
 11
6.3444267586
 21
13.9246388381
 31
0.0
 40
0.2081940889
 41
0.1168745318
 42
0.633926684
  0
ELLIPSE
  5
66A
100
AcDbEntity
  8
RUNDUNGEN
100
AcDbEllipse
 62
7
  6
CONTINUOUS
 10
258.3771299929
 20
199.1559390697
 30
0.0
 11
13.7435831136
 21
-18.5310837339
 31
0.0
 40
0.9952023366
 41
-2.211234813
 42
-0.7451582414
  0
ELLIPSE
  5
66B
100
AcDbEntity
  8
0
100
AcDbEllipse
 62
7
  6
CONTINUOUS
 10
299.9851299929
 20
300.3066598248
 30
0.0
 11
12.2595758914
 21
-1.2520362516
 31
0.0
 40
0.6671612737
 41
0.068030173
 42
0.5305424247
  0
ELLIPSE
  5
66C
100
AcDbEntity
  8
KONSTRUKTIONSELEMENTE
100
AcDbEllipse
 62
7
  6
CONTINUOUS
 10
824.7053495623
 20
268.9661491738
 30
0.0
 11
857.3289118279
 21
0.0
 31
0.0
 40
0.153091273
 41
2.2622920589
 42
2.2660655664
  0
ELLIPSE
  5
66D
100
AcDbEntity
  8
KONSTRUKTIONSELEMENTE
100
AcDbEllipse
 62
7
  6
CONTINUOUS
 10
256.2191299929
 20
174.9753675644
 30
0.0
 11
23.8076401357
 21
-2.5126482983
 31
0.0
 40
0.0520969732
 41
0.0054982528
 42
1.4890281014
  0
ELLIPSE
  5
66E
100
AcDbEntity
  8
KONSTRUKTIONSELEMENTE
100
AcDbEllipse
 62
7
  6
CONTINUOUS
 10
252.7611299929
 20
173.9307871711
 30
0.0
 11
30.719535659
 21
-3.2421268365
 31
0.0
 40
0.0520969732
 41
0.0054982372
 42
0.359446667
  0
ELLIPSE
  5
66F
100
AcDbEntity
  8
KONSTRUKTIONSELEMENTE
100
AcDbEllipse
 62
7
  6
CONTINUOUS
 10
290.7691299929
 20
300.3066598248
 30
0.0
 11
12.2595758914
 21
1.2520362516
 31
0.0
 40
0.6671612737
 41
2.6110502288
 42
3.0735624806
  0
ELLIPSE
  5
670
100
AcDbEntity
  8
KONSTRUKTIONSELEMENTE
100
AcDbEllipse
 62
7
  6
CONTINUOUS
 10
305.0271299929
 20
169.4471070088
 30
0.0
 11
24.9996221183
 21
-2.638449574
 31
0.0
 40
0.0520969732
 41
-3.1360944164
 42
-2.7821459867
  0
ELLIPSE
  5
671
100
AcDbEntity
  8
0
100
AcDbEllipse
 62
7
  6
CONTINUOUS
 10
311.0308780981
 20
296.0554566221
 30
0.0
 11
-6.3444267586
 21
13.9246388381
 31
0.0
 40
0.2081940889
 41
-0.633926684
 42
-0.1168745318
  0
ELLIPSE
  5
672
100
AcDbEntity
  8
0
100
AcDbEllipse
 62
7
  6
CONTINUOUS
 10
332.3771299929
 20
199.1559390697
 30
0.0
 11
13.7435831136
 21
18.5310837339
 31
0.0
 40
0.9952023366
 41
-2.3964344122
 42
-0.9303578405
  0
ELLIPSE
  5
673
100
AcDbEntity
  8
0
100
AcDbEllipse
 62
7
  6
CONTINUOUS
 10
-233.9510895765
 20
268.9661491738
 30
0.0
 11
857.3289118279
 21
-0.0
 31
0.0
 40
0.153091273
 41
0.8755270872
 42
0.8793005947
  0
ELLIPSE
  5
674
100
AcDbEntity
  8
0
100
AcDbEllipse
 62
7
  6
CONTINUOUS
 10
285.7271299929
 20
169.4471070088
 30
0.0
 11
24.9996221183
 21
2.638449574
 31
0.0
 40
0.0520969732
 41
-0.3594466669
 42
-0.0054982372
  0
ELLIPSE
  5
675
100
AcDbEntity
  8
0
100
AcDbEllipse
 62
7
  6
CONTINUOUS
 10
337.9931299929
 20
173.9307871711
 30
0.0
 11
30.719535659
 21
3.2421268365
 31
0.0
 40
0.0520969732
 41
2.7821459866
 42
3.1360944164
  0
ELLIPSE
  5
676
100
AcDbEntity
  8
0
100
AcDbEllipse
 62
7
  6
CONTINUOUS
 10
334.5351299929
 20
174.9753675644
 30
0.0
 11
23.8076401357
 21
2.5126482983
 31
0.0
 40
0.0520969732
 41
1.6525645522
 42
3.1360944008
  0
ELLIPSE
  5
677
100
AcDbEntity
  8
KONSTRUKTIONSELEMENTE
100
AcDbEllipse
 62
7
  6
CONTINUOUS
 10
261.3319380492
 20
280.9169488002
 30
0.0
 11
23.0678437655
 21
1.7371947371
 31
0.0
 40
0.6907376954
 41
0.1047810997
 42
0.3252031618
  0
ELLIPSE
  5
678
100
AcDbEntity
  8
KONSTRUKTIONSELEMENTE
100
AcDbEllipse
 62
7
  6
CONTINUOUS
 10
301.5211299929
 20
299.1876032556
 30
0.0
 11
22.9867047963
 21
2.3475679717
 31
0.0
 40
0.6671612737
 41
3.0735624806
 42
3.4366789377
  0
ELLIPSE
  5
679
100
AcDbEntity
  8
KONSTRUKTIONSELEMENTE
100
AcDbEllipse
 62
7
  6
CONTINUOUS
 10
301.5211299929
 20
291.4935137631
 30
0.0
 11
23.04
 21
0.0
 31
0.0
 40
0.7954374101
 41
3.1415926536
 42
3.3236276598
  0
ELLIPSE
  5
67A
100
AcDbEntity
  8
KONSTRUKTIONSELEMENTE
100
AcDbEllipse
 62
7
  6
CONTINUOUS
 10
301.5211299929
 20
286.6169173821
 30
0.0
 11
23.04
 21
-0.0
 31
0.0
 40
0.3737404873
 41
2.9595576474
 42
3.0613224535
  0
ELLIPSE
  5
67B
100
AcDbEntity
  8
KONSTRUKTIONSELEMENTE
100
AcDbEllipse
 62
7
  6
CONTINUOUS
 10
301.5211299929
 20
288.7774900791
 30
0.0
 11
23.04
 21
0.0
 31
0.0
 40
0.7957549864
 41
-3.0613224535
 42
-2.8938370596
  0
ELLIPSE
  5
67C
100
AcDbEntity
  8
0
100
AcDbEllipse
 62
7
  6
CONTINUOUS
 10
289.2331299929
 20
299.1876032556
 30
0.0
 11
22.9867047963
 21
-2.3475679717
 31
0.0
 40
0.6671612737
 41
-0.2950862841
 42
0.068030173
  0
ELLIPSE
  5
67D
100
AcDbEntity
  8
0
100
AcDbEllipse
 62
7
  6
CONTINUOUS
 10
329.4223219366
 20
280.9169488002
 30
0.0
 11
23.0678437655
 21
-1.7371947371
 31
0.0
 40
0.6907376954
 41
2.8163894918
 42
3.0368115539
  0
ELLIPSE
  5
67E
100
AcDbEntity
  8
AUSFORMSCHRAEGEN
100
AcDbEllipse
 62
7
  6
CONTINUOUS
 10
154.5613296318
 20
98.5642702855
 30
0.0
 11
11.9999184545
 21
0.6349106556
 31
0.0
 40
0.0696774463
 41
0.4300520616
 42
1.1161155585
  0
ELLIPSE
  5
67F
100
AcDbEntity
  8
0
100
AcDbEllipse
 62
7
  6
CONTINUOUS
 10
122.0299612995
 20
70.2829230929
 30
0.0
 11
-0.8869465958
 21
10.0069876829
 31
0.0
 40
0.9109299734
 41
-3.3557525476
 42
-3.2393206946
  0
ELLIPSE
  5
680
100
AcDbEntity
  8
KONSTRUKTIONSELEMENTE
100
AcDbEllipse
 62
7
  6
CONTINUOUS
 10
122.0299612995
 20
88.8456174782
 30
0.0
 11
0.8869465958
 21
10.0069876829
 31
0.0
 40
0.9109299734
 41
0.097728041
 42
0.214159894
  0
ELLIPSE
  5
681
100
AcDbEntity
  8
KONSTRUKTIONSELEMENTE
100
AcDbEllipse
 62
7
  6
CONTINUOUS
 10
99.6352695817
 20
92.6980455733
 30
0.0
 11
-0.0
 21
1.5059458203
 31
0.0
 40
0.7954823134
 41
0.1912465951
 42
0.3398369095
  0
ELLIPSE
  5
682
100
AcDbEntity
  8
0
100
AcDbEllipse
 62
7
  6
CONTINUOUS
 10
154.5613296318
 20
60.5642702855
 30
0.0
 11
11.9999184545
 21
-0.6349106556
 31
0.0
 40
0.0696774463
 41
5.1670697487
 42
5.8531332456
  0
ELLIPSE
  5
683
100
AcDbEntity
  8
0
100
AcDbEllipse
 62
7
  6
CONTINUOUS
 10
99.6352695817
 20
66.4304949978
 30
0.0
 11
0.0
 21
1.5059458203
 31
0.0
 40
0.7954823134
 41
-3.481429563
 42
-3.3328392486
  0
ELLIPSE
  5
684
100
AcDbEntity
  8
AUSFORMSCHRAEGEN
100
AcDbEllipse
 62
7
  6
CONTINUOUS
 10
153.3236388981
 20
97.3394289962
 30
0.0
 11
2.9999796136
 21
0.1587276639
 31
0.0
 40
0.0696774463
 41
-1.7302974116
 42
-0.649458411
  0
ELLIPSE
  5
685
100
AcDbEntity
  8
KONSTRUKTIONSELEMENTE
100
AcDbEllipse
 62
7
  6
CONTINUOUS
 10
106.3101357924
 20
65.9363567547
 30
0.0
 11
38.0324128687
 21
37.0429149041
 31
0.0
 40
0.3345024868
 41
-1.159104123
 42
-1.1420571202
  0
ELLIPSE
  5
686
100
AcDbEntity
  8
KONSTRUKTIONSELEMENTE
100
AcDbEllipse
 62
7
  6
CONTINUOUS
 10
106.3101357924
 20
67.5184343109
 30
0.0
 11
39.7736788725
 21
16.8034238635
 31
0.0
 40
0.2528684094
 41
-0.9675997832
 42
-0.9505763046
  0
ELLIPSE
  5
687
100
AcDbEntity
  8
KONSTRUKTIONSELEMENTE
100
AcDbEllipse
 62
7
  6
CONTINUOUS
 10
106.3101357924
 20
68.2681890358
 30
0.0
 11
39.9933524476
 21
6.3408539029
 31
0.0
 40
0.1150032433
 41
-0.9006579982
 42
-0.8794040872
  0
ELLIPSE
  5
688
100
AcDbEntity
  8
0
100
AcDbEllipse
 62
7
  6
CONTINUOUS
 10
106.3101357924
 20
64.6762374713
 30
0.0
 11
39.9997281817
 21
-2.1163688521
 31
0.0
 40
0.0696774463
 41
-0.9213379158
 42
-0.364459453
  0
ELLIPSE
  5
689
100
AcDbEntity
  8
0
100
AcDbEllipse
 62
7
  6
CONTINUOUS
 10
155.961780165
 20
60.476781622
 30
0.0
 11
19.9998640909
 21
-1.0581844261
 31
0.0
 40
0.0696774463
 41
1.7302974116
 42
1.7330613979
  0
ELLIPSE
  5
68A
100
AcDbEntity
  8
KONSTRUKTIONSELEMENTE
100
AcDbEllipse
 62
7
  6
CONTINUOUS
 10
106.3101357924
 20
89.0667705947
 30
0.0
 11
-33.1929593759
 21
117.3302107945
 31
0.0
 40
0.1902409359
 41
-1.6544195043
 42
-1.650173188
  0
ELLIPSE
  5
68B
100
AcDbEntity
  8
KONSTRUKTIONSELEMENTE
100
AcDbEllipse
 62
7
  6
CONTINUOUS
 10
106.3101357924
 20
86.7284377184
 30
0.0
 11
-38.0324061948
 21
37.0429747466
 31
0.0
 40
0.3345024994
 41
-1.9399624397
 42
-1.9314681146
  0
ELLIPSE
  5
68C
100
AcDbEntity
  8
KONSTRUKTIONSELEMENTE
100
AcDbEllipse
 62
7
  6
CONTINUOUS
 10
106.3101357924
 20
85.7273253805
 30
0.0
 11
39.9508511176
 21
-10.8031836552
 31
0.0
 40
0.1834917784
 41
0.9266923192
 42
0.9362523737
  0
ELLIPSE
  5
68D
100
AcDbEntity
  8
KONSTRUKTIONSELEMENTE
100
AcDbEllipse
 62
7
  6
CONTINUOUS
 10
106.3101357924
 20
64.5846802451
 30
0.0
 11
32.4160854324
 21
195.7949549939
 31
0.0
 40
0.1196913433
 41
-1.4445263717
 42
-1.4402565378
  0
ELLIPSE
  5
68E
100
AcDbEntity
  8
KONSTRUKTIONSELEMENTE
100
AcDbEllipse
 62
7
  6
CONTINUOUS
 10
106.3101357924
 20
79.8441318732
 30
0.0
 11
36.5268432344
 21
50.8945441392
 31
0.0
 40
0.3203301844
 41
-1.2511648705
 42
-1.2383667321
  0
ELLIPSE
  5
68F
100
AcDbEntity
  8
KONSTRUKTIONSELEMENTE
100
AcDbEllipse
 62
7
  6
CONTINUOUS
 10
106.3101357924
 20
81.9808323986
 30
0.0
 11
39.1046726658
 21
26.654213746
 31
0.0
 40
0.3157374627
 41
-1.0603843015
 42
-1.0433436529
  0
ELLIPSE
  5
690
100
AcDbEntity
  8
KONSTRUKTIONSELEMENTE
100
AcDbEllipse
 62
7
  6
CONTINUOUS
 10
106.3101357924
 20
83.229965511
 30
0.0
 11
39.9508511176
 21
10.8031836552
 31
0.0
 40
0.1834917784
 41
-0.9107503001
 42
-0.8979846997
  0
ELLIPSE
  5
691
100
AcDbEntity
  8
AUSFORMSCHRAEGEN
100
AcDbEllipse
 62
7
  6
CONTINUOUS
 10
154.5613296318
 20
98.5642702855
 30
0.0
 11
4.9999660227
 21
0.2645461065
 31
0.0
 40
0.0696774463
 41
4.3053175496
 42
8.2783728186
  0
ELLIPSE
  5
692
100
AcDbEntity
  8
AUSFORMSCHRAEGEN
100
AcDbEllipse
 62
7
  6
CONTINUOUS
 10
154.5613296318
 20
98.5642702855
 30
0.0
 11
11.9999184545
 21
0.6349106556
 31
0.0
 40
0.0696774463
 41
-0.649458411
 42
-0.4948780795
  0
ELLIPSE
  5
693
100
AcDbEntity
  8
0
100
AcDbEllipse
 62
7
  6
CONTINUOUS
 10
154.5613296318
 20
60.5642702855
 30
0.0
 11
4.9999660227
 21
-0.2645461065
 31
0.0
 40
0.0696774463
 41
4.2879977957
 42
8.2610530648
  0
ELLIPSE
  5
694
100
AcDbEntity
  8
0
100
AcDbEllipse
 62
7
  6
CONTINUOUS
 10
154.5613296318
 20
60.5642702855
 30
0.0
 11
11.9999184545
 21
-0.6349106556
 31
0.0
 40
0.0696774463
 41
0.4948780795
 42
0.649458411
  0
ELLIPSE
  5
695
100
AcDbEntity
  8
AUSFORMSCHRAEGEN
100
AcDbEllipse
 62
7
  6
CONTINUOUS
 10
155.961780165
 20
98.6517589491
 30
0.0
 11
19.9998640909
 21
1.0581844261
 31
0.0
 40
0.0696774463
 41
-1.7330613979
 42
-1.7302974116
  0
ELLIPSE
  5
696
100
AcDbEntity
  8
AUSFORMSCHRAEGEN
100
AcDbEllipse
 62
7
  6
CONTINUOUS
 10
106.3101357924
 20
94.4523030998
 30
0.0
 11
39.9997281817
 21
2.1163688521
 31
0.0
 40
0.0696774463
 41
0.364459453
 42
0.9213379158
  0
ELLIPSE
  5
697
100
AcDbEntity
  8
0
100
AcDbEllipse
 62
7
  6
CONTINUOUS
 10
153.3236388981
 20
61.7891115749
 30
0.0
 11
2.9999796136
 21
-0.1587276639
 31
0.0
 40
0.0696774463
 41
0.649458411
 42
1.7302974116
  0
ELLIPSE
  5
698
100
AcDbEntity
  8
KONSTRUKTIONSELEMENTE
100
AcDbEllipse
 62
7
  6
CONTINUOUS
 10
106.3101357924
 20
49.6221678629
 30
0.0
 11
32.4160849076
 21
195.7950671155
 31
0.0
 40
0.1196912785
 41
-1.4445263941
 42
-1.4402565602
  0
ELLIPSE
  5
699
100
AcDbEntity
  8
KONSTRUKTIONSELEMENTE
100
AcDbEllipse
 62
7
  6
CONTINUOUS
 10
106.3101357924
 20
62.1071932239
 30
0.0
 11
34.4937893204
 21
77.8171355798
 31
0.0
 40
0.2602622649
 41
-1.3580159681
 42
-1.3494820621
  0
ELLIPSE
  5
69A
100
AcDbEntity
  8
KONSTRUKTIONSELEMENTE
100
AcDbEllipse
 62
7
  6
CONTINUOUS
 10
57.798071954
 20
113.6094622292
 30
0.0
 11
9.0682821142
 21
21.8562898411
 31
0.0
 40
0.824244533
 41
-2.6553252273
 42
-2.4349031652
  0
ELLIPSE
  5
69B
100
AcDbEntity
  8
KONSTRUKTIONSELEMENTE
100
AcDbEllipse
 62
7
  6
CONTINUOUS
 10
73.8529595712
 20
73.4202702855
 30
0.0
 11
6.8566675374
 21
22.3547647027
 31
0.0
 40
0.8134102776
 41
0.244498336
 42
0.6076147931
  0
ELLIPSE
  5
69C
100
AcDbEntity
  8
0
100
AcDbEllipse
 62
7
  6
CONTINUOUS
 10
57.798071954
 20
45.5190783418
 30
0.0
 11
-9.0682821142
 21
21.8562898411
 31
0.0
 40
0.824244533
 41
-0.7066894884
 42
-0.4862674263
  0
ELLIPSE
  5
69D
100
AcDbEntity
  8
0
100
AcDbEllipse
 62
7
  6
CONTINUOUS
 10
73.8529595712
 20
85.7082702855
 30
0.0
 11
-6.8566675374
 21
22.3547647027
 31
0.0
 40
0.8134102776
 41
-3.7492074467
 42
-3.3860909896
  0
ELLIPSE
  5
69E
100
AcDbEntity
  8
KONSTRUKTIONSELEMENTE
100
AcDbEllipse
 62
7
  6
CONTINUOUS
 10
77.0578991158
 20
84.1722702855
 30
0.0
 11
3.6568893533
 21
11.9225411748
 31
0.0
 40
0.8134102776
 41
-0.2180139158
 42
0.244498336
  0
ELLIPSE
  5
69F
100
AcDbEntity
  8
KONSTRUKTIONSELEMENTE
100
AcDbEllipse
 62
7
  6
CONTINUOUS
 10
87.722780871
 20
92.9862969376
 30
0.0
 11
46.9945520309
 21
-0.0
 31
0.0
 40
0.0736874302
 41
-2.6852390266
 42
-2.3614905865
  0
ELLIPSE
  5
6A0
100
AcDbEntity
  8
KONSTRUKTIONSELEMENTE
100
AcDbEllipse
 62
7
  6
CONTINUOUS
 10
95.1912225773
 20
95.2180183907
 30
0.0
 11
13.8786934486
 21
-4.1922547224
 31
0.0
 40
0.4016980177
 41
-1.9885744285
 42
-0.8166541888
  0
ELLIPSE
  5
6A1
100
AcDbEntity
  8
KONSTRUKTIONSELEMENTE
100
AcDbEllipse
 62
7
  6
CONTINUOUS
 10
89.9155174744
 20
84.1722702855
 30
0.0
 11
0.0
 21
12.288
 31
0.0
 40
0.6084619688
 41
0.0
 42
0.0751738767
  0
ELLIPSE
  5
6A2
100
AcDbEntity
  8
0
100
AcDbEllipse
 62
7
  6
CONTINUOUS
 10
77.0578991158
 20
74.9562702855
 30
0.0
 11
-3.6568893533
 21
11.9225411748
 31
0.0
 40
0.8134102776
 41
-3.3860909896
 42
-2.9235787378
  0
ELLIPSE
  5
6A3
100
AcDbEntity
  8
KONSTRUKTIONSELEMENTE
100
AcDbEllipse
 62
7
  6
CONTINUOUS
 10
88.7797231676
 20
84.1722702855
 30
0.0
 11
-0.0
 21
12.288
 31
0.0
 40
0.6222619915
 41
-0.0751738767
 42
0.0
  0
ELLIPSE
  5
6A4
100
AcDbEntity
  8
0
100
AcDbEllipse
 62
7
  6
CONTINUOUS
 10
95.1912225773
 20
63.9105221804
 30
0.0
 11
13.8786934486
 21
4.1922547224
 31
0.0
 40
0.4016980177
 41
0.8166541888
 42
1.9885744285
  0
ELLIPSE
  5
6A5
100
AcDbEntity
  8
0
100
AcDbEllipse
 62
7
  6
CONTINUOUS
 10
87.722780871
 20
66.1422436335
 30
0.0
 11
46.9945520309
 21
0.0
 31
0.0
 40
0.0736874302
 41
2.3614905865
 42
2.6852390266
  0
ELLIPSE
  5
6A6
100
AcDbEntity
  8
KONSTRUKTIONSELEMENTE
100
AcDbEllipse
 62
7
  6
CONTINUOUS
 10
151.9852291962
 20
64.9168334312
 30
0.0
 11
64.6138512543
 21
-19.5881875183
 31
0.0
 40
0.4019394451
 41
2.6808240414
 42
2.6929380131
  0
ELLIPSE
  5
6A7
100
AcDbEntity
  8
KONSTRUKTIONSELEMENTE
100
AcDbEllipse
 62
7
  6
CONTINUOUS
 10
100.1826824354
 20
92.2477709423
 30
0.0
 11
3.5387716544
 21
-1.0728059295
 31
0.0
 40
0.4019394451
 41
2.6929380131
 42
4.3282391686
  0
ELLIPSE
  5
6A8
100
AcDbEntity
  8
0
100
AcDbEllipse
 62
7
  6
CONTINUOUS
 10
151.9852291962
 20
94.2117071399
 30
0.0
 11
64.6138512543
 21
19.5881875183
 31
0.0
 40
0.4019394451
 41
-2.6929380131
 42
-2.6808240414
  0
ELLIPSE
  5
6A9
100
AcDbEntity
  8
0
100
AcDbEllipse
 62
7
  6
CONTINUOUS
 10
100.1826824354
 20
66.8807696288
 30
0.0
 11
3.5387716544
 21
1.0728059295
 31
0.0
 40
0.4019394451
 41
8.2381314458
 42
9.8734326012
  0
ENDSEC
  0
SECTION
  2
OBJECTS
  0
DICTIONARY
  5
C
100
AcDbDictionary
280
0
281
1
  3
ACAD_GROUP
350
D
  3
ACAD_MLINESTYLE
350
17
  3
ACAD_LAYOUT
350
1A
  3
ACAD_PLOTSETTINGS
350
19
  3
ACAD_PLOTSTYLENAME
350
E
  0
DICTIONARY
  5
D
102
{ACAD_REACTORS
330
C
102
}
100
AcDbDictionary
280
0
281
1
  0
ACDBDICTIONARYWDFLT
  5
E
102
{ACAD_REACTORS
330
C
102
}
100
AcDbDictionary
281
1
  3
Normal
350
F
100
AcDbDictionaryWithDefault
340
F
  0
DICTIONARY
  5
17
102
{ACAD_REACTORS
330
C
102
}
100
AcDbDictionary
280
0
281
1
  3
Standard
350
18
  0
DICTIONARY
  5
19
102
{ACAD_REACTORS
330
C
102
}
100
AcDbDictionary
281
1
  0
DICTIONARY
  5
1A
102
{ACAD_REACTORS
330
C
102
}
100
AcDbDictionary
281
1
  3
Model
350
6AA
  3
Layout1
350
6AB
  0
ACDBPLACEHOLDER
  5
F
102
{ACAD_REACTORS
330
E
102
}
  0
MLINESTYLE
  5
18
102
{ACAD_REACTORS
330
17
102
}
100
AcDbMlineStyle
  2
STANDARD
 70
0
  3

 62
256
 51
90.0
 52
90.0
 71
2
 49
0.5
 62
256
  6
BYLAYER
 49
-0.5
 62
256
  6
BYLAYER
  0
LAYOUT
  5
6AA
102
{ACAD_REACTORS
330
1A
102
}
100
AcDbPlotSettings
  1

  2
none_device
  4
ISO_A3_(420.00_x_297.00_MM)
  6

 40
0.0
 41
0.0
 42
0.0
 43
0.0
 44
420.0
 45
297.0
 46
0.0
 47
0.0
 48
0.0
 49
0.0
140
0.0
141
0.0
142
1.0
143
1.0
 70
1024
 72
1
 73
0
 74
0
  7

 75
0
147
1.0
148
0.0
149
0.0
100
AcDbLayout
  1
Model
 70
0
 71
0
 10
0.0
 20
0.0
 11
420.0
 21
297.0
 12
0.0
 22
0.0
 32
0.0
 14
0.0
 24
0.0
 34
0.0
 15
0.0
 25
0.0
 35
0.0
146
0.0
 13
0.0
 23
0.0
 33
0.0
 16
1.0
 26
0.0
 36
0.0
 17
0.0
 27
1.0
 37
0.0
 76
0
330
20B
345
0
346
0
  0
LAYOUT
  5
6AB
102
{ACAD_REACTORS
330
1A
102
}
100
AcDbPlotSettings
  1

  2
none_device
  4
ISO_A3_(420.00_x_297.00_MM)
  6

 40
0.0
 41
0.0
 42
0.0
 43
0.0
 44
420.0
 45
297.0
 46
0.0
 47
0.0
 48
0.0
 49
0.0
140
0.0
141
0.0
142
1.0
143
1.0
 70
0
 72
1
 73
0
 74
0
  7

 75
0
147
1.0
148
0.0
149
0.0
100
AcDbLayout
  1
Layout1
 70
0
 71
1
 10
0.0
 20
0.0
 11
420.0
 21
297.0
 12
0.0
 22
0.0
 32
0.0
 14
0.0
 24
0.0
 34
0.0
 15
0.0
 25
0.0
 35
0.0
146
0.0
 13
0.0
 23
0.0
 33
0.0
 16
1.0
 26
0.0
 36
0.0
 17
0.0
 27
1.0
 37
0.0
 76
0
330
20C
345
0
346
0
  0
ENDSEC
  0
EOF
