999
DXF file: vabh-w-4-0.dxf
999
Pro/ENGINEER 2010140 by Parametric Technology Corporation
  0
SECTION
  2
HEADER
  9
$ACADVER
  1
AC1015
  9
$DWGCODEPAGE
  3
ANSI_1252
  9
$EXTMAX
 10
420.0
 20
297.0
 30
0.0
  9
$EXTMIN
 10
0.0
 20
0.0
 30
0.0
  9
$LIMMIN
 10
0.0
 20
0.0
  9
$LIMMAX
 10
420.0
 20
297.0
  9
$VIEWCTR
 10
210.0
 20
148.5
  9
$VIEWSIZE
 40
297.0
  9
$CLAYER
  8
0
  9
$LTSCALE
 40
23.1
  9
$CELTYPE
  6
BYLAYER
  9
$DIMSCALE
 40
1.0
  9
$DIMASZ
 40
3.5
  9
$DIMEXO
 40
2.625
  9
$DIMDLI
 40
15.96
  9
$DIMEXE
 40
7.56
  9
$DIMCEN
 40
3.78
  9
$DIMLFAC
 40
1.0
  9
$DIMBLK
  1
_FILLED
  9
$DIMTXT
 40
3.5
  9
$DIMTOL
 70
1
  9
$DIMLIM
 70
0
  9
$DIMTFAC
 40
1.0
  9
$DIMTP
 40
0.005
  9
$DIMTM
 40
0.005
  9
$PDMODE
 70
3
  9
$PDSIZE
 40
0.3125
  9
$HANDSEED
  5
68C
  9
$TILEMODE
 70
1
  9
$MEASUREMENT
 70
1
  9
$INSUNITS
 70
4
  0
ENDSEC
  0
SECTION
  2
CLASSES
  0
CLASS
  1
ACDBDICTIONARYWDFLT
  2
AcDbDictionaryWithDefault
  3
AutoCAD 2000
 90
0
280
0
281
0
  0
CLASS
  1
ACDBPLACEHOLDER
  2
AcDbPlaceHolder
  3
AutoCAD 2000
 90
0
280
0
281
0
  0
CLASS
  1
LAYOUT
  2
AcDbLayout
  3
AutoCAD 2000
 90
0
280
0
281
0
  0
ENDSEC
  0
SECTION
  2
TABLES
  0
TABLE
  2
VPORT
  5
8
100
AcDbSymbolTable
 70
2
  0
VPORT
  5
1F4
100
AcDbSymbolTableRecord
100
AcDbViewportTableRecord
  2
*ACTIVE
 70
0
 10
0.0
 20
0.0
 11
1.0
 21
1.0
 12
210.0
 22
148.5
 13
0.0
 23
0.0
 14
1.0
 24
1.0
 15
0.0
 25
0.0
 16
0.0
 26
0.0
 36
1.0
 17
0.0
 27
0.0
 37
0.0
 40
297.0
 41
1.4141414141
 42
50.0
 43
0.0
 44
0.0
 50
0.0
 51
0.0
 71
0
 72
100
 73
1
 74
1
 75
0
 76
0
 77
0
 78
0
  0
ENDTAB
  0
TABLE
  2
LTYPE
  5
5
100
AcDbSymbolTable
 70
6
  0
LTYPE
  5
14
100
AcDbSymbolTableRecord
100
AcDbLinetypeTableRecord
  2
BYBLOCK
 70
0
  3

 72
65
 73
0
 40
0.0
  0
LTYPE
  5
15
100
AcDbSymbolTableRecord
100
AcDbLinetypeTableRecord
  2
BYLAYER
 70
0
  3

 72
65
 73
0
 40
0.0
  0
LTYPE
  5
16
100
AcDbSymbolTableRecord
100
AcDbLinetypeTableRecord
  2
CONTINUOUS
 70
64
  3
Solid line
 72
65
 73
0
 40
0.0
  0
LTYPE
  5
1F5
100
AcDbSymbolTableRecord
100
AcDbLinetypeTableRecord
  2
CENTER
 70
64
  3
____ _ ____ _ ____ _ ____ _ ____ _ ____ _ ____
 72
65
 73
4
 40
0.6
 49
0.375
 74
0
 49
-0.075
 74
0
 49
0.075
 74
0
 49
-0.075
 74
0
  0
LTYPE
  5
1F6
100
AcDbSymbolTableRecord
100
AcDbLinetypeTableRecord
  2
HIDDEN
 70
64
  3
- - - - - - - - - - - - - - - - - - - -
 72
65
 73
2
 40
0.2
 49
0.1
 74
0
 49
-0.1
 74
0
  0
LTYPE
  5
1F7
100
AcDbSymbolTableRecord
100
AcDbLinetypeTableRecord
  2
PHANTOM
 70
64
  3
_____ _ _ _____ _ _ _____ _ _ _____
 72
65
 73
6
 40
0.8
 49
0.45
 74
0
 49
-0.05
 74
0
 49
0.1
 74
0
 49
-0.05
 74
0
 49
0.1
 74
0
 49
-0.05
 74
0
  0
LTYPE
  5
1F8
100
AcDbSymbolTableRecord
100
AcDbLinetypeTableRecord
  2
DOT
 70
64
  3
. . . . . . . . . . . . . . . . . . . .
 72
65
 73
2
 40
0.2
 49
0.1
 74
0
 49
-0.1
 74
0
  0
LTYPE
  5
1F9
100
AcDbSymbolTableRecord
100
AcDbLinetypeTableRecord
  2
DASHED
 70
64
  3
- - - - - - - - - - - - - - - - - - - -
 72
65
 73
2
 40
0.2
 49
0.1
 74
0
 49
-0.1
 74
0
  0
ENDTAB
  0
TABLE
  2
LAYER
  5
2
100
AcDbSymbolTable
 70
36
  0
LAYER
  5
10
100
AcDbSymbolTableRecord
100
AcDbLayerTableRecord
  2
0
 70
0
 62
7
  6
CONTINUOUS
370
-3
390
F
  0
LAYER
  5
1FA
100
AcDbSymbolTableRecord
100
AcDbLayerTableRecord
  2
DEFAULT_1
 70
0
 62
7
  6
CENTER
370
-3
390
F
  0
LAYER
  5
1FB
100
AcDbSymbolTableRecord
100
AcDbLayerTableRecord
  2
DEFAULT_2
 70
0
 62
8
  6
HIDDEN
370
-3
390
F
  0
LAYER
  5
1FC
100
AcDbSymbolTableRecord
100
AcDbLayerTableRecord
  2
DEFAULT_3
 70
0
 62
7
  6
PHANTOM
370
-3
390
F
  0
LAYER
  5
1FD
100
AcDbSymbolTableRecord
100
AcDbLayerTableRecord
  2
AUSFORMSCHRAEGEN
 70
0
 62
7
  6
CONTINUOUS
370
-3
390
F
  0
LAYER
  5
1FE
100
AcDbSymbolTableRecord
100
AcDbLayerTableRecord
  2
BEZUGSACHSEN
 70
0
 62
7
  6
CONTINUOUS
370
-3
390
F
  0
LAYER
  5
1FF
100
AcDbSymbolTableRecord
100
AcDbLayerTableRecord
  2
BEZUGSEBENEN
 70
0
 62
7
  6
CONTINUOUS
370
-3
390
F
  0
LAYER
  5
200
100
AcDbSymbolTableRecord
100
AcDbLayerTableRecord
  2
BG_STARTBEZUEGE
 70
0
 62
7
  6
CONTINUOUS
370
-3
390
F
  0
LAYER
  5
201
100
AcDbSymbolTableRecord
100
AcDbLayerTableRecord
  2
BOHRUNGEN
 70
0
 62
7
  6
CONTINUOUS
370
-3
390
F
  0
LAYER
  5
202
100
AcDbSymbolTableRecord
100
AcDbLayerTableRecord
  2
FASEN
 70
0
 62
7
  6
CONTINUOUS
370
-3
390
F
  0
LAYER
  5
203
100
AcDbSymbolTableRecord
100
AcDbLayerTableRecord
  2
HILFEN
 70
0
 62
7
  6
CONTINUOUS
370
-3
390
F
  0
LAYER
  5
204
100
AcDbSymbolTableRecord
100
AcDbLayerTableRecord
  2
KONSTRUKTIONSELEMENTE
 70
0
 62
7
  6
CONTINUOUS
370
-3
390
F
  0
LAYER
  5
205
100
AcDbSymbolTableRecord
100
AcDbLayerTableRecord
  2
PLATZIERUNG
 70
0
 62
7
  6
CONTINUOUS
370
-3
390
F
  0
LAYER
  5
206
100
AcDbSymbolTableRecord
100
AcDbLayerTableRecord
  2
PLAZIERUNG
 70
0
 62
7
  6
CONTINUOUS
370
-3
390
F
  0
LAYER
  5
207
100
AcDbSymbolTableRecord
100
AcDbLayerTableRecord
  2
RUNDUNGEN
 70
0
 62
7
  6
CONTINUOUS
370
-3
390
F
  0
LAYER
  5
208
100
AcDbSymbolTableRecord
100
AcDbLayerTableRecord
  2
TEIL_STARTBEZUEGE
 70
0
 62
7
  6
CONTINUOUS
370
-3
390
F
  0
ENDTAB
  0
TABLE
  2
STYLE
  5
3
100
AcDbSymbolTable
 70
1
  0
STYLE
  5
11
100
AcDbSymbolTableRecord
100
AcDbTextStyleTableRecord
  2
STANDARD
 70
0
 40
0.0
 41
0.7
 50
0.0
 71
0
 42
0.2
  3
txt
  4

  0
STYLE
  5
209
100
AcDbSymbolTableRecord
100
AcDbTextStyleTableRecord
  2
TEXTSTYLE_1
 70
0
 40
0.0
 41
0.8
 50
0.0
 71
0
 42
0.2
  3
gdt
  4

  0
ENDTAB
  0
TABLE
  2
VIEW
  5
6
100
AcDbSymbolTable
 70
0
  0
ENDTAB
  0
TABLE
  2
UCS
  5
7
100
AcDbSymbolTable
 70
0
  0
ENDTAB
  0
TABLE
  2
APPID
  5
9
100
AcDbSymbolTable
 70
1
  0
APPID
  5
20A
100
AcDbSymbolTableRecord
100
AcDbRegAppTableRecord
  2
ACAD
 70
0
  0
ENDTAB
  0
TABLE
  2
BLOCK_RECORD
  5
1
100
AcDbSymbolTable
 70
0
  0
BLOCK_RECORD
  5
20B
100
AcDbSymbolTableRecord
100
AcDbBlockTableRecord
  2
*Model_Space
  0
BLOCK_RECORD
  5
20C
100
AcDbSymbolTableRecord
100
AcDbBlockTableRecord
  2
*Paper_Space
  0
ENDTAB
  0
TABLE
  2
DIMSTYLE
  5
A
100
AcDbSymbolTable
 70
1
100
AcDbDimStyleTable
 71
0
  0
DIMSTYLE
105
20D
100
AcDbSymbolTableRecord
100
AcDbDimStyleTableRecord
  2
STANDARD
 70
0
  3

  4

 40
1.0
 41
3.5
 42
0.0625
 43
0.38
 44
0.18
 45
0.0
 46
0.0
 47
0.005
 48
0.005
140
3.5
141
0.09
142
0.0
143
25.4
144
1.0
145
0.0
146
1.0
147
0.09
 71
1.0
 72
0.0
 73
0
 74
0
 75
0
 76
0
 77
1
 78
8
170
0
171
2
172
0
173
0
174
0
175
0
176
0
177
0
178
5
270
2
271
3
272
3
273
2
274
2
275
0
280
0
281
0
282
0
283
1
284
8
285
0
286
0
287
3
288
0
340
11
  0
ENDTAB
  0
ENDSEC
  0
SECTION
  2
BLOCKS
  0
BLOCK
  5
20
100
AcDbEntity
  8
0
100
AcDbBlockBegin
  2
*Model_Space
 70
0
 10
0.0
 20
0.0
 30
0.0
  3
*Model_Space
  1

  0
ENDBLK
  5
21
100
AcDbEntity
  8
0
100
AcDbBlockEnd
  0
BLOCK
  5
1C
100
AcDbEntity
  8
0
100
AcDbBlockBegin
  2
*Paper_Space
 70
0
 10
0.0
 20
0.0
 30
0.0
  3
*Paper_Space
  1

  0
ENDBLK
  5
1D
100
AcDbEntity
  8
0
100
AcDbBlockEnd
  0
ENDSEC
  0
SECTION
  2
ENTITIES
  0
LINE
  5
20E
100
AcDbEntity
  8
0
100
AcDbLine
 62
7
  6
CONTINUOUS
 10
0.0
 20
0.0
 11
0.0
 21
297.0
  0
LINE
  5
20F
100
AcDbEntity
  8
0
100
AcDbLine
 62
7
  6
CONTINUOUS
 10
0.0
 20
0.0
 11
420.0
 21
0.0
  0
LINE
  5
210
100
AcDbEntity
  8
0
100
AcDbLine
 62
7
  6
CONTINUOUS
 10
0.0
 20
297.0
 11
420.0
 21
297.0
  0
LINE
  5
211
100
AcDbEntity
  8
0
100
AcDbLine
 62
7
  6
CONTINUOUS
 10
420.0
 20
0.0
 11
420.0
 21
297.0
  0
LINE
  5
212
100
AcDbEntity
  8
0
100
AcDbLine
 62
7
  6
CONTINUOUS
 10
166.0231566775
 20
148.1050893561
 11
114.5819530232
 21
144.8608615337
  0
LINE
  5
213
100
AcDbEntity
  8
0
100
AcDbLine
 62
7
  6
CONTINUOUS
 10
118.0173826643
 20
145.8770046199
 11
114.5317320791
 21
145.6571760816
  0
LINE
  5
214
100
AcDbEntity
  8
0
100
AcDbLine
 62
7
  6
CONTINUOUS
 10
141.6333826643
 20
147.6188561462
 11
134.3937558891
 21
147.1622766547
  0
LINE
  5
215
100
AcDbEntity
  8
0
100
AcDbLine
 62
7
  6
CONTINUOUS
 10
114.030582756
 20
153.6035120988
 11
131.1108454565
 21
154.6807081893
  0
LINE
  5
216
100
AcDbEntity
  8
KONSTRUKTIONSELEMENTE
100
AcDbLine
 62
7
  6
CONTINUOUS
 10
101.641840121
 20
161.1653878308
 11
102.2143930787
 21
161.1230919978
  0
LINE
  5
217
100
AcDbEntity
  8
KONSTRUKTIONSELEMENTE
100
AcDbLine
 62
7
  6
CONTINUOUS
 10
104.5837666345
 20
160.4247688226
 11
105.2510297226
 21
160.3228621436
  0
LINE
  5
218
100
AcDbEntity
  8
KONSTRUKTIONSELEMENTE
100
AcDbLine
 62
7
  6
CONTINUOUS
 10
108.3649249824
 20
159.8472975123
 11
109.0321880705
 21
159.7453908334
  0
LINE
  5
219
100
AcDbEntity
  8
KONSTRUKTIONSELEMENTE
100
AcDbLine
 62
7
  6
CONTINUOUS
 10
99.04345532
 20
161.8991428486
 11
101.641840121
 21
161.1653878308
  0
LINE
  5
21A
100
AcDbEntity
  8
KONSTRUKTIONSELEMENTE
100
AcDbLine
 62
7
  6
CONTINUOUS
 10
103.1490700054
 20
163.6050452947
 11
103.3968248602
 21
163.6544688293
  0
LINE
  5
21B
100
AcDbEntity
  8
KONSTRUKTIONSELEMENTE
100
AcDbLine
 62
7
  6
CONTINUOUS
 10
102.2934704008
 20
161.8170820417
 11
101.9374486866
 21
161.7982318661
  0
LINE
  5
21C
100
AcDbEntity
  8
KONSTRUKTIONSELEMENTE
100
AcDbLine
 62
7
  6
CONTINUOUS
 10
102.9491663615
 20
164.1390428832
 11
102.5931446473
 21
164.1201927076
  0
LINE
  5
21D
100
AcDbEntity
  8
KONSTRUKTIONSELEMENTE
100
AcDbLine
 62
7
  6
CONTINUOUS
 10
105.632637715
 20
162.8215494727
 11
108.7465329747
 21
162.3459848414
  0
LINE
  5
21E
100
AcDbEntity
  8
KONSTRUKTIONSELEMENTE
100
AcDbLine
 62
7
  6
CONTINUOUS
 10
108.8506078685
 20
163.0274449353
 11
105.7367126087
 21
163.5030095666
  0
LINE
  5
21F
100
AcDbEntity
  8
KONSTRUKTIONSELEMENTE
100
AcDbLine
 62
7
  6
CONTINUOUS
 10
109.8474415021
 20
165.0834955385
 11
109.1801784139
 21
165.1854022174
  0
LINE
  5
220
100
AcDbEntity
  8
KONSTRUKTIONSELEMENTE
100
AcDbLine
 62
7
  6
CONTINUOUS
 10
106.0662831542
 20
165.6609668487
 11
105.399020066
 21
165.7628735277
  0
LINE
  5
221
100
AcDbEntity
  8
KONSTRUKTIONSELEMENTE
100
AcDbLine
 62
7
  6
CONTINUOUS
 10
101.9374486866
 20
161.7982318661
 11
99.8803932265
 21
162.3791214885
  0
LINE
  5
222
100
AcDbEntity
  8
KONSTRUKTIONSELEMENTE
100
AcDbLine
 62
7
  6
CONTINUOUS
 10
100.3487475029
 20
164.037665013
 11
102.405802963
 21
163.4567753907
  0
LINE
  5
223
100
AcDbEntity
  8
KONSTRUKTIONSELEMENTE
100
AcDbLine
 62
7
  6
CONTINUOUS
 10
102.5931446473
 20
164.1201927076
 11
100.5360891872
 21
164.7010823299
  0
LINE
  5
224
100
AcDbEntity
  8
KONSTRUKTIONSELEMENTE
100
AcDbLine
 62
7
  6
CONTINUOUS
 10
100.9732198715
 20
166.2490563791
 11
103.0302753316
 21
165.6681667568
  0
LINE
  5
225
100
AcDbEntity
  8
KONSTRUKTIONSELEMENTE
100
AcDbLine
 62
7
  6
CONTINUOUS
 10
103.1093501565
 20
166.3621574327
 11
100.5109653556
 21
167.0959124505
  0
LINE
  5
226
100
AcDbEntity
  8
KONSTRUKTIONSELEMENTE
100
AcDbLine
 62
7
  6
CONTINUOUS
 10
81.1989710226
 20
172.7587151568
 11
81.6801990431
 21
172.6046976895
  0
LINE
  5
227
100
AcDbEntity
  8
KONSTRUKTIONSELEMENTE
100
AcDbLine
 62
7
  6
CONTINUOUS
 10
93.4094286469
 20
164.1570846341
 11
94.0314354823
 21
163.8949158015
  0
LINE
  5
228
100
AcDbEntity
  8
KONSTRUKTIONSELEMENTE
100
AcDbLine
 62
7
  6
CONTINUOUS
 10
96.9341348381
 20
162.671460916
 11
97.5561416735
 21
162.4092920834
  0
LINE
  5
229
100
AcDbEntity
  8
KONSTRUKTIONSELEMENTE
100
AcDbLine
 62
7
  6
CONTINUOUS
 10
94.9816012812
 20
164.9906182899
 11
97.0549566081
 21
164.1167225146
  0
LINE
  5
22A
100
AcDbEntity
  8
KONSTRUKTIONSELEMENTE
100
AcDbLine
 62
7
  6
CONTINUOUS
 10
97.1297859186
 20
164.5839116185
 11
95.2637654125
 21
165.3704181163
  0
LINE
  5
22B
100
AcDbEntity
  8
KONSTRUKTIONSELEMENTE
100
AcDbLine
 62
7
  6
CONTINUOUS
 10
97.9948066491
 20
168.0844639864
 11
97.165464993
 21
168.4340220966
  0
LINE
  5
22C
100
AcDbEntity
  8
KONSTRUKTIONSELEMENTE
100
AcDbLine
 62
7
  6
CONTINUOUS
 10
77.0973485001
 20
177.1972954725
 11
77.5561845021
 21
176.9857017802
  0
LINE
  5
22D
100
AcDbEntity
  8
KONSTRUKTIONSELEMENTE
100
AcDbLine
 62
7
  6
CONTINUOUS
 10
89.6484321768
 20
166.2256986512
 11
90.4265217978
 21
165.7733989755
  0
LINE
  5
22E
100
AcDbEntity
  8
KONSTRUKTIONSELEMENTE
100
AcDbLine
 62
7
  6
CONTINUOUS
 10
81.6048710701
 20
173.3271526069
 11
81.204598099
 21
173.5626981491
  0
LINE
  5
22F
100
AcDbEntity
  8
KONSTRUKTIONSELEMENTE
100
AcDbLine
 62
7
  6
CONTINUOUS
 10
80.7188678735
 20
173.0735297711
 11
81.1989710226
 21
172.7587151568
  0
LINE
  5
230
100
AcDbEntity
  8
KONSTRUKTIONSELEMENTE
100
AcDbLine
 62
7
  6
CONTINUOUS
 10
77.5695850703
 20
177.7119490602
 11
77.2010483552
 21
177.9945820782
  0
LINE
  5
231
100
AcDbEntity
  8
KONSTRUKTIONSELEMENTE
100
AcDbLine
 62
7
  6
CONTINUOUS
 10
76.6592527127
 20
177.568346186
 11
77.0973485001
 21
177.1972954725
  0
LINE
  5
232
100
AcDbEntity
  8
KONSTRUKTIONSELEMENTE
100
AcDbLine
 62
7
  6
CONTINUOUS
 10
78.8029583884
 20
174.9759731593
 11
80.7188678735
 21
173.0735297711
  0
LINE
  5
233
100
AcDbEntity
  8
KONSTRUKTIONSELEMENTE
100
AcDbLine
 62
7
  6
CONTINUOUS
 10
81.204598099
 20
173.5626981491
 11
79.7676659852
 21
174.9895306902
  0
LINE
  5
234
100
AcDbEntity
  8
KONSTRUKTIONSELEMENTE
100
AcDbLine
 62
7
  6
CONTINUOUS
 10
81.6801990431
 20
172.6046976895
 11
82.323337127
 21
172.6137363363
  0
LINE
  5
235
100
AcDbEntity
  8
KONSTRUKTIONSELEMENTE
100
AcDbLine
 62
7
  6
CONTINUOUS
 10
77.5561845021
 20
176.9857017802
 11
78.1956190384
 21
176.9161867083
  0
LINE
  5
236
100
AcDbEntity
  8
KONSTRUKTIONSELEMENTE
100
AcDbLine
 62
7
  6
CONTINUOUS
 10
82.0062698688
 20
173.2524033474
 11
81.6048710701
 21
173.3271526069
  0
LINE
  5
237
100
AcDbEntity
  8
KONSTRUKTIONSELEMENTE
100
AcDbLine
 62
7
  6
CONTINUOUS
 10
77.9588616493
 20
177.5887736068
 11
77.5695850703
 21
177.7119490602
  0
LINE
  5
238
100
AcDbEntity
  8
KONSTRUKTIONSELEMENTE
100
AcDbLine
 62
7
  6
CONTINUOUS
 10
103.6194558833
 20
166.0987224845
 11
103.1093501565
 21
166.3621574327
  0
LINE
  5
239
100
AcDbEntity
  8
KONSTRUKTIONSELEMENTE
100
AcDbLine
 62
7
  6
CONTINUOUS
 10
94.6965039087
 20
169.5373405083
 11
94.1129361364
 21
169.8765655887
  0
LINE
  5
23A
100
AcDbEntity
  8
KONSTRUKTIONSELEMENTE
100
AcDbLine
 62
7
  6
CONTINUOUS
 10
91.3896191236
 20
171.4596163949
 11
90.8060513513
 21
171.7988414752
  0
LINE
  5
23B
100
AcDbEntity
  8
KONSTRUKTIONSELEMENTE
100
AcDbLine
 62
7
  6
CONTINUOUS
 10
76.1091149896
 20
182.8455348636
 11
76.5394053464
 21
182.5806721206
  0
LINE
  5
23C
100
AcDbEntity
  8
KONSTRUKTIONSELEMENTE
100
AcDbLine
 62
7
  6
CONTINUOUS
 10
102.405802963
 20
163.4567753907
 11
102.6993774491
 21
163.2544864607
  0
LINE
  5
23D
100
AcDbEntity
  8
KONSTRUKTIONSELEMENTE
100
AcDbLine
 62
7
  6
CONTINUOUS
 10
103.0302753316
 20
165.6681667568
 11
103.3238498176
 21
165.4658778268
  0
LINE
  5
23E
100
AcDbEntity
  8
KONSTRUKTIONSELEMENTE
100
AcDbLine
 62
7
  6
CONTINUOUS
 10
76.5412853055
 20
183.2403748546
 11
76.2676350443
 21
183.4688968986
  0
LINE
  5
23F
100
AcDbEntity
  8
KONSTRUKTIONSELEMENTE
100
AcDbLine
 62
7
  6
CONTINUOUS
 10
103.3343776321
 20
163.4333297237
 11
103.1490700054
 21
163.6050452947
  0
LINE
  5
240
100
AcDbEntity
  8
KONSTRUKTIONSELEMENTE
100
AcDbLine
 62
7
  6
CONTINUOUS
 10
82.6010923671
 20
177.8430129615
 11
84.0380244809
 21
176.4161804204
  0
LINE
  5
241
100
AcDbEntity
  8
KONSTRUKTIONSELEMENTE
100
AcDbLine
 62
7
  6
CONTINUOUS
 10
84.5237546498
 20
176.9053487412
 11
82.6078451647
 21
178.8077921294
  0
LINE
  5
242
100
AcDbEntity
  8
KONSTRUKTIONSELEMENTE
100
AcDbLine
 62
7
  6
CONTINUOUS
 10
76.3810152608
 20
177.9220185111
 11
76.6592527127
 21
177.568346186
  0
LINE
  5
243
100
AcDbEntity
  8
KONSTRUKTIONSELEMENTE
100
AcDbLine
 62
7
  6
CONTINUOUS
 10
77.2010483552
 20
177.9945820782
 11
76.9228109033
 21
178.3482544032
  0
LINE
  5
244
100
AcDbEntity
  8
KONSTRUKTIONSELEMENTE
100
AcDbLine
 62
7
  6
CONTINUOUS
 10
82.0162679989
 20
179.4925052221
 11
81.5989120201
 21
180.0230134567
  0
LINE
  5
245
100
AcDbEntity
  8
KONSTRUKTIONSELEMENTE
100
AcDbLine
 62
7
  6
CONTINUOUS
 10
79.929488105
 20
182.1450463951
 11
79.5121319272
 21
182.6755548826
  0
LINE
  5
246
100
AcDbEntity
  8
KONSTRUKTIONSELEMENTE
100
AcDbLine
 62
7
  6
CONTINUOUS
 10
72.1553608477
 20
184.2579167317
 11
72.5063911771
 21
183.6813729711
  0
LINE
  5
247
100
AcDbEntity
  8
KONSTRUKTIONSELEMENTE
100
AcDbLine
 62
7
  6
CONTINUOUS
 10
73.9690174938
 20
181.2791073938
 11
74.3785529898
 21
180.6064728232
  0
LINE
  5
248
100
AcDbEntity
  8
KONSTRUKTIONSELEMENTE
100
AcDbLine
 62
7
  6
CONTINUOUS
 10
74.5672284781
 20
184.9361196983
 11
75.5618143835
 21
183.3025790893
  0
LINE
  5
249
100
AcDbEntity
  8
KONSTRUKTIONSELEMENTE
100
AcDbLine
 62
7
  6
CONTINUOUS
 10
76.2676350443
 20
183.4688968986
 11
75.156039057
 21
185.2946187154
  0
LINE
  5
24A
100
AcDbEntity
  8
KONSTRUKTIONSELEMENTE
100
AcDbLine
 62
7
  6
CONTINUOUS
 10
76.1235180156
 20
178.4351478512
 11
76.3810152608
 21
177.9220185111
  0
LINE
  5
24B
100
AcDbEntity
  8
KONSTRUKTIONSELEMENTE
100
AcDbLine
 62
7
  6
CONTINUOUS
 10
82.4087943815
 20
173.3384502565
 11
82.0062698688
 21
173.2524033474
  0
LINE
  5
24C
100
AcDbEntity
  8
KONSTRUKTIONSELEMENTE
100
AcDbLine
 62
7
  6
CONTINUOUS
 10
78.3688779659
 20
177.6250556185
 11
77.9588616493
 21
177.5887736068
  0
LINE
  5
24D
100
AcDbEntity
  8
0
100
AcDbLine
 62
7
  6
CONTINUOUS
 10
116.4093826643
 20
176.651416118
 11
111.6093826643
 21
176.651416118
  0
LINE
  5
24E
100
AcDbEntity
  8
KONSTRUKTIONSELEMENTE
100
AcDbLine
 62
7
  6
CONTINUOUS
 10
76.5394053464
 20
182.5806721206
 11
77.107460897
 21
182.531399585
  0
LINE
  5
24F
100
AcDbEntity
  8
KONSTRUKTIONSELEMENTE
100
AcDbLine
 62
7
  6
CONTINUOUS
 10
76.8545656641
 20
183.1676931818
 11
76.5412853055
 21
183.2403748546
  0
LINE
  5
250
100
AcDbEntity
  8
KONSTRUKTIONSELEMENTE
100
AcDbLine
 62
7
  6
CONTINUOUS
 10
84.8419477355
 20
176.4274780128
 11
84.5237546498
 21
176.9053487412
  0
LINE
  5
251
100
AcDbEntity
  8
KONSTRUKTIONSELEMENTE
100
AcDbLine
 62
7
  6
CONTINUOUS
 10
76.6280657791
 20
186.1908664255
 11
77.7396617664
 21
184.3651446088
  0
LINE
  5
252
100
AcDbEntity
  8
KONSTRUKTIONSELEMENTE
100
AcDbLine
 62
7
  6
CONTINUOUS
 10
78.1718322497
 20
184.7599843248
 11
76.7677109321
 21
187.066159367
  0
LINE
  5
253
100
AcDbEntity
  8
KONSTRUKTIONSELEMENTE
100
AcDbLine
 62
7
  6
CONTINUOUS
 10
84.0380244809
 20
176.4161804204
 11
84.2763873957
 21
176.0175787713
  0
LINE
  5
254
100
AcDbEntity
  8
KONSTRUKTIONSELEMENTE
100
AcDbLine
 62
7
  6
CONTINUOUS
 10
76.9228109033
 20
178.3482544032
 11
76.7348731127
 21
178.7729655294
  0
LINE
  5
255
100
AcDbEntity
  8
KONSTRUKTIONSELEMENTE
100
AcDbLine
 62
7
  6
CONTINUOUS
 10
78.3662224836
 20
184.2197812632
 11
78.1718322497
 21
184.7599843248
  0
LINE
  5
256
100
AcDbEntity
  8
KONSTRUKTIONSELEMENTE
100
AcDbLine
 62
7
  6
CONTINUOUS
 10
68.6340554993
 20
192.5240487629
 11
68.8710064712
 21
191.8124630429
  0
LINE
  5
257
100
AcDbEntity
  8
KONSTRUKTIONSELEMENTE
100
AcDbLine
 62
7
  6
CONTINUOUS
 10
73.0892671297
 20
196.1155583069
 11
73.7211364634
 21
194.2179961607
  0
LINE
  5
258
100
AcDbEntity
  8
KONSTRUKTIONSELEMENTE
100
AcDbLine
 62
7
  6
CONTINUOUS
 10
73.9580874354
 20
193.5064104407
 11
74.5899565432
 21
191.6088489731
  0
LINE
  5
259
100
AcDbEntity
  8
KONSTRUKTIONSELEMENTE
100
AcDbLine
 62
7
  6
CONTINUOUS
 10
67.1745666387
 20
198.1807441203
 11
67.3092477979
 21
197.4429358896
  0
LINE
  5
25A
100
AcDbEntity
  8
KONSTRUKTIONSELEMENTE
100
AcDbLine
 62
7
  6
CONTINUOUS
 10
68.3940232841
 20
201.4529193739
 11
68.9327479208
 21
198.5016864509
  0
LINE
  5
25B
100
AcDbEntity
  8
KONSTRUKTIONSELEMENTE
100
AcDbLine
 62
7
  6
CONTINUOUS
 10
69.06742908
 20
197.7638782202
 11
69.2918976572
 21
196.5341979529
  0
LINE
  5
25C
100
AcDbEntity
  8
KONSTRUKTIONSELEMENTE
100
AcDbLine
 62
7
  6
CONTINUOUS
 10
70.0454040215
 20
196.6717446843
 11
69.8209354443
 21
197.9014249516
  0
LINE
  5
25D
100
AcDbEntity
  8
KONSTRUKTIONSELEMENTE
100
AcDbLine
 62
7
  6
CONTINUOUS
 10
69.6862542851
 20
198.6392331824
 11
69.3046576621
 21
200.7296898655
  0
LINE
  5
25E
100
AcDbEntity
  8
KONSTRUKTIONSELEMENTE
100
AcDbLine
 62
7
  6
CONTINUOUS
 10
78.1956190384
 20
176.9161867083
 11
78.6959346814
 21
177.0235080768
  0
LINE
  5
25F
100
AcDbEntity
  8
KONSTRUKTIONSELEMENTE
100
AcDbLine
 62
7
  6
CONTINUOUS
 10
73.0770324847
 20
199.2581933937
 11
69.1475296484
 21
201.5904661054
  0
LINE
  5
260
100
AcDbEntity
  8
KONSTRUKTIONSELEMENTE
100
AcDbLine
 62
7
  6
CONTINUOUS
 10
69.3046576621
 20
200.7296898655
 11
72.0723575668
 21
199.0747977946
  0
LINE
  5
261
100
AcDbEntity
  8
0
100
AcDbLine
 62
7
  6
CONTINUOUS
 10
92.1902439153
 20
184.6950867575
 11
88.7961313656
 21
188.0891993072
  0
LINE
  5
262
100
AcDbEntity
  8
KONSTRUKTIONSELEMENTE
100
AcDbLine
 62
7
  6
CONTINUOUS
 10
103.9588500007
 20
165.6447210898
 11
103.6194558833
 21
166.0987224845
  0
LINE
  5
263
100
AcDbEntity
  8
KONSTRUKTIONSELEMENTE
100
AcDbLine
 62
7
  6
CONTINUOUS
 10
102.6993774491
 20
163.2544864607
 11
102.8534614617
 21
162.9722013368
  0
LINE
  5
264
100
AcDbEntity
  8
KONSTRUKTIONSELEMENTE
100
AcDbLine
 62
7
  6
CONTINUOUS
 10
75.195561339
 20
191.8105093507
 11
73.6948719256
 21
196.3172186845
  0
LINE
  5
265
100
AcDbEntity
  8
KONSTRUKTIONSELEMENTE
100
AcDbLine
 62
7
  6
CONTINUOUS
 10
84.9993556222
 20
175.9473483102
 11
84.8419477355
 21
176.4274780128
  0
LINE
  5
266
100
AcDbEntity
  8
KONSTRUKTIONSELEMENTE
100
AcDbLine
 62
7
  6
CONTINUOUS
 10
77.7396617664
 20
184.3651446088
 11
77.8170418347
 21
184.0171228923
  0
LINE
  5
267
100
AcDbEntity
  8
KONSTRUKTIONSELEMENTE
100
AcDbLine
 62
7
  6
CONTINUOUS
 10
76.0258791139
 20
178.9308988091
 11
76.1235180156
 21
178.4351478512
  0
LINE
  5
268
100
AcDbEntity
  8
KONSTRUKTIONSELEMENTE
100
AcDbLine
 62
7
  6
CONTINUOUS
 10
73.2117136439
 20
198.520385163
 11
73.0770324847
 21
199.2581933937
  0
LINE
  5
269
100
AcDbEntity
  8
KONSTRUKTIONSELEMENTE
100
AcDbLine
 62
7
  6
CONTINUOUS
 10
76.7348731127
 20
178.7729655294
 11
76.706793713
 21
179.1802983106
  0
LINE
  5
26A
100
AcDbEntity
  8
0
100
AcDbLine
 62
7
  6
CONTINUOUS
 10
88.7961313656
 20
188.0891993072
 11
93.4325753318
 21
189.3315307237
  0
LINE
  5
26B
100
AcDbEntity
  8
KONSTRUKTIONSELEMENTE
100
AcDbLine
 62
7
  6
CONTINUOUS
 10
77.107460897
 20
182.531399585
 11
77.4603711855
 21
182.6145585585
  0
LINE
  5
26C
100
AcDbEntity
  8
KONSTRUKTIONSELEMENTE
100
AcDbLine
 62
7
  6
CONTINUOUS
 10
77.2074759526
 20
183.2508521552
 11
76.8545656641
 21
183.1676931818
  0
LINE
  5
26D
100
AcDbEntity
  8
0
100
AcDbLine
 62
7
  6
CONTINUOUS
 10
134.5861899968
 20
189.3315307237
 11
138.7327360144
 21
188.5790972557
  0
LINE
  5
26E
100
AcDbEntity
  8
KONSTRUKTIONSELEMENTE
100
AcDbLine
 62
7
  6
CONTINUOUS
 10
103.3238498176
 20
165.4658778268
 11
103.4779338303
 21
165.1835927029
  0
LINE
  5
26F
100
AcDbEntity
  8
KONSTRUKTIONSELEMENTE
100
AcDbLine
 62
7
  6
CONTINUOUS
 10
84.2763873957
 20
176.0175787713
 11
84.3539660251
 21
175.6167172408
  0
LINE
  5
270
100
AcDbEntity
  8
0
100
AcDbLine
 62
7
  6
CONTINUOUS
 10
80.7524607261
 20
207.5083380562
 11
80.7524607261
 21
212.3083380562
  0
LINE
  5
271
100
AcDbEntity
  8
KONSTRUKTIONSELEMENTE
100
AcDbLine
 62
7
  6
CONTINUOUS
 10
84.9948534526
 20
175.3041625007
 11
84.9993556222
 21
175.9473483102
  0
LINE
  5
272
100
AcDbEntity
  8
KONSTRUKTIONSELEMENTE
100
AcDbLine
 62
7
  6
CONTINUOUS
 10
78.3058373579
 20
183.6561693392
 11
78.3662224836
 21
184.2197812632
  0
LINE
  5
273
100
AcDbEntity
  8
KONSTRUKTIONSELEMENTE
100
AcDbLine
 62
7
  6
CONTINUOUS
 10
76.1088391445
 20
179.5687278813
 11
76.0258791139
 21
178.9308988091
  0
LINE
  5
274
100
AcDbEntity
  8
0
100
AcDbLine
 62
7
  6
CONTINUOUS
 10
91.5699480569
 20
252.4687798892
 11
87.3039529282
 21
249.0519608707
  0
LINE
  5
275
100
AcDbEntity
  8
0
100
AcDbLine
 62
7
  6
CONTINUOUS
 10
71.1760596771
 20
238.459090111
 11
91.081871055
 21
253.1830464133
  0
LINE
  5
276
100
AcDbEntity
  8
0
100
AcDbLine
 62
7
  6
CONTINUOUS
 10
83.7894180165
 20
246.3525106732
 11
82.0715841211
 21
245.081861076
  0
LINE
  5
277
100
AcDbEntity
  8
0
100
AcDbLine
 62
7
  6
CONTINUOUS
 10
76.1075109412
 20
240.810285602
 11
71.6950489959
 21
237.7574510084
  0
LINE
  5
278
100
AcDbEntity
  8
0
100
AcDbLine
 62
7
  6
CONTINUOUS
 10
91.5699480569
 20
252.4687798892
 11
91.914407903
 21
252.7040485624
  0
LINE
  5
279
100
AcDbEntity
  8
0
100
AcDbLine
 62
7
  6
CONTINUOUS
 10
91.4619818713
 20
253.4224334487
 11
91.081871055
 21
253.1830464133
  0
LINE
  5
27A
100
AcDbEntity
  8
0
100
AcDbLine
 62
7
  6
CONTINUOUS
 10
80.7524607261
 20
212.3083380562
 11
84.9093826643
 21
209.9083380562
  0
LINE
  5
27B
100
AcDbEntity
  8
KONSTRUKTIONSELEMENTE
100
AcDbLine
 62
7
  6
CONTINUOUS
 10
103.534281276
 20
162.8993321352
 11
103.3343776321
 21
163.4333297237
  0
LINE
  5
27C
100
AcDbEntity
  8
KONSTRUKTIONSELEMENTE
100
AcDbLine
 62
7
  6
CONTINUOUS
 10
104.1587536446
 20
165.1107235013
 11
103.9588500007
 21
165.6447210898
  0
LINE
  5
27D
100
AcDbEntity
  8
KONSTRUKTIONSELEMENTE
100
AcDbLine
 62
7
  6
CONTINUOUS
 10
77.8170418347
 20
184.0171228923
 11
77.7377818073
 21
183.7054418748
  0
LINE
  5
27E
100
AcDbEntity
  8
0
100
AcDbLine
 62
7
  6
CONTINUOUS
 10
166.0093826643
 20
312.9083380562
 11
173.0093826643
 21
319.935076919
  0
LINE
  5
27F
100
AcDbEntity
  8
KONSTRUKTIONSELEMENTE
100
AcDbLine
 62
7
  6
CONTINUOUS
 10
124.8713317182
 20
271.5812024164
 11
129.291408155
 21
275.2900869243
  0
LINE
  5
280
100
AcDbEntity
  8
0
100
AcDbLine
 62
7
  6
CONTINUOUS
 10
123.3787029842
 20
269.8587915721
 11
122.2815195529
 21
268.9381453596
  0
LINE
  5
281
100
AcDbEntity
  8
0
100
AcDbLine
 62
7
  6
CONTINUOUS
 10
121.6261038209
 20
268.3881862606
 11
114.9284520179
 21
262.768189103
  0
LINE
  5
282
100
AcDbEntity
  8
0
100
AcDbLine
 62
7
  6
CONTINUOUS
 10
114.2730389861
 20
262.2182322697
 11
113.1758555548
 21
261.2975860571
  0
LINE
  5
283
100
AcDbEntity
  8
0
100
AcDbLine
 62
7
  6
CONTINUOUS
 10
112.3506346474
 20
260.6051434981
 11
101.9877110863
 21
251.9096181601
  0
LINE
  5
284
100
AcDbEntity
  8
0
100
AcDbLine
 62
7
  6
CONTINUOUS
 10
124.2039238915
 20
270.5512341311
 11
126.7037681438
 21
272.6488525212
  0
LINE
  5
285
100
AcDbEntity
  8
0
100
AcDbLine
 62
7
  6
CONTINUOUS
 10
101.0545310206
 20
247.2103652431
 11
103.8556454899
 21
249.5607793612
  0
LINE
  5
286
100
AcDbEntity
  8
0
100
AcDbLine
 62
7
  6
CONTINUOUS
 10
103.6627956859
 20
249.8009604178
 11
100.8979920747
 21
247.9052367199
  0
LINE
  5
287
100
AcDbEntity
  8
KONSTRUKTIONSELEMENTE
100
AcDbLine
 62
7
  6
CONTINUOUS
 10
69.2918976572
 20
196.5341979529
 11
70.0454040215
 21
196.6717446843
  0
LINE
  5
288
100
AcDbEntity
  8
KONSTRUKTIONSELEMENTE
100
AcDbLine
 62
7
  6
CONTINUOUS
 10
67.3092477979
 20
197.4429358896
 11
69.06742908
 21
197.7638782202
  0
LINE
  5
289
100
AcDbEntity
  8
KONSTRUKTIONSELEMENTE
100
AcDbLine
 62
7
  6
CONTINUOUS
 10
69.8209354443
 20
197.9014249516
 11
73.2117136439
 21
198.520385163
  0
LINE
  5
28A
100
AcDbEntity
  8
KONSTRUKTIONSELEMENTE
100
AcDbLine
 62
7
  6
CONTINUOUS
 10
72.0723575668
 20
199.0747977946
 11
69.6862542851
 21
198.6392331824
  0
LINE
  5
28B
100
AcDbEntity
  8
KONSTRUKTIONSELEMENTE
100
AcDbLine
 62
7
  6
CONTINUOUS
 10
68.9327479208
 20
198.5016864509
 11
67.1745666387
 21
198.1807441203
  0
LINE
  5
28C
100
AcDbEntity
  8
KONSTRUKTIONSELEMENTE
100
AcDbLine
 62
7
  6
CONTINUOUS
 10
69.1475296484
 20
201.5904661054
 11
68.3940232841
 21
201.4529193739
  0
LINE
  5
28D
100
AcDbEntity
  8
BEZUGSACHSEN
100
AcDbLine
 62
2
  6
CENTER
 10
114.0093826643
 20
209.9083380562
 11
111.0092826643
 21
209.9083380562
  0
LINE
  5
28E
100
AcDbEntity
  8
BG_STARTBEZUEGE
100
AcDbLine
 62
2
  6
CENTER
 10
176.8872128556
 20
209.9083380562
 11
51.2600133315
 21
209.9083380562
  0
LINE
  5
28F
100
AcDbEntity
  8
BEZUGSACHSEN
100
AcDbLine
 62
2
  6
CENTER
 10
114.0093826643
 20
209.9083380562
 11
117.0094826643
 21
209.9083380562
  0
LINE
  5
290
100
AcDbEntity
  8
0
100
AcDbLine
 62
7
  6
CONTINUOUS
 10
166.0231566775
 20
148.1050893561
 11
173.0093826643
 21
141.9211785369
  0
LINE
  5
291
100
AcDbEntity
  8
0
100
AcDbLine
 62
7
  6
CONTINUOUS
 10
116.4093826643
 20
176.651416118
 11
114.0093826643
 21
180.8083380562
  0
LINE
  5
292
100
AcDbEntity
  8
KONSTRUKTIONSELEMENTE
100
AcDbLine
 62
7
  6
CONTINUOUS
 10
102.8534614617
 20
162.9722013368
 11
102.8680574352
 21
162.6099191645
  0
LINE
  5
293
100
AcDbEntity
  8
KONSTRUKTIONSELEMENTE
100
AcDbLine
 62
7
  6
CONTINUOUS
 10
84.3539660251
 20
175.6167172408
 11
84.2707601421
 21
175.2135956006
  0
LINE
  5
294
100
AcDbEntity
  8
KONSTRUKTIONSELEMENTE
100
AcDbLine
 62
7
  6
CONTINUOUS
 10
76.706793713
 20
179.1802983106
 11
76.8385725776
 21
179.5702526473
  0
LINE
  5
295
100
AcDbEntity
  8
KONSTRUKTIONSELEMENTE
100
AcDbLine
 62
7
  6
CONTINUOUS
 10
78.0888121367
 20
183.1288981142
 11
78.3058373579
 21
183.6561693392
  0
LINE
  5
296
100
AcDbEntity
  8
0
100
AcDbLine
 62
7
  6
CONTINUOUS
 10
102.9828938496
 20
244.9122319137
 11
104.8214005131
 21
246.454922177
  0
LINE
  5
297
100
AcDbEntity
  8
0
100
AcDbLine
 62
7
  6
CONTINUOUS
 10
104.8214005131
 20
246.454922177
 11
150.7672120597
 21
272.1831634952
  0
LINE
  5
298
100
AcDbEntity
  8
KONSTRUKTIONSELEMENTE
100
AcDbLine
 62
7
  6
CONTINUOUS
 10
103.5488772495
 20
162.5370499629
 11
103.534281276
 21
162.8993321352
  0
LINE
  5
299
100
AcDbEntity
  8
KONSTRUKTIONSELEMENTE
100
AcDbLine
 62
7
  6
CONTINUOUS
 10
103.4779338303
 20
165.1835927029
 11
103.49252976
 21
164.8213103757
  0
LINE
  5
29A
100
AcDbEntity
  8
KONSTRUKTIONSELEMENTE
100
AcDbLine
 62
7
  6
CONTINUOUS
 10
104.1733496618
 20
164.7484414839
 11
104.1587536446
 21
165.1107235013
  0
LINE
  5
29B
100
AcDbEntity
  8
KONSTRUKTIONSELEMENTE
100
AcDbLine
 62
7
  6
CONTINUOUS
 10
97.5561416735
 20
162.4092920834
 11
97.9948066491
 21
168.0844639864
  0
LINE
  5
29C
100
AcDbEntity
  8
KONSTRUKTIONSELEMENTE
100
AcDbLine
 62
7
  6
CONTINUOUS
 10
97.0549566081
 20
164.1167225146
 11
96.9341348381
 21
162.671460916
  0
LINE
  5
29D
100
AcDbEntity
  8
KONSTRUKTIONSELEMENTE
100
AcDbLine
 62
7
  6
CONTINUOUS
 10
97.4016367274
 20
167.8357495765
 11
97.1297859186
 21
164.5839116185
  0
LINE
  5
29E
100
AcDbEntity
  8
KONSTRUKTIONSELEMENTE
100
AcDbLine
 62
7
  6
CONTINUOUS
 10
90.3839185086
 20
166.5955335668
 11
91.3896191236
 21
171.4596163949
  0
LINE
  5
29F
100
AcDbEntity
  8
KONSTRUKTIONSELEMENTE
100
AcDbLine
 62
7
  6
CONTINUOUS
 10
90.8060513513
 20
171.7988414752
 11
89.6484321768
 21
166.2256986512
  0
LINE
  5
2A0
100
AcDbEntity
  8
0
100
AcDbLine
 62
7
  6
CONTINUOUS
 10
92.1902439153
 20
184.6950867575
 11
93.4325753318
 21
189.3315307237
  0
LINE
  5
2A1
100
AcDbEntity
  8
KONSTRUKTIONSELEMENTE
100
AcDbLine
 62
7
  6
CONTINUOUS
 10
84.8306927683
 20
174.8195130354
 11
84.9948534526
 21
175.3041625007
  0
LINE
  5
2A2
100
AcDbEntity
  8
KONSTRUKTIONSELEMENTE
100
AcDbLine
 62
7
  6
CONTINUOUS
 10
76.3309175347
 20
180.0297213219
 11
76.1088391445
 21
179.5687278813
  0
LINE
  5
2A3
100
AcDbEntity
  8
0
100
AcDbLine
 62
7
  6
CONTINUOUS
 10
94.1515116734
 20
225.4230072344
 11
99.2139874046
 21
231.9026806847
  0
LINE
  5
2A4
100
AcDbEntity
  8
BEZUGSACHSEN
100
AcDbLine
 62
2
  6
CENTER
 10
114.0093826643
 20
209.9083380562
 11
114.0093826643
 21
200.4031068547
  0
LINE
  5
2A5
100
AcDbEntity
  8
BEZUGSACHSEN
100
AcDbLine
 62
2
  6
CENTER
 10
114.0093826643
 20
209.9083380562
 11
114.0093826643
 21
220.09770535
  0
LINE
  5
2A6
100
AcDbEntity
  8
KONSTRUKTIONSELEMENTE
100
AcDbLine
 62
7
  6
CONTINUOUS
 10
74.3785529898
 20
180.6064728232
 11
76.1091149896
 21
182.8455348636
  0
LINE
  5
2A7
100
AcDbEntity
  8
KONSTRUKTIONSELEMENTE
100
AcDbLine
 62
7
  6
CONTINUOUS
 10
75.5618143835
 20
183.3025790893
 11
73.9690174938
 21
181.2791073938
  0
LINE
  5
2A8
100
AcDbEntity
  8
0
100
AcDbLine
 62
7
  6
CONTINUOUS
 10
101.0545310206
 20
247.2103652431
 11
102.9828938496
 21
244.9122319137
  0
LINE
  5
2A9
100
AcDbEntity
  8
KONSTRUKTIONSELEMENTE
100
AcDbLine
 62
7
  6
CONTINUOUS
 10
105.399020066
 20
165.7628735277
 11
104.5837666345
 21
160.4247688226
  0
LINE
  5
2AA
100
AcDbEntity
  8
KONSTRUKTIONSELEMENTE
100
AcDbLine
 62
7
  6
CONTINUOUS
 10
105.2510297226
 20
160.3228621436
 11
105.632637715
 21
162.8215494727
  0
LINE
  5
2AB
100
AcDbEntity
  8
KONSTRUKTIONSELEMENTE
100
AcDbLine
 62
7
  6
CONTINUOUS
 10
105.7367126087
 20
163.5030095666
 11
106.0662831542
 21
165.6609668487
  0
LINE
  5
2AC
100
AcDbEntity
  8
KONSTRUKTIONSELEMENTE
100
AcDbLine
 62
7
  6
CONTINUOUS
 10
109.1801784139
 20
165.1854022174
 11
108.8506078685
 21
163.0274449353
  0
LINE
  5
2AD
100
AcDbEntity
  8
KONSTRUKTIONSELEMENTE
100
AcDbLine
 62
7
  6
CONTINUOUS
 10
108.7465329747
 20
162.3459848414
 11
108.3649249824
 21
159.8472975123
  0
LINE
  5
2AE
100
AcDbEntity
  8
KONSTRUKTIONSELEMENTE
100
AcDbLine
 62
7
  6
CONTINUOUS
 10
109.0321880705
 20
159.7453908334
 11
109.8474415021
 21
165.0834955385
  0
LINE
  5
2AF
100
AcDbEntity
  8
KONSTRUKTIONSELEMENTE
100
AcDbLine
 62
7
  6
CONTINUOUS
 10
100.5109653556
 20
167.0959124505
 11
99.04345532
 21
161.8991428486
  0
LINE
  5
2B0
100
AcDbEntity
  8
KONSTRUKTIONSELEMENTE
100
AcDbLine
 62
7
  6
CONTINUOUS
 10
99.8803932265
 20
162.3791214885
 11
100.3487475029
 21
164.037665013
  0
LINE
  5
2B1
100
AcDbEntity
  8
KONSTRUKTIONSELEMENTE
100
AcDbLine
 62
7
  6
CONTINUOUS
 10
100.5360891872
 20
164.7010823299
 11
100.9732198715
 21
166.2490563791
  0
LINE
  5
2B2
100
AcDbEntity
  8
KONSTRUKTIONSELEMENTE
100
AcDbLine
 62
7
  6
CONTINUOUS
 10
103.49252976
 20
164.8213103757
 11
103.4300825319
 21
164.6001712701
  0
LINE
  5
2B3
100
AcDbEntity
  8
KONSTRUKTIONSELEMENTE
100
AcDbLine
 62
7
  6
CONTINUOUS
 10
102.8680574352
 20
162.6099191645
 11
102.774386593
 21
162.278210506
  0
LINE
  5
2B4
100
AcDbEntity
  8
KONSTRUKTIONSELEMENTE
100
AcDbLine
 62
7
  6
CONTINUOUS
 10
84.2707601421
 20
175.2135956006
 11
84.0267692869
 21
174.8082152146
  0
LINE
  5
2B5
100
AcDbEntity
  8
KONSTRUKTIONSELEMENTE
100
AcDbLine
 62
7
  6
CONTINUOUS
 10
84.5057466582
 20
174.3326043675
 11
84.8306927683
 21
174.8195130354
  0
LINE
  5
2B6
100
AcDbEntity
  8
KONSTRUKTIONSELEMENTE
100
AcDbLine
 62
7
  6
CONTINUOUS
 10
76.8385725776
 20
179.5702526473
 11
77.130210566
 21
179.9428275774
  0
LINE
  5
2B7
100
AcDbEntity
  8
KONSTRUKTIONSELEMENTE
100
AcDbLine
 62
7
  6
CONTINUOUS
 10
77.7377818073
 20
183.7054418748
 11
77.501881517
 21
183.4301018311
  0
LINE
  5
2B8
100
AcDbEntity
  8
KONSTRUKTIONSELEMENTE
100
AcDbLine
 62
7
  6
CONTINUOUS
 10
77.8529118464
 20
182.8535580706
 11
78.0888121367
 21
183.1288981142
  0
LINE
  5
2B9
100
AcDbEntity
  8
KONSTRUKTIONSELEMENTE
100
AcDbLine
 62
7
  6
CONTINUOUS
 10
76.7128543882
 20
180.473336065
 11
76.3309175347
 21
180.0297213219
  0
LINE
  5
2BA
100
AcDbEntity
  8
0
100
AcDbLine
 62
7
  6
CONTINUOUS
 10
80.7524607261
 20
207.5083380562
 11
84.9093826643
 21
209.9083380562
  0
LINE
  5
2BB
100
AcDbEntity
  8
0
100
AcDbLine
 62
7
  6
CONTINUOUS
 10
136.0078365077
 20
185.3642998005
 11
134.5861899968
 21
189.3315307237
  0
LINE
  5
2BC
100
AcDbEntity
  8
KONSTRUKTIONSELEMENTE
100
AcDbLine
 62
7
  6
CONTINUOUS
 10
103.3927591792
 20
161.9842021988
 11
103.5488772495
 21
162.5370499629
  0
LINE
  5
2BD
100
AcDbEntity
  8
KONSTRUKTIONSELEMENTE
100
AcDbLine
 62
7
  6
CONTINUOUS
 10
104.0484551181
 20
164.3061629628
 11
104.1733496618
 21
164.7484414839
  0
LINE
  5
2BE
100
AcDbEntity
  8
KONSTRUKTIONSELEMENTE
100
AcDbLine
 62
7
  6
CONTINUOUS
 10
82.6078451647
 20
178.8077921294
 11
78.8029583884
 21
174.9759731593
  0
LINE
  5
2BF
100
AcDbEntity
  8
0
100
AcDbLine
 62
7
  6
CONTINUOUS
 10
135.0093826643
 20
302.2872875958
 11
135.0093826643
 21
306.6453095628
  0
LINE
  5
2C0
100
AcDbEntity
  8
KONSTRUKTIONSELEMENTE
100
AcDbLine
 62
7
  6
CONTINUOUS
 10
79.7676659852
 20
174.9895306902
 11
82.6010923671
 21
177.8430129615
  0
LINE
  5
2C1
100
AcDbEntity
  8
KONSTRUKTIONSELEMENTE
100
AcDbLine
 62
7
  6
CONTINUOUS
 10
84.0267692869
 20
174.8082152146
 11
82.8124437514
 21
173.5852942982
  0
LINE
  5
2C2
100
AcDbEntity
  8
KONSTRUKTIONSELEMENTE
100
AcDbLine
 62
7
  6
CONTINUOUS
 10
83.2914211227
 20
173.1096834512
 11
84.5057466582
 21
174.3326043675
  0
LINE
  5
2C3
100
AcDbEntity
  8
KONSTRUKTIONSELEMENTE
100
AcDbLine
 62
7
  6
CONTINUOUS
 10
79.5121319272
 20
182.6755548826
 11
76.7128543882
 21
180.473336065
  0
LINE
  5
2C4
100
AcDbEntity
  8
KONSTRUKTIONSELEMENTE
100
AcDbLine
 62
7
  6
CONTINUOUS
 10
77.130210566
 20
179.9428275774
 11
79.929488105
 21
182.1450463951
  0
LINE
  5
2C5
100
AcDbEntity
  8
KONSTRUKTIONSELEMENTE
100
AcDbLine
 62
7
  6
CONTINUOUS
 10
81.5989120201
 20
180.0230134567
 11
78.7996344812
 21
177.820794639
  0
LINE
  5
2C6
100
AcDbEntity
  8
KONSTRUKTIONSELEMENTE
100
AcDbLine
 62
7
  6
CONTINUOUS
 10
79.2169904599
 20
177.2902864044
 11
82.0162679989
 21
179.4925052221
  0
LINE
  5
2C7
100
AcDbEntity
  8
KONSTRUKTIONSELEMENTE
100
AcDbLine
 62
7
  6
CONTINUOUS
 10
76.7677109321
 20
187.066159367
 11
72.1553608477
 21
184.2579167317
  0
LINE
  5
2C8
100
AcDbEntity
  8
KONSTRUKTIONSELEMENTE
100
AcDbLine
 62
7
  6
CONTINUOUS
 10
72.5063911771
 20
183.6813729711
 11
74.5672284781
 21
184.9361196983
  0
LINE
  5
2C9
100
AcDbEntity
  8
KONSTRUKTIONSELEMENTE
100
AcDbLine
 62
7
  6
CONTINUOUS
 10
75.156039057
 20
185.2946187154
 11
76.6280657791
 21
186.1908664255
  0
LINE
  5
2CA
100
AcDbEntity
  8
KONSTRUKTIONSELEMENTE
100
AcDbLine
 62
7
  6
CONTINUOUS
 10
77.501881517
 20
183.4301018311
 11
77.2074759526
 21
183.2508521552
  0
LINE
  5
2CB
100
AcDbEntity
  8
KONSTRUKTIONSELEMENTE
100
AcDbLine
 62
7
  6
CONTINUOUS
 10
73.6948719256
 20
196.3172186845
 11
73.0892671297
 21
196.1155583069
  0
LINE
  5
2CC
100
AcDbEntity
  8
KONSTRUKTIONSELEMENTE
100
AcDbLine
 62
7
  6
CONTINUOUS
 10
73.7211364634
 20
194.2179961607
 11
68.6340554993
 21
192.5240487629
  0
LINE
  5
2CD
100
AcDbEntity
  8
0
100
AcDbLine
 62
7
  6
CONTINUOUS
 10
136.4092012807
 20
304.1610889658
 11
136.4092012807
 21
305.5148882115
  0
LINE
  5
2CE
100
AcDbEntity
  8
0
100
AcDbLine
 62
7
  6
CONTINUOUS
 10
142.9306072816
 20
301.0936179458
 11
142.9306072816
 21
309.7348262308
  0
LINE
  5
2CF
100
AcDbEntity
  8
0
100
AcDbLine
 62
7
  6
CONTINUOUS
 10
111.6093826643
 20
176.651416118
 11
114.0093826643
 21
180.8083380562
  0
LINE
  5
2D0
100
AcDbEntity
  8
KONSTRUKTIONSELEMENTE
100
AcDbLine
 62
7
  6
CONTINUOUS
 10
103.4300825319
 20
164.6001712701
 11
103.2281448304
 21
164.2990359706
  0
LINE
  5
2D1
100
AcDbEntity
  8
KONSTRUKTIONSELEMENTE
100
AcDbLine
 62
7
  6
CONTINUOUS
 10
103.8465174166
 20
164.0050276634
 11
104.0484551181
 21
164.3061629628
  0
LINE
  5
2D2
100
AcDbEntity
  8
KONSTRUKTIONSELEMENTE
100
AcDbLine
 62
7
  6
CONTINUOUS
 10
102.774386593
 20
162.278210506
 11
102.5724488915
 21
161.9770752066
  0
LINE
  5
2D3
100
AcDbEntity
  8
KONSTRUKTIONSELEMENTE
100
AcDbLine
 62
7
  6
CONTINUOUS
 10
95.2637654125
 20
165.3704181163
 11
97.4016367274
 21
167.8357495765
  0
LINE
  5
2D4
100
AcDbEntity
  8
KONSTRUKTIONSELEMENTE
100
AcDbLine
 62
7
  6
CONTINUOUS
 10
94.0314354823
 20
163.8949158015
 11
94.9816012812
 21
164.9906182899
  0
LINE
  5
2D5
100
AcDbEntity
  8
KONSTRUKTIONSELEMENTE
100
AcDbLine
 62
7
  6
CONTINUOUS
 10
97.165464993
 20
168.4340220966
 11
93.4094286469
 21
164.1570846341
  0
LINE
  5
2D6
100
AcDbEntity
  8
KONSTRUKTIONSELEMENTE
100
AcDbLine
 62
7
  6
CONTINUOUS
 10
77.4603711855
 20
182.6145585585
 11
77.8529118464
 21
182.8535580706
  0
LINE
  5
2D7
100
AcDbEntity
  8
KONSTRUKTIONSELEMENTE
100
AcDbLine
 62
7
  6
CONTINUOUS
 10
68.8710064712
 20
191.8124630429
 11
73.9580874354
 21
193.5064104407
  0
LINE
  5
2D8
100
AcDbEntity
  8
KONSTRUKTIONSELEMENTE
100
AcDbLine
 62
7
  6
CONTINUOUS
 10
74.5899565432
 20
191.6088489731
 11
75.195561339
 21
191.8105093507
  0
LINE
  5
2D9
100
AcDbEntity
  8
0
100
AcDbLine
 62
7
  6
CONTINUOUS
 10
147.0093826643
 20
295.793030801
 11
147.0093826643
 21
296.1246951185
  0
LINE
  5
2DA
100
AcDbEntity
  8
KONSTRUKTIONSELEMENTE
100
AcDbLine
 62
7
  6
CONTINUOUS
 10
103.1908214558
 20
161.6830668219
 11
103.3927591792
 21
161.9842021988
  0
LINE
  5
2DB
100
AcDbEntity
  8
KONSTRUKTIONSELEMENTE
100
AcDbLine
 62
7
  6
CONTINUOUS
 10
90.4265217978
 20
165.7733989755
 11
94.6965039087
 21
169.5373405083
  0
LINE
  5
2DC
100
AcDbEntity
  8
KONSTRUKTIONSELEMENTE
100
AcDbLine
 62
7
  6
CONTINUOUS
 10
94.1129361364
 20
169.8765655887
 11
90.3839185086
 21
166.5955335668
  0
LINE
  5
2DD
100
AcDbEntity
  8
KONSTRUKTIONSELEMENTE
100
AcDbLine
 62
7
  6
CONTINUOUS
 10
82.8068167246
 20
172.7813113559
 11
83.2914211227
 21
173.1096834512
  0
LINE
  5
2DE
100
AcDbEntity
  8
KONSTRUKTIONSELEMENTE
100
AcDbLine
 62
7
  6
CONTINUOUS
 10
82.8124437514
 20
173.5852942982
 11
82.4087943815
 21
173.3384502565
  0
LINE
  5
2DF
100
AcDbEntity
  8
KONSTRUKTIONSELEMENTE
100
AcDbLine
 62
7
  6
CONTINUOUS
 10
78.6959346814
 20
177.0235080768
 11
79.2169904599
 21
177.2902864044
  0
LINE
  5
2E0
100
AcDbEntity
  8
KONSTRUKTIONSELEMENTE
100
AcDbLine
 62
7
  6
CONTINUOUS
 10
78.7996344812
 20
177.820794639
 11
78.3688779659
 21
177.6250556185
  0
LINE
  5
2E1
100
AcDbEntity
  8
KONSTRUKTIONSELEMENTE
100
AcDbLine
 62
7
  6
CONTINUOUS
 10
125.1027352577
 20
271.3054264169
 11
124.8713317182
 21
271.5812024164
  0
LINE
  5
2E2
100
AcDbEntity
  8
KONSTRUKTIONSELEMENTE
100
AcDbLine
 62
7
  6
CONTINUOUS
 10
125.1967794342
 20
271.3843388508
 11
124.9653758947
 21
271.6601148503
  0
LINE
  5
2E3
100
AcDbEntity
  8
KONSTRUKTIONSELEMENTE
100
AcDbLine
 62
7
  6
CONTINUOUS
 10
125.3848677955
 20
271.5421637254
 11
125.153464256
 21
271.8179397249
  0
LINE
  5
2E4
100
AcDbEntity
  8
KONSTRUKTIONSELEMENTE
100
AcDbLine
 62
7
  6
CONTINUOUS
 10
125.7610445016
 20
271.8578134607
 11
125.5296409621
 21
272.1335894602
  0
LINE
  5
2E5
100
AcDbEntity
  8
KONSTRUKTIONSELEMENTE
100
AcDbLine
 62
7
  6
CONTINUOUS
 10
126.1372212406
 20
272.1734632237
 11
125.9058177012
 21
272.4492392232
  0
LINE
  5
2E6
100
AcDbEntity
  8
KONSTRUKTIONSELEMENTE
100
AcDbLine
 62
7
  6
CONTINUOUS
 10
126.6074420821
 20
272.5680253584
 11
126.3760385426
 21
272.8438013579
  0
LINE
  5
2E7
100
AcDbEntity
  8
0
100
AcDbLine
 62
7
  6
CONTINUOUS
 10
156.6093826643
 20
262.4083380562
 11
156.6093826643
 21
242.0959577191
  0
LINE
  5
2E8
100
AcDbEntity
  8
0
100
AcDbLine
 62
7
  6
CONTINUOUS
 10
145.161963359
 20
208.8502380515
 11
133.8672536552
 21
194.393668878
  0
LINE
  5
2E9
100
AcDbEntity
  8
0
100
AcDbLine
 62
7
  6
CONTINUOUS
 10
149.6093826643
 20
269.4083380562
 11
145.8813826643
 21
269.4083380562
  0
LINE
  5
2EA
100
AcDbEntity
  8
0
100
AcDbLine
 62
7
  6
CONTINUOUS
 10
146.9055628338
 20
270.0207587009
 11
149.6093826643
 21
270.0207587009
  0
LINE
  5
2EB
100
AcDbEntity
  8
KONSTRUKTIONSELEMENTE
100
AcDbLine
 62
7
  6
CONTINUOUS
 10
127.9865418252
 20
273.7893270879
 11
127.7867011988
 21
274.0274878724
  0
LINE
  5
2EC
100
AcDbEntity
  8
KONSTRUKTIONSELEMENTE
100
AcDbLine
 62
7
  6
CONTINUOUS
 10
128.4300986741
 20
274.2156666666
 11
128.2569223037
 21
274.4220502281
  0
LINE
  5
2ED
100
AcDbEntity
  8
KONSTRUKTIONSELEMENTE
100
AcDbLine
 62
7
  6
CONTINUOUS
 10
128.7790796652
 20
274.5637269261
 11
128.6330989769
 21
274.7376999358
  0
LINE
  5
2EE
100
AcDbEntity
  8
KONSTRUKTIONSELEMENTE
100
AcDbLine
 62
7
  6
CONTINUOUS
 10
129.1228242053
 20
274.9180277449
 11
129.0092756501
 21
275.0533496435
  0
LINE
  5
2EF
100
AcDbEntity
  8
KONSTRUKTIONSELEMENTE
100
AcDbLine
 62
7
  6
CONTINUOUS
 10
129.292724659
 20
275.0975280736
 11
129.1973639867
 21
275.2111744974
  0
LINE
  5
2F0
100
AcDbEntity
  8
KONSTRUKTIONSELEMENTE
100
AcDbLine
 62
7
  6
CONTINUOUS
 10
129.3771803364
 20
275.187867619
 11
129.291408155
 21
275.2900869243
  0
LINE
  5
2F1
100
AcDbEntity
  8
0
100
AcDbLine
 62
7
  6
CONTINUOUS
 10
160.572287051
 20
275.9083380562
 11
160.572287051
 21
280.9083380562
  0
LINE
  5
2F2
100
AcDbEntity
  8
0
100
AcDbLine
 62
7
  6
CONTINUOUS
 10
162.4720194447
 20
295.5279580595
 11
162.4720194447
 21
165.2937032485
  0
LINE
  5
2F3
100
AcDbEntity
  8
0
100
AcDbLine
 62
7
  6
CONTINUOUS
 10
138.7327360144
 20
188.5790972557
 11
136.0078365077
 21
185.3642998005
  0
LINE
  5
2F4
100
AcDbEntity
  8
KONSTRUKTIONSELEMENTE
100
AcDbLine
 62
7
  6
CONTINUOUS
 10
103.3968248602
 20
163.6544688293
 11
103.8465174166
 21
164.0050276634
  0
LINE
  5
2F5
100
AcDbEntity
  8
KONSTRUKTIONSELEMENTE
100
AcDbLine
 62
7
  6
CONTINUOUS
 10
102.7411288885
 20
161.3325079491
 11
103.1908214558
 21
161.6830668219
  0
LINE
  5
2F6
100
AcDbEntity
  8
KONSTRUKTIONSELEMENTE
100
AcDbLine
 62
7
  6
CONTINUOUS
 10
82.323337127
 20
172.6137363363
 11
82.8068167246
 21
172.7813113559
  0
LINE
  5
2F7
100
AcDbEntity
  8
0
100
AcDbLine
 62
7
  6
CONTINUOUS
 10
173.2678713704
 20
153.6296914635
 11
173.0093826643
 21
165.9582601505
  0
LINE
  5
2F8
100
AcDbEntity
  8
0
100
AcDbLine
 62
7
  6
CONTINUOUS
 10
166.0093826643
 20
165.9582601505
 11
166.0093826643
 21
312.9083380562
  0
LINE
  5
2F9
100
AcDbEntity
  8
0
100
AcDbLine
 62
7
  6
CONTINUOUS
 10
166.0231566775
 20
148.1050893561
 11
166.0231566775
 21
151.546587687
  0
LINE
  5
2FA
100
AcDbEntity
  8
KONSTRUKTIONSELEMENTE
100
AcDbLine
 62
7
  6
CONTINUOUS
 10
103.2281448304
 20
164.2990359706
 11
102.9491663615
 21
164.1390428832
  0
LINE
  5
2FB
100
AcDbEntity
  8
KONSTRUKTIONSELEMENTE
100
AcDbLine
 62
7
  6
CONTINUOUS
 10
102.5724488915
 20
161.9770752066
 11
102.2934704008
 21
161.8170820417
  0
LINE
  5
2FC
100
AcDbEntity
  8
0
100
AcDbLine
 62
7
  6
CONTINUOUS
 10
173.0093826643
 20
141.9211785369
 11
173.0093826643
 21
157.4056145409
  0
LINE
  5
2FD
100
AcDbEntity
  8
0
100
AcDbLine
 62
7
  6
CONTINUOUS
 10
173.0093826643
 20
165.9582601505
 11
173.0093826643
 21
319.935076919
  0
LINE
  5
2FE
100
AcDbEntity
  8
KONSTRUKTIONSELEMENTE
100
AcDbLine
 62
7
  6
CONTINUOUS
 10
102.2143930787
 20
161.1230919978
 11
102.7411288885
 21
161.3325079491
  0
LINE
  5
2FF
100
AcDbEntity
  8
0
100
AcDbLine
 62
7
  6
CONTINUOUS
 10
145.955390759
 20
296.3773769121
 11
153.5418270955
 21
287.3362141531
  0
LINE
  5
300
100
AcDbEntity
  8
0
100
AcDbLine
 62
7
  6
CONTINUOUS
 10
155.8985921726
 20
290.4143146048
 11
154.2472293865
 21
291.749593374
  0
LINE
  5
301
100
AcDbEntity
  8
0
100
AcDbLine
 62
7
  6
CONTINUOUS
 10
161.125535569
 20
150.6666663352
 11
161.5783674028
 21
151.262909371
  0
LINE
  5
302
100
AcDbEntity
  8
0
100
AcDbLine
 62
7
  6
CONTINUOUS
 10
163.1558627212
 20
312.9083380562
 11
166.0093826643
 21
312.9083380562
  0
LINE
  5
303
100
AcDbEntity
  8
0
100
AcDbLine
 62
7
  6
CONTINUOUS
 10
295.3771299929
 20
141.9211785369
 11
335.1736026538
 21
145.4098360271
  0
LINE
  5
304
100
AcDbEntity
  8
0
100
AcDbLine
 62
7
  6
CONTINUOUS
 10
304.4971299929
 20
145.5462346675
 11
295.3771299929
 21
144.7483380562
  0
LINE
  5
305
100
AcDbEntity
  8
KONSTRUKTIONSELEMENTE
100
AcDbLine
 62
7
  6
CONTINUOUS
 10
295.3771299929
 20
144.7483380562
 11
286.2571299929
 21
145.5462346675
  0
LINE
  5
306
100
AcDbEntity
  8
0
100
AcDbLine
 62
7
  6
CONTINUOUS
 10
255.580657332
 20
145.4098360271
 11
295.3771299929
 21
141.9211785369
  0
LINE
  5
307
100
AcDbEntity
  8
0
100
AcDbLine
 62
7
  6
CONTINUOUS
 10
328.1215134655
 20
150.6666663352
 11
334.5973103914
 21
151.262909371
  0
LINE
  5
308
100
AcDbEntity
  8
RUNDUNGEN
100
AcDbLine
 62
7
  6
CONTINUOUS
 10
262.6327465203
 20
150.6666663352
 11
256.1569495944
 21
151.262909371
  0
LINE
  5
309
100
AcDbEntity
  8
0
100
AcDbLine
 62
7
  6
CONTINUOUS
 10
304.6487354859
 20
154.6807081893
 11
304.4971299929
 21
154.6647955793
  0
LINE
  5
30A
100
AcDbEntity
  8
KONSTRUKTIONSELEMENTE
100
AcDbLine
 62
7
  6
CONTINUOUS
 10
286.1055245
 20
154.6807081893
 11
286.2571299929
 21
154.6647955793
  0
LINE
  5
30B
100
AcDbEntity
  8
0
100
AcDbLine
 62
7
  6
CONTINUOUS
 10
236.3771299929
 20
295.5302911166
 11
236.3771299929
 21
165.9582601505
  0
LINE
  5
30C
100
AcDbEntity
  8
KONSTRUKTIONSELEMENTE
100
AcDbLine
 62
7
  6
CONTINUOUS
 10
277.1714806402
 20
290.4143146048
 11
279.3212492671
 21
291.224890564
  0
LINE
  5
30D
100
AcDbEntity
  8
0
100
AcDbLine
 62
7
  6
CONTINUOUS
 10
304.8771299929
 20
171.5083380562
 11
304.4971299929
 21
171.5083380562
  0
LINE
  5
30E
100
AcDbEntity
  8
KONSTRUKTIONSELEMENTE
100
AcDbLine
 62
7
  6
CONTINUOUS
 10
286.2571299929
 20
171.5083380562
 11
285.8771299929
 21
171.5083380562
  0
LINE
  5
30F
100
AcDbEntity
  8
0
100
AcDbLine
 62
7
  6
CONTINUOUS
 10
240.3710323023
 20
153.6296914635
 11
240.3710323023
 21
154.035135311
  0
LINE
  5
310
100
AcDbEntity
  8
RUNDUNGEN
100
AcDbLine
 62
7
  6
CONTINUOUS
 10
243.3771299929
 20
295.5279580595
 11
243.3771299929
 21
165.2937032485
  0
LINE
  5
311
100
AcDbEntity
  8
AUSFORMSCHRAEGEN
100
AcDbLine
 62
8
  6
HIDDEN
 10
295.3771299929
 20
184.7083380562
 11
289.4019020908
 21
184.1855733528
  0
LINE
  5
312
100
AcDbEntity
  8
0
100
AcDbLine
 62
7
  6
CONTINUOUS
 10
307.3771299929
 20
188.5790972557
 11
307.0059138687
 21
188.5790972557
  0
LINE
  5
313
100
AcDbEntity
  8
KONSTRUKTIONSELEMENTE
100
AcDbLine
 62
7
  6
CONTINUOUS
 10
283.3771299929
 20
188.5790972557
 11
283.7421428091
 21
188.5790972557
  0
LINE
  5
314
100
AcDbEntity
  8
DEFAULT_2
100
AcDbLine
 62
8
  6
HIDDEN
 10
301.352357895
 20
184.1855733528
 11
295.3771299929
 21
184.7083380562
  0
LINE
  5
315
100
AcDbEntity
  8
KONSTRUKTIONSELEMENTE
100
AcDbLine
 62
7
  6
CONTINUOUS
 10
291.2933799929
 20
273.9485754454
 11
291.0529632116
 21
273.7907505916
  0
LINE
  5
316
100
AcDbEntity
  8
KONSTRUKTIONSELEMENTE
100
AcDbLine
 62
7
  6
CONTINUOUS
 10
296.4623385555
 20
272.2914143694
 11
296.1017135555
 21
272.1335894602
  0
LINE
  5
317
100
AcDbEntity
  8
KONSTRUKTIONSELEMENTE
100
AcDbLine
 62
7
  6
CONTINUOUS
 10
302.2323378677
 20
272.2914143694
 11
301.8717128677
 21
272.1335894602
  0
LINE
  5
318
100
AcDbEntity
  8
KONSTRUKTIONSELEMENTE
100
AcDbLine
 62
7
  6
CONTINUOUS
 10
291.1731717742
 20
273.3961884569
 11
291.6540049929
 21
273.5540133108
  0
LINE
  5
319
100
AcDbEntity
  8
KONSTRUKTIONSELEMENTE
100
AcDbLine
 62
7
  6
CONTINUOUS
 10
296.2219214303
 20
271.6601148503
 11
296.7027549929
 21
271.8179397249
  0
LINE
  5
31A
100
AcDbEntity
  8
KONSTRUKTIONSELEMENTE
100
AcDbLine
 62
7
  6
CONTINUOUS
 10
296.2219214303
 20
271.3843388508
 11
296.7027549929
 21
271.5421637254
  0
LINE
  5
31B
100
AcDbEntity
  8
KONSTRUKTIONSELEMENTE
100
AcDbLine
 62
7
  6
CONTINUOUS
 10
301.9919221181
 20
271.6601148503
 11
302.4727549929
 21
271.8179397249
  0
LINE
  5
31C
100
AcDbEntity
  8
KONSTRUKTIONSELEMENTE
100
AcDbLine
 62
7
  6
CONTINUOUS
 10
301.9919221181
 20
271.3843388508
 11
302.4727549929
 21
271.5421637254
  0
LINE
  5
31D
100
AcDbEntity
  8
KONSTRUKTIONSELEMENTE
100
AcDbLine
 62
7
  6
CONTINUOUS
 10
283.9771299929
 20
194.2592963973
 11
282.8771299929
 21
194.2592963973
  0
LINE
  5
31E
100
AcDbEntity
  8
KONSTRUKTIONSELEMENTE
100
AcDbLine
 62
7
  6
CONTINUOUS
 10
265.9748379988
 20
275.9083380562
 11
265.9748379988
 21
280.9083380562
  0
LINE
  5
31F
100
AcDbEntity
  8
KONSTRUKTIONSELEMENTE
100
AcDbLine
 62
7
  6
CONTINUOUS
 10
296.7027549929
 20
272.5281516502
 11
296.4623385555
 21
272.2914143694
  0
LINE
  5
320
100
AcDbEntity
  8
KONSTRUKTIONSELEMENTE
100
AcDbLine
 62
7
  6
CONTINUOUS
 10
291.6540049929
 20
273.5540133108
 11
292.0146299929
 21
273.8696630185
  0
LINE
  5
321
100
AcDbEntity
  8
KONSTRUKTIONSELEMENTE
100
AcDbLine
 62
7
  6
CONTINUOUS
 10
296.7027549929
 20
271.8179397249
 11
297.1835885555
 21
272.1335894602
  0
LINE
  5
322
100
AcDbEntity
  8
KONSTRUKTIONSELEMENTE
100
AcDbLine
 62
7
  6
CONTINUOUS
 10
296.7027549929
 20
271.5421637254
 11
297.1835885555
 21
271.8578134607
  0
LINE
  5
323
100
AcDbEntity
  8
KONSTRUKTIONSELEMENTE
100
AcDbLine
 62
7
  6
CONTINUOUS
 10
302.4727549929
 20
271.8179397249
 11
302.9535878677
 21
272.1335894602
  0
LINE
  5
324
100
AcDbEntity
  8
KONSTRUKTIONSELEMENTE
100
AcDbLine
 62
7
  6
CONTINUOUS
 10
302.4727549929
 20
271.5421637254
 11
302.9535878677
 21
271.8578134607
  0
LINE
  5
325
100
AcDbEntity
  8
KONSTRUKTIONSELEMENTE
100
AcDbLine
 62
7
  6
CONTINUOUS
 10
283.9771299929
 20
196.3918668598
 11
282.8771299929
 21
196.3918668598
  0
LINE
  5
326
100
AcDbEntity
  8
KONSTRUKTIONSELEMENTE
100
AcDbLine
 62
7
  6
CONTINUOUS
 10
283.9771299929
 20
197.1306606302
 11
282.8771299929
 21
197.1306606302
  0
LINE
  5
327
100
AcDbEntity
  8
KONSTRUKTIONSELEMENTE
100
AcDbLine
 62
7
  6
CONTINUOUS
 10
283.9771299929
 20
202.8043380562
 11
282.8771299929
 21
202.8043380562
  0
LINE
  5
328
100
AcDbEntity
  8
AUSFORMSCHRAEGEN
100
AcDbLine
 62
7
  6
CONTINUOUS
 10
279.9097061752
 20
296.3773769121
 11
278.8771299929
 21
287.3362141531
  0
LINE
  5
329
100
AcDbEntity
  8
KONSTRUKTIONSELEMENTE
100
AcDbLine
 62
7
  6
CONTINUOUS
 10
291.4135882116
 20
274.1853127262
 11
291.2933799929
 21
273.9485754454
  0
LINE
  5
32A
100
AcDbEntity
  8
KONSTRUKTIONSELEMENTE
100
AcDbLine
 62
7
  6
CONTINUOUS
 10
292.0146299929
 20
273.8696630185
 11
292.1348382116
 21
274.1064002993
  0
LINE
  5
32B
100
AcDbEntity
  8
KONSTRUKTIONSELEMENTE
100
AcDbLine
 62
7
  6
CONTINUOUS
 10
285.4959271165
 20
252.4687798892
 11
283.0943605965
 21
249.0519608707
  0
LINE
  5
32C
100
AcDbEntity
  8
KONSTRUKTIONSELEMENTE
100
AcDbLine
 62
7
  6
CONTINUOUS
 10
284.6425068102
 20
252.5648016222
 11
285.9392832707
 21
254.3523593145
  0
LINE
  5
32D
100
AcDbEntity
  8
KONSTRUKTIONSELEMENTE
100
AcDbLine
 62
7
  6
CONTINUOUS
 10
285.4959271165
 20
252.4687798892
 11
285.6732501225
 21
252.7040485624
  0
LINE
  5
32E
100
AcDbEntity
  8
KONSTRUKTIONSELEMENTE
100
AcDbLine
 62
7
  6
CONTINUOUS
 10
297.1835885555
 20
272.1335894602
 11
297.4240049929
 21
272.4492392232
  0
LINE
  5
32F
100
AcDbEntity
  8
KONSTRUKTIONSELEMENTE
100
AcDbLine
 62
7
  6
CONTINUOUS
 10
297.1835885555
 20
271.8578134607
 11
297.4240049929
 21
272.1734632237
  0
LINE
  5
330
100
AcDbEntity
  8
KONSTRUKTIONSELEMENTE
100
AcDbLine
 62
7
  6
CONTINUOUS
 10
302.4727549929
 20
272.5281516502
 11
302.2323378677
 21
272.2914143694
  0
LINE
  5
331
100
AcDbEntity
  8
KONSTRUKTIONSELEMENTE
100
AcDbLine
 62
7
  6
CONTINUOUS
 10
278.5389662849
 20
256.5772011505
 11
278.0176044347
 21
272.1831634952
  0
LINE
  5
332
100
AcDbEntity
  8
KONSTRUKTIONSELEMENTE
100
AcDbLine
 62
7
  6
CONTINUOUS
 10
279.3771299929
 20
300.5739833604
 11
279.3771299929
 21
309.7348262308
  0
LINE
  5
333
100
AcDbEntity
  8
AUSFORMSCHRAEGEN
100
AcDbLine
 62
7
  6
CONTINUOUS
 10
279.4020619741
 20
272.3419654251
 11
279.4020619741
 21
272.6488525212
  0
LINE
  5
334
100
AcDbEntity
  8
KONSTRUKTIONSELEMENTE
100
AcDbLine
 62
7
  6
CONTINUOUS
 10
281.0771299929
 20
233.5348493342
 11
281.0771299929
 21
242.079678369
  0
LINE
  5
335
100
AcDbEntity
  8
KONSTRUKTIONSELEMENTE
100
AcDbLine
 62
7
  6
CONTINUOUS
 10
296.8229635555
 20
272.8438013579
 11
296.7027549929
 21
272.5281516502
  0
LINE
  5
336
100
AcDbEntity
  8
KONSTRUKTIONSELEMENTE
100
AcDbLine
 62
7
  6
CONTINUOUS
 10
302.9535878677
 20
272.1335894602
 11
303.1940049929
 21
272.4492392232
  0
LINE
  5
337
100
AcDbEntity
  8
KONSTRUKTIONSELEMENTE
100
AcDbLine
 62
7
  6
CONTINUOUS
 10
302.9535878677
 20
271.8578134607
 11
303.1940049929
 21
272.1734632237
  0
LWPOLYLINE
  5
338
100
AcDbEntity
  8
KONSTRUKTIONSELEMENTE
100
AcDbPolyline
 62
7
  6
CONTINUOUS
 90
4
 70
0
 10
282.221913927
 20
236.6936757223
 10
282.2639165306
 20
236.255322739
 10
282.325591313
 20
235.7776280148
 10
282.3607959802
 20
235.5505023868
  0
LINE
  5
339
100
AcDbEntity
  8
BEZUGSACHSEN
100
AcDbLine
 62
7
  6
CONTINUOUS
 10
284.3738812263
 20
265.5279216656
 11
284.3706750517
 21
265.5783435022
  0
LINE
  5
33A
100
AcDbEntity
  8
BEZUGSACHSEN
100
AcDbLine
 62
7
  6
CONTINUOUS
 10
284.3738812263
 20
262.4425411391
 11
284.3723674233
 21
262.4744443651
  0
LINE
  5
33B
100
AcDbEntity
  8
BEZUGSACHSEN
100
AcDbLine
 62
7
  6
CONTINUOUS
 10
284.3770804519
 20
269.57040738
 11
284.3768787364
 21
269.5805139284
  0
LINE
  5
33C
100
AcDbEntity
  8
BEZUGSACHSEN
100
AcDbLine
 62
7
  6
CONTINUOUS
 10
284.3770804519
 20
260.3142658005
 11
284.3770713017
 21
260.3162568291
  0
LINE
  5
33D
100
AcDbEntity
  8
KONSTRUKTIONSELEMENTE
100
AcDbLine
 62
7
  6
CONTINUOUS
 10
282.1771299929
 20
246.3525106732
 11
282.1771299929
 21
239.5886149865
  0
LINE
  5
33E
100
AcDbEntity
  8
KONSTRUKTIONSELEMENTE
100
AcDbLine
 62
7
  6
CONTINUOUS
 10
282.8771299929
 20
194.2592963973
 11
282.8771299929
 21
202.8043380562
  0
LINE
  5
33F
100
AcDbEntity
  8
BEZUGSACHSEN
100
AcDbLine
 62
7
  6
CONTINUOUS
 10
283.3771299929
 20
192.7079686512
 11
283.3771299929
 21
190.0239193857
  0
LINE
  5
340
100
AcDbEntity
  8
KONSTRUKTIONSELEMENTE
100
AcDbLine
 62
7
  6
CONTINUOUS
 10
283.3771299929
 20
147.1622766547
 11
283.3771299929
 21
190.0239193857
  0
LINE
  5
341
100
AcDbEntity
  8
BEZUGSACHSEN
100
AcDbLine
 62
7
  6
CONTINUOUS
 10
283.9771299929
 20
206.657682305
 11
283.9771299929
 21
194.0243612337
  0
LINE
  5
342
100
AcDbEntity
  8
KONSTRUKTIONSELEMENTE
100
AcDbLine
 62
7
  6
CONTINUOUS
 10
286.2571299929
 20
145.546362841
 11
286.2571299929
 21
222.629398265
  0
LINE
  5
343
100
AcDbEntity
  8
KONSTRUKTIONSELEMENTE
100
AcDbLine
 62
7
  6
CONTINUOUS
 10
287.3771299929
 20
276.0907966761
 11
287.3771299929
 21
293.904426874
  0
LINE
  5
344
100
AcDbEntity
  8
KONSTRUKTIONSELEMENTE
100
AcDbLine
 62
7
  6
CONTINUOUS
 10
287.6871299929
 20
271.3054264169
 11
287.6871299929
 21
275.2900869243
  0
LINE
  5
345
100
AcDbEntity
  8
KONSTRUKTIONSELEMENTE
100
AcDbLine
 62
7
  6
CONTINUOUS
 10
288.3771299929
 20
276.0907966761
 11
288.3771299929
 21
292.8426972549
  0
LINE
  5
346
100
AcDbEntity
  8
KONSTRUKTIONSELEMENTE
100
AcDbLine
 62
7
  6
CONTINUOUS
 10
288.4083799929
 20
271.3054264169
 11
288.4083799929
 21
273.2383636031
  0
LINE
  5
347
100
AcDbEntity
  8
KONSTRUKTIONSELEMENTE
100
AcDbLine
 62
7
  6
CONTINUOUS
 10
288.4083799929
 20
273.7118381647
 11
288.4083799929
 21
274.8955247897
  0
LINE
  5
348
100
AcDbEntity
  8
KONSTRUKTIONSELEMENTE
100
AcDbLine
 62
7
  6
CONTINUOUS
 10
286.2401903071
 20
222.6303473458
 11
286.2371002488
 21
222.5751943865
  0
LINE
  5
349
100
AcDbEntity
  8
KONSTRUKTIONSELEMENTE
100
AcDbLine
 62
7
  6
CONTINUOUS
 10
283.3771299929
 20
183.5083380562
 11
286.2411591832
 21
222.6305674433
  0
LINE
  5
34A
100
AcDbEntity
  8
KONSTRUKTIONSELEMENTE
100
AcDbLine
 62
7
  6
CONTINUOUS
 10
286.2731435416
 20
223.0674692067
 11
286.9098962566
 21
231.7654202845
  0
LINE
  5
34B
100
AcDbEntity
  8
KONSTRUKTIONSELEMENTE
100
AcDbLine
 62
7
  6
CONTINUOUS
 10
297.4240049929
 20
272.4492392232
 11
297.5442135555
 21
272.8438013579
  0
LINE
  5
34C
100
AcDbEntity
  8
KONSTRUKTIONSELEMENTE
100
AcDbLine
 62
7
  6
CONTINUOUS
 10
297.4240049929
 20
272.1734632237
 11
297.5442135555
 21
272.5680253584
  0
LINE
  5
34D
100
AcDbEntity
  8
KONSTRUKTIONSELEMENTE
100
AcDbLine
 62
7
  6
CONTINUOUS
 10
302.5929628677
 20
272.8438013579
 11
302.4727549929
 21
272.5281516502
  0
LWPOLYLINE
  5
34E
100
AcDbEntity
  8
KONSTRUKTIONSELEMENTE
100
AcDbPolyline
 62
7
  6
CONTINUOUS
 90
3
 70
0
 10
283.6681619725
 20
231.4870401989
 10
285.2168231056
 20
228.3347388242
 10
285.3153769823
 20
228.1246395619
  0
LINE
  5
34F
100
AcDbEntity
  8
KONSTRUKTIONSELEMENTE
100
AcDbLine
 62
7
  6
CONTINUOUS
 10
285.3153769823
 20
228.1246395619
 11
285.4096962476
 21
227.9130210553
  0
LWPOLYLINE
  5
350
100
AcDbEntity
  8
KONSTRUKTIONSELEMENTE
100
AcDbPolyline
 62
7
  6
CONTINUOUS
 90
4
 70
0
 10
285.4096962476
 20
227.9130210553
 10
285.4996993626
 20
227.6999472399
 10
285.5853067965
 20
227.4854822245
 10
285.6279425187
 20
227.3737443907
  0
LWPOLYLINE
  5
351
100
AcDbEntity
  8
KONSTRUKTIONSELEMENTE
100
AcDbPolyline
 62
7
  6
CONTINUOUS
 90
3
 70
0
 10
283.1798904067
 20
232.5905736411
 10
283.4506341057
 20
231.9493069816
 10
283.668162741
 20
231.4870405764
  0
LINE
  5
352
100
AcDbEntity
  8
KONSTRUKTIONSELEMENTE
100
AcDbLine
 62
7
  6
CONTINUOUS
 10
285.6278453201
 20
227.3739840183
 11
285.6279361911
 21
227.3737420147
  0
LWPOLYLINE
  5
353
100
AcDbEntity
  8
KONSTRUKTIONSELEMENTE
100
AcDbPolyline
 62
7
  6
CONTINUOUS
 90
8
 70
0
 10
285.6278453201
 20
227.3739840183
 10
285.7897406088
 20
226.9051154715
 10
285.9613453471
 20
226.2922626278
 10
286.0947836692
 20
225.663076403
 10
286.1906234708
 20
225.0208950118
 10
286.2497612041
 20
224.3696287672
 10
286.2736458978
 20
223.7139951445
 10
286.2664499118
 20
223.21465172
  0
LWPOLYLINE
  5
354
100
AcDbEntity
  8
KONSTRUKTIONSELEMENTE
100
AcDbPolyline
 62
7
  6
CONTINUOUS
 90
4
 70
0
 10
282.7082159996
 20
233.9873696741
 10
282.7348475685
 20
233.8941273604
 10
282.9412207645
 20
233.2392974363
 10
283.1798904067
 20
232.5905736411
  0
LINE
  5
355
100
AcDbEntity
  8
KONSTRUKTIONSELEMENTE
100
AcDbLine
 62
7
  6
CONTINUOUS
 10
291.4135882116
 20
274.4220502281
 11
291.4135882116
 21
274.1853127262
  0
LINE
  5
356
100
AcDbEntity
  8
KONSTRUKTIONSELEMENTE
100
AcDbLine
 62
7
  6
CONTINUOUS
 10
291.4135882116
 20
271.3054264169
 11
291.4135882116
 21
271.5812024164
  0
LINE
  5
357
100
AcDbEntity
  8
KONSTRUKTIONSELEMENTE
100
AcDbLine
 62
7
  6
CONTINUOUS
 10
292.1348382116
 20
273.8738202763
 11
292.1348382116
 21
274.4220502281
  0
LINE
  5
358
100
AcDbEntity
  8
KONSTRUKTIONSELEMENTE
100
AcDbLine
 62
7
  6
CONTINUOUS
 10
292.2550467742
 20
271.3054264169
 11
292.2550467742
 21
271.5812024164
  0
LINE
  5
359
100
AcDbEntity
  8
KONSTRUKTIONSELEMENTE
100
AcDbLine
 62
7
  6
CONTINUOUS
 10
293.2167132116
 20
272.5680253584
 11
293.2167132116
 21
275.2900869243
  0
LINE
  5
35A
100
AcDbEntity
  8
KONSTRUKTIONSELEMENTE
100
AcDbLine
 62
7
  6
CONTINUOUS
 10
293.3369217742
 20
272.1734632237
 11
293.3369217742
 21
272.4492392232
  0
LINE
  5
35B
100
AcDbEntity
  8
KONSTRUKTIONSELEMENTE
100
AcDbLine
 62
7
  6
CONTINUOUS
 10
293.9379635555
 20
272.8438013579
 11
293.9379635555
 21
275.2900869243
  0
LINE
  5
35C
100
AcDbEntity
  8
0
100
AcDbLine
 62
7
  6
CONTINUOUS
 10
295.3771299929
 20
253.4224334487
 11
295.3771299929
 21
253.1830464133
  0
LINE
  5
35D
100
AcDbEntity
  8
BG_STARTBEZUEGE
100
AcDbLine
 62
2
  6
CENTER
 10
295.3771299929
 20
209.9083380562
 11
295.3771299929
 21
139.3478817606
  0
LINE
  5
35E
100
AcDbEntity
  8
0
100
AcDbLine
 62
7
  6
CONTINUOUS
 10
295.3771299929
 20
144.7483380562
 11
295.3771299929
 21
141.9211785369
  0
LINE
  5
35F
100
AcDbEntity
  8
0
100
AcDbLine
 62
7
  6
CONTINUOUS
 10
295.3771299929
 20
312.9083380562
 11
295.3771299929
 21
319.935076919
  0
LINE
  5
360
100
AcDbEntity
  8
BG_STARTBEZUEGE
100
AcDbLine
 62
2
  6
CENTER
 10
295.3771299929
 20
209.9083380562
 11
295.3771299929
 21
325.1731164062
  0
LINE
  5
361
100
AcDbEntity
  8
KONSTRUKTIONSELEMENTE
100
AcDbLine
 62
7
  6
CONTINUOUS
 10
303.1940049929
 20
272.4492392232
 11
303.3142128677
 21
272.8438013579
  0
LINE
  5
362
100
AcDbEntity
  8
KONSTRUKTIONSELEMENTE
100
AcDbLine
 62
7
  6
CONTINUOUS
 10
303.1940049929
 20
272.1734632237
 11
303.3142128677
 21
272.5680253584
  0
LINE
  5
363
100
AcDbEntity
  8
KONSTRUKTIONSELEMENTE
100
AcDbLine
 62
7
  6
CONTINUOUS
 10
283.4630689488
 20
240.810285602
 11
285.401847959
 21
237.7574510084
  0
LINE
  5
364
100
AcDbEntity
  8
KONSTRUKTIONSELEMENTE
100
AcDbLine
 62
7
  6
CONTINUOUS
 10
282.5340777935
 20
248.0375558423
 11
278.8314516423
 21
255.4648491936
  0
LINE
  5
365
100
AcDbEntity
  8
KONSTRUKTIONSELEMENTE
100
AcDbLine
 62
7
  6
CONTINUOUS
 10
283.3529295872
 20
249.4198388526
 11
283.3023083869
 21
249.5607793612
  0
LINE
  5
366
100
AcDbEntity
  8
AUSFORMSCHRAEGEN
100
AcDbLine
 62
7
  6
CONTINUOUS
 10
281.0254100588
 20
258.9482811984
 11
283.5534665725
 21
251.9096181601
  0
LINE
  5
367
100
AcDbEntity
  8
KONSTRUKTIONSELEMENTE
100
AcDbLine
 62
7
  6
CONTINUOUS
 10
296.8229635555
 20
275.2900869243
 11
296.8229635555
 21
272.8438013579
  0
LINE
  5
368
100
AcDbEntity
  8
KONSTRUKTIONSELEMENTE
100
AcDbLine
 62
7
  6
CONTINUOUS
 10
297.4240049929
 20
272.1734632237
 11
297.4240049929
 21
272.4492392232
  0
LINE
  5
369
100
AcDbEntity
  8
KONSTRUKTIONSELEMENTE
100
AcDbLine
 62
7
  6
CONTINUOUS
 10
297.5442135555
 20
272.5680253584
 11
297.5442135555
 21
275.2900869243
  0
LINE
  5
36A
100
AcDbEntity
  8
KONSTRUKTIONSELEMENTE
100
AcDbLine
 62
7
  6
CONTINUOUS
 10
298.5058799929
 20
271.3054264169
 11
298.5058799929
 21
275.2900869243
  0
LINE
  5
36B
100
AcDbEntity
  8
KONSTRUKTIONSELEMENTE
100
AcDbLine
 62
7
  6
CONTINUOUS
 10
299.2271299929
 20
272.0546770333
 11
299.2271299929
 21
274.8166123628
  0
LINE
  5
36C
100
AcDbEntity
  8
0
100
AcDbLine
 62
7
  6
CONTINUOUS
 10
302.3771299929
 20
276.0907966761
 11
302.3771299929
 21
292.8426972549
  0
LINE
  5
36D
100
AcDbEntity
  8
KONSTRUKTIONSELEMENTE
100
AcDbLine
 62
7
  6
CONTINUOUS
 10
302.4727549929
 20
274.1296232341
 11
302.4727549929
 21
274.3431375801
  0
LINE
  5
36E
100
AcDbEntity
  8
KONSTRUKTIONSELEMENTE
100
AcDbLine
 62
7
  6
CONTINUOUS
 10
302.5929628677
 20
274.0274878724
 11
302.5929628677
 21
272.8438013579
  0
LINE
  5
36F
100
AcDbEntity
  8
KONSTRUKTIONSELEMENTE
100
AcDbLine
 62
7
  6
CONTINUOUS
 10
303.1940049929
 20
272.1734632237
 11
303.1940049929
 21
272.4492392232
  0
LINE
  5
370
100
AcDbEntity
  8
KONSTRUKTIONSELEMENTE
100
AcDbLine
 62
7
  6
CONTINUOUS
 10
303.3142128677
 20
272.5680253584
 11
303.3142128677
 21
274.0274878724
  0
LINE
  5
371
100
AcDbEntity
  8
0
100
AcDbLine
 62
7
  6
CONTINUOUS
 10
303.3771299929
 20
276.0907966761
 11
303.3771299929
 21
293.904426874
  0
LINE
  5
372
100
AcDbEntity
  8
0
100
AcDbLine
 62
7
  6
CONTINUOUS
 10
309.728849927
 20
258.9482811984
 11
307.2007934133
 21
251.9096181601
  0
LINE
  5
373
100
AcDbEntity
  8
0
100
AcDbLine
 62
7
  6
CONTINUOUS
 10
307.4013303986
 20
249.4198388526
 11
307.4519515989
 21
249.5607793612
  0
LINE
  5
374
100
AcDbEntity
  8
0
100
AcDbLine
 62
7
  6
CONTINUOUS
 10
308.2201821924
 20
248.0375558423
 11
311.9228083435
 21
255.4648491936
  0
LINE
  5
375
100
AcDbEntity
  8
0
100
AcDbLine
 62
7
  6
CONTINUOUS
 10
307.291191037
 20
240.810285602
 11
305.3524120269
 21
237.7574510084
  0
LINE
  5
376
100
AcDbEntity
  8
KONSTRUKTIONSELEMENTE
100
AcDbLine
 62
7
  6
CONTINUOUS
 10
282.8480759837
 20
233.5348493342
 11
281.0771299929
 21
233.5348493342
  0
LINE
  5
377
100
AcDbEntity
  8
KONSTRUKTIONSELEMENTE
100
AcDbLine
 62
7
  6
CONTINUOUS
 10
282.6447978116
 20
234.2736431045
 11
281.0771299929
 21
234.2736431045
  0
LINE
  5
378
100
AcDbEntity
  8
KONSTRUKTIONSELEMENTE
100
AcDbLine
 62
7
  6
CONTINUOUS
 10
282.221913927
 20
236.6376753654
 11
281.0771299929
 21
236.6376753654
  0
LINE
  5
379
100
AcDbEntity
  8
KONSTRUKTIONSELEMENTE
100
AcDbLine
 62
7
  6
CONTINUOUS
 10
282.4052992553
 20
237.3161083241
 11
281.0771299929
 21
237.3161083241
  0
LINE
  5
37A
100
AcDbEntity
  8
0
100
AcDbLine
 62
7
  6
CONTINUOUS
 10
307.3771299929
 20
183.5083380562
 11
304.5131008026
 21
222.6305674433
  0
LINE
  5
37B
100
AcDbEntity
  8
0
100
AcDbLine
 62
7
  6
CONTINUOUS
 10
304.4811164443
 20
223.0674692067
 11
303.8443637292
 21
231.7654202845
  0
LINE
  5
37C
100
AcDbEntity
  8
0
100
AcDbLine
 62
7
  6
CONTINUOUS
 10
304.517159737
 20
222.5751943865
 11
304.5140696787
 21
222.6303473458
  0
LWPOLYLINE
  5
37D
100
AcDbEntity
  8
0
100
AcDbPolyline
 62
7
  6
CONTINUOUS
 90
8
 70
0
 10
304.4900530251
 20
223.0590090004
 10
304.480614088
 20
223.7139951445
 10
304.5044987818
 20
224.3696287672
 10
304.563636515
 20
225.0208950118
 10
304.6594763167
 20
225.663076403
 10
304.7929146387
 20
226.2922626278
 10
304.964519377
 20
226.9051154715
 10
305.1264146657
 20
227.3739840183
  0
LINE
  5
37E
100
AcDbEntity
  8
0
100
AcDbLine
 62
7
  6
CONTINUOUS
 10
304.4971299929
 20
145.546362841
 11
304.4971299929
 21
222.629398265
  0
LINE
  5
37F
100
AcDbEntity
  8
0
100
AcDbLine
 62
7
  6
CONTINUOUS
 10
307.3771299929
 20
147.1622766547
 11
307.3771299929
 21
192.805366577
  0
LINE
  5
380
100
AcDbEntity
  8
0
100
AcDbLine
 62
7
  6
CONTINUOUS
 10
308.5771299929
 20
246.3525106732
 11
308.5771299929
 21
237.8159282578
  0
LINE
  5
381
100
AcDbEntity
  8
0
100
AcDbLine
 62
7
  6
CONTINUOUS
 10
306.3771795339
 20
260.3142658005
 11
306.3771886842
 21
260.3162568291
  0
LINE
  5
382
100
AcDbEntity
  8
0
100
AcDbLine
 62
7
  6
CONTINUOUS
 10
306.3771795339
 20
269.57040738
 11
306.3773812494
 21
269.5805139284
  0
LINE
  5
383
100
AcDbEntity
  8
0
100
AcDbLine
 62
7
  6
CONTINUOUS
 10
306.3803787595
 20
262.4425411391
 11
306.3818925625
 21
262.4744443651
  0
LINE
  5
384
100
AcDbEntity
  8
0
100
AcDbLine
 62
7
  6
CONTINUOUS
 10
306.3803787595
 20
265.5279216656
 11
306.3835849341
 21
265.5783435022
  0
LWPOLYLINE
  5
385
100
AcDbEntity
  8
0
100
AcDbPolyline
 62
7
  6
CONTINUOUS
 90
6
 70
0
 10
308.3600356976
 20
235.3546575495
 10
308.443629512
 20
235.8824245952
 10
308.5070706064
 20
236.4131891111
 10
308.5502628257
 20
236.9462427084
 10
308.573147407
 20
237.48086162
 10
308.577129572
 20
237.8167744319
  0
LINE
  5
386
100
AcDbEntity
  8
0
100
AcDbLine
 62
7
  6
CONTINUOUS
 10
308.2943687556
 20
235.0106594982
 11
308.3600356976
 21
235.3546575495
  0
LINE
  5
387
100
AcDbEntity
  8
0
100
AcDbLine
 62
7
  6
CONTINUOUS
 10
308.2943670353
 20
235.0106598496
 11
308.2943261476
 21
235.0104593015
  0
LINE
  5
388
100
AcDbEntity
  8
0
100
AcDbLine
 62
7
  6
CONTINUOUS
 10
305.1264146657
 20
227.3739840183
 11
305.1263237947
 21
227.3737420147
  0
LWPOLYLINE
  5
389
100
AcDbEntity
  8
0
100
AcDbPolyline
 62
7
  6
CONTINUOUS
 90
4
 70
0
 10
305.1263174671
 20
227.3737443907
 10
305.1689531893
 20
227.4854822245
 10
305.2545606232
 20
227.6999472399
 10
305.3445637383
 20
227.9130210553
  0
LWPOLYLINE
  5
38A
100
AcDbEntity
  8
0
100
AcDbPolyline
 62
7
  6
CONTINUOUS
 90
6
 70
0
 10
307.3036258801
 20
231.9493069816
 10
307.5743695791
 20
232.5905736411
 10
307.8130392213
 20
233.2392974363
 10
308.0194124173
 20
233.8941273604
 10
308.1933374408
 20
234.5536841696
 10
308.2943261476
 20
235.0104593015
  0
LINE
  5
38B
100
AcDbEntity
  8
0
100
AcDbLine
 62
7
  6
CONTINUOUS
 10
305.3445637383
 20
227.9130210553
 11
305.4388830035
 21
228.1246395619
  0
LINE
  5
38C
100
AcDbEntity
  8
0
100
AcDbLine
 62
7
  6
CONTINUOUS
 10
305.4388830035
 20
228.1246395619
 11
305.5374368802
 21
228.3347388242
  0
LINE
  5
38D
100
AcDbEntity
  8
0
100
AcDbLine
 62
7
  6
CONTINUOUS
 10
307.0860972448
 20
231.4870405764
 11
307.3036258801
 21
231.9493069816
  0
LINE
  5
38E
100
AcDbEntity
  8
0
100
AcDbLine
 62
7
  6
CONTINUOUS
 10
305.5374368802
 20
228.3347388242
 11
307.0860660164
 21
231.4869750873
  0
LINE
  5
38F
100
AcDbEntity
  8
KONSTRUKTIONSELEMENTE
100
AcDbLine
 62
7
  6
CONTINUOUS
 10
282.1771299929
 20
242.079678369
 11
281.0771299929
 21
242.079678369
  0
LINE
  5
390
100
AcDbEntity
  8
KONSTRUKTIONSELEMENTE
100
AcDbLine
 62
7
  6
CONTINUOUS
 10
294.0581714303
 20
272.5281516502
 11
293.9379635555
 21
272.8438013579
  0
LINE
  5
391
100
AcDbEntity
  8
KONSTRUKTIONSELEMENTE
100
AcDbLine
 62
7
  6
CONTINUOUS
 10
293.2167132116
 20
272.5680253584
 11
293.3369217742
 21
272.1734632237
  0
LINE
  5
392
100
AcDbEntity
  8
KONSTRUKTIONSELEMENTE
100
AcDbLine
 62
7
  6
CONTINUOUS
 10
293.2167132116
 20
272.8438013579
 11
293.3369217742
 21
272.4492392232
  0
LINE
  5
393
100
AcDbEntity
  8
0
100
AcDbLine
 62
7
  6
CONTINUOUS
 10
311.3521980118
 20
272.3419654251
 11
311.3521980118
 21
272.6488525212
  0
LINE
  5
394
100
AcDbEntity
  8
0
100
AcDbLine
 62
7
  6
CONTINUOUS
 10
311.3771299929
 20
300.5739833604
 11
311.3771299929
 21
309.7348262308
  0
LINE
  5
395
100
AcDbEntity
  8
0
100
AcDbLine
 62
7
  6
CONTINUOUS
 10
312.2152937009
 20
256.5772011505
 11
312.7366555511
 21
272.1831634952
  0
LINE
  5
396
100
AcDbEntity
  8
0
100
AcDbLine
 62
7
  6
CONTINUOUS
 10
305.2583328693
 20
252.4687798892
 11
305.0810098633
 21
252.7040485624
  0
LINE
  5
397
100
AcDbEntity
  8
0
100
AcDbLine
 62
7
  6
CONTINUOUS
 10
306.1117531756
 20
252.5648016222
 11
304.8149767151
 21
254.3523593145
  0
LINE
  5
398
100
AcDbEntity
  8
0
100
AcDbLine
 62
7
  6
CONTINUOUS
 10
305.2583328693
 20
252.4687798892
 11
307.6598993893
 21
249.0519608707
  0
LINE
  5
399
100
AcDbEntity
  8
KONSTRUKTIONSELEMENTE
100
AcDbLine
 62
7
  6
CONTINUOUS
 10
292.2550467742
 20
271.5812024164
 11
291.1731717742
 21
273.3961884569
  0
LINE
  5
39A
100
AcDbEntity
  8
KONSTRUKTIONSELEMENTE
100
AcDbLine
 62
7
  6
CONTINUOUS
 10
290.6339850945
 20
272.6488525212
 11
291.4135882116
 21
271.3054264169
  0
LINE
  5
39B
100
AcDbEntity
  8
KONSTRUKTIONSELEMENTE
100
AcDbLine
 62
7
  6
CONTINUOUS
 10
290.4519216023
 20
273.2383636031
 11
291.4135882116
 21
271.5812024164
  0
LINE
  5
39C
100
AcDbEntity
  8
KONSTRUKTIONSELEMENTE
100
AcDbLine
 62
7
  6
CONTINUOUS
 10
292.1348382116
 20
274.4220502281
 11
292.0146299929
 21
274.6587875089
  0
LINE
  5
39D
100
AcDbEntity
  8
KONSTRUKTIONSELEMENTE
100
AcDbLine
 62
7
  6
CONTINUOUS
 10
302.4727549929
 20
274.3431375801
 11
302.5929628677
 21
274.0274878724
  0
LINE
  5
39E
100
AcDbEntity
  8
KONSTRUKTIONSELEMENTE
100
AcDbLine
 62
7
  6
CONTINUOUS
 10
303.3142128677
 20
274.0274878724
 11
303.1940049929
 21
274.4220502281
  0
LINE
  5
39F
100
AcDbEntity
  8
0
100
AcDbLine
 62
7
  6
CONTINUOUS
 10
324.779421987
 20
275.9083380562
 11
324.779421987
 21
280.9083380562
  0
LINE
  5
3A0
100
AcDbEntity
  8
AUSFORMSCHRAEGEN
100
AcDbLine
 62
7
  6
CONTINUOUS
 10
295.3771299929
 20
255.2683380562
 11
287.8412172885
 21
254.6090311252
  0
LINE
  5
3A1
100
AcDbEntity
  8
0
100
AcDbLine
 62
7
  6
CONTINUOUS
 10
291.3771299929
 20
256.579162279
 11
299.3771299929
 21
256.579162279
  0
LINE
  5
3A2
100
AcDbEntity
  8
0
100
AcDbLine
 62
7
  6
CONTINUOUS
 10
302.9130426973
 20
254.6090311252
 11
295.3771299929
 21
255.2683380562
  0
LINE
  5
3A3
100
AcDbEntity
  8
KONSTRUKTIONSELEMENTE
100
AcDbLine
 62
7
  6
CONTINUOUS
 10
294.2985885555
 20
272.2914143694
 11
294.0581714303
 21
272.5281516502
  0
LINE
  5
3A4
100
AcDbEntity
  8
KONSTRUKTIONSELEMENTE
100
AcDbLine
 62
7
  6
CONTINUOUS
 10
293.3369217742
 20
272.1734632237
 11
293.5773385555
 21
271.8578134607
  0
LINE
  5
3A5
100
AcDbEntity
  8
KONSTRUKTIONSELEMENTE
100
AcDbLine
 62
7
  6
CONTINUOUS
 10
293.3369217742
 20
272.4492392232
 11
293.5773385555
 21
272.1335894602
  0
LINE
  5
3A6
100
AcDbEntity
  8
0
100
AcDbLine
 62
7
  6
CONTINUOUS
 10
310.8445538107
 20
296.3773769121
 11
311.8771299929
 21
287.3362141531
  0
LINE
  5
3A7
100
AcDbEntity
  8
KONSTRUKTIONSELEMENTE
100
AcDbLine
 62
7
  6
CONTINUOUS
 10
293.5773385555
 20
271.8578134607
 11
294.0581714303
 21
271.5421637254
  0
LINE
  5
3A8
100
AcDbEntity
  8
KONSTRUKTIONSELEMENTE
100
AcDbLine
 62
7
  6
CONTINUOUS
 10
293.5773385555
 20
272.1335894602
 11
294.0581714303
 21
271.8179397249
  0
LINE
  5
3A9
100
AcDbEntity
  8
KONSTRUKTIONSELEMENTE
100
AcDbLine
 62
7
  6
CONTINUOUS
 10
291.0529632116
 20
274.8166123628
 11
291.2933799929
 21
274.6587875089
  0
LINE
  5
3AA
100
AcDbEntity
  8
KONSTRUKTIONSELEMENTE
100
AcDbLine
 62
7
  6
CONTINUOUS
 10
292.0146299929
 20
274.6587875089
 11
291.6540049929
 21
274.9744372166
  0
LINE
  5
3AB
100
AcDbEntity
  8
KONSTRUKTIONSELEMENTE
100
AcDbLine
 62
7
  6
CONTINUOUS
 10
302.2323378677
 20
274.579875082
 11
302.4727549929
 21
274.3431375801
  0
LINE
  5
3AC
100
AcDbEntity
  8
KONSTRUKTIONSELEMENTE
100
AcDbLine
 62
7
  6
CONTINUOUS
 10
303.1940049929
 20
274.4220502281
 11
302.9535878677
 21
274.7376999358
  0
LINE
  5
3AD
100
AcDbEntity
  8
KONSTRUKTIONSELEMENTE
100
AcDbLine
 62
7
  6
CONTINUOUS
 10
291.0529632116
 20
273.7907505916
 11
290.6923382116
 21
273.7118381647
  0
LINE
  5
3AE
100
AcDbEntity
  8
KONSTRUKTIONSELEMENTE
100
AcDbLine
 62
7
  6
CONTINUOUS
 10
301.8717128677
 20
272.1335894602
 11
301.3908799929
 21
272.0546770333
  0
LINE
  5
3AF
100
AcDbEntity
  8
KONSTRUKTIONSELEMENTE
100
AcDbLine
 62
7
  6
CONTINUOUS
 10
296.1017135555
 20
272.1335894602
 11
295.6208799929
 21
272.0546770333
  0
LINE
  5
3B0
100
AcDbEntity
  8
KONSTRUKTIONSELEMENTE
100
AcDbLine
 62
7
  6
CONTINUOUS
 10
301.3908799929
 20
271.3054264169
 11
301.9919221181
 21
271.3843388508
  0
LINE
  5
3B1
100
AcDbEntity
  8
KONSTRUKTIONSELEMENTE
100
AcDbLine
 62
7
  6
CONTINUOUS
 10
301.3908799929
 20
271.5812024164
 11
301.9919221181
 21
271.6601148503
  0
LINE
  5
3B2
100
AcDbEntity
  8
KONSTRUKTIONSELEMENTE
100
AcDbLine
 62
7
  6
CONTINUOUS
 10
295.6208799929
 20
271.3054264169
 11
296.2219214303
 21
271.3843388508
  0
LINE
  5
3B3
100
AcDbEntity
  8
KONSTRUKTIONSELEMENTE
100
AcDbLine
 62
7
  6
CONTINUOUS
 10
295.6208799929
 20
271.5812024164
 11
296.2219214303
 21
271.6601148503
  0
LINE
  5
3B4
100
AcDbEntity
  8
KONSTRUKTIONSELEMENTE
100
AcDbLine
 62
7
  6
CONTINUOUS
 10
287.6871299929
 20
271.3054264169
 11
288.4083799929
 21
271.3054264169
  0
LINE
  5
3B5
100
AcDbEntity
  8
KONSTRUKTIONSELEMENTE
100
AcDbLine
 62
7
  6
CONTINUOUS
 10
291.4135882116
 20
271.3054264169
 11
292.2550467742
 21
271.3054264169
  0
LINE
  5
3B6
100
AcDbEntity
  8
KONSTRUKTIONSELEMENTE
100
AcDbLine
 62
7
  6
CONTINUOUS
 10
295.1400464303
 20
271.3054264169
 11
295.6208799929
 21
271.3054264169
  0
LINE
  5
3B7
100
AcDbEntity
  8
KONSTRUKTIONSELEMENTE
100
AcDbLine
 62
7
  6
CONTINUOUS
 10
298.5058799929
 20
271.3054264169
 11
301.3908799929
 21
271.3054264169
  0
LINE
  5
3B8
100
AcDbEntity
  8
KONSTRUKTIONSELEMENTE
100
AcDbLine
 62
7
  6
CONTINUOUS
 10
287.6871299929
 20
271.5812024164
 11
288.4083799929
 21
271.5812024164
  0
LINE
  5
3B9
100
AcDbEntity
  8
KONSTRUKTIONSELEMENTE
100
AcDbLine
 62
7
  6
CONTINUOUS
 10
291.4135882116
 20
271.5812024164
 11
292.2550467742
 21
271.5812024164
  0
LINE
  5
3BA
100
AcDbEntity
  8
KONSTRUKTIONSELEMENTE
100
AcDbLine
 62
7
  6
CONTINUOUS
 10
295.1400464303
 20
271.5812024164
 11
295.6208799929
 21
271.5812024164
  0
LINE
  5
3BB
100
AcDbEntity
  8
KONSTRUKTIONSELEMENTE
100
AcDbLine
 62
7
  6
CONTINUOUS
 10
298.5058799929
 20
271.5812024164
 11
301.3908799929
 21
271.5812024164
  0
LINE
  5
3BC
100
AcDbEntity
  8
KONSTRUKTIONSELEMENTE
100
AcDbLine
 62
7
  6
CONTINUOUS
 10
301.3908799929
 20
272.0546770333
 11
299.2271299929
 21
272.0546770333
  0
LINE
  5
3BD
100
AcDbEntity
  8
KONSTRUKTIONSELEMENTE
100
AcDbLine
 62
7
  6
CONTINUOUS
 10
295.6208799929
 20
272.0546770333
 11
295.1400464303
 21
272.0546770333
  0
LINE
  5
3BE
100
AcDbEntity
  8
KONSTRUKTIONSELEMENTE
100
AcDbLine
 62
7
  6
CONTINUOUS
 10
288.4083799929
 20
272.9656293474
 11
290.4519216023
 21
272.9656293474
  0
LINE
  5
3BF
100
AcDbEntity
  8
KONSTRUKTIONSELEMENTE
100
AcDbLine
 62
7
  6
CONTINUOUS
 10
288.4083799929
 20
273.2383636031
 11
290.4519216023
 21
273.2383636031
  0
LINE
  5
3C0
100
AcDbEntity
  8
KONSTRUKTIONSELEMENTE
100
AcDbLine
 62
7
  6
CONTINUOUS
 10
290.6923382116
 20
273.7118381647
 11
288.4083799929
 21
273.7118381647
  0
LINE
  5
3C1
100
AcDbEntity
  8
KONSTRUKTIONSELEMENTE
100
AcDbLine
 62
7
  6
CONTINUOUS
 10
294.5390049929
 20
271.3843388508
 11
295.1400464303
 21
271.3054264169
  0
LINE
  5
3C2
100
AcDbEntity
  8
KONSTRUKTIONSELEMENTE
100
AcDbLine
 62
7
  6
CONTINUOUS
 10
294.5390049929
 20
271.6601148503
 11
295.1400464303
 21
271.5812024164
  0
LINE
  5
3C3
100
AcDbEntity
  8
KONSTRUKTIONSELEMENTE
100
AcDbLine
 62
7
  6
CONTINUOUS
 10
291.1731717742
 20
275.2111744974
 11
290.5721299929
 21
275.2900869243
  0
LINE
  5
3C4
100
AcDbEntity
  8
KONSTRUKTIONSELEMENTE
100
AcDbLine
 62
7
  6
CONTINUOUS
 10
295.1400464303
 20
272.0546770333
 11
294.6592135555
 21
272.1335894602
  0
LINE
  5
3C5
100
AcDbEntity
  8
KONSTRUKTIONSELEMENTE
100
AcDbLine
 62
7
  6
CONTINUOUS
 10
290.6923382116
 20
274.8955247897
 11
291.0529632116
 21
274.8166123628
  0
LINE
  5
3C6
100
AcDbEntity
  8
KONSTRUKTIONSELEMENTE
100
AcDbLine
 62
7
  6
CONTINUOUS
 10
294.0581714303
 20
271.5421637254
 11
294.5390049929
 21
271.3843388508
  0
LINE
  5
3C7
100
AcDbEntity
  8
KONSTRUKTIONSELEMENTE
100
AcDbLine
 62
7
  6
CONTINUOUS
 10
294.0581714303
 20
271.8179397249
 11
294.5390049929
 21
271.6601148503
  0
LINE
  5
3C8
100
AcDbEntity
  8
KONSTRUKTIONSELEMENTE
100
AcDbLine
 62
7
  6
CONTINUOUS
 10
294.6592135555
 20
272.1335894602
 11
294.2985885555
 21
272.2914143694
  0
LINE
  5
3C9
100
AcDbEntity
  8
KONSTRUKTIONSELEMENTE
100
AcDbLine
 62
7
  6
CONTINUOUS
 10
301.8717128677
 20
274.7376999358
 11
302.2323378677
 21
274.579875082
  0
LINE
  5
3CA
100
AcDbEntity
  8
KONSTRUKTIONSELEMENTE
100
AcDbLine
 62
7
  6
CONTINUOUS
 10
291.6540049929
 20
274.9744372166
 11
291.1731717742
 21
275.2111744974
  0
LINE
  5
3CB
100
AcDbEntity
  8
KONSTRUKTIONSELEMENTE
100
AcDbLine
 62
7
  6
CONTINUOUS
 10
302.9535878677
 20
274.7376999358
 11
302.4727549929
 21
275.0533496435
  0
LINE
  5
3CC
100
AcDbEntity
  8
KONSTRUKTIONSELEMENTE
100
AcDbLine
 62
7
  6
CONTINUOUS
 10
299.2271299929
 20
274.6517159297
 11
301.3908799929
 21
274.6517159297
  0
LINE
  5
3CD
100
AcDbEntity
  8
KONSTRUKTIONSELEMENTE
100
AcDbLine
 62
7
  6
CONTINUOUS
 10
288.4083799929
 20
274.7400954071
 11
290.6923382116
 21
274.7400954071
  0
LINE
  5
3CE
100
AcDbEntity
  8
KONSTRUKTIONSELEMENTE
100
AcDbLine
 62
7
  6
CONTINUOUS
 10
299.2271299929
 20
274.8166123628
 11
301.3908799929
 21
274.8166123628
  0
LINE
  5
3CF
100
AcDbEntity
  8
KONSTRUKTIONSELEMENTE
100
AcDbLine
 62
7
  6
CONTINUOUS
 10
288.4083799929
 20
274.8955247897
 11
290.6923382116
 21
274.8955247897
  0
LINE
  5
3D0
100
AcDbEntity
  8
KONSTRUKTIONSELEMENTE
100
AcDbLine
 62
7
  6
CONTINUOUS
 10
301.3908799929
 20
275.2900869243
 11
298.5058799929
 21
275.2900869243
  0
LINE
  5
3D1
100
AcDbEntity
  8
KONSTRUKTIONSELEMENTE
100
AcDbLine
 62
7
  6
CONTINUOUS
 10
297.5442135555
 20
275.2900869243
 11
296.8229635555
 21
275.2900869243
  0
LINE
  5
3D2
100
AcDbEntity
  8
KONSTRUKTIONSELEMENTE
100
AcDbLine
 62
7
  6
CONTINUOUS
 10
293.9379635555
 20
275.2900869243
 11
293.2167132116
 21
275.2900869243
  0
LINE
  5
3D3
100
AcDbEntity
  8
KONSTRUKTIONSELEMENTE
100
AcDbLine
 62
7
  6
CONTINUOUS
 10
290.5721299929
 20
275.2900869243
 11
287.6871299929
 21
275.2900869243
  0
LINE
  5
3D4
100
AcDbEntity
  8
0
100
AcDbLine
 62
7
  6
CONTINUOUS
 10
303.3771299929
 20
276.0907966761
 11
287.3771299929
 21
276.0907966761
  0
LINE
  5
3D5
100
AcDbEntity
  8
KONSTRUKTIONSELEMENTE
100
AcDbLine
 62
7
  6
CONTINUOUS
 10
287.3771299929
 20
276.9083380562
 11
288.3771299929
 21
276.9083380562
  0
LINE
  5
3D6
100
AcDbEntity
  8
KONSTRUKTIONSELEMENTE
100
AcDbLine
 62
7
  6
CONTINUOUS
 10
302.3771299929
 20
276.9083380562
 11
303.3771299929
 21
276.9083380562
  0
LINE
  5
3D7
100
AcDbEntity
  8
KONSTRUKTIONSELEMENTE
100
AcDbLine
 62
7
  6
CONTINUOUS
 10
301.9919221181
 20
275.2111744974
 11
301.3908799929
 21
275.2900869243
  0
LINE
  5
3D8
100
AcDbEntity
  8
KONSTRUKTIONSELEMENTE
100
AcDbLine
 62
7
  6
CONTINUOUS
 10
301.3908799929
 20
274.8166123628
 11
301.8717128677
 21
274.7376999358
  0
LINE
  5
3D9
100
AcDbEntity
  8
KONSTRUKTIONSELEMENTE
100
AcDbLine
 62
7
  6
CONTINUOUS
 10
302.4727549929
 20
275.0533496435
 11
301.9919221181
 21
275.2111744974
  0
LINE
  5
3DA
100
AcDbEntity
  8
0
100
AcDbLine
 62
7
  6
CONTINUOUS
 10
347.3771299929
 20
295.5279580595
 11
347.3771299929
 21
165.2937032485
  0
LINE
  5
3DB
100
AcDbEntity
  8
0
100
AcDbLine
 62
7
  6
CONTINUOUS
 10
352.3710323023
 20
157.4056145409
 11
352.3710323023
 21
156.995103774
  0
LINE
  5
3DC
100
AcDbEntity
  8
KONSTRUKTIONSELEMENTE
100
AcDbLine
 62
7
  6
CONTINUOUS
 10
287.3771299929
 20
284.9083380562
 11
288.3771299929
 21
284.9083380562
  0
LINE
  5
3DD
100
AcDbEntity
  8
KONSTRUKTIONSELEMENTE
100
AcDbLine
 62
7
  6
CONTINUOUS
 10
302.3771299929
 20
284.9083380562
 11
303.3771299929
 21
284.9083380562
  0
LINE
  5
3DE
100
AcDbEntity
  8
0
100
AcDbLine
 62
7
  6
CONTINUOUS
 10
354.3771299929
 20
165.9582601505
 11
354.3771299929
 21
295.5302911166
  0
LINE
  5
3DF
100
AcDbEntity
  8
0
100
AcDbLine
 62
7
  6
CONTINUOUS
 10
303.3771299929
 20
292.8426972549
 11
287.3771299929
 21
292.8426972549
  0
LINE
  5
3E0
100
AcDbEntity
  8
0
100
AcDbLine
 62
7
  6
CONTINUOUS
 10
287.3771299929
 20
293.904426874
 11
303.3771299929
 21
293.904426874
  0
LINE
  5
3E1
100
AcDbEntity
  8
0
100
AcDbLine
 62
7
  6
CONTINUOUS
 10
313.5827793456
 20
290.4143146048
 11
311.4330107187
 21
291.224890564
  0
LWPOLYLINE
  5
3E2
100
AcDbEntity
  8
0
100
AcDbPolyline
 62
7
  6
CONTINUOUS
 90
7
 70
0
 10
295.3771299929
 20
298.6988410524
 10
297.7118701231
 20
298.982563837
 10
300.3807651997
 20
299.3023943641
 10
303.1097058796
 20
299.6246662658
 10
305.8986990916
 20
299.9492746977
 10
308.7477507532
 20
300.2761227957
 10
311.3771299929
 20
300.573682923
  0
LINE
  5
3E3
100
AcDbEntity
  8
KONSTRUKTIONSELEMENTE
100
AcDbLine
 62
7
  6
CONTINUOUS
 10
310.6445760265
 20
297.449014083
 11
280.1440957994
 21
297.449014083
  0
LWPOLYLINE
  5
3E4
100
AcDbEntity
  8
KONSTRUKTIONSELEMENTE
100
AcDbPolyline
 62
7
  6
CONTINUOUS
 90
7
 70
0
 10
279.3771299929
 20
300.573682923
 10
282.0065092326
 20
300.2761227957
 10
284.8555608942
 20
299.9492746977
 10
287.6445541062
 20
299.6246662658
 10
290.3734947861
 20
299.3023943641
 10
293.0423898628
 20
298.982563837
 10
295.3771299929
 20
298.6988410524
  0
LINE
  5
3E5
100
AcDbEntity
  8
0
100
AcDbLine
 62
7
  6
CONTINUOUS
 10
295.3771299929
 20
312.9083380562
 11
256.1569495944
 21
309.4770168899
  0
LINE
  5
3E6
100
AcDbEntity
  8
0
100
AcDbLine
 62
7
  6
CONTINUOUS
 10
295.3771299929
 20
312.9083380562
 11
334.5973103914
 21
309.4770168899
  0
LINE
  5
3E7
100
AcDbEntity
  8
0
100
AcDbLine
 62
7
  6
CONTINUOUS
 10
295.3771299929
 20
319.935076919
 11
255.5468593952
 21
316.4503797765
  0
LINE
  5
3E8
100
AcDbEntity
  8
0
100
AcDbLine
 62
7
  6
CONTINUOUS
 10
335.2074005906
 20
316.4503797765
 11
295.3771299929
 21
319.935076919
  0
LINE
  5
3E9
100
AcDbEntity
  8
0
100
AcDbLine
 62
7
  6
CONTINUOUS
 10
55.0579099428
 20
59.3674895618
 11
54.2600133315
 21
68.4874895618
  0
LINE
  5
3EA
100
AcDbEntity
  8
KONSTRUKTIONSELEMENTE
100
AcDbLine
 62
7
  6
CONTINUOUS
 10
54.2600133315
 20
68.4874895618
 11
55.0579099428
 21
77.6074895618
  0
LINE
  5
3EB
100
AcDbEntity
  8
0
100
AcDbLine
 62
7
  6
CONTINUOUS
 10
173.1973099698
 20
11.4935872524
 11
173.0093826643
 21
11.4935872524
  0
LINE
  5
3EC
100
AcDbEntity
  8
0
100
AcDbLine
 62
7
  6
CONTINUOUS
 10
162.4720194447
 20
16.4874895618
 11
166.0093826643
 21
16.4874895618
  0
LINE
  5
3ED
100
AcDbEntity
  8
KONSTRUKTIONSELEMENTE
100
AcDbLine
 62
7
  6
CONTINUOUS
 10
89.808408324
 20
81.6874895618
 11
89.808408324
 21
82.7874895618
  0
LINE
  5
3EE
100
AcDbEntity
  8
KONSTRUKTIONSELEMENTE
100
AcDbLine
 62
7
  6
CONTINUOUS
 10
76.1075109412
 20
80.4015506059
 11
71.6950489959
 21
78.4627715958
  0
LINE
  5
3EF
100
AcDbEntity
  8
0
100
AcDbLine
 62
7
  6
CONTINUOUS
 10
76.1075109412
 20
56.5734285178
 11
71.6950489959
 21
58.5122075279
  0
LINE
  5
3F0
100
AcDbEntity
  8
KONSTRUKTIONSELEMENTE
100
AcDbLine
 62
7
  6
CONTINUOUS
 10
93.5348971023
 20
81.6156360868
 11
93.5348971023
 21
82.7874895618
  0
LINE
  5
3F1
100
AcDbEntity
  8
KONSTRUKTIONSELEMENTE
100
AcDbLine
 62
7
  6
CONTINUOUS
 10
95.3509898672
 20
81.6874895618
 11
95.3509898672
 21
82.7874895618
  0
LINE
  5
3F2
100
AcDbEntity
  8
KONSTRUKTIONSELEMENTE
100
AcDbLine
 62
7
  6
CONTINUOUS
 10
97.1979742932
 20
81.551555804
 11
97.1979742932
 21
82.7874895618
  0
LINE
  5
3F3
100
AcDbEntity
  8
0
100
AcDbLine
 62
7
  6
CONTINUOUS
 10
122.8978914938
 20
51.6493258538
 11
150.7672120597
 21
51.1279640036
  0
LINE
  5
3F4
100
AcDbEntity
  8
KONSTRUKTIONSELEMENTE
100
AcDbLine
 62
7
  6
CONTINUOUS
 10
98.1453826643
 20
81.3075981954
 11
98.1453826643
 21
82.7874895618
  0
LINE
  5
3F5
100
AcDbEntity
  8
KONSTRUKTIONSELEMENTE
100
AcDbLine
 62
7
  6
CONTINUOUS
 10
101.0545310206
 20
78.5190852901
 11
101.0545310206
 21
77.9521953225
  0
LINE
  5
3F6
100
AcDbEntity
  8
0
100
AcDbLine
 62
7
  6
CONTINUOUS
 10
101.0545310206
 20
58.4558938336
 11
101.0545310206
 21
59.0227838012
  0
LINE
  5
3F7
100
AcDbEntity
  8
AUSFORMSCHRAEGEN
100
AcDbLine
 62
7
  6
CONTINUOUS
 10
110.3760630493
 20
82.839209496
 11
101.9877110863
 21
80.3111529823
  0
LINE
  5
3F8
100
AcDbEntity
  8
KONSTRUKTIONSELEMENTE
100
AcDbLine
 62
7
  6
CONTINUOUS
 10
101.9460975362
 20
79.9868172968
 11
102.0738544864
 21
80.0253203057
  0
LINE
  5
3F9
100
AcDbEntity
  8
KONSTRUKTIONSELEMENTE
100
AcDbLine
 62
7
  6
CONTINUOUS
 10
127.7867011988
 20
60.5504066871
 11
128.2569223037
 21
60.6706145618
  0
LINE
  5
3FA
100
AcDbEntity
  8
0
100
AcDbLine
 62
7
  6
CONTINUOUS
 10
117.6869718495
 20
57.4774670308
 11
117.7754225831
 21
57.4842407952
  0
LINE
  5
3FB
100
AcDbEntity
  8
0
100
AcDbLine
 62
7
  6
CONTINUOUS
 10
121.3974825866
 20
57.4813470996
 11
121.4524359101
 21
57.4842407952
  0
LWPOLYLINE
  5
3FC
100
AcDbEntity
  8
0
100
AcDbPolyline
 62
7
  6
CONTINUOUS
 90
11
 70
0
 10
95.792753542
 20
55.2874942804
 10
96.198054643
 20
55.298443007
 10
96.7556328087
 20
55.34920221
 10
97.3074613435
 20
55.4408205679
 10
97.8524489987
 20
55.573070689
 10
98.3888207914
 20
55.7457558757
 10
98.9146191424
 20
55.9586391105
 10
99.4279610663
 20
56.2115615733
 10
99.9268046722
 20
56.5043136723
 10
100.4096962578
 20
56.8370471644
 10
100.6801704569
 20
57.0471280732
  0
LINE
  5
3FD
100
AcDbEntity
  8
0
100
AcDbLine
 62
7
  6
CONTINUOUS
 10
113.2750139683
 20
57.4869684901
 11
113.295302646
 21
57.4874400208
  0
LINE
  5
3FE
100
AcDbEntity
  8
0
100
AcDbLine
 62
7
  6
CONTINUOUS
 10
124.322419044
 20
57.4874208024
 11
124.3263426269
 21
57.4874400208
  0
LINE
  5
3FF
100
AcDbEntity
  8
0
100
AcDbLine
 62
7
  6
CONTINUOUS
 10
136.4092012807
 20
52.4874895618
 11
142.9306072816
 21
52.4874895618
  0
LINE
  5
400
100
AcDbEntity
  8
0
100
AcDbLine
 62
7
  6
CONTINUOUS
 10
126.3380343445
 20
52.512421543
 11
126.7037681438
 21
52.512421543
  0
LINE
  5
401
100
AcDbEntity
  8
0
100
AcDbLine
 62
7
  6
CONTINUOUS
 10
82.0715841211
 20
55.2874895618
 11
95.791668555
 21
55.2874895618
  0
LINE
  5
402
100
AcDbEntity
  8
0
100
AcDbLine
 62
7
  6
CONTINUOUS
 10
102.5728140242
 20
56.4874895618
 11
99.8981367312
 21
56.4874895618
  0
LINE
  5
403
100
AcDbEntity
  8
0
100
AcDbLine
 62
7
  6
CONTINUOUS
 10
145.955390759
 20
53.0200657441
 11
153.5418270955
 21
51.9874895618
  0
LINE
  5
404
100
AcDbEntity
  8
0
100
AcDbLine
 62
7
  6
CONTINUOUS
 10
117.6564611258
 20
52.315997319
 11
121.970955127
 21
51.7216993578
  0
LINE
  5
405
100
AcDbEntity
  8
0
100
AcDbLine
 62
7
  6
CONTINUOUS
 10
110.3760630493
 20
54.1357696277
 11
101.9877110863
 21
56.6638261414
  0
LINE
  5
406
100
AcDbEntity
  8
0
100
AcDbLine
 62
7
  6
CONTINUOUS
 10
101.9460975362
 20
56.9881618269
 11
102.0738544864
 21
56.949658818
  0
LINE
  5
407
100
AcDbEntity
  8
0
100
AcDbLine
 62
7
  6
CONTINUOUS
 10
107.1828865655
 20
70.9874895618
 11
107.1828865655
 21
65.9874895618
  0
LINE
  5
408
100
AcDbEntity
  8
0
100
AcDbLine
 62
7
  6
CONTINUOUS
 10
107.5526570658
 20
72.4874895618
 11
107.5526570658
 21
64.4874895618
  0
LINE
  5
409
100
AcDbEntity
  8
0
100
AcDbLine
 62
7
  6
CONTINUOUS
 10
65.7855389681
 20
59.3865263381
 11
65.8986927895
 21
59.3962751599
  0
LINE
  5
40A
100
AcDbEntity
  8
0
100
AcDbLine
 62
7
  6
CONTINUOUS
 10
65.717319726
 20
59.380960882
 11
65.7855389681
 21
59.3865263381
  0
LWPOLYLINE
  5
40B
100
AcDbEntity
  8
0
100
AcDbPolyline
 62
7
  6
CONTINUOUS
 90
8
 70
0
 10
65.8987727455
 20
59.3962822168
 10
66.1175845038
 20
59.413789569
 10
66.5150615618
 20
59.4418406317
 10
66.9514800453
 20
59.4681268953
 10
67.4230762515
 20
59.4921819386
 10
67.9261271473
 20
59.5136992632
 10
68.4569157096
 20
59.5323560697
 10
68.9745940773
 20
59.5469215316
  0
LINE
  5
40C
100
AcDbEntity
  8
0
100
AcDbLine
 62
7
  6
CONTINUOUS
 10
65.5732486576
 20
59.3722968729
 11
65.717319726
 21
59.380960882
  0
LWPOLYLINE
  5
40D
100
AcDbEntity
  8
0
100
AcDbPolyline
 62
7
  6
CONTINUOUS
 90
3
 70
0
 10
65.3629507647
 20
59.3674897837
 10
65.4285555158
 20
59.3679635846
 10
65.5732486576
 20
59.3722968729
  0
LINE
  5
40E
100
AcDbEntity
  8
0
100
AcDbLine
 62
7
  6
CONTINUOUS
 10
69.551242552
 20
59.3674895618
 11
59.5261143931
 21
59.3674895618
  0
LINE
  5
40F
100
AcDbEntity
  8
0
100
AcDbLine
 62
7
  6
CONTINUOUS
 10
55.058021473
 20
59.3674895618
 11
59.3236779391
 21
59.3674895618
  0
LINE
  5
410
100
AcDbEntity
  8
0
100
AcDbLine
 62
7
  6
CONTINUOUS
 10
130.1844160791
 20
60.4874895618
 11
135.7092919725
 21
60.4874895618
  0
LINE
  5
411
100
AcDbEntity
  8
KONSTRUKTIONSELEMENTE
100
AcDbLine
 62
7
  6
CONTINUOUS
 10
126.3760385426
 20
60.5504066871
 11
127.9865418252
 21
60.5504066871
  0
LINE
  5
412
100
AcDbEntity
  8
KONSTRUKTIONSELEMENTE
100
AcDbLine
 62
7
  6
CONTINUOUS
 10
128.4300986741
 20
60.6706145618
 11
128.2569223037
 21
60.6706145618
  0
LINE
  5
413
100
AcDbEntity
  8
KONSTRUKTIONSELEMENTE
100
AcDbLine
 62
7
  6
CONTINUOUS
 10
128.7790796652
 20
60.9110316871
 11
128.6330989769
 21
60.9110316871
  0
LINE
  5
414
100
AcDbEntity
  8
KONSTRUKTIONSELEMENTE
100
AcDbLine
 62
7
  6
CONTINUOUS
 10
127.7867011988
 20
61.2716566871
 11
126.3760385426
 21
61.2716566871
  0
LINE
  5
415
100
AcDbEntity
  8
KONSTRUKTIONSELEMENTE
100
AcDbLine
 62
7
  6
CONTINUOUS
 10
129.1228242053
 20
61.3918645618
 11
129.0092756501
 21
61.3918645618
  0
LINE
  5
416
100
AcDbEntity
  8
KONSTRUKTIONSELEMENTE
100
AcDbLine
 62
7
  6
CONTINUOUS
 10
126.2312654089
 20
61.3918645618
 11
125.9998618695
 21
61.3918645618
  0
LINE
  5
417
100
AcDbEntity
  8
0
100
AcDbLine
 62
7
  6
CONTINUOUS
 10
135.621803309
 20
61.4874895618
 11
134.99382357
 21
61.4874895618
  0
LINE
  5
418
100
AcDbEntity
  8
KONSTRUKTIONSELEMENTE
100
AcDbLine
 62
7
  6
CONTINUOUS
 10
125.9491329041
 20
61.6322816871
 11
125.7177293646
 21
61.6322816871
  0
LINE
  5
419
100
AcDbEntity
  8
KONSTRUKTIONSELEMENTE
100
AcDbLine
 62
7
  6
CONTINUOUS
 10
129.292724659
 20
61.8726974366
 11
129.1973639867
 21
61.8726974366
  0
LINE
  5
41A
100
AcDbEntity
  8
KONSTRUKTIONSELEMENTE
100
AcDbLine
 62
7
  6
CONTINUOUS
 10
125.7610445016
 20
61.9929066871
 11
125.5296409621
 21
61.9929066871
  0
LINE
  5
41B
100
AcDbEntity
  8
KONSTRUKTIONSELEMENTE
100
AcDbLine
 62
7
  6
CONTINUOUS
 10
129.3771803364
 20
62.4737395618
 11
129.291408155
 21
62.4737395618
  0
LINE
  5
41C
100
AcDbEntity
  8
KONSTRUKTIONSELEMENTE
100
AcDbLine
 62
7
  6
CONTINUOUS
 10
125.6670003333
 20
62.4737395618
 11
125.4355967938
 21
62.4737395618
  0
LINE
  5
41D
100
AcDbEntity
  8
0
100
AcDbLine
 62
7
  6
CONTINUOUS
 10
104.6553978563
 20
61.6741172085
 11
104.5602111662
 21
61.680185612
  0
LINE
  5
41E
100
AcDbEntity
  8
BEZUGSACHSEN
100
AcDbLine
 62
2
  6
CENTER
 10
114.0093826643
 20
64.8717735528
 11
114.0093826643
 21
73.9296623156
  0
LINE
  5
41F
100
AcDbEntity
  8
0
100
AcDbLine
 62
7
  6
CONTINUOUS
 10
173.0093826643
 20
127.4874895618
 11
166.0093826643
 21
120.4874895618
  0
LINE
  5
420
100
AcDbEntity
  8
0
100
AcDbLine
 62
7
  6
CONTINUOUS
 10
166.6512308632
 20
121.1337447938
 11
166.0093963283
 21
120.4944058871
  0
LWPOLYLINE
  5
421
100
AcDbEntity
  8
0
100
AcDbPolyline
 62
7
  6
CONTINUOUS
 90
3
 70
0
 10
100.6812304787
 20
57.0479837177
 10
101.098575571
 20
57.3892827564
 10
101.2882198721
 20
57.5473214732
  0
LINE
  5
422
100
AcDbEntity
  8
0
100
AcDbLine
 62
7
  6
CONTINUOUS
 10
91.5699480569
 20
58.6062866854
 11
87.3039529282
 21
56.2047201655
  0
LINE
  5
423
100
AcDbEntity
  8
0
100
AcDbLine
 62
7
  6
CONTINUOUS
 10
91.5699480569
 20
58.6062866854
 11
91.914407903
 21
58.7836096914
  0
LINE
  5
424
100
AcDbEntity
  8
KONSTRUKTIONSELEMENTE
100
AcDbLine
 62
7
  6
CONTINUOUS
 10
126.3760385426
 20
70.6479063431
 11
125.9058177012
 21
70.5276977805
  0
LINE
  5
425
100
AcDbEntity
  8
KONSTRUKTIONSELEMENTE
100
AcDbLine
 62
7
  6
CONTINUOUS
 10
125.4355967938
 20
64.6374895618
 11
128.7271431452
 21
64.6374895618
  0
LINE
  5
426
100
AcDbEntity
  8
KONSTRUKTIONSELEMENTE
100
AcDbLine
 62
7
  6
CONTINUOUS
 10
129.3771803364
 20
65.3587395618
 11
124.8713317182
 21
65.3587395618
  0
LINE
  5
427
100
AcDbEntity
  8
0
100
AcDbLine
 62
7
  6
CONTINUOUS
 10
107.1658326042
 20
65.7374895618
 11
106.4442524267
 21
65.7374895618
  0
LINE
  5
428
100
AcDbEntity
  8
KONSTRUKTIONSELEMENTE
100
AcDbLine
 62
7
  6
CONTINUOUS
 10
126.3760385426
 20
66.3204059992
 11
129.3771803364
 21
66.3204059992
  0
LINE
  5
429
100
AcDbEntity
  8
KONSTRUKTIONSELEMENTE
100
AcDbLine
 62
7
  6
CONTINUOUS
 10
129.3771803364
 20
67.0416559992
 11
126.3760385426
 21
67.0416559992
  0
LINE
  5
42A
100
AcDbEntity
  8
KONSTRUKTIONSELEMENTE
100
AcDbLine
 62
7
  6
CONTINUOUS
 10
126.2312654089
 20
67.1618645618
 11
125.9998618695
 21
67.1618645618
  0
LINE
  5
42B
100
AcDbEntity
  8
KONSTRUKTIONSELEMENTE
100
AcDbLine
 62
7
  6
CONTINUOUS
 10
125.9491329041
 20
67.4022809992
 11
125.7177293646
 21
67.4022809992
  0
LINE
  5
42C
100
AcDbEntity
  8
KONSTRUKTIONSELEMENTE
100
AcDbLine
 62
7
  6
CONTINUOUS
 10
125.7610445016
 20
67.7629059992
 11
125.5296409621
 21
67.7629059992
  0
LINE
  5
42D
100
AcDbEntity
  8
KONSTRUKTIONSELEMENTE
100
AcDbLine
 62
7
  6
CONTINUOUS
 10
125.6670003333
 20
68.2437395618
 11
125.4355967938
 21
68.2437395618
  0
LINE
  5
42E
100
AcDbEntity
  8
BG_STARTBEZUEGE
100
AcDbLine
 62
2
  6
CENTER
 10
176.8872128556
 20
68.4874895618
 11
51.2600133315
 21
68.4874895618
  0
LINE
  5
42F
100
AcDbEntity
  8
0
100
AcDbLine
 62
7
  6
CONTINUOUS
 10
134.3813826643
 20
68.4874895618
 11
135.0093826643
 21
68.4874895618
  0
LINE
  5
430
100
AcDbEntity
  8
0
100
AcDbLine
 62
7
  6
CONTINUOUS
 10
163.1558627212
 20
68.4874895618
 11
173.0093826643
 21
68.4874895618
  0
LINE
  5
431
100
AcDbEntity
  8
KONSTRUKTIONSELEMENTE
100
AcDbLine
 62
7
  6
CONTINUOUS
 10
125.6670003333
 20
68.7245731244
 11
125.4355967938
 21
68.7245731244
  0
LINE
  5
432
100
AcDbEntity
  8
KONSTRUKTIONSELEMENTE
100
AcDbLine
 62
7
  6
CONTINUOUS
 10
125.7610445016
 20
69.2054059992
 11
125.5296409621
 21
69.2054059992
  0
LINE
  5
433
100
AcDbEntity
  8
KONSTRUKTIONSELEMENTE
100
AcDbLine
 62
7
  6
CONTINUOUS
 10
125.9058177012
 20
60.6706145618
 11
126.3760385426
 21
60.5504066871
  0
LINE
  5
434
100
AcDbEntity
  8
KONSTRUKTIONSELEMENTE
100
AcDbLine
 62
7
  6
CONTINUOUS
 10
126.3760385426
 20
61.2716566871
 11
125.9998618695
 21
61.3918645618
  0
LINE
  5
435
100
AcDbEntity
  8
KONSTRUKTIONSELEMENTE
100
AcDbLine
 62
7
  6
CONTINUOUS
 10
126.6074420821
 20
61.2716566871
 11
126.2312654089
 21
61.3918645618
  0
LINE
  5
436
100
AcDbEntity
  8
KONSTRUKTIONSELEMENTE
100
AcDbLine
 62
7
  6
CONTINUOUS
 10
91.5699480569
 20
78.3686924382
 11
91.914407903
 21
78.1913694323
  0
LINE
  5
437
100
AcDbEntity
  8
KONSTRUKTIONSELEMENTE
100
AcDbLine
 62
7
  6
CONTINUOUS
 10
91.5699480569
 20
78.3686924382
 11
87.3039529282
 21
80.7702589582
  0
LINE
  5
438
100
AcDbEntity
  8
KONSTRUKTIONSELEMENTE
100
AcDbLine
 62
7
  6
CONTINUOUS
 10
125.5296409621
 20
60.9110316871
 11
125.9058177012
 21
60.6706145618
  0
LWPOLYLINE
  5
439
100
AcDbEntity
  8
KONSTRUKTIONSELEMENTE
100
AcDbPolyline
 62
7
  6
CONTINUOUS
 90
3
 70
0
 10
101.2882198721
 20
79.4276576505
 10
101.098575571
 20
79.5856963673
 10
100.6812304787
 20
79.926995406
  0
LINE
  5
43A
100
AcDbEntity
  8
0
100
AcDbLine
 62
7
  6
CONTINUOUS
 10
166.0093963277
 20
16.4805732372
 11
169.1438607376
 21
13.3529496937
  0
LINE
  5
43B
100
AcDbEntity
  8
0
100
AcDbLine
 62
7
  6
CONTINUOUS
 10
173.0093826643
 20
9.4874895618
 11
166.0093826643
 21
16.4874895618
  0
LINE
  5
43C
100
AcDbEntity
  8
KONSTRUKTIONSELEMENTE
100
AcDbLine
 62
7
  6
CONTINUOUS
 10
125.9058177012
 20
70.5276977805
 11
125.5296409621
 21
70.2872809992
  0
LINE
  5
43D
100
AcDbEntity
  8
0
100
AcDbLine
 62
7
  6
CONTINUOUS
 10
102.768528331
 20
57.7528663791
 11
104.8988566329
 21
59.0496428396
  0
LINE
  5
43E
100
AcDbEntity
  8
0
100
AcDbLine
 62
7
  6
CONTINUOUS
 10
105.8194413429
 20
61.4808596991
 11
100.8979920747
 21
58.9420300023
  0
LINE
  5
43F
100
AcDbEntity
  8
KONSTRUKTIONSELEMENTE
100
AcDbLine
 62
7
  6
CONTINUOUS
 10
124.8713317182
 20
71.6095727805
 11
127.0343478524
 21
72.6914477805
  0
LINE
  5
440
100
AcDbEntity
  8
KONSTRUKTIONSELEMENTE
100
AcDbLine
 62
7
  6
CONTINUOUS
 10
125.1027352577
 20
71.6095727805
 11
126.7037681438
 21
72.4103608219
  0
LINE
  5
441
100
AcDbEntity
  8
KONSTRUKTIONSELEMENTE
100
AcDbLine
 62
7
  6
CONTINUOUS
 10
126.8462595158
 20
73.4126979525
 11
124.8713317182
 21
72.4510313431
  0
LINE
  5
442
100
AcDbEntity
  8
KONSTRUKTIONSELEMENTE
100
AcDbLine
 62
7
  6
CONTINUOUS
 10
128.5390548086
 20
72.5712395618
 11
128.2569223037
 21
72.4510313431
  0
LINE
  5
443
100
AcDbEntity
  8
KONSTRUKTIONSELEMENTE
100
AcDbLine
 62
7
  6
CONTINUOUS
 10
128.2569223037
 20
71.7297813431
 11
128.5390548086
 21
71.8499895618
  0
LINE
  5
444
100
AcDbEntity
  8
KONSTRUKTIONSELEMENTE
100
AcDbLine
 62
7
  6
CONTINUOUS
 10
125.9998618695
 20
69.8064481244
 11
126.3760385426
 21
69.9266559992
  0
LINE
  5
445
100
AcDbEntity
  8
KONSTRUKTIONSELEMENTE
100
AcDbLine
 62
7
  6
CONTINUOUS
 10
126.2312654089
 20
69.8064481244
 11
126.6074420821
 21
69.9266559992
  0
LINE
  5
446
100
AcDbEntity
  8
KONSTRUKTIONSELEMENTE
100
AcDbLine
 62
7
  6
CONTINUOUS
 10
125.9491329041
 20
69.5660309992
 11
125.7177293646
 21
69.5660309992
  0
LINE
  5
447
100
AcDbEntity
  8
KONSTRUKTIONSELEMENTE
100
AcDbLine
 62
7
  6
CONTINUOUS
 10
126.2312654089
 20
69.8064481244
 11
125.9998618695
 21
69.8064481244
  0
LINE
  5
448
100
AcDbEntity
  8
KONSTRUKTIONSELEMENTE
100
AcDbLine
 62
7
  6
CONTINUOUS
 10
126.3760385426
 20
69.9266559992
 11
129.3771803364
 21
69.9266559992
  0
LINE
  5
449
100
AcDbEntity
  8
KONSTRUKTIONSELEMENTE
100
AcDbLine
 62
7
  6
CONTINUOUS
 10
129.3771803364
 20
70.6479063431
 11
126.3760385426
 21
70.6479063431
  0
LINE
  5
44A
100
AcDbEntity
  8
KONSTRUKTIONSELEMENTE
100
AcDbLine
 62
7
  6
CONTINUOUS
 10
107.1658326042
 20
71.2374895618
 11
106.4442524267
 21
71.2374895618
  0
LINE
  5
44B
100
AcDbEntity
  8
KONSTRUKTIONSELEMENTE
100
AcDbLine
 62
7
  6
CONTINUOUS
 10
125.1027352577
 20
71.6095727805
 11
124.8713317182
 21
71.6095727805
  0
LINE
  5
44C
100
AcDbEntity
  8
KONSTRUKTIONSELEMENTE
100
AcDbLine
 62
7
  6
CONTINUOUS
 10
127.8807453671
 20
71.7297813431
 11
128.4300986741
 21
71.7297813431
  0
LINE
  5
44D
100
AcDbEntity
  8
KONSTRUKTIONSELEMENTE
100
AcDbLine
 62
7
  6
CONTINUOUS
 10
128.6923243926
 20
71.8499895618
 11
128.5390548086
 21
71.8499895618
  0
LINE
  5
44E
100
AcDbEntity
  8
KONSTRUKTIONSELEMENTE
100
AcDbLine
 62
7
  6
CONTINUOUS
 10
129.0373803674
 20
72.2106145618
 11
128.9152314818
 21
72.2106145618
  0
LINE
  5
44F
100
AcDbEntity
  8
KONSTRUKTIONSELEMENTE
100
AcDbLine
 62
7
  6
CONTINUOUS
 10
128.2569223037
 20
72.4510313431
 11
127.9747895354
 21
72.4510313431
  0
LINE
  5
450
100
AcDbEntity
  8
KONSTRUKTIONSELEMENTE
100
AcDbLine
 62
7
  6
CONTINUOUS
 10
127.8968559542
 20
72.5712395618
 11
127.6926570305
 21
72.5712395618
  0
LINE
  5
451
100
AcDbEntity
  8
KONSTRUKTIONSELEMENTE
100
AcDbLine
 62
7
  6
CONTINUOUS
 10
129.292724659
 20
72.6914477805
 11
129.1973639867
 21
72.6914477805
  0
LINE
  5
452
100
AcDbEntity
  8
KONSTRUKTIONSELEMENTE
100
AcDbLine
 62
7
  6
CONTINUOUS
 10
127.7165115243
 20
72.8116563431
 11
127.5045686939
 21
72.8116563431
  0
LINE
  5
453
100
AcDbEntity
  8
KONSTRUKTIONSELEMENTE
100
AcDbLine
 62
7
  6
CONTINUOUS
 10
127.6258533563
 20
73.1722813431
 11
127.4105245256
 21
73.1722813431
  0
LINE
  5
454
100
AcDbEntity
  8
KONSTRUKTIONSELEMENTE
100
AcDbLine
 62
7
  6
CONTINUOUS
 10
129.3771803364
 20
73.2924895618
 11
129.291408155
 21
73.2924895618
  0
LINE
  5
455
100
AcDbEntity
  8
KONSTRUKTIONSELEMENTE
100
AcDbLine
 62
7
  6
CONTINUOUS
 10
65.717319726
 20
77.5940182416
 11
65.5732486576
 21
77.6026822507
  0
LINE
  5
456
100
AcDbEntity
  8
KONSTRUKTIONSELEMENTE
100
AcDbLine
 62
7
  6
CONTINUOUS
 10
65.7855389681
 20
77.5884527856
 11
65.717319726
 21
77.5940182416
  0
LINE
  5
457
100
AcDbEntity
  8
KONSTRUKTIONSELEMENTE
100
AcDbLine
 62
7
  6
CONTINUOUS
 10
65.8986141728
 20
77.5787105725
 11
65.7857669569
 21
77.5884265119
  0
LINE
  5
458
100
AcDbEntity
  8
KONSTRUKTIONSELEMENTE
100
AcDbLine
 62
7
  6
CONTINUOUS
 10
125.9058177012
 20
66.4406145618
 11
126.3760385426
 21
66.3204059992
  0
LINE
  5
459
100
AcDbEntity
  8
KONSTRUKTIONSELEMENTE
100
AcDbLine
 62
7
  6
CONTINUOUS
 10
126.3760385426
 20
67.0416559992
 11
125.9998618695
 21
67.1618645618
  0
LINE
  5
45A
100
AcDbEntity
  8
KONSTRUKTIONSELEMENTE
100
AcDbLine
 62
7
  6
CONTINUOUS
 10
126.6074420821
 20
67.0416559992
 11
126.2312654089
 21
67.1618645618
  0
LINE
  5
45B
100
AcDbEntity
  8
KONSTRUKTIONSELEMENTE
100
AcDbLine
 62
7
  6
CONTINUOUS
 10
105.8194413429
 20
75.4941194246
 11
100.8979920747
 21
78.0329491214
  0
LINE
  5
45C
100
AcDbEntity
  8
KONSTRUKTIONSELEMENTE
100
AcDbLine
 62
7
  6
CONTINUOUS
 10
102.768528331
 20
79.2221127446
 11
104.8988566329
 21
77.9253362841
  0
LINE
  5
45D
100
AcDbEntity
  8
KONSTRUKTIONSELEMENTE
100
AcDbLine
 62
7
  6
CONTINUOUS
 10
125.5296409621
 20
66.6810309992
 11
125.9058177012
 21
66.4406145618
  0
LWPOLYLINE
  5
45E
100
AcDbEntity
  8
KONSTRUKTIONSELEMENTE
100
AcDbPolyline
 62
7
  6
CONTINUOUS
 90
8
 70
0
 10
100.6801703517
 20
79.9278511357
 10
100.4097036267
 20
80.1379264788
 10
99.9268240489
 20
80.470653114
 10
99.4279992489
 20
80.7633969764
 10
98.914678153
 20
81.0163135744
 10
98.3888985628
 20
81.2291950284
 10
97.85253967
 20
81.4018828739
 10
97.465446857
 20
81.500171226
  0
LINE
  5
45F
100
AcDbEntity
  8
KONSTRUKTIONSELEMENTE
100
AcDbLine
 62
7
  6
CONTINUOUS
 10
125.9998618695
 20
61.3918645618
 11
125.7177293646
 21
61.6322816871
  0
LINE
  5
460
100
AcDbEntity
  8
KONSTRUKTIONSELEMENTE
100
AcDbLine
 62
7
  6
CONTINUOUS
 10
126.2312654089
 20
61.3918645618
 11
125.9491329041
 21
61.6322816871
  0
LINE
  5
461
100
AcDbEntity
  8
KONSTRUKTIONSELEMENTE
100
AcDbLine
 62
7
  6
CONTINUOUS
 10
125.153464256
 20
61.3918645618
 11
125.5296409621
 21
60.9110316871
  0
LINE
  5
462
100
AcDbEntity
  8
KONSTRUKTIONSELEMENTE
100
AcDbLine
 62
7
  6
CONTINUOUS
 10
124.8713317182
 20
76.1774895618
 11
124.8713317182
 21
75.4562395618
  0
LINE
  5
463
100
AcDbEntity
  8
KONSTRUKTIONSELEMENTE
100
AcDbLine
 62
7
  6
CONTINUOUS
 10
124.8713317182
 20
72.4510313431
 11
124.8713317182
 21
71.6095727805
  0
LINE
  5
464
100
AcDbEntity
  8
KONSTRUKTIONSELEMENTE
100
AcDbLine
 62
7
  6
CONTINUOUS
 10
124.8713317182
 20
68.7245731244
 11
124.8713317182
 21
68.2437395618
  0
LINE
  5
465
100
AcDbEntity
  8
KONSTRUKTIONSELEMENTE
100
AcDbLine
 62
7
  6
CONTINUOUS
 10
124.8713317182
 20
65.3587395618
 11
124.8713317182
 21
62.4737395618
  0
LINE
  5
466
100
AcDbEntity
  8
KONSTRUKTIONSELEMENTE
100
AcDbLine
 62
7
  6
CONTINUOUS
 10
125.4355967938
 20
62.4737395618
 11
125.4355967938
 21
64.6374895618
  0
LINE
  5
467
100
AcDbEntity
  8
KONSTRUKTIONSELEMENTE
100
AcDbLine
 62
7
  6
CONTINUOUS
 10
125.4355967938
 20
68.2437395618
 11
125.4355967938
 21
68.7245731244
  0
LINE
  5
468
100
AcDbEntity
  8
KONSTRUKTIONSELEMENTE
100
AcDbLine
 62
7
  6
CONTINUOUS
 10
125.6670003333
 20
62.4737395618
 11
125.6670003333
 21
64.6374895618
  0
LINE
  5
469
100
AcDbEntity
  8
KONSTRUKTIONSELEMENTE
100
AcDbLine
 62
7
  6
CONTINUOUS
 10
125.6670003333
 20
68.2437395618
 11
125.6670003333
 21
68.7245731244
  0
LINE
  5
46A
100
AcDbEntity
  8
KONSTRUKTIONSELEMENTE
100
AcDbLine
 62
7
  6
CONTINUOUS
 10
124.9653758947
 20
69.3256145618
 11
124.8713317182
 21
68.7245731244
  0
LINE
  5
46B
100
AcDbEntity
  8
KONSTRUKTIONSELEMENTE
100
AcDbLine
 62
7
  6
CONTINUOUS
 10
125.4355967938
 20
68.7245731244
 11
125.5296409621
 21
69.2054059992
  0
LINE
  5
46C
100
AcDbEntity
  8
KONSTRUKTIONSELEMENTE
100
AcDbLine
 62
7
  6
CONTINUOUS
 10
125.6670003333
 20
68.7245731244
 11
125.7610445016
 21
69.2054059992
  0
LINE
  5
46D
100
AcDbEntity
  8
KONSTRUKTIONSELEMENTE
100
AcDbLine
 62
7
  6
CONTINUOUS
 10
125.153464256
 20
69.8064481244
 11
124.9653758947
 21
69.3256145618
  0
LINE
  5
46E
100
AcDbEntity
  8
KONSTRUKTIONSELEMENTE
100
AcDbLine
 62
7
  6
CONTINUOUS
 10
125.5296409621
 20
69.2054059992
 11
125.7177293646
 21
69.5660309992
  0
LINE
  5
46F
100
AcDbEntity
  8
KONSTRUKTIONSELEMENTE
100
AcDbLine
 62
7
  6
CONTINUOUS
 10
125.7610445016
 20
69.2054059992
 11
125.9491329041
 21
69.5660309992
  0
LINE
  5
470
100
AcDbEntity
  8
KONSTRUKTIONSELEMENTE
100
AcDbLine
 62
7
  6
CONTINUOUS
 10
128.9152314818
 20
72.2106145618
 11
129.1973639867
 21
72.6914477805
  0
LINE
  5
471
100
AcDbEntity
  8
KONSTRUKTIONSELEMENTE
100
AcDbLine
 62
7
  6
CONTINUOUS
 10
125.5296409621
 20
70.2872809992
 11
125.153464256
 21
69.8064481244
  0
LINE
  5
472
100
AcDbEntity
  8
KONSTRUKTIONSELEMENTE
100
AcDbLine
 62
7
  6
CONTINUOUS
 10
128.7271431452
 20
72.8116563431
 11
128.5390548086
 21
72.5712395618
  0
LINE
  5
473
100
AcDbEntity
  8
KONSTRUKTIONSELEMENTE
100
AcDbLine
 62
7
  6
CONTINUOUS
 10
128.5390548086
 20
71.8499895618
 11
128.9152314818
 21
72.2106145618
  0
LINE
  5
474
100
AcDbEntity
  8
KONSTRUKTIONSELEMENTE
100
AcDbLine
 62
7
  6
CONTINUOUS
 10
125.7177293646
 20
69.5660309992
 11
125.9998618695
 21
69.8064481244
  0
LINE
  5
475
100
AcDbEntity
  8
KONSTRUKTIONSELEMENTE
100
AcDbLine
 62
7
  6
CONTINUOUS
 10
125.9491329041
 20
69.5660309992
 11
126.2312654089
 21
69.8064481244
  0
LINE
  5
476
100
AcDbEntity
  8
KONSTRUKTIONSELEMENTE
100
AcDbLine
 62
7
  6
CONTINUOUS
 10
128.162877872
 20
61.3918645618
 11
127.7867011988
 21
61.2716566871
  0
LINE
  5
477
100
AcDbEntity
  8
AUSFORMSCHRAEGEN
100
AcDbLine
 62
7
  6
CONTINUOUS
 10
145.955390759
 20
83.9549133796
 11
153.5418270955
 21
84.9874895618
  0
LINE
  5
478
100
AcDbEntity
  8
KONSTRUKTIONSELEMENTE
100
AcDbLine
 62
7
  6
CONTINUOUS
 10
104.6553978563
 20
75.3008619152
 11
104.5602111662
 21
75.2947935117
  0
LINE
  5
479
100
AcDbEntity
  8
KONSTRUKTIONSELEMENTE
100
AcDbLine
 62
7
  6
CONTINUOUS
 10
124.8713317182
 20
75.4562395618
 11
126.8462595158
 21
75.4562395618
  0
LINE
  5
47A
100
AcDbEntity
  8
KONSTRUKTIONSELEMENTE
100
AcDbLine
 62
7
  6
CONTINUOUS
 10
127.4105245256
 20
75.4562395618
 11
128.8211873135
 21
75.4562395618
  0
LINE
  5
47B
100
AcDbEntity
  8
KONSTRUKTIONSELEMENTE
100
AcDbLine
 62
7
  6
CONTINUOUS
 10
135.621803309
 20
75.4874895618
 11
134.99382357
 21
75.4874895618
  0
LINE
  5
47C
100
AcDbEntity
  8
KONSTRUKTIONSELEMENTE
100
AcDbLine
 62
7
  6
CONTINUOUS
 10
129.3771803364
 20
76.1774895618
 11
124.8713317182
 21
76.1774895618
  0
LINE
  5
47D
100
AcDbEntity
  8
KONSTRUKTIONSELEMENTE
100
AcDbLine
 62
7
  6
CONTINUOUS
 10
130.1844160791
 20
76.4874895618
 11
135.7092919725
 21
76.4874895618
  0
LINE
  5
47E
100
AcDbEntity
  8
KONSTRUKTIONSELEMENTE
100
AcDbLine
 62
7
  6
CONTINUOUS
 10
69.551242552
 20
77.6074895618
 11
59.5261143931
 21
77.6074895618
  0
LINE
  5
47F
100
AcDbEntity
  8
KONSTRUKTIONSELEMENTE
100
AcDbLine
 62
7
  6
CONTINUOUS
 10
55.058021473
 20
77.6074895618
 11
59.3236779391
 21
77.6074895618
  0
LINE
  5
480
100
AcDbEntity
  8
BEZUGSACHSEN
100
AcDbLine
 62
7
  6
CONTINUOUS
 10
124.322419044
 20
79.4875583213
 11
124.3263426269
 21
79.4875391028
  0
LINE
  5
481
100
AcDbEntity
  8
KONSTRUKTIONSELEMENTE
100
AcDbLine
 62
7
  6
CONTINUOUS
 10
65.4285555158
 20
77.6070155391
 11
65.3629507647
 21
77.60748934
  0
LINE
  5
482
100
AcDbEntity
  8
BEZUGSACHSEN
100
AcDbLine
 62
7
  6
CONTINUOUS
 10
113.2750139683
 20
79.4880106336
 11
113.295302646
 21
79.4875391028
  0
LWPOLYLINE
  5
483
100
AcDbEntity
  8
KONSTRUKTIONSELEMENTE
100
AcDbPolyline
 62
7
  6
CONTINUOUS
 90
8
 70
0
 10
68.9745940773
 20
77.4280575921
 10
68.4569157096
 20
77.4426230539
 10
67.9261271473
 20
77.4612798605
 10
67.4230762515
 20
77.4827971851
 10
66.9514800453
 20
77.5068522284
 10
66.5150615618
 20
77.533138492
 10
66.1175845038
 20
77.5611895547
 10
65.8987727455
 20
77.5786969068
  0
LINE
  5
484
100
AcDbEntity
  8
KONSTRUKTIONSELEMENTE
100
AcDbLine
 62
7
  6
CONTINUOUS
 10
65.5732486576
 20
77.6026822507
 11
65.4285555158
 21
77.6070155391
  0
LINE
  5
485
100
AcDbEntity
  8
BEZUGSACHSEN
100
AcDbLine
 62
7
  6
CONTINUOUS
 10
121.3974825866
 20
79.4936320241
 11
121.4524359101
 21
79.4907383284
  0
LINE
  5
486
100
AcDbEntity
  8
BEZUGSACHSEN
100
AcDbLine
 62
7
  6
CONTINUOUS
 10
117.6869718495
 20
79.4975120929
 11
117.7754225831
 21
79.4907383284
  0
LWPOLYLINE
  5
487
100
AcDbEntity
  8
KONSTRUKTIONSELEMENTE
100
AcDbPolyline
 62
7
  6
CONTINUOUS
 90
4
 70
0
 10
96.9586900005
 20
81.5969094939
 10
96.7557149642
 20
81.6257663635
 10
96.1981049426
 20
81.6765334068
 10
95.7927534544
 20
81.6874848433
  0
LINE
  5
488
100
AcDbEntity
  8
KONSTRUKTIONSELEMENTE
100
AcDbLine
 62
7
  6
CONTINUOUS
 10
127.5986128622
 20
71.8499895618
 11
127.8807453671
 21
71.7297813431
  0
LINE
  5
489
100
AcDbEntity
  8
KONSTRUKTIONSELEMENTE
100
AcDbLine
 62
7
  6
CONTINUOUS
 10
127.9747895354
 20
72.4510313431
 11
127.6926570305
 21
72.5712395618
  0
LINE
  5
48A
100
AcDbEntity
  8
KONSTRUKTIONSELEMENTE
100
AcDbLine
 62
7
  6
CONTINUOUS
 10
125.9998618695
 20
67.1618645618
 11
125.7177293646
 21
67.4022809992
  0
LINE
  5
48B
100
AcDbEntity
  8
KONSTRUKTIONSELEMENTE
100
AcDbLine
 62
7
  6
CONTINUOUS
 10
126.2312654089
 20
67.1618645618
 11
125.9491329041
 21
67.4022809992
  0
LINE
  5
48C
100
AcDbEntity
  8
KONSTRUKTIONSELEMENTE
100
AcDbLine
 62
7
  6
CONTINUOUS
 10
125.153464256
 20
67.1618645618
 11
125.5296409621
 21
66.6810309992
  0
LINE
  5
48D
100
AcDbEntity
  8
KONSTRUKTIONSELEMENTE
100
AcDbLine
 62
7
  6
CONTINUOUS
 10
125.7177293646
 20
61.6322816871
 11
125.5296409621
 21
61.9929066871
  0
LINE
  5
48E
100
AcDbEntity
  8
KONSTRUKTIONSELEMENTE
100
AcDbLine
 62
7
  6
CONTINUOUS
 10
125.9491329041
 20
61.6322816871
 11
125.7610445016
 21
61.9929066871
  0
LINE
  5
48F
100
AcDbEntity
  8
KONSTRUKTIONSELEMENTE
100
AcDbLine
 62
7
  6
CONTINUOUS
 10
125.7177293646
 20
67.4022809992
 11
125.5296409621
 21
67.7629059992
  0
LINE
  5
490
100
AcDbEntity
  8
KONSTRUKTIONSELEMENTE
100
AcDbLine
 62
7
  6
CONTINUOUS
 10
125.9491329041
 20
67.4022809992
 11
125.7610445016
 21
67.7629059992
  0
LINE
  5
491
100
AcDbEntity
  8
KONSTRUKTIONSELEMENTE
100
AcDbLine
 62
7
  6
CONTINUOUS
 10
124.9653758947
 20
61.8726974366
 11
125.153464256
 21
61.3918645618
  0
LINE
  5
492
100
AcDbEntity
  8
KONSTRUKTIONSELEMENTE
100
AcDbLine
 62
7
  6
CONTINUOUS
 10
124.9653758947
 20
67.6426981244
 11
125.153464256
 21
67.1618645618
  0
LINE
  5
493
100
AcDbEntity
  8
KONSTRUKTIONSELEMENTE
100
AcDbLine
 62
7
  6
CONTINUOUS
 10
125.5296409621
 20
61.9929066871
 11
125.4355967938
 21
62.4737395618
  0
LINE
  5
494
100
AcDbEntity
  8
KONSTRUKTIONSELEMENTE
100
AcDbLine
 62
7
  6
CONTINUOUS
 10
125.7610445016
 20
61.9929066871
 11
125.6670003333
 21
62.4737395618
  0
LINE
  5
495
100
AcDbEntity
  8
KONSTRUKTIONSELEMENTE
100
AcDbLine
 62
7
  6
CONTINUOUS
 10
125.5296409621
 20
67.7629059992
 11
125.4355967938
 21
68.2437395618
  0
LINE
  5
496
100
AcDbEntity
  8
KONSTRUKTIONSELEMENTE
100
AcDbLine
 62
7
  6
CONTINUOUS
 10
125.7610445016
 20
67.7629059992
 11
125.6670003333
 21
68.2437395618
  0
LINE
  5
497
100
AcDbEntity
  8
KONSTRUKTIONSELEMENTE
100
AcDbLine
 62
7
  6
CONTINUOUS
 10
124.8713317182
 20
62.4737395618
 11
124.9653758947
 21
61.8726974366
  0
LINE
  5
498
100
AcDbEntity
  8
KONSTRUKTIONSELEMENTE
100
AcDbLine
 62
7
  6
CONTINUOUS
 10
124.8713317182
 20
68.2437395618
 11
124.9653758947
 21
67.6426981244
  0
LINE
  5
499
100
AcDbEntity
  8
KONSTRUKTIONSELEMENTE
100
AcDbLine
 62
7
  6
CONTINUOUS
 10
126.8462595158
 20
75.4562395618
 11
126.8462595158
 21
73.4126979525
  0
LINE
  5
49A
100
AcDbEntity
  8
KONSTRUKTIONSELEMENTE
100
AcDbLine
 62
7
  6
CONTINUOUS
 10
127.4105245256
 20
73.1722813431
 11
127.4105245256
 21
75.4562395618
  0
LINE
  5
49B
100
AcDbEntity
  8
KONSTRUKTIONSELEMENTE
100
AcDbLine
 62
7
  6
CONTINUOUS
 10
127.6258533563
 20
75.4562395618
 11
127.6258533563
 21
73.1722813431
  0
LINE
  5
49C
100
AcDbEntity
  8
KONSTRUKTIONSELEMENTE
100
AcDbLine
 62
7
  6
CONTINUOUS
 10
128.7271431452
 20
64.6374895618
 11
128.7271431452
 21
62.4737395618
  0
LINE
  5
49D
100
AcDbEntity
  8
KONSTRUKTIONSELEMENTE
100
AcDbLine
 62
7
  6
CONTINUOUS
 10
128.8211873135
 20
75.4562395618
 11
128.8211873135
 21
73.1722813431
  0
LINE
  5
49E
100
AcDbEntity
  8
KONSTRUKTIONSELEMENTE
100
AcDbLine
 62
7
  6
CONTINUOUS
 10
129.291408155
 20
62.4737395618
 11
129.291408155
 21
65.3587395618
  0
LINE
  5
49F
100
AcDbEntity
  8
KONSTRUKTIONSELEMENTE
100
AcDbLine
 62
7
  6
CONTINUOUS
 10
129.291408155
 20
66.3204059992
 11
129.291408155
 21
67.0416559992
  0
LINE
  5
4A0
100
AcDbEntity
  8
KONSTRUKTIONSELEMENTE
100
AcDbLine
 62
7
  6
CONTINUOUS
 10
129.291408155
 20
69.9266559992
 11
129.291408155
 21
70.6479063431
  0
LINE
  5
4A1
100
AcDbEntity
  8
KONSTRUKTIONSELEMENTE
100
AcDbLine
 62
7
  6
CONTINUOUS
 10
129.291408155
 20
73.2924895618
 11
129.291408155
 21
76.1774895618
  0
LINE
  5
4A2
100
AcDbEntity
  8
KONSTRUKTIONSELEMENTE
100
AcDbLine
 62
7
  6
CONTINUOUS
 10
129.3771803364
 20
76.1774895618
 11
129.3771803364
 21
73.2924895618
  0
LINE
  5
4A3
100
AcDbEntity
  8
KONSTRUKTIONSELEMENTE
100
AcDbLine
 62
7
  6
CONTINUOUS
 10
129.3771803364
 20
70.6479063431
 11
129.3771803364
 21
69.9266559992
  0
LINE
  5
4A4
100
AcDbEntity
  8
KONSTRUKTIONSELEMENTE
100
AcDbLine
 62
7
  6
CONTINUOUS
 10
129.3771803364
 20
67.0416559992
 11
129.3771803364
 21
66.3204059992
  0
LINE
  5
4A5
100
AcDbEntity
  8
KONSTRUKTIONSELEMENTE
100
AcDbLine
 62
7
  6
CONTINUOUS
 10
129.3771803364
 20
65.3587395618
 11
129.3771803364
 21
62.4737395618
  0
LINE
  5
4A6
100
AcDbEntity
  8
0
100
AcDbLine
 62
7
  6
CONTINUOUS
 10
130.1844160791
 20
60.4874895618
 11
130.1844160791
 21
76.4874895618
  0
LINE
  5
4A7
100
AcDbEntity
  8
KONSTRUKTIONSELEMENTE
100
AcDbLine
 62
7
  6
CONTINUOUS
 10
129.1973639867
 20
72.6914477805
 11
129.291408155
 21
73.2924895618
  0
LINE
  5
4A8
100
AcDbEntity
  8
KONSTRUKTIONSELEMENTE
100
AcDbLine
 62
7
  6
CONTINUOUS
 10
129.1973639867
 20
61.8726974366
 11
129.291408155
 21
62.4737395618
  0
LINE
  5
4A9
100
AcDbEntity
  8
KONSTRUKTIONSELEMENTE
100
AcDbLine
 62
7
  6
CONTINUOUS
 10
128.7271431452
 20
62.4737395618
 11
128.6330989769
 21
61.9929066871
  0
LINE
  5
4AA
100
AcDbEntity
  8
KONSTRUKTIONSELEMENTE
100
AcDbLine
 62
7
  6
CONTINUOUS
 10
128.8211873135
 20
73.1722813431
 11
128.7271431452
 21
72.8116563431
  0
LINE
  5
4AB
100
AcDbEntity
  8
KONSTRUKTIONSELEMENTE
100
AcDbLine
 62
7
  6
CONTINUOUS
 10
129.0092756501
 20
61.3918645618
 11
129.1973639867
 21
61.8726974366
  0
LINE
  5
4AC
100
AcDbEntity
  8
KONSTRUKTIONSELEMENTE
100
AcDbLine
 62
7
  6
CONTINUOUS
 10
128.6330989769
 20
61.9929066871
 11
128.4450106403
 21
61.6322816871
  0
LINE
  5
4AD
100
AcDbEntity
  8
KONSTRUKTIONSELEMENTE
100
AcDbLine
 62
7
  6
CONTINUOUS
 10
128.6330989769
 20
60.9110316871
 11
129.0092756501
 21
61.3918645618
  0
LINE
  5
4AE
100
AcDbEntity
  8
KONSTRUKTIONSELEMENTE
100
AcDbLine
 62
7
  6
CONTINUOUS
 10
128.4450106403
 20
61.6322816871
 11
128.162877872
 21
61.3918645618
  0
LINE
  5
4AF
100
AcDbEntity
  8
KONSTRUKTIONSELEMENTE
100
AcDbLine
 62
7
  6
CONTINUOUS
 10
128.2569223037
 20
60.6706145618
 11
128.6330989769
 21
60.9110316871
  0
LINE
  5
4B0
100
AcDbEntity
  8
KONSTRUKTIONSELEMENTE
100
AcDbLine
 62
7
  6
CONTINUOUS
 10
121.970955127
 20
85.2532797659
 11
118.453319311
 21
84.7687446632
  0
LINE
  5
4B1
100
AcDbEntity
  8
KONSTRUKTIONSELEMENTE
100
AcDbLine
 62
7
  6
CONTINUOUS
 10
122.8978914938
 20
85.3256532699
 11
150.7672120597
 21
85.8470151201
  0
LINE
  5
4B2
100
AcDbEntity
  8
KONSTRUKTIONSELEMENTE
100
AcDbLine
 62
7
  6
CONTINUOUS
 10
102.5728140242
 20
80.4874895618
 11
99.8981353595
 21
80.4874895618
  0
LINE
  5
4B3
100
AcDbEntity
  8
KONSTRUKTIONSELEMENTE
100
AcDbLine
 62
7
  6
CONTINUOUS
 10
82.0715841211
 20
81.6874895618
 11
92.8053831408
 21
81.6874895618
  0
LINE
  5
4B4
100
AcDbEntity
  8
KONSTRUKTIONSELEMENTE
100
AcDbLine
 62
7
  6
CONTINUOUS
 10
94.2482324939
 20
81.6874895618
 11
95.791668555
 21
81.6874895618
  0
LINE
  5
4B5
100
AcDbEntity
  8
KONSTRUKTIONSELEMENTE
100
AcDbLine
 62
7
  6
CONTINUOUS
 10
89.808408324
 20
82.7874895618
 11
98.1453826643
 21
82.7874895618
  0
LINE
  5
4B6
100
AcDbEntity
  8
AUSFORMSCHRAEGEN
100
AcDbLine
 62
7
  6
CONTINUOUS
 10
126.3380343445
 20
84.4625575807
 11
126.7037681438
 21
84.4625575807
  0
LINE
  5
4B7
100
AcDbEntity
  8
KONSTRUKTIONSELEMENTE
100
AcDbLine
 62
7
  6
CONTINUOUS
 10
136.4092012807
 20
84.4874895618
 11
142.9306072816
 21
84.4874895618
  0
LINE
  5
4B8
100
AcDbEntity
  8
KONSTRUKTIONSELEMENTE
100
AcDbLine
 62
7
  6
CONTINUOUS
 10
127.222436189
 20
72.2106145618
 11
127.5986128622
 21
71.8499895618
  0
LINE
  5
4B9
100
AcDbEntity
  8
KONSTRUKTIONSELEMENTE
100
AcDbLine
 62
7
  6
CONTINUOUS
 10
127.6926570305
 20
72.5712395618
 11
127.5045686939
 21
72.8116563431
  0
LINE
  5
4BA
100
AcDbEntity
  8
KONSTRUKTIONSELEMENTE
100
AcDbLine
 62
7
  6
CONTINUOUS
 10
127.0343478524
 20
72.6914477805
 11
127.222436189
 21
72.2106145618
  0
LINE
  5
4BB
100
AcDbEntity
  8
KONSTRUKTIONSELEMENTE
100
AcDbLine
 62
7
  6
CONTINUOUS
 10
127.5045686939
 20
72.8116563431
 11
127.4105245256
 21
73.1722813431
  0
LINE
  5
4BC
100
AcDbEntity
  8
0
100
AcDbLine
 62
7
  6
CONTINUOUS
 10
134.993803309
 20
61.4874895618
 11
134.3813826643
 21
68.4874895618
  0
LINE
  5
4BD
100
AcDbEntity
  8
0
100
AcDbLine
 62
7
  6
CONTINUOUS
 10
136.4092012807
 20
52.4874895618
 11
135.0093826643
 21
68.4874895618
  0
LINE
  5
4BE
100
AcDbEntity
  8
0
100
AcDbLine
 62
7
  6
CONTINUOUS
 10
131.5766491271
 20
60.4874895618
 11
131.5766491271
 21
76.4874895618
  0
LINE
  5
4BF
100
AcDbEntity
  8
0
100
AcDbLine
 62
7
  6
CONTINUOUS
 10
132.5513978448
 20
76.4874895618
 11
132.5513978448
 21
60.4874895618
  0
LINE
  5
4C0
100
AcDbEntity
  8
AUSFORMSCHRAEGEN
100
AcDbLine
 62
7
  6
CONTINUOUS
 10
134.3813826643
 20
68.4874895618
 11
134.993803309
 21
75.4874895618
  0
LINE
  5
4C1
100
AcDbEntity
  8
0
100
AcDbLine
 62
7
  6
CONTINUOUS
 10
136.4092012807
 20
84.4874895618
 11
135.0093826643
 21
68.4874895618
  0
LINE
  5
4C2
100
AcDbEntity
  8
KONSTRUKTIONSELEMENTE
100
AcDbLine
 62
7
  6
CONTINUOUS
 10
154.2472293865
 20
83.1517799914
 11
158.4294765969
 21
92.1206380773
  0
LINE
  5
4C3
100
AcDbEntity
  8
0
100
AcDbLine
 62
7
  6
CONTINUOUS
 10
154.2472293865
 20
53.8231991323
 11
158.4294765969
 21
44.8543410464
  0
LINE
  5
4C4
100
AcDbEntity
  8
0
100
AcDbLine
 62
7
  6
CONTINUOUS
 10
161.125535569
 20
35.7431060892
 11
162.4720194447
 21
16.4874895618
  0
LINE
  5
4C5
100
AcDbEntity
  8
RUNDUNGEN
100
AcDbLine
 62
7
  6
CONTINUOUS
 10
161.125535569
 20
101.2318730344
 11
162.4720194447
 21
120.4874895618
  0
LINE
  5
4C6
100
AcDbEntity
  8
0
100
AcDbLine
 62
7
  6
CONTINUOUS
 10
166.0093826643
 20
16.4874895618
 11
166.0093826643
 21
120.4874895618
  0
LINE
  5
4C7
100
AcDbEntity
  8
RUNDUNGEN
100
AcDbLine
 62
7
  6
CONTINUOUS
 10
162.4720194447
 20
120.4874895618
 11
163.1558627212
 21
120.4874895618
  0
LINE
  5
4C8
100
AcDbEntity
  8
0
100
AcDbLine
 62
7
  6
CONTINUOUS
 10
163.1558627212
 20
120.4874895618
 11
166.0093826643
 21
120.4874895618
  0
LINE
  5
4C9
100
AcDbEntity
  8
0
100
AcDbLine
 62
7
  6
CONTINUOUS
 10
173.0093826643
 20
123.4935872524
 11
173.2678713704
 21
123.4935872524
  0
LINE
  5
4CA
100
AcDbEntity
  8
0
100
AcDbLine
 62
7
  6
CONTINUOUS
 10
173.0093826643
 20
9.4874895618
 11
173.0093826643
 21
127.4874895618
  0
ARC
  5
4CB
100
AcDbEntity
  8
0
100
AcDbCircle
 62
7
  6
CONTINUOUS
 10
151.0585510948
 20
-117.6597063189
 40
265.3458084562
100
AcDbArc
 50
93.6007775907
 51
95.3743501249
  0
ARC
  5
4CC
100
AcDbEntity
  8
0
100
AcDbCircle
 62
7
  6
CONTINUOUS
 10
71.3599127916
 20
218.0825892149
 40
5.0257488413
100
AcDbArc
 50
349.1501941409
 51
41.111598483
  0
ARC
  5
4CD
100
AcDbEntity
  8
0
100
AcDbCircle
 62
7
  6
CONTINUOUS
 10
71.3591058579
 20
218.0832445284
 40
5.0247093848
100
AcDbArc
 50
138.894048882
 51
157.3141218735
  0
ARC
  5
4CE
100
AcDbEntity
  8
0
100
AcDbCircle
 62
7
  6
CONTINUOUS
 10
47.2052776665
 20
272.5363380562
 40
66.0
100
AcDbArc
 50
322.0
 51
335.6462962571
  0
ARC
  5
4CF
100
AcDbEntity
  8
0
100
AcDbCircle
 62
7
  6
CONTINUOUS
 10
47.2052776665
 20
272.5363380562
 40
65.7594061753
100
AcDbArc
 50
331.5213732005
 51
335.4584508459
  0
ARC
  5
4D0
100
AcDbEntity
  8
0
100
AcDbCircle
 62
7
  6
CONTINUOUS
 10
126.7722356183
 20
191.726632937
 40
74.1908945756
100
AcDbArc
 50
155.0115801858
 51
155.3842679237
  0
ARC
  5
4D1
100
AcDbEntity
  8
0
100
AcDbCircle
 62
7
  6
CONTINUOUS
 10
111.0100133315
 20
201.4983380562
 40
56.75
100
AcDbArc
 50
163.3396822449
 51
273.6086773666
  0
ARC
  5
4D2
100
AcDbEntity
  8
0
100
AcDbCircle
 62
7
  6
CONTINUOUS
 10
111.0100133315
 20
201.4983380562
 40
55.9521033886
100
AcDbArc
 50
163.3396822449
 51
273.6086773666
  0
ARC
  5
4D3
100
AcDbEntity
  8
0
100
AcDbCircle
 62
7
  6
CONTINUOUS
 10
111.0093826643
 20
201.5083380562
 40
48.0
100
AcDbArc
 50
157.3141218735
 51
273.6086773666
  0
ARC
  5
4D4
100
AcDbEntity
  8
0
100
AcDbCircle
 62
7
  6
CONTINUOUS
 10
94.9631567754
 20
206.3005140909
 40
40.0
100
AcDbArc
 50
126.4896400498
 51
163.3396822449
  0
ARC
  5
4D5
100
AcDbEntity
  8
0
100
AcDbCircle
 62
7
  6
CONTINUOUS
 10
94.9631567754
 20
206.3005140909
 40
39.2021033886
100
AcDbArc
 50
155.3842435912
 51
163.3396822449
  0
ARC
  5
4D6
100
AcDbEntity
  8
0
100
AcDbCircle
 62
7
  6
CONTINUOUS
 10
114.0093826643
 20
209.9083380562
 40
38.4
100
AcDbArc
 50
169.1501941409
 51
297.0809790669
  0
ARC
  5
4D7
100
AcDbEntity
  8
0
100
AcDbCircle
 62
7
  6
CONTINUOUS
 10
90.7370873167
 20
210.0976284507
 40
33.5801415598
100
AcDbArc
 50
125.3425308552
 51
139.8151188576
  0
ARC
  5
4D8
100
AcDbEntity
  8
0
100
AcDbCircle
 62
7
  6
CONTINUOUS
 10
114.0093826643
 20
209.9083380562
 40
25.2
100
AcDbArc
 50
142.0
 51
322.0
  0
ARC
  5
4D9
100
AcDbEntity
  8
0
100
AcDbCircle
 62
7
  6
CONTINUOUS
 10
102.6093826643
 20
242.0959577191
 40
54.0
100
AcDbArc
 50
322.0
 51
360.0
  0
ARC
  5
4DA
100
AcDbEntity
  8
0
100
AcDbCircle
 62
7
  6
CONTINUOUS
 10
97.8568506549
 20
243.2683380562
 40
12.0
100
AcDbArc
 50
59.3013255364
 51
122.2019944822
  0
ARC
  5
4DB
100
AcDbEntity
  8
0
100
AcDbCircle
 62
7
  6
CONTINUOUS
 10
101.5813688636
 20
247.7100516075
 40
5.9839617385
100
AcDbArc
 50
335.4413525623
 51
2.6544872069
  0
ARC
  5
4DC
100
AcDbEntity
  8
0
100
AcDbCircle
 62
7
  6
CONTINUOUS
 10
101.8821987003
 20
247.7890736115
 40
5.9833960194
100
AcDbArc
 50
335.6285269135
 51
3.4829506011
  0
ARC
  5
4DD
100
AcDbEntity
  8
0
100
AcDbCircle
 62
7
  6
CONTINUOUS
 10
113.3017008712
 20
260.3066406927
 40
1.0
100
AcDbArc
 50
5.4449282366
 51
211.3227628464
  0
ARC
  5
4DE
100
AcDbEntity
  8
0
100
AcDbCircle
 62
7
  6
CONTINUOUS
 10
115.1787747912
 20
261.8033682893
 40
1.0
100
AcDbArc
 50
26.2914864032
 51
204.2594889358
  0
ARC
  5
4DF
100
AcDbEntity
  8
0
100
AcDbCircle
 62
7
  6
CONTINUOUS
 10
117.8271938429
 20
262.3808425542
 40
1.0
100
AcDbArc
 50
24.2129244138
 51
221.714633798
  0
ARC
  5
4E0
100
AcDbEntity
  8
0
100
AcDbCircle
 62
7
  6
CONTINUOUS
 10
124.3327408521
 20
269.5627822721
 40
1.0
100
AcDbArc
 50
48.665046696
 51
254.5550717634
  0
ARC
  5
4E1
100
AcDbEntity
  8
0
100
AcDbCircle
 62
7
  6
CONTINUOUS
 10
122.5328014452
 20
267.9741293423
 40
1.0
100
AcDbArc
 50
56.0307699159
 51
233.7006965858
  0
ARC
  5
4E2
100
AcDbEntity
  8
0
100
AcDbCircle
 62
7
  6
CONTINUOUS
 10
121.5042071699
 20
265.4662230807
 40
1.0
100
AcDbArc
 50
38.2866556856
 51
235.7870885454
  0
ARC
  5
4E3
100
AcDbEntity
  8
0
100
AcDbCircle
 62
7
  6
CONTINUOUS
 10
119.177181923
 20
264.5057265943
 40
1.0
100
AcDbArc
 50
33.4793810962
 51
226.5399849322
  0
ARC
  5
4E4
100
AcDbEntity
  8
BEZUGSACHSEN
100
AcDbCircle
 62
7
  6
CONTINUOUS
 10
113.3017008712
 20
260.3066406927
 40
1.0
100
AcDbArc
 50
130.0
 51
162.5787110494
  0
ARC
  5
4E5
100
AcDbEntity
  8
BEZUGSACHSEN
100
AcDbCircle
 62
7
  6
CONTINUOUS
 10
124.3327408521
 20
269.5627822721
 40
1.0
100
AcDbArc
 50
140.680521178
 51
162.7658313418
  0
ARC
  5
4E6
100
AcDbEntity
  8
BEZUGSACHSEN
100
AcDbCircle
 62
7
  6
CONTINUOUS
 10
122.5328014452
 20
267.9741293423
 40
1.0
100
AcDbArc
 50
139.6264105489
 51
155.452489033
  0
ARC
  5
4E7
100
AcDbEntity
  8
0
100
AcDbCircle
 62
7
  6
CONTINUOUS
 10
101.9589349609
 20
402.9731703551
 40
257.5971897719
100
AcDbArc
 50
273.5741005584
 51
275.4010269397
  0
ARC
  5
4E8
100
AcDbEntity
  8
0
100
AcDbCircle
 62
7
  6
CONTINUOUS
 10
78.5802896731
 20
340.2021403586
 40
102.4877374281
100
AcDbArc
 50
284.8078392731
 51
284.9429419167
  0
ARC
  5
4E9
100
AcDbEntity
  8
0
100
AcDbCircle
 62
7
  6
CONTINUOUS
 10
107.4201398532
 20
295.6301858147
 40
30.0
100
AcDbArc
 50
310.0
 51
355.7807390401
  0
ARC
  5
4EA
100
AcDbEntity
  8
0
100
AcDbCircle
 62
7
  6
CONTINUOUS
 10
107.3562900348
 20
278.5945422156
 40
19.9892575091
100
AcDbArc
 50
303.746791294
 51
309.9977425574
  0
ARC
  5
4EB
100
AcDbEntity
  8
0
100
AcDbCircle
 62
7
  6
CONTINUOUS
 10
107.3791115722
 20
278.5697626993
 40
19.9556060187
100
AcDbArc
 50
309.9932759719
 51
341.8152178659
  0
ARC
  5
4EC
100
AcDbEntity
  8
0
100
AcDbCircle
 62
7
  6
CONTINUOUS
 10
108.0034246662
 20
277.6140863661
 40
18.8159957339
100
AcDbArc
 50
277.2441037024
 51
296.8522323724
  0
ARC
  5
4ED
100
AcDbEntity
  8
0
100
AcDbCircle
 62
7
  6
CONTINUOUS
 10
163.1558627212
 20
195.3083380562
 40
117.6
100
AcDbArc
 50
90.0
 51
102.4398337139
  0
ARC
  5
4EE
100
AcDbEntity
  8
0
100
AcDbCircle
 62
7
  6
CONTINUOUS
 10
163.1558627212
 20
195.3083380562
 40
116.2001813836
100
AcDbArc
 50
100.0236861056
 51
101.8682362545
  0
ARC
  5
4EF
100
AcDbEntity
  8
0
100
AcDbCircle
 62
7
  6
CONTINUOUS
 10
210.0931595488
 20
177.3925915882
 40
43.8266730629
100
AcDbArc
 50
212.2050396804
 51
212.8336496691
  0
ARC
  5
4F0
100
AcDbEntity
  8
0
100
AcDbCircle
 62
7
  6
CONTINUOUS
 10
200.0101564215
 20
169.5180003289
 40
29.5931017801
100
AcDbArc
 50
204.160719304
 51
205.0348503539
  0
ARC
  5
4F1
100
AcDbEntity
  8
0
100
AcDbCircle
 62
7
  6
CONTINUOUS
 10
130.2101179192
 20
145.5325155131
 40
9.6069675287
100
AcDbArc
 50
64.95613628
 51
65.2946041809
  0
ARC
  5
4F2
100
AcDbEntity
  8
0
100
AcDbCircle
 62
7
  6
CONTINUOUS
 10
149.6093826643
 20
262.4083380562
 40
7.0
100
AcDbArc
 50
0.0
 51
90.0
  0
ARC
  5
4F3
100
AcDbEntity
  8
0
100
AcDbCircle
 62
7
  6
CONTINUOUS
 10
145.8813826643
 20
280.9083380562
 40
20.3998186164
100
AcDbArc
 50
98.3168462829
 51
104.2047017542
  0
ARC
  5
4F4
100
AcDbEntity
  8
0
100
AcDbCircle
 62
7
  6
CONTINUOUS
 10
145.8813826643
 20
280.9083380562
 40
19.0
100
AcDbArc
 50
99.1775003297
 51
108.818528403
  0
ARC
  5
4F5
100
AcDbEntity
  8
0
100
AcDbCircle
 62
7
  6
CONTINUOUS
 10
146.8675651012
 20
280.8220582728
 40
17.0
100
AcDbArc
 50
103.2563160496
 51
117.834467988
  0
ARC
  5
4F6
100
AcDbEntity
  8
0
100
AcDbCircle
 62
7
  6
CONTINUOUS
 10
145.8813826643
 20
280.9083380562
 40
11.5
100
AcDbArc
 50
269.6761154718
 51
270.0
  0
ARC
  5
4F7
100
AcDbEntity
  8
0
100
AcDbCircle
 62
7
  6
CONTINUOUS
 10
145.8813826643
 20
280.9083380562
 40
11.5
100
AcDbArc
 50
147.8353117434
 51
170.2731731926
  0
ARC
  5
4F8
100
AcDbEntity
  8
0
100
AcDbCircle
 62
7
  6
CONTINUOUS
 10
145.8813826643
 20
280.9083380562
 40
10.0
100
AcDbArc
 50
299.2474847866
 51
40.0
  0
CIRCLE
  5
4F9
100
AcDbEntity
  8
0
100
AcDbCircle
 62
7
  6
CONTINUOUS
 10
145.8813826643
 20
280.9083380562
 40
4.0
  0
ARC
  5
4FA
100
AcDbEntity
  8
0
100
AcDbCircle
 62
7
  6
CONTINUOUS
 10
143.4012257327
 20
295.793530097
 40
3.6081569727
100
AcDbArc
 50
350.2720410857
 51
359.9913629736
  0
ARC
  5
4FB
100
AcDbEntity
  8
0
100
AcDbCircle
 62
7
  6
CONTINUOUS
 10
138.5922610683
 20
306.648059173
 40
3.5828547533
100
AcDbArc
 50
102.395859995
 51
180.0439737062
  0
ARC
  5
4FC
100
AcDbEntity
  8
0
100
AcDbCircle
 62
7
  6
CONTINUOUS
 10
139.9920339957
 20
305.5177036648
 40
3.5828089038
100
AcDbArc
 50
101.8232178668
 51
180.0450183881
  0
ARC
  5
4FD
100
AcDbEntity
  8
0
100
AcDbCircle
 62
7
  6
CONTINUOUS
 10
143.6572574296
 20
294.449014083
 40
3.0
100
AcDbArc
 50
40.0
 51
103.2563160496
  0
ARC
  5
4FE
100
AcDbEntity
  8
0
100
AcDbCircle
 62
7
  6
CONTINUOUS
 10
140.3307032728
 20
293.2022617217
 40
3.0
100
AcDbArc
 50
117.834467988
 51
175.7807390401
  0
ARC
  5
4FF
100
AcDbEntity
  8
0
100
AcDbCircle
 62
7
  6
CONTINUOUS
 10
147.9351552197
 20
300.9516121116
 40
2.9069256731
100
AcDbArc
 50
267.3106024894
 51
269.4022893041
  0
ARC
  5
500
100
AcDbEntity
  8
0
100
AcDbCircle
 62
7
  6
CONTINUOUS
 10
574.5295147578
 20
167.8823729009
 40
401.5146888746
100
AcDbArc
 50
181.5539290822
 51
182.0342719973
  0
ARC
  5
501
100
AcDbEntity
  8
KONSTRUKTIONSELEMENTE
100
AcDbCircle
 62
7
  6
CONTINUOUS
 10
280.3906278245
 20
184.9027252497
 40
126.137971343
100
AcDbArc
 50
93.9306574546
 51
94.2910214866
  0
ARC
  5
502
100
AcDbEntity
  8
0
100
AcDbCircle
 62
7
  6
CONTINUOUS
 10
232.2296819918
 20
263.2589235056
 40
79.3848343322
100
AcDbArc
 50
359.0721798884
 51
0.0162052761
  0
ARC
  5
503
100
AcDbEntity
  8
0
100
AcDbCircle
 62
7
  6
CONTINUOUS
 10
257.4255775591
 20
166.3617386618
 40
21.0428768015
100
AcDbArc
 50
215.8584719642
 51
216.7298541899
  0
ARC
  5
504
100
AcDbEntity
  8
0
100
AcDbCircle
 62
7
  6
CONTINUOUS
 10
257.4006891379
 20
165.9576428
 40
21.0235441264
100
AcDbArc
 50
179.9983175267
 51
214.9863918582
  0
ARC
  5
505
100
AcDbEntity
  8
0
100
AcDbCircle
 62
7
  6
CONTINUOUS
 10
257.3873993475
 20
165.9500525143
 40
21.0082851238
100
AcDbArc
 50
214.9902141422
 51
215.9056679429
  0
ARC
  5
506
100
AcDbEntity
  8
0
100
AcDbCircle
 62
7
  6
CONTINUOUS
 10
257.3771299929
 20
295.5302911166
 40
21.0
100
AcDbArc
 50
95.0
 51
180.0
  0
ARC
  5
507
100
AcDbEntity
  8
0
100
AcDbCircle
 62
7
  6
CONTINUOUS
 10
257.3894409295
 20
166.3202878193
 40
20.9888104764
100
AcDbArc
 50
216.6981610959
 51
265.0561404848
  0
ARC
  5
508
100
AcDbEntity
  8
RUNDUNGEN
100
AcDbCircle
 62
7
  6
CONTINUOUS
 10
257.3644316812
 20
295.5315676172
 40
13.9869965334
100
AcDbArc
 50
94.9525271535
 51
180.0147857262
  0
ARC
  5
509
100
AcDbEntity
  8
KONSTRUKTIONSELEMENTE
100
AcDbCircle
 62
7
  6
CONTINUOUS
 10
293.8940750064
 20
237.4482581005
 40
11.6886448222
100
AcDbArc
 50
191.557771887
 51
195.7593917354
  0
ARC
  5
50A
100
AcDbEntity
  8
KONSTRUKTIONSELEMENTE
100
AcDbCircle
 62
7
  6
CONTINUOUS
 10
293.6257849718
 20
237.3917154427
 40
11.4144663189
100
AcDbArc
 50
189.2826642258
 51
191.549526425
  0
ARC
  5
50B
100
AcDbEntity
  8
KONSTRUKTIONSELEMENTE
100
AcDbCircle
 62
7
  6
CONTINUOUS
 10
290.377728041
 20
186.0281077118
 40
7.0008388314
100
AcDbArc
 50
162.0496126895
 51
178.3237998289
  0
ARC
  5
50C
100
AcDbEntity
  8
KONSTRUKTIONSELEMENTE
100
AcDbCircle
 62
7
  6
CONTINUOUS
 10
290.2511602735
 20
186.0382952765
 40
6.874030281
100
AcDbArc
 50
178.3778193896
 51
179.9993759777
  0
ARC
  5
50D
100
AcDbEntity
  8
KONSTRUKTIONSELEMENTE
100
AcDbCircle
 62
8
  6
HIDDEN
 10
289.9771299929
 20
177.6106883454
 40
6.6
100
AcDbArc
 50
95.0
 51
151.0207800899
  0
ARC
  5
50E
100
AcDbEntity
  8
KONSTRUKTIONSELEMENTE
100
AcDbCircle
 62
7
  6
CONTINUOUS
 10
292.2571299929
 20
222.629398265
 40
6.0
100
AcDbArc
 50
175.8130050637
 51
180.0
  0
ARC
  5
50F
100
AcDbEntity
  8
BEZUGSACHSEN
100
AcDbCircle
 62
7
  6
CONTINUOUS
 10
285.6698750643
 20
201.0246693521
 40
5.8818552179
100
AcDbArc
 50
106.7257533143
 51
107.4971623601
  0
ARC
  5
510
100
AcDbEntity
  8
AUSFORMSCHRAEGEN
100
AcDbCircle
 62
7
  6
CONTINUOUS
 10
282.8577901089
 20
252.4080748322
 40
2.8817855573
100
AcDbArc
 50
278.8733587806
 51
282.4619062655
  0
ARC
  5
511
100
AcDbEntity
  8
KONSTRUKTIONSELEMENTE
100
AcDbCircle
 62
7
  6
CONTINUOUS
 10
285.1737910942
 20
234.6837285794
 40
2.5620259796
100
AcDbArc
 50
189.2105509555
 51
195.7714115366
  0
ARC
  5
512
100
AcDbEntity
  8
KONSTRUKTIONSELEMENTE
100
AcDbCircle
 62
7
  6
CONTINUOUS
 10
285.8771299929
 20
174.0083380562
 40
2.5
100
AcDbArc
 50
180.0
 51
270.0
  0
ARC
  5
513
100
AcDbEntity
  8
KONSTRUKTIONSELEMENTE
100
AcDbCircle
 62
7
  6
CONTINUOUS
 10
285.50692765
 20
152.5977228552
 40
2.0937225688
100
AcDbArc
 50
127.4387618876
 51
128.5005729334
  0
ARC
  5
514
100
AcDbEntity
  8
BEZUGSACHSEN
100
AcDbCircle
 62
7
  6
CONTINUOUS
 10
283.3673578127
 20
265.4642246744
 40
1.0098563492
100
AcDbArc
 50
6.4903030177
 51
10.3721761225
  0
ARC
  5
515
100
AcDbEntity
  8
BEZUGSACHSEN
100
AcDbCircle
 62
7
  6
CONTINUOUS
 10
283.3688721958
 20
262.3792387609
 40
1.008318938
100
AcDbArc
 50
5.4232976598
 51
10.0119760336
  0
ARC
  5
516
100
AcDbEntity
  8
BEZUGSACHSEN
100
AcDbCircle
 62
7
  6
CONTINUOUS
 10
286.3771508832
 20
261.8033133415
 40
1.0000125355
100
AcDbArc
 50
25.1675392233
 51
179.9968517875
  0
ARC
  5
517
100
AcDbEntity
  8
BEZUGSACHSEN
100
AcDbCircle
 62
7
  6
CONTINUOUS
 10
283.3771250685
 20
260.3066261859
 40
1.0000041044
100
AcDbArc
 50
0.5519981186
 51
179.9991688224
  0
ARC
  5
518
100
AcDbEntity
  8
BEZUGSACHSEN
100
AcDbCircle
 62
7
  6
CONTINUOUS
 10
283.3771089178
 20
262.3808728596
 40
0.9999649186
100
AcDbArc
 50
10.0018209304
 51
180.0017364034
  0
ARC
  5
519
100
AcDbEntity
  8
BEZUGSACHSEN
100
AcDbCircle
 62
7
  6
CONTINUOUS
 10
283.3770529672
 20
265.4662016706
 40
0.9999229745
100
AcDbArc
 50
10.3586666079
 51
211.149122713
  0
ARC
  5
51A
100
AcDbEntity
  8
BEZUGSACHSEN
100
AcDbCircle
 62
7
  6
CONTINUOUS
 10
286.3770333377
 20
267.9741006381
 40
0.9999033452
100
AcDbArc
 50
36.7132592098
 51
213.6804095994
  0
ARC
  5
51B
100
AcDbEntity
  8
BEZUGSACHSEN
100
AcDbCircle
 62
7
  6
CONTINUOUS
 10
286.376937997
 20
264.5056757363
 40
0.9998080054
100
AcDbArc
 50
20.4574212573
 51
215.5842402226
  0
ARC
  5
51C
100
AcDbEntity
  8
BEZUGSACHSEN
100
AcDbCircle
 62
7
  6
CONTINUOUS
 10
283.3768458647
 20
269.5626546233
 40
0.9997158799
100
AcDbArc
 50
1.0177349804
 51
231.9376654453
  0
ARC
  5
51D
100
AcDbEntity
  8
KONSTRUKTIONSELEMENTE
100
AcDbCircle
 62
7
  6
CONTINUOUS
 10
283.8581225073
 20
524.8825302202
 40
226.8378238462
100
AcDbArc
 50
270.0632550858
 51
270.3034719746
  0
ARC
  5
51E
100
AcDbEntity
  8
0
100
AcDbCircle
 62
7
  6
CONTINUOUS
 10
310.3636321613
 20
184.9027252488
 40
126.1379713439
100
AcDbArc
 50
85.7089785134
 51
86.0693425454
  0
ARC
  5
51F
100
AcDbEntity
  8
KONSTRUKTIONSELEMENTE
100
AcDbCircle
 62
7
  6
CONTINUOUS
 10
358.524577994
 20
263.2589235056
 40
79.3848343322
100
AcDbArc
 50
179.9837947239
 51
180.9278201116
  0
ARC
  5
520
100
AcDbEntity
  8
0
100
AcDbCircle
 62
7
  6
CONTINUOUS
 10
333.3228783838
 20
166.3714114316
 40
21.052735727
100
AcDbArc
 50
333.7934136778
 51
334.7940504701
  0
ARC
  5
521
100
AcDbEntity
  8
0
100
AcDbCircle
 62
7
  6
CONTINUOUS
 10
333.3504084003
 20
165.9582921089
 40
21.0267215926
100
AcDbArc
 50
335.7931621849
 51
359.9999129163
  0
ARC
  5
522
100
AcDbEntity
  8
0
100
AcDbCircle
 62
7
  6
CONTINUOUS
 10
333.3738546932
 20
165.947706405
 40
21.0009964283
100
AcDbArc
 50
334.7673914441
 51
335.7932745552
  0
ARC
  5
523
100
AcDbEntity
  8
0
100
AcDbCircle
 62
7
  6
CONTINUOUS
 10
333.3771299929
 20
295.5302911166
 40
21.0
100
AcDbArc
 50
0.0
 51
85.0
  0
ARC
  5
524
100
AcDbEntity
  8
0
100
AcDbCircle
 62
7
  6
CONTINUOUS
 10
333.3898285476
 20
295.5315682324
 40
13.9869965334
100
AcDbArc
 50
359.9852117535
 51
85.0474736204
  0
ARC
  5
525
100
AcDbEntity
  8
0
100
AcDbCircle
 62
7
  6
CONTINUOUS
 10
300.3765319448
 20
186.0281077118
 40
7.0008388314
100
AcDbArc
 50
1.6762001711
 51
17.9503873105
  0
ARC
  5
526
100
AcDbEntity
  8
0
100
AcDbCircle
 62
7
  6
CONTINUOUS
 10
300.5030997126
 20
186.0382952765
 40
6.8740302807
100
AcDbArc
 50
0.0006240223
 51
1.6221806104
  0
ARC
  5
527
100
AcDbEntity
  8
DEFAULT_2
100
AcDbCircle
 62
8
  6
HIDDEN
 10
300.7771299929
 20
177.6106883454
 40
6.6
100
AcDbArc
 50
28.9792199101
 51
85.0
  0
ARC
  5
528
100
AcDbEntity
  8
0
100
AcDbCircle
 62
7
  6
CONTINUOUS
 10
298.4971299929
 20
222.629398265
 40
6.0
100
AcDbArc
 50
0.0
 51
4.1869949363
  0
ARC
  5
529
100
AcDbEntity
  8
0
100
AcDbCircle
 62
7
  6
CONTINUOUS
 10
307.8964698769
 20
252.4080748322
 40
2.8817855573
100
AcDbArc
 50
257.5380937345
 51
261.1266412194
  0
ARC
  5
52A
100
AcDbEntity
  8
0
100
AcDbCircle
 62
7
  6
CONTINUOUS
 10
304.8771299929
 20
174.0083380562
 40
2.5
100
AcDbArc
 50
270.0
 51
360.0
  0
ARC
  5
52B
100
AcDbEntity
  8
0
100
AcDbCircle
 62
7
  6
CONTINUOUS
 10
305.2473323358
 20
152.5977228552
 40
2.0937225688
100
AcDbArc
 50
51.4994270666
 51
52.5612381124
  0
ARC
  5
52C
100
AcDbEntity
  8
0
100
AcDbCircle
 62
7
  6
CONTINUOUS
 10
307.3869021731
 20
265.4642246744
 40
1.0098563492
100
AcDbArc
 50
169.6278238775
 51
173.5096969823
  0
ARC
  5
52D
100
AcDbEntity
  8
0
100
AcDbCircle
 62
7
  6
CONTINUOUS
 10
307.38538779
 20
262.3792387609
 40
1.008318938
100
AcDbArc
 50
169.9880239663
 51
174.5767023402
  0
ARC
  5
52E
100
AcDbEntity
  8
0
100
AcDbCircle
 62
7
  6
CONTINUOUS
 10
304.377107482
 20
261.8033136095
 40
1.0000130651
100
AcDbArc
 50
0.003132851
 51
154.8324607768
  0
ARC
  5
52F
100
AcDbEntity
  8
0
100
AcDbCircle
 62
7
  6
CONTINUOUS
 10
307.3771347644
 20
260.3066260252
 40
1.0000041755
100
AcDbArc
 50
0.0008403848
 51
179.4479925901
  0
ARC
  5
530
100
AcDbEntity
  8
0
100
AcDbCircle
 62
7
  6
CONTINUOUS
 10
307.3771511741
 20
262.3808727818
 40
0.9999648843
100
AcDbArc
 50
359.9982680516
 51
169.9981757383
  0
ARC
  5
531
100
AcDbEntity
  8
0
100
AcDbCircle
 62
7
  6
CONTINUOUS
 10
307.3772070186
 20
265.4662016706
 40
0.9999229745
100
AcDbArc
 50
328.850877287
 51
169.641343037
  0
ARC
  5
532
100
AcDbEntity
  8
0
100
AcDbCircle
 62
7
  6
CONTINUOUS
 10
304.3772266481
 20
267.9741006381
 40
0.9999033452
100
AcDbArc
 50
326.3195904007
 51
143.2867396515
  0
ARC
  5
533
100
AcDbEntity
  8
0
100
AcDbCircle
 62
7
  6
CONTINUOUS
 10
304.3773219888
 20
264.5056757363
 40
0.9998080054
100
AcDbArc
 50
324.4157597774
 51
159.5425802914
  0
ARC
  5
534
100
AcDbEntity
  8
0
100
AcDbCircle
 62
7
  6
CONTINUOUS
 10
307.3774141211
 20
269.5626546233
 40
0.9997158799
100
AcDbArc
 50
308.0623345547
 51
178.9822746346
  0
ARC
  5
535
100
AcDbEntity
  8
0
100
AcDbCircle
 62
7
  6
CONTINUOUS
 10
306.8961374785
 20
524.8825302203
 40
226.8378238463
100
AcDbArc
 50
269.6965280254
 51
269.9367449142
  0
ARC
  5
536
100
AcDbEntity
  8
0
100
AcDbCircle
 62
7
  6
CONTINUOUS
 10
55.5066805487
 20
-170.3479838572
 40
231.0921995972
100
AcDbArc
 50
74.6956924935
 51
76.2647971638
  0
ARC
  5
537
100
AcDbEntity
  8
0
100
AcDbCircle
 62
7
  6
CONTINUOUS
 10
113.3017068358
 20
56.4874785737
 40
0.9999885168
100
AcDbArc
 50
91.5316717778
 51
342.5775377154
  0
ARC
  5
538
100
AcDbEntity
  8
0
100
AcDbCircle
 62
7
  6
CONTINUOUS
 10
117.8272320529
 20
56.4873791648
 40
0.9998896037
100
AcDbArc
 50
98.0630851354
 51
308.2001700631
  0
ARC
  5
539
100
AcDbEntity
  8
0
100
AcDbCircle
 62
7
  6
CONTINUOUS
 10
115.178825812
 20
59.4873561887
 40
0.9998666281
100
AcDbArc
 50
135.6959906588
 51
311.9280517827
  0
ARC
  5
53A
100
AcDbEntity
  8
KONSTRUKTIONSELEMENTE
100
AcDbCircle
 62
7
  6
CONTINUOUS
 10
55.5066805487
 20
307.3229629806
 40
231.0921995969
100
AcDbArc
 50
283.7352028362
 51
285.3043075065
  0
ARC
  5
53B
100
AcDbEntity
  8
KONSTRUKTIONSELEMENTE
100
AcDbCircle
 62
7
  6
CONTINUOUS
 10
96.5494542573
 20
77.4540055507
 40
4.1485535208
100
AcDbArc
 50
77.2440890239
 51
81.0063862695
  0
ARC
  5
53C
100
AcDbEntity
  8
KONSTRUKTIONSELEMENTE
100
AcDbCircle
 62
7
  6
CONTINUOUS
 10
96.3799193924
 20
77.8894338691
 40
3.7523793634
100
AcDbArc
 50
77.4078431612
 51
81.1272227216
  0
ARC
  5
53D
100
AcDbEntity
  8
BEZUGSACHSEN
100
AcDbCircle
 62
7
  6
CONTINUOUS
 10
113.301706895
 20
80.4875006306
 40
0.9999885168
100
AcDbArc
 50
17.4224588928
 51
268.4683282222
  0
ARC
  5
53E
100
AcDbEntity
  8
BEZUGSACHSEN
100
AcDbCircle
 62
7
  6
CONTINUOUS
 10
117.8272320529
 20
80.4875999588
 40
0.9998896037
100
AcDbArc
 50
51.7998299369
 51
261.9369144824
  0
ARC
  5
53F
100
AcDbEntity
  8
BEZUGSACHSEN
100
AcDbCircle
 62
7
  6
CONTINUOUS
 10
115.178825812
 20
77.487622935
 40
0.9998666281
100
AcDbArc
 50
48.0719482173
 51
224.3040056024
  0
ARC
  5
540
100
AcDbEntity
  8
KONSTRUKTIONSELEMENTE
100
AcDbCircle
 62
7
  6
CONTINUOUS
 10
120.2233840707
 20
-64.5509340943
 40
149.2758080021
100
AcDbArc
 50
90.0072352185
 51
90.6765411207
  0
ARC
  5
541
100
AcDbEntity
  8
0
100
AcDbCircle
 62
7
  6
CONTINUOUS
 10
181.5392924182
 20
51.5681811601
 40
24.0
100
AcDbArc
 50
198.2228936988
 51
203.996644015
  0
ARC
  5
542
100
AcDbEntity
  8
0
100
AcDbCircle
 62
7
  6
CONTINUOUS
 10
141.6333826643
 20
37.8874895618
 40
18.6
100
AcDbArc
 50
37.366101908
 51
45.5817735429
  0
ARC
  5
543
100
AcDbEntity
  8
0
100
AcDbCircle
 62
7
  6
CONTINUOUS
 10
143.1693826643
 20
34.4874895618
 40
18.0
100
AcDbArc
 50
4.0
 51
23.996644015
  0
ARC
  5
544
100
AcDbEntity
  8
0
100
AcDbCircle
 62
7
  6
CONTINUOUS
 10
151.9040605302
 20
41.8114895618
 40
7.2
100
AcDbArc
 50
18.2228936988
 51
25.0
  0
ARC
  5
545
100
AcDbEntity
  8
0
100
AcDbCircle
 62
7
  6
CONTINUOUS
 10
148.8093826643
 20
51.2874895618
 40
6.0
100
AcDbArc
 50
25.0
 51
168.4630409672
  0
ARC
  5
546
100
AcDbEntity
  8
0
100
AcDbCircle
 62
7
  6
CONTINUOUS
 10
121.5057771859
 20
56.4790668227
 40
1.008484949
100
AcDbArc
 50
96.1704475603
 51
99.7519712669
  0
ARC
  5
547
100
AcDbEntity
  8
0
100
AcDbCircle
 62
7
  6
CONTINUOUS
 10
122.532861558
 20
59.4874983661
 40
1.0000167811
100
AcDbArc
 50
117.4814609987
 51
269.9965558197
  0
ARC
  5
548
100
AcDbEntity
  8
0
100
AcDbCircle
 62
7
  6
CONTINUOUS
 10
121.5042631006
 20
56.4871763348
 40
0.9996867745
100
AcDbArc
 50
99.742753606
 51
299.0888024188
  0
ARC
  5
549
100
AcDbEntity
  8
0
100
AcDbCircle
 62
7
  6
CONTINUOUS
 10
124.3328437614
 20
56.4871591496
 40
0.999669593
100
AcDbArc
 50
90.5926925976
 51
299.0799520554
  0
ARC
  5
54A
100
AcDbEntity
  8
0
100
AcDbCircle
 62
7
  6
CONTINUOUS
 10
119.1773132666
 20
59.4869962523
 40
0.9995066991
100
AcDbArc
 50
113.8022123063
 51
311.0568019098
  0
ARC
  5
54B
100
AcDbEntity
  8
0
100
AcDbCircle
 62
7
  6
CONTINUOUS
 10
120.2233840707
 20
201.5259132198
 40
149.275808004
100
AcDbArc
 50
269.3234588793
 51
269.9927647815
  0
ARC
  5
54C
100
AcDbEntity
  8
KONSTRUKTIONSELEMENTE
100
AcDbCircle
 62
7
  6
CONTINUOUS
 10
181.5392924182
 20
85.4067979636
 40
24.0
100
AcDbArc
 50
156.003355985
 51
161.7771063012
  0
ARC
  5
54D
100
AcDbEntity
  8
BEZUGSACHSEN
100
AcDbCircle
 62
7
  6
CONTINUOUS
 10
141.6333826643
 20
99.0874895618
 40
18.6
100
AcDbArc
 50
314.4289406758
 51
322.6780012944
  0
ARC
  5
54E
100
AcDbEntity
  8
KONSTRUKTIONSELEMENTE
100
AcDbCircle
 62
7
  6
CONTINUOUS
 10
143.1693826643
 20
102.4874895618
 40
18.0
100
AcDbArc
 50
336.003355985
 51
356.0
  0
ARC
  5
54F
100
AcDbEntity
  8
KONSTRUKTIONSELEMENTE
100
AcDbCircle
 62
7
  6
CONTINUOUS
 10
151.9040605302
 20
95.1634895618
 40
7.2
100
AcDbArc
 50
335.0
 51
341.7771063012
  0
ARC
  5
550
100
AcDbEntity
  8
KONSTRUKTIONSELEMENTE
100
AcDbCircle
 62
7
  6
CONTINUOUS
 10
148.8093826643
 20
85.6874895618
 40
6.0
100
AcDbArc
 50
191.5369590328
 51
335.0
  0
ARC
  5
551
100
AcDbEntity
  8
BEZUGSACHSEN
100
AcDbCircle
 62
7
  6
CONTINUOUS
 10
121.5057771859
 20
80.4959123009
 40
1.008484949
100
AcDbArc
 50
260.2480287331
 51
263.8295524397
  0
ARC
  5
552
100
AcDbEntity
  8
BEZUGSACHSEN
100
AcDbCircle
 62
7
  6
CONTINUOUS
 10
122.532861622
 20
77.4874810192
 40
1.0000167811
100
AcDbArc
 50
90.0034478467
 51
242.5185426685
  0
ARC
  5
553
100
AcDbEntity
  8
BEZUGSACHSEN
100
AcDbCircle
 62
7
  6
CONTINUOUS
 10
121.5042631006
 20
80.4878027889
 40
0.9996867745
100
AcDbArc
 50
60.9111975812
 51
260.2572376972
  0
ARC
  5
554
100
AcDbEntity
  8
BEZUGSACHSEN
100
AcDbCircle
 62
7
  6
CONTINUOUS
 10
124.3328437614
 20
80.4878199741
 40
0.999669593
100
AcDbArc
 50
60.9200479446
 51
269.4073074024
  0
ARC
  5
555
100
AcDbEntity
  8
BEZUGSACHSEN
100
AcDbCircle
 62
7
  6
CONTINUOUS
 10
119.1773132666
 20
77.4879828714
 40
0.9995066991
100
AcDbArc
 50
48.9431980902
 51
246.1977906061
  0
SPLINE
  5
556
100
AcDbEntity
  8
0
100
AcDbSpline
 62
7
  6
CONTINUOUS
 70
0
 71
3
 72
13
 73
9
 74
0
 42
0.0000001
 43
0.0000001
 44
0.0000000001
 40
0.0
 40
0.0
 40
0.0
 40
0.0
 40
0.0679195019
 40
0.1500768585
 40
0.2515285782
 40
0.372972509
 40
0.6661891318
 40
1.0
 40
1.0
 40
1.0
 40
1.0
 10
120.0114913113
 20
265.0569392133
 30
0.0
 10
120.0253545007
 20
265.0359010579
 30
0.0
 10
120.0431584307
 20
264.9807699029
 30
0.0
 10
120.0359109448
 20
264.8864530109
 30
0.0
 10
120.0012932246
 20
264.7780254672
 30
0.0
 10
119.9139002808
 20
264.6070174662
 30
0.0
 10
119.7440883377
 20
264.3849327064
 30
0.0
 10
119.5760721912
 20
264.222991116
 30
0.0
 10
119.4812138186
 20
264.1433954905
 30
0.0
  0
SPLINE
  5
557
100
AcDbEntity
  8
0
100
AcDbSpline
 62
7
  6
CONTINUOUS
 70
0
 71
3
 72
14
 73
10
 74
0
 42
0.0000001
 43
0.0000001
 44
0.0000000001
 40
0.0
 40
0.0
 40
0.0
 40
0.0
 40
0.0680780096
 40
0.1478900354
 40
0.2463017121
 40
0.3651610073
 40
0.5033320933
 40
0.6580544363
 40
1.0
 40
1.0
 40
1.0
 40
1.0
 10
116.0768172726
 20
262.2432001397
 30
0.0
 10
116.0872809397
 20
262.2220023031
 30
0.0
 10
116.0974892568
 20
262.1693358115
 30
0.0
 10
116.0769260802
 20
262.0846788659
 30
0.0
 10
116.026832875
 20
261.993663793
 30
0.0
 10
115.9488137603
 20
261.8974322689
 30
0.0
 10
115.8451500649
 20
261.7985302669
 30
0.0
 10
115.6711430126
 20
261.6627955642
 30
0.0
 10
115.5221883023
 20
261.5741349717
 30
0.0
 10
115.4164442667
 20
261.520124838
 30
0.0
  0
SPLINE
  5
558
100
AcDbEntity
  8
0
100
AcDbSpline
 62
7
  6
CONTINUOUS
 70
0
 71
3
 72
13
 73
9
 74
0
 42
0.0000001
 43
0.0000001
 44
0.0000000001
 40
0.0
 40
0.0
 40
0.0
 40
0.0
 40
0.0503041818
 40
0.1209348241
 40
0.2161563193
 40
0.3356682483
 40
0.638255559
 40
1.0
 40
1.0
 40
1.0
 40
1.0
 10
114.2977109551
 20
260.3954069159
 30
0.0
 10
114.2991948373
 20
260.3812262933
 30
0.0
 10
114.2888345119
 20
260.3463709248
 30
0.0
 10
114.2503493331
 20
260.2982822633
 30
0.0
 10
114.1894140323
 20
260.2446110125
 30
0.0
 10
114.0685195302
 20
260.1613045489
 30
0.0
 10
113.8711427635
 20
260.0578936794
 30
0.0
 10
113.6970394016
 20
259.9857521356
 30
0.0
 10
113.6009310832
 20
259.9500320125
 30
0.0
  0
SPLINE
  5
559
100
AcDbEntity
  8
0
100
AcDbSpline
 62
7
  6
CONTINUOUS
 70
0
 71
3
 72
14
 73
10
 74
0
 42
0.0000001
 43
0.0000001
 44
0.0000000001
 40
0.0
 40
0.0
 40
0.0
 40
0.0
 40
0.0654248348
 40
0.1447885497
 40
0.2450828357
 40
0.3671751861
 40
0.5085410219
 40
0.6649135595
 40
1.0
 40
1.0
 40
1.0
 40
1.0
 10
123.0907785392
 20
268.8039811536
 30
0.0
 10
123.1130532175
 20
268.7889505969
 30
0.0
 10
123.1520524718
 20
268.739858657
 30
0.0
 10
123.1735138841
 20
268.6395018834
 30
0.0
 10
123.1673405802
 20
268.5149281884
 30
0.0
 10
123.1340860036
 20
268.3687182892
 30
0.0
 10
123.075362449
 20
268.2062324977
 30
0.0
 10
122.963237468
 20
267.9714455908
 30
0.0
 10
122.8534053613
 20
267.8007190539
 30
0.0
 10
122.7704709207
 20
267.690885891
 30
0.0
  0
SPLINE
  5
55A
100
AcDbEntity
  8
0
100
AcDbSpline
 62
7
  6
CONTINUOUS
 70
0
 71
3
 72
14
 73
10
 74
0
 42
0.0000001
 43
0.0000001
 44
0.0000000001
 40
0.0
 40
0.0
 40
0.0
 40
0.0
 40
0.0478318463
 40
0.1175277496
 40
0.2134972623
 40
0.3350274721
 40
0.4790526331
 40
0.6414376162
 40
1.0
 40
1.0
 40
1.0
 40
1.0
 10
118.7400481837
 20
262.7890420057
 30
0.0
 10
118.7465012604
 20
262.7745552168
 30
0.0
 10
118.7451101693
 20
262.7326317388
 30
0.0
 10
118.7141314026
 20
262.6686723221
 30
0.0
 10
118.6586759449
 20
262.5907846615
 30
0.0
 10
118.5779338714
 20
262.5019899679
 30
0.0
 10
118.4747696641
 20
262.4044217555
 30
0.0
 10
118.3057232287
 20
262.2627490839
 30
0.0
 10
118.1652294665
 20
262.1617380203
 30
0.0
 10
118.0660571595
 20
262.0961763386
 30
0.0
  0
SPLINE
  5
55B
100
AcDbEntity
  8
0
100
AcDbSpline
 62
7
  6
CONTINUOUS
 70
0
 71
3
 72
9
 73
5
 74
0
 42
0.0000001
 43
0.0000001
 44
0.0000000001
 40
0.0
 40
0.0
 40
0.0
 40
0.0
 40
0.2523844277
 40
1.0
 40
1.0
 40
1.0
 40
1.0
 10
118.4607956825
 20
261.9734601183
 30
0.0
 10
118.301995467
 20
261.8673756892
 30
0.0
 10
117.666642035
 20
261.4563557604
 30
0.0
 10
117.0071570528
 20
261.0824507644
 30
0.0
 10
116.5024416949
 20
260.8269363697
 30
0.0
  0
SPLINE
  5
55C
100
AcDbEntity
  8
0
100
AcDbSpline
 62
7
  6
CONTINUOUS
 70
0
 71
3
 72
12
 73
8
 74
0
 42
0.0000001
 43
0.0000001
 44
0.0000000001
 40
0.0
 40
0.0
 40
0.0
 40
0.0
 40
0.3429594303
 40
0.6529049722
 40
0.8797275768
 40
0.9524349501
 40
1.0
 40
1.0
 40
1.0
 40
1.0
 10
113.6009310832
 20
259.9500320125
 30
0.0
 10
113.4727110628
 20
259.9023770853
 30
0.0
 10
113.2238369253
 20
259.8232329983
 30
0.0
 10
112.8812497417
 20
259.7494638828
 30
0.0
 10
112.635891909
 20
259.7278231912
 30
0.0
 10
112.4992973624
 20
259.7487951436
 30
0.0
 10
112.4546440206
 20
259.7751111867
 30
0.0
 10
112.4447616611
 20
259.7913053406
 30
0.0
  0
SPLINE
  5
55D
100
AcDbEntity
  8
0
100
AcDbSpline
 62
7
  6
CONTINUOUS
 70
0
 71
3
 72
14
 73
10
 74
0
 42
0.0000001
 43
0.0000001
 44
0.0000000001
 40
0.0
 40
0.0
 40
0.0
 40
0.0
 40
0.3346047423
 40
0.4908740765
 40
0.6321867122
 40
0.7543856268
 40
0.8548772703
 40
0.9345114641
 40
1.0
 40
1.0
 40
1.0
 40
1.0
 10
115.4164442667
 20
261.520124838
 30
0.0
 10
115.2942295595
 20
261.4577020958
 30
0.0
 10
115.1075393833
 20
261.3793507698
 30
0.0
 10
114.8575026033
 20
261.3097210406
 30
0.0
 10
114.6875884126
 20
261.2799723305
 30
0.0
 10
114.5379513325
 20
261.2723487749
 30
0.0
 10
114.4141196873
 20
261.2875533509
 30
0.0
 10
114.3187206547
 20
261.3254538364
 30
0.0
 10
114.2766350998
 20
261.371957451
 30
0.0
 10
114.265430704
 20
261.3963680836
 30
0.0
  0
SPLINE
  5
55E
100
AcDbEntity
  8
0
100
AcDbSpline
 62
7
  6
CONTINUOUS
 70
0
 71
3
 72
14
 73
10
 74
0
 42
0.0000001
 43
0.0000001
 44
0.0000000001
 40
0.0
 40
0.0
 40
0.0
 40
0.0
 40
0.3535831443
 40
0.5164107971
 40
0.6619430991
 40
0.785312541
 40
0.882740693
 40
0.9529383322
 40
1.0
 40
1.0
 40
1.0
 40
1.0
 10
118.0660571595
 20
262.0961763386
 30
0.0
 10
117.9592027681
 20
262.0255361186
 30
0.0
 10
117.798609613
 20
261.9288763022
 30
0.0
 10
117.584481887
 20
261.8207233512
 30
0.0
 10
117.440812212
 20
261.7586055164
 30
0.0
 10
117.315344266
 20
261.7149348503
 30
0.0
 10
117.211958327
 20
261.6920637363
 30
0.0
 10
117.134173792
 20
261.6876074773
 30
0.0
 10
117.0911444986
 20
261.7038396572
 30
0.0
 10
117.0797760744
 20
261.7165452404
 30
0.0
  0
SPLINE
  5
55F
100
AcDbEntity
  8
0
100
AcDbSpline
 62
7
  6
CONTINUOUS
 70
0
 71
3
 72
13
 73
9
 74
0
 42
0.0000001
 43
0.0000001
 44
0.0000000001
 40
0.0
 40
0.0
 40
0.0
 40
0.0
 40
0.361744441
 40
0.6643317517
 40
0.7838436807
 40
0.8790651759
 40
0.9496958182
 40
1.0
 40
1.0
 40
1.0
 40
1.0
 10
124.6319710641
 20
269.2061735919
 30
0.0
 10
124.5801045756
 20
269.1177281091
 30
0.0
 10
124.4788262924
 20
268.9587970162
 30
0.0
 10
124.3427123505
 20
268.782375955
 30
0.0
 10
124.2396783893
 20
268.6777841277
 30
0.0
 10
124.1762412214
 20
268.6270944859
 30
0.0
 10
124.1222002536
 20
268.5975444919
 30
0.0
 10
124.0860753648
 20
268.5933941343
 30
0.0
 10
124.0723678512
 20
268.5973179123
 30
0.0
  0
SPLINE
  5
560
100
AcDbEntity
  8
0
100
AcDbSpline
 62
7
  6
CONTINUOUS
 70
0
 71
3
 72
14
 73
10
 74
0
 42
0.0000001
 43
0.0000001
 44
0.0000000001
 40
0.0
 40
0.0
 40
0.0
 40
0.0
 40
0.3419020433
 40
0.4966102618
 40
0.6347907573
 40
0.7536795847
 40
0.8521029361
 40
0.9319182937
 40
1.0
 40
1.0
 40
1.0
 40
1.0
 10
122.7704709207
 20
267.690885891
 30
0.0
 10
122.6989246457
 20
267.5961344994
 30
0.0
 10
122.5857519321
 20
267.4648491348
 30
0.0
 10
122.4218743345
 20
267.317051341
 30
0.0
 10
122.3064569052
 20
267.2321343141
 30
0.0
 10
122.1981224981
 20
267.1719906627
 30
0.0
 10
122.0997696127
 20
267.1384662905
 30
0.0
 10
122.0128131587
 20
267.1329190589
 30
0.0
 10
121.962723664
 20
267.1521463374
 30
0.0
 10
121.9436675068
 20
267.166139737
 30
0.0
  0
SPLINE
  5
561
100
AcDbEntity
  8
0
100
AcDbSpline
 62
7
  6
CONTINUOUS
 70
0
 71
3
 72
14
 73
10
 74
0
 42
0.0000001
 43
0.0000001
 44
0.0000000001
 40
0.0
 40
0.0
 40
0.0
 40
0.0
 40
0.3585102626
 40
0.5208927586
 40
0.6649383174
 40
0.7864985668
 40
0.8824773425
 40
0.9521701313
 40
1.0
 40
1.0
 40
1.0
 40
1.0
 10
121.7430704864
 20
265.1815568651
 30
0.0
 10
121.6612947281
 20
265.0952874629
 30
0.0
 10
121.5374328695
 20
264.9744807554
 30
0.0
 10
121.3685691816
 20
264.8326039429
 30
0.0
 10
121.2545536113
 20
264.7479410797
 30
0.0
 10
121.1530716794
 20
264.6838295438
 30
0.0
 10
121.0667257339
 20
264.6427361336
 30
0.0
 10
120.9983546083
 20
264.6233370776
 30
0.0
 10
120.9568284726
 20
264.6292542644
 30
0.0
 10
120.9436841973
 20
264.6381268087
 30
0.0
  0
SPLINE
  5
562
100
AcDbEntity
  8
0
100
AcDbSpline
 62
7
  6
CONTINUOUS
 70
0
 71
3
 72
12
 73
8
 74
0
 42
0.0000001
 43
0.0000001
 44
0.0000000001
 40
0.0
 40
0.0
 40
0.0
 40
0.0
 40
0.3344399931
 40
0.6284172774
 40
0.7502038462
 40
0.8520202921
 40
1.0
 40
1.0
 40
1.0
 40
1.0
 10
119.4812138186
 20
264.1433954905
 30
0.0
 10
119.3865110597
 20
264.0639304405
 30
0.0
 10
119.1979352152
 20
263.9268334053
 30
0.0
 10
118.9506830222
 20
263.7979692328
 30
0.0
 10
118.7663499847
 20
263.7418531744
 30
0.0
 10
118.631960711
 20
263.7221228607
 30
0.0
 10
118.5301408639
 20
263.7417855114
 30
0.0
 10
118.4901555774
 20
263.7791129795
 30
0.0
  0
SPLINE
  5
563
100
AcDbEntity
  8
0
100
AcDbSpline
 62
7
  6
CONTINUOUS
 70
0
 71
3
 72
14
 73
10
 74
0
 42
0.0000001
 43
0.0000001
 44
0.0000000001
 40
0.0
 40
0.0
 40
0.0
 40
0.0
 40
0.0470625708
 40
0.1172596932
 40
0.2146910722
 40
0.3380600535
 40
0.4835894574
 40
0.6464099384
 40
1.0
 40
1.0
 40
1.0
 40
1.0
 10
122.2881952938
 20
266.0869389703
 30
0.0
 10
122.298735452
 20
266.0735377262
 30
0.0
 10
122.3072514667
 20
266.0283427882
 30
0.0
 10
122.289359275
 20
265.9525112088
 30
0.0
 10
122.2488808826
 20
265.8546661986
 30
0.0
 10
122.1840872382
 20
265.7386864295
 30
0.0
 10
122.0979663608
 20
265.6079883624
 30
0.0
 10
121.9542739868
 20
265.4158933208
 30
0.0
 10
121.8311949554
 20
265.2745238447
 30
0.0
 10
121.7430704864
 20
265.1815568651
 30
0.0
  0
SPLINE
  5
564
100
AcDbEntity
  8
0
100
AcDbSpline
 62
7
  6
CONTINUOUS
 70
0
 71
3
 72
12
 73
8
 74
0
 42
0.0000001
 43
0.0000001
 44
0.0000000001
 40
0.0
 40
0.0
 40
0.0
 40
0.0
 40
0.0475630695
 40
0.1202702655
 40
0.3470695485
 40
0.6570181459
 40
1.0
 40
1.0
 40
1.0
 40
1.0
 10
124.9890793582
 20
270.3171893455
 30
0.0
 10
125.0033048871
 20
270.3046396265
 30
0.0
 10
125.021453484
 20
270.2560955902
 30
0.0
 10
125.0183712959
 20
270.1179487378
 30
0.0
 10
124.9544650428
 20
269.8800923803
 30
0.0
 10
124.8223283682
 20
269.5555270849
 30
0.0
 10
124.7011697265
 20
269.3241748155
 30
0.0
 10
124.6319710641
 20
269.2061735919
 30
0.0
  0
LINE
  5
565
100
AcDbEntity
  8
0
100
AcDbLine
 62
7
  6
CONTINUOUS
 10
166.0231566775
 20
151.546587687
 11
166.0093826643
 21
165.9582601505
  0
SPLINE
  5
566
100
AcDbEntity
  8
0
100
AcDbSpline
 62
7
  6
CONTINUOUS
 70
0
 71
3
 72
15
 73
11
 74
0
 42
0.0000001
 43
0.0000001
 44
0.0000000001
 40
0.0
 40
0.0
 40
0.0
 40
0.0
 40
0.1250058629
 40
0.2500020689
 40
0.3750015572
 40
0.5000003204
 40
0.6249991874
 40
0.7499985254
 40
0.8749944536
 40
1.0
 40
1.0
 40
1.0
 40
1.0
 10
142.8510902505
 20
299.6651322721
 30
0.0
 10
143.1060995227
 20
299.7063319695
 30
0.0
 10
143.6266818301
 20
299.7340553261
 30
0.0
 10
144.3970806282
 20
299.6076870549
 30
0.0
 10
145.1227271735
 20
299.3186926795
 30
0.0
 10
145.76887818
 20
298.8799401438
 30
0.0
 10
146.3050718932
 20
298.3120397733
 30
0.0
 10
146.7061022611
 20
297.6417752664
 30
0.0
 10
146.9537234039
 20
296.9013937416
 30
0.0
 10
147.0093826643
 20
296.3830549395
 30
0.0
 10
147.0093826643
 20
296.1247396165
 30
0.0
  0
SPLINE
  5
567
100
AcDbEntity
  8
0
100
AcDbSpline
 62
7
  6
CONTINUOUS
 70
0
 71
3
 72
15
 73
11
 74
0
 42
0.0000001
 43
0.0000001
 44
0.0000000001
 40
0.0
 40
0.0
 40
0.0
 40
0.0
 40
0.1250083674
 40
0.2500043744
 40
0.3750033231
 40
0.500001064
 40
0.6249989488
 40
0.7499975709
 40
0.8749928477
 40
1.0
 40
1.0
 40
1.0
 40
1.0
 10
135.0093826617
 20
302.2872905501
 30
0.0
 10
135.0093826051
 20
302.0038473965
 30
0.0
 10
135.0762046682
 20
301.4347156102
 30
0.0
 10
135.3729990655
 20
300.629773756
 30
0.0
 10
135.8511401636
 20
299.9168217267
 30
0.0
 10
136.4845421216
 20
299.3374569901
 30
0.0
 10
137.2372537698
 20
298.9248003692
 30
0.0
 10
138.0663284327
 20
298.7021982109
 30
0.0
 10
138.9239748087
 20
298.6809273405
 30
0.0
 10
139.4842332679
 20
298.8012645403
 30
0.0
 10
139.7525223788
 20
298.8926943636
 30
0.0
  0
SPLINE
  5
568
100
AcDbEntity
  8
0
100
AcDbSpline
 62
7
  6
CONTINUOUS
 70
0
 71
3
 72
9
 73
5
 74
0
 42
0.0000001
 43
0.0000001
 44
0.0000000001
 40
0.0
 40
0.0
 40
0.0
 40
0.0
 40
0.5015626246
 40
1.0
 40
1.0
 40
1.0
 40
1.0
 10
134.2253752692
 20
154.2601459768
 30
0.0
 10
133.7446423174
 20
154.481326091
 30
0.0
 10
132.6930281938
 20
154.7160265169
 30
0.0
 10
131.6356791667
 20
154.7138077283
 30
0.0
 10
131.1108454565
 20
154.6807081893
 30
0.0
  0
LINE
  5
569
100
AcDbEntity
  8
0
100
AcDbLine
 62
7
  6
CONTINUOUS
 10
173.1603253474
 20
157.0743534642
 11
173.162485571
 21
156.9941561563
  0
SPLINE
  5
56A
100
AcDbEntity
  8
0
100
AcDbSpline
 62
7
  6
CONTINUOUS
 70
0
 71
3
 72
9
 73
5
 74
0
 42
0.0000001
 43
0.0000001
 44
0.0000000001
 40
0.0
 40
0.0
 40
0.0
 40
0.0
 40
0.5130360467
 40
1.0
 40
1.0
 40
1.0
 40
1.0
 10
137.3156037187
 20
179.443579193
 30
0.0
 10
136.7533233019
 20
179.1883004667
 30
0.0
 10
135.6888760006
 20
178.618869338
 30
0.0
 10
134.6943484681
 20
177.9375058598
 30
0.0
 10
134.2253752692
 20
177.5859123262
 30
0.0
  0
SPLINE
  5
56B
100
AcDbEntity
  8
0
100
AcDbSpline
 62
7
  6
CONTINUOUS
 70
0
 71
3
 72
10
 73
6
 74
0
 42
0.0000001
 43
0.0000001
 44
0.0000000001
 40
0.0
 40
0.0
 40
0.0
 40
0.0
 40
0.2368070463
 40
0.485371234
 40
1.0
 40
1.0
 40
1.0
 40
1.0
 10
134.2768623325
 20
154.2362741825
 30
0.0
 10
134.5248732423
 20
154.1203833832
 30
0.0
 10
135.0260262122
 20
153.867498058
 30
0.0
 10
136.0401045848
 20
153.3123529758
 30
0.0
 10
136.8018116848
 20
152.8669621491
 30
0.0
 10
137.3156037187
 20
152.5670550918
 30
0.0
  0
SPLINE
  5
56C
100
AcDbEntity
  8
0
100
AcDbSpline
 62
7
  6
CONTINUOUS
 70
0
 71
3
 72
9
 73
5
 74
0
 42
0.0000001
 43
0.0000001
 44
0.0000000001
 40
0.0
 40
0.0
 40
0.0
 40
0.0
 40
0.2132398302
 40
1.0
 40
1.0
 40
1.0
 40
1.0
 10
158.7429601967
 20
287.1569565665
 30
0.0
 10
158.8167624357
 20
287.045421347
 30
0.0
 10
159.149401968
 20
286.5135448418
 30
0.0
 10
159.4263855853
 20
285.9472664201
 30
0.0
 10
159.6136297017
 20
285.490724588
 30
0.0
  0
SPLINE
  5
56D
100
AcDbEntity
  8
0
100
AcDbSpline
 62
7
  6
CONTINUOUS
 70
0
 71
3
 72
9
 73
5
 74
0
 42
0.0000001
 43
0.0000001
 44
0.0000000001
 40
0.0
 40
0.0
 40
0.0
 40
0.0
 40
0.2265310725
 40
1.0
 40
1.0
 40
1.0
 40
1.0
 10
158.7429601967
 20
310.6871155613
 30
0.0
 10
158.808243762
 20
310.6722513046
 30
0.0
 10
159.0971120386
 20
310.6096185872
 30
0.0
 10
159.3881020889
 20
310.5571361915
 30
0.0
 10
159.6136297017
 20
310.5197254247
 30
0.0
  0
SPLINE
  5
56E
100
AcDbEntity
  8
0
100
AcDbSpline
 62
7
  6
CONTINUOUS
 70
0
 71
3
 72
9
 73
5
 74
0
 42
0.0000001
 43
0.0000001
 44
0.0000000001
 40
0.0
 40
0.0
 40
0.0
 40
0.0
 40
0.4655777873
 40
1.0
 40
1.0
 40
1.0
 40
1.0
 10
159.7874598391
 20
268.3483808383
 30
0.0
 10
159.9049507911
 20
268.8552283165
 30
0.0
 10
160.1145132012
 20
269.9537994059
 30
0.0
 10
160.2648937143
 20
271.0616469158
 30
0.0
 10
160.3305367575
 20
271.6552495352
 30
0.0
  0
SPLINE
  5
56F
100
AcDbEntity
  8
0
100
AcDbSpline
 62
7
  6
CONTINUOUS
 70
0
 71
3
 72
16
 73
12
 74
0
 42
0.0000001
 43
0.0000001
 44
0.0000000001
 40
0.0
 40
0.0
 40
0.0
 40
0.0
 40
0.3548295403
 40
0.516525287
 40
0.6633691733
 40
0.7908644405
 40
0.8932131619
 40
0.9330072433
 40
0.9641998647
 40
0.9864094203
 40
1.0
 40
1.0
 40
1.0
 40
1.0
 10
158.9617736432
 20
265.0282490597
 30
0.0
 10
158.9214751135
 20
264.8816509473
 30
0.0
 10
158.8606627524
 20
264.6688149461
 30
0.0
 10
158.776495753
 20
264.397318832
 30
0.0
 10
158.7178861141
 20
264.2198900683
 30
0.0
 10
158.6634060165
 20
264.06797851
 30
0.0
 10
158.6203555179
 20
263.9606191399
 30
0.0
 10
158.5887004734
 20
263.8935069719
 30
0.0
 10
158.569341092
 20
263.8583244749
 30
0.0
 10
158.5530971237
 20
263.8350639309
 30
0.0
 10
158.5412461224
 20
263.8239832459
 30
0.0
 10
158.5356725316
 20
263.8222964587
 30
0.0
  0
SPLINE
  5
570
100
AcDbEntity
  8
0
100
AcDbSpline
 62
7
  6
CONTINUOUS
 70
0
 71
3
 72
15
 73
11
 74
0
 42
0.0000001
 43
0.0000001
 44
0.0000000001
 40
0.0
 40
0.0
 40
0.0
 40
0.0
 40
0.1250528832
 40
0.2500974662
 40
0.3751188402
 40
0.5001094166
 40
0.6250837133
 40
0.7500535493
 40
0.8750223974
 40
1.0
 40
1.0
 40
1.0
 40
1.0
 10
75.1467348582
 20
221.3868452404
 30
0.0
 10
74.9119400758
 20
221.6559495516
 30
0.0
 10
74.3838127175
 20
222.146129737
 30
0.0
 10
73.4558593683
 20
222.6968313718
 30
0.0
 10
72.4319218661
 20
223.0384889808
 30
0.0
 10
71.358950219
 20
223.1540351042
 30
0.0
 10
70.2861690235
 20
223.0381047134
 30
0.0
 10
69.2627476652
 20
222.6962286903
 30
0.0
 10
68.3354230799
 20
222.1456234853
 30
0.0
 10
67.8076806623
 20
221.6556863151
 30
0.0
 10
67.5730119128
 20
221.3867573618
 30
0.0
  0
SPLINE
  5
571
100
AcDbEntity
  8
0
100
AcDbSpline
 62
7
  6
CONTINUOUS
 70
0
 71
3
 72
14
 73
10
 74
0
 42
0.0000001
 43
0.0000001
 44
0.0000000001
 40
0.0
 40
0.0
 40
0.0
 40
0.0
 40
0.3828510924
 40
0.6990512113
 40
0.8216582285
 40
0.9140762009
 40
0.9475745416
 40
0.9723993834
 40
1.0
 40
1.0
 40
1.0
 40
1.0
 10
157.432983223
 20
263.9894849523
 30
0.0
 10
157.4378083709
 20
263.928640496
 30
0.0
 10
157.4476403916
 20
263.8176145598
 30
0.0
 10
157.4625969717
 20
263.6874732308
 30
0.0
 10
157.4771668532
 20
263.6039178442
 30
0.0
 10
157.4858407097
 20
263.5654074878
 30
0.0
 10
157.4943351149
 20
263.5424994488
 30
0.0
 10
157.4996969679
 20
263.5307086956
 30
0.0
 10
157.5078134114
 20
263.5232637212
 30
0.0
 10
157.5120510845
 20
263.5244485351
 30
0.0
  0
SPLINE
  5
572
100
AcDbEntity
  8
0
100
AcDbSpline
 62
7
  6
CONTINUOUS
 70
0
 71
3
 72
9
 73
5
 74
0
 42
0.0000001
 43
0.0000001
 44
0.0000000001
 40
0.0
 40
0.0
 40
0.0
 40
0.0
 40
0.4703595983
 40
1.0
 40
1.0
 40
1.0
 40
1.0
 10
147.7382352459
 20
296.9580308746
 30
0.0
 10
147.7165669014
 20
296.6887217962
 30
0.0
 10
147.6827970409
 20
296.1151907398
 30
0.0
 10
147.6613975322
 20
295.5411616123
 30
0.0
 10
147.6524038086
 20
295.2370636976
 30
0.0
  0
SPLINE
  5
573
100
AcDbEntity
  8
0
100
AcDbSpline
 62
7
  6
CONTINUOUS
 70
0
 71
3
 72
11
 73
7
 74
0
 42
0.0000001
 43
0.0000001
 44
0.0000000001
 40
0.0
 40
0.0
 40
0.0
 40
0.0
 40
0.151275879
 40
0.3703225038
 40
0.6547086677
 40
1.0
 40
1.0
 40
1.0
 40
1.0
 10
142.9306072816
 20
301.0936179458
 30
0.0
 10
142.9972296511
 20
301.0744989201
 30
0.0
 10
143.165975784
 20
301.0495604772
 30
0.0
 10
143.4649209982
 20
301.0277498417
 30
0.0
 10
143.8537354239
 20
301.0142792575
 30
0.0
 10
144.1421318171
 20
301.0081046775
 30
0.0
 10
144.3003012413
 20
301.0047364507
 30
0.0
  0
SPLINE
  5
574
100
AcDbEntity
  8
0
100
AcDbSpline
 62
7
  6
CONTINUOUS
 70
0
 71
3
 72
12
 73
8
 74
0
 42
0.0000001
 43
0.0000001
 44
0.0000000001
 40
0.0
 40
0.0
 40
0.0
 40
0.0
 40
0.0610506893
 40
0.1385582719
 40
0.3486117566
 40
0.6356661978
 40
1.0
 40
1.0
 40
1.0
 40
1.0
 10
161.125535569
 20
310.0256102113
 30
0.0
 10
161.1049112006
 20
310.0510533311
 30
0.0
 10
161.0484940496
 20
310.100833591
 30
0.0
 10
160.887729816
 20
310.1972188058
 30
0.0
 10
160.5974399193
 20
310.3064019777
 30
0.0
 10
160.1502517128
 20
310.4231253666
 30
0.0
 10
159.8064519082
 20
310.4877398664
 30
0.0
 10
159.6136297017
 20
310.5197254247
 30
0.0
  0
SPLINE
  5
575
100
AcDbEntity
  8
0
100
AcDbSpline
 62
7
  6
CONTINUOUS
 70
0
 71
3
 72
9
 73
5
 74
0
 42
0.0000001
 43
0.0000001
 44
0.0000000001
 40
0.0
 40
0.0
 40
0.0
 40
0.0
 40
0.223208471
 40
1.0
 40
1.0
 40
1.0
 40
1.0
 10
158.7429601967
 20
310.6871155613
 30
0.0
 10
158.7198435398
 20
310.6923789369
 30
0.0
 10
158.6159612432
 20
310.7145677484
 30
0.0
 10
158.5111089033
 20
310.7320013019
 30
0.0
 10
158.4294765969
 20
310.743987646
 30
0.0
  0
SPLINE
  5
576
100
AcDbEntity
  8
0
100
AcDbSpline
 62
7
  6
CONTINUOUS
 70
0
 71
3
 72
19
 73
15
 74
0
 42
0.0000001
 43
0.0000001
 44
0.0000000001
 40
0.0
 40
0.0
 40
0.0
 40
0.0
 40
0.0406102409
 40
0.0918797929
 40
0.2212888031
 40
0.3755789095
 40
0.5394921119
 40
0.6972865658
 40
0.7692734355
 40
0.8344299297
 40
0.8912746952
 40
0.9384974278
 40
0.9750011378
 40
1.0
 40
1.0
 40
1.0
 40
1.0
 10
154.2472293865
 20
311.2837244072
 30
0.0
 10
154.0926068209
 20
311.3009428508
 30
0.0
 10
153.741174092
 20
311.3251034273
 30
0.0
 10
152.8935156764
 20
311.3449651061
 30
0.0
 10
151.6099494064
 20
311.3071779022
 30
0.0
 10
149.8996278498
 20
311.1770292269
 30
0.0
 10
148.0884421364
 20
310.9602331462
 30
0.0
 10
146.5991894454
 20
310.7182087302
 30
0.0
 10
145.4909355165
 20
310.4975981694
 30
0.0
 10
144.7658619206
 20
310.3340543845
 30
0.0
 10
144.1378837848
 20
310.1728723364
 30
0.0
 10
143.6210627437
 20
310.0202177693
 30
0.0
 10
143.2286773605
 20
309.8811319863
 30
0.0
 10
143.0122944817
 20
309.7848189707
 30
0.0
 10
142.9306072816
 20
309.7348262308
 30
0.0
  0
SPLINE
  5
577
100
AcDbEntity
  8
0
100
AcDbSpline
 62
7
  6
CONTINUOUS
 70
0
 71
3
 72
9
 73
5
 74
0
 42
0.0000001
 43
0.0000001
 44
0.0000000001
 40
0.0
 40
0.0
 40
0.0
 40
0.0
 40
0.2268155239
 40
1.0
 40
1.0
 40
1.0
 40
1.0
 10
159.6136297017
 20
285.490724588
 30
0.0
 10
159.7483528665
 20
285.1622402454
 30
0.0
 10
160.2870930431
 20
283.6934397527
 30
0.0
 10
160.572287051
 20
282.1186176972
 30
0.0
 10
160.572287051
 20
280.9083380562
 30
0.0
  0
SPLINE
  5
578
100
AcDbEntity
  8
0
100
AcDbSpline
 62
7
  6
CONTINUOUS
 70
0
 71
3
 72
9
 73
5
 74
0
 42
0.0000001
 43
0.0000001
 44
0.0000000001
 40
0.0
 40
0.0
 40
0.0
 40
0.0
 40
0.2702434242
 40
1.0
 40
1.0
 40
1.0
 40
1.0
 10
158.4294765969
 20
287.6339313578
 30
0.0
 10
158.457885858
 20
287.5910772943
 30
0.0
 10
158.5626711674
 20
287.43227643
 30
0.0
 10
158.6663441912
 20
287.2727441509
 30
0.0
 10
158.7429601967
 20
287.1569565665
 30
0.0
  0
SPLINE
  5
579
100
AcDbEntity
  8
0
100
AcDbSpline
 62
7
  6
CONTINUOUS
 70
0
 71
3
 72
9
 73
5
 74
0
 42
0.0000001
 43
0.0000001
 44
0.0000000001
 40
0.0
 40
0.0
 40
0.0
 40
0.0
 40
0.4819636229
 40
1.0
 40
1.0
 40
1.0
 40
1.0
 10
159.7874598391
 20
268.3483808383
 30
0.0
 10
159.6633327717
 20
267.8129056376
 30
0.0
 10
159.4046022801
 20
266.7021160574
 30
0.0
 10
159.1183742517
 20
265.5979312224
 30
0.0
 10
158.9617736432
 20
265.0282490597
 30
0.0
  0
SPLINE
  5
57A
100
AcDbEntity
  8
0
100
AcDbSpline
 62
7
  6
CONTINUOUS
 70
0
 71
3
 72
9
 73
5
 74
0
 42
0.0000001
 43
0.0000001
 44
0.0000000001
 40
0.0
 40
0.0
 40
0.0
 40
0.0
 40
0.2555143884
 40
1.0
 40
1.0
 40
1.0
 40
1.0
 10
160.572287051
 20
275.9083380562
 30
0.0
 10
160.572287051
 20
275.5454029515
 30
0.0
 10
160.5508619974
 20
274.1250183811
 30
0.0
 10
160.446768157
 20
272.7063169404
 30
0.0
 10
160.3305367575
 20
271.6552495352
 30
0.0
  0
SPLINE
  5
57B
100
AcDbEntity
  8
0
100
AcDbSpline
 62
7
  6
CONTINUOUS
 70
0
 71
3
 72
9
 73
5
 74
0
 42
0.0000001
 43
0.0000001
 44
0.0000000001
 40
0.0
 40
0.0
 40
0.0
 40
0.0
 40
0.4906012679
 40
1.0
 40
1.0
 40
1.0
 40
1.0
 10
100.0545192316
 20
246.1214637312
 30
0.0
 10
100.0699442823
 20
245.9435009036
 30
0.0
 10
100.1523014111
 20
245.5833619118
 30
0.0
 10
100.3345549426
 20
245.261090247
 30
0.0
 10
100.4487348177
 20
245.1149270725
 30
0.0
  0
SPLINE
  5
57C
100
AcDbEntity
  8
0
100
AcDbSpline
 62
7
  6
CONTINUOUS
 70
0
 71
3
 72
17
 73
13
 74
0
 42
0.0000001
 43
0.0000001
 44
0.0000000001
 40
0.0
 40
0.0
 40
0.0
 40
0.0
 40
0.1953657949
 40
0.3835059368
 40
0.554973732
 40
0.7020225513
 40
0.8201990653
 40
0.9081587846
 40
0.9410469392
 40
0.9668954229
 40
0.9862186825
 40
1.0
 40
1.0
 40
1.0
 40
1.0
 10
100.4487348177
 20
245.1149270725
 30
0.0
 10
100.6878787689
 20
244.8087957248
 30
0.0
 10
101.1696045911
 20
244.2173198349
 30
0.0
 10
101.9027030762
 20
243.3920361929
 30
0.0
 10
102.6056314305
 20
242.6698587092
 30
0.0
 10
103.2417117793
 20
242.0780582271
 30
0.0
 10
103.783054362
 20
241.6302446577
 30
0.0
 10
104.1712705558
 20
241.3543331832
 30
0.0
 10
104.4249869554
 20
241.2100171225
 30
0.0
 10
104.5668961675
 20
241.1459946523
 30
0.0
 10
104.6795976605
 20
241.1130563119
 30
0.0
 10
104.7474102961
 20
241.1111779192
 30
0.0
 10
104.7739030659
 20
241.1181814578
 30
0.0
  0
SPLINE
  5
57D
100
AcDbEntity
  8
0
100
AcDbSpline
 62
7
  6
CONTINUOUS
 70
0
 71
3
 72
15
 73
11
 74
0
 42
0.0000001
 43
0.0000001
 44
0.0000000001
 40
0.0
 40
0.0
 40
0.0
 40
0.0
 40
0.1250071123
 40
0.2500039073
 40
0.3750020039
 40
0.5000009931
 40
0.6250012872
 40
0.7499993187
 40
0.8749928851
 40
1.0
 40
1.0
 40
1.0
 40
1.0
 10
140.875533622
 20
300.6844366337
 30
0.0
 10
140.612421006
 20
300.617835934
 30
0.0
 10
140.0692198456
 20
300.5436316738
 30
0.0
 10
139.2517076823
 20
300.6180843997
 30
0.0
 10
138.4715933271
 20
300.8750477426
 30
0.0
 10
137.7701038622
 20
301.3022094972
 30
0.0
 10
137.1838711072
 20
301.8774359259
 30
0.0
 10
136.7433401132
 20
302.5706412316
 30
0.0
 10
136.4705606743
 20
303.3448816239
 30
0.0
 10
136.4092013311
 20
303.8896762118
 30
0.0
 10
136.4092012807
 20
304.1610871641
 30
0.0
  0
SPLINE
  5
57E
100
AcDbEntity
  8
0
100
AcDbSpline
 62
7
  6
CONTINUOUS
 70
0
 71
3
 72
9
 73
5
 74
0
 42
0.0000001
 43
0.0000001
 44
0.0000000001
 40
0.0
 40
0.0
 40
0.0
 40
0.0
 40
0.2529802752
 40
1.0
 40
1.0
 40
1.0
 40
1.0
 10
147.5491589506
 20
294.4813129464
 30
0.0
 10
147.5644581833
 20
294.5438595803
 30
0.0
 10
147.6185496476
 20
294.792610575
 30
0.0
 10
147.6467845841
 20
295.0470338469
 30
0.0
 10
147.6524046924
 20
295.2370882801
 30
0.0
  0
SPLINE
  5
57F
100
AcDbEntity
  8
0
100
AcDbSpline
 62
7
  6
CONTINUOUS
 70
0
 71
3
 72
16
 73
12
 74
0
 42
0.0000001
 43
0.0000001
 44
0.0000000001
 40
0.0
 40
0.0
 40
0.0
 40
0.0
 40
0.367403711
 40
0.6801989165
 40
0.8063391194
 40
0.8591507789
 40
0.9039944455
 40
0.9400897865
 40
0.9670242513
 40
0.9857136056
 40
1.0
 40
1.0
 40
1.0
 40
1.0
 10
147.7382314477
 20
296.9579758031
 30
0.0
 10
147.7491001123
 20
297.0930590368
 30
0.0
 10
147.7596453327
 20
297.3440067659
 30
0.0
 10
147.7549677695
 20
297.6414160321
 30
0.0
 10
147.7521039306
 20
297.8227828771
 30
0.0
 10
147.7536344184
 20
297.9053461788
 30
0.0
 10
147.7565874768
 20
297.954579073
 30
0.0
 10
147.7617154137
 20
297.9941847743
 30
0.0
 10
147.769700886
 20
298.0231998958
 30
0.0
 10
147.7809508868
 20
298.043199448
 30
0.0
 10
147.7934937856
 20
298.0481362144
 30
0.0
 10
147.7987575957
 20
298.0478881996
 30
0.0
  0
SPLINE
  5
580
100
AcDbEntity
  8
0
100
AcDbSpline
 62
7
  6
CONTINUOUS
 70
0
 71
3
 72
13
 73
9
 74
0
 42
0.0000001
 43
0.0000001
 44
0.0000000001
 40
0.0
 40
0.0
 40
0.0
 40
0.0
 40
0.2065559205
 40
0.4532541392
 40
0.5866707088
 40
0.7232635695
 40
0.8613421096
 40
1.0
 40
1.0
 40
1.0
 40
1.0
 10
144.3003012413
 20
301.0047364507
 30
0.0
 10
144.6448191045
 20
300.9973999235
 30
0.0
 10
145.4014962766
 20
300.8687506604
 30
0.0
 10
146.2905677266
 20
300.4181619166
 30
0.0
 10
146.9451853999
 20
299.8518091715
 30
0.0
 10
147.3769943672
 20
299.3205287885
 30
0.0
 10
147.710068121
 20
298.7125554289
 30
0.0
 10
147.8541525886
 20
298.2705471803
 30
0.0
 10
147.904830664
 20
298.0448446131
 30
0.0
  0
SPLINE
  5
581
100
AcDbEntity
  8
0
100
AcDbSpline
 62
7
  6
CONTINUOUS
 70
0
 71
3
 72
17
 73
13
 74
0
 42
0.0000001
 43
0.0000001
 44
0.0000000001
 40
0.0
 40
0.0
 40
0.0
 40
0.0
 40
0.172259073
 40
0.2408534728
 40
0.2935627406
 40
0.4278920514
 40
0.4887629849
 40
0.5439178108
 40
0.5958403194
 40
0.6458501313
 40
0.8302822532
 40
1.0
 40
1.0
 40
1.0
 40
1.0
 10
156.6093826643
 20
262.4083380562
 30
0.0
 10
156.6225772687
 20
262.5123485255
 30
0.0
 10
156.6422877217
 20
262.6577393491
 30
0.0
 10
156.6754382656
 20
262.8332477602
 30
0.0
 10
156.7134480738
 20
262.9846416281
 30
0.0
 10
156.7873856251
 20
263.1178665058
 30
0.0
 10
156.8557039945
 20
263.2539055257
 30
0.0
 10
156.9092271843
 20
263.3411377043
 30
0.0
 10
156.9618555563
 20
263.4209438195
 30
0.0
 10
157.0612022562
 20
263.5641856893
 30
0.0
 10
157.2152141812
 20
263.756488249
 30
0.0
 10
157.361143392
 20
263.9152598225
 30
0.0
 10
157.432983223
 20
263.9894849523
 30
0.0
  0
SPLINE
  5
582
100
AcDbEntity
  8
0
100
AcDbSpline
 62
7
  6
CONTINUOUS
 70
0
 71
3
 72
13
 73
9
 74
0
 42
0.0000001
 43
0.0000001
 44
0.0000000001
 40
0.0
 40
0.0
 40
0.0
 40
0.0
 40
0.2856597552
 40
0.5564767526
 40
0.6834966507
 40
0.8028546025
 40
0.911103254
 40
1.0
 40
1.0
 40
1.0
 40
1.0
 10
154.8102008382
 20
268.0448026922
 30
0.0
 10
155.1565047304
 20
267.7349555386
 30
0.0
 10
155.7851022605
 20
267.0775143526
 30
0.0
 10
156.4237230144
 20
266.1622510266
 30
0.0
 10
156.8286692563
 20
265.4241783714
 30
0.0
 10
157.0733006912
 20
264.9013503231
 30
0.0
 10
157.2674657147
 20
264.4243612982
 30
0.0
 10
157.3787790929
 20
264.1235507545
 30
0.0
 10
157.432983223
 20
263.9894849523
 30
0.0
  0
SPLINE
  5
583
100
AcDbEntity
  8
0
100
AcDbSpline
 62
7
  6
CONTINUOUS
 70
0
 71
3
 72
11
 73
7
 74
0
 42
0.0000001
 43
0.0000001
 44
0.0000000001
 40
0.0
 40
0.0
 40
0.0
 40
0.0
 40
0.2500086557
 40
0.5000053813
 40
0.7499994436
 40
1.0
 40
1.0
 40
1.0
 40
1.0
 10
149.6093826643
 20
270.0207587009
 30
0.0
 10
150.0828270515
 20
270.0207587009
 30
0.0
 10
151.0319142263
 20
269.9354603193
 30
0.0
 10
152.4077041145
 20
269.553273293
 30
0.0
 10
153.691295964
 20
268.9276532261
 30
0.0
 10
154.4573800796
 20
268.3604806567
 30
0.0
 10
154.8102008382
 20
268.0448026922
 30
0.0
  0
SPLINE
  5
584
100
AcDbEntity
  8
0
100
AcDbSpline
 62
7
  6
CONTINUOUS
 70
0
 71
3
 72
8
 73
4
 74
0
 42
0.0000001
 43
0.0000001
 44
0.0000000001
 40
0.0
 40
0.0
 40
0.0
 40
0.0
 40
1.0
 40
1.0
 40
1.0
 40
1.0
 10
161.125535569
 20
310.0256102113
 30
0.0
 10
161.2766196345
 20
309.839226323
 30
0.0
 10
161.4275640898
 20
309.6527291773
 30
0.0
 10
161.5783674028
 20
309.4661180589
 30
0.0
  0
SPLINE
  5
585
100
AcDbEntity
  8
0
100
AcDbSpline
 62
7
  6
CONTINUOUS
 70
0
 71
3
 72
20
 73
16
 74
0
 42
0.0000001
 43
0.0000001
 44
0.0000000001
 40
0.0
 40
0.0
 40
0.0
 40
0.0
 40
0.0059889332
 40
0.013848181
 40
0.0354597592
 40
0.0650359485
 40
0.1024595839
 40
0.1474723373
 40
0.1997296679
 40
0.2588085327
 40
0.3242196551
 40
0.4717921859
 40
0.6374573083
 40
0.8155560572
 40
1.0
 40
1.0
 40
1.0
 40
1.0
 10
161.5783674028
 20
309.4661180589
 30
0.0
 10
161.5959447607
 20
309.4443670087
 30
0.0
 10
161.6293946887
 20
309.3884353525
 30
0.0
 10
161.6946782649
 20
309.2361179868
 30
0.0
 10
161.7696426949
 20
308.9698417585
 30
0.0
 10
161.8527769597
 20
308.5645381698
 30
0.0
 10
161.9335862931
 20
308.0475493248
 30
0.0
 10
162.0114841553
 20
307.4234002457
 30
0.0
 10
162.0853247557
 20
306.6970066167
 30
0.0
 10
162.1544316152
 20
305.8745473381
 30
0.0
 10
162.2428805531
 20
304.6071893458
 30
0.0
 10
162.334146002
 20
302.8412928883
 30
0.0
 10
162.4127898833
 20
300.5482423924
 30
0.0
 10
162.4611856048
 20
298.0821531114
 30
0.0
 10
162.4720194447
 20
296.3892258692
 30
0.0
 10
162.4720194447
 20
295.5279580595
 30
0.0
  0
SPLINE
  5
586
100
AcDbEntity
  8
0
100
AcDbSpline
 62
7
  6
CONTINUOUS
 70
0
 71
3
 72
9
 73
5
 74
0
 42
0.0000001
 43
0.0000001
 44
0.0000000001
 40
0.0
 40
0.0
 40
0.0
 40
0.0
 40
0.2480245861
 40
1.0
 40
1.0
 40
1.0
 40
1.0
 10
131.4909577485
 20
175.7183609784
 30
0.0
 10
131.591252111
 20
175.7696421895
 30
0.0
 10
131.9906858051
 20
175.9859840513
 30
0.0
 10
132.3703548301
 20
176.2383205181
 30
0.0
 10
132.6429195831
 20
176.4441002079
 30
0.0
  0
SPLINE
  5
587
100
AcDbEntity
  8
0
100
AcDbSpline
 62
7
  6
CONTINUOUS
 70
0
 71
3
 72
9
 73
5
 74
0
 42
0.0000001
 43
0.0000001
 44
0.0000000001
 40
0.0
 40
0.0
 40
0.0
 40
0.0
 40
0.5001625485
 40
1.0
 40
1.0
 40
1.0
 40
1.0
 10
132.6429195831
 20
176.4441002079
 30
0.0
 10
132.9025680789
 20
176.640128441
 30
0.0
 10
133.4318451024
 20
177.0183964124
 30
0.0
 10
133.9652382345
 20
177.3908851915
 30
0.0
 10
134.2253752692
 20
177.5859123262
 30
0.0
  0
SPLINE
  5
588
100
AcDbEntity
  8
KONSTRUKTIONSELEMENTE
100
AcDbSpline
 62
8
  6
HIDDEN
 70
0
 71
3
 72
9
 73
5
 74
0
 42
0.0000001
 43
0.0000001
 44
0.0000000001
 40
0.0
 40
0.0
 40
0.0
 40
0.0
 40
0.4961007624
 40
1.0
 40
1.0
 40
1.0
 40
1.0
 10
283.3771299929
 20
177.661819127
 30
0.0
 10
283.3771299929
 20
178.2041195675
 30
0.0
 10
283.5217447358
 20
179.3014745873
 30
0.0
 10
283.9366092296
 20
180.3264787013
 30
0.0
 10
284.2034798193
 20
180.8083380562
 30
0.0
  0
SPLINE
  5
589
100
AcDbEntity
  8
DEFAULT_2
100
AcDbSpline
 62
8
  6
HIDDEN
 70
0
 71
3
 72
9
 73
5
 74
0
 42
0.0000001
 43
0.0000001
 44
0.0000000001
 40
0.0
 40
0.0
 40
0.0
 40
0.0
 40
0.4961007624
 40
1.0
 40
1.0
 40
1.0
 40
1.0
 10
307.3771299929
 20
177.661819127
 30
0.0
 10
307.3771299929
 20
178.2041195675
 30
0.0
 10
307.2325152501
 20
179.3014745873
 30
0.0
 10
306.8176507562
 20
180.3264787013
 30
0.0
 10
306.5507801665
 20
180.8083380562
 30
0.0
  0
SPLINE
  5
58A
100
AcDbEntity
  8
0
100
AcDbSpline
 62
7
  6
CONTINUOUS
 70
0
 71
3
 72
8
 73
4
 74
0
 42
0.0000001
 43
0.0000001
 44
0.0000000001
 40
0.0
 40
0.0
 40
0.0
 40
0.0
 40
1.0
 40
1.0
 40
1.0
 40
1.0
 10
308.2674383778
 20
259.8512994687
 30
0.0
 10
308.3385581539
 20
259.9902821525
 30
0.0
 10
308.3771299929
 20
260.1505182761
 30
0.0
 10
308.3771299929
 20
260.3066406927
 30
0.0
  0
SPLINE
  5
58B
100
AcDbEntity
  8
0
100
AcDbSpline
 62
7
  6
CONTINUOUS
 70
0
 71
3
 72
8
 73
4
 74
0
 42
0.0000001
 43
0.0000001
 44
0.0000000001
 40
0.0
 40
0.0
 40
0.0
 40
0.0
 40
1.0
 40
1.0
 40
1.0
 40
1.0
 10
305.2977942084
 20
261.4130263867
 30
0.0
 10
305.3496255725
 20
261.5352659306
 30
0.0
 10
305.3771299929
 20
261.6705940584
 30
0.0
 10
305.3771299929
 20
261.8033682893
 30
0.0
  0
SPLINE
  5
58C
100
AcDbEntity
  8
0
100
AcDbSpline
 62
7
  6
CONTINUOUS
 70
0
 71
3
 72
8
 73
4
 74
0
 42
0.0000001
 43
0.0000001
 44
0.0000000001
 40
0.0
 40
0.0
 40
0.0
 40
0.0
 40
1.0
 40
1.0
 40
1.0
 40
1.0
 10
308.279093967
 20
261.9490412904
 30
0.0
 10
308.3428167921
 20
262.0821736422
 30
0.0
 10
308.3771299929
 20
262.2332457333
 30
0.0
 10
308.3771299929
 20
262.3808425542
 30
0.0
  0
SPLINE
  5
58D
100
AcDbEntity
  8
BEZUGSACHSEN
100
AcDbSpline
 62
7
  6
CONTINUOUS
 70
0
 71
3
 72
8
 73
4
 74
0
 42
0.0000001
 43
0.0000001
 44
0.0000000001
 40
0.0
 40
0.0
 40
0.0
 40
0.0
 40
1.0
 40
1.0
 40
1.0
 40
1.0
 10
282.486821608
 20
259.8512994687
 30
0.0
 10
282.4157018319
 20
259.9902821525
 30
0.0
 10
282.3771299929
 20
260.1505182761
 30
0.0
 10
282.3771299929
 20
260.3066406927
 30
0.0
  0
SPLINE
  5
58E
100
AcDbEntity
  8
BEZUGSACHSEN
100
AcDbSpline
 62
7
  6
CONTINUOUS
 70
0
 71
3
 72
8
 73
4
 74
0
 42
0.0000001
 43
0.0000001
 44
0.0000000001
 40
0.0
 40
0.0
 40
0.0
 40
0.0
 40
1.0
 40
1.0
 40
1.0
 40
1.0
 10
285.4564657774
 20
261.4130263867
 30
0.0
 10
285.4046344133
 20
261.5352659306
 30
0.0
 10
285.3771299929
 20
261.6705940584
 30
0.0
 10
285.3771299929
 20
261.8033682893
 30
0.0
  0
SPLINE
  5
58F
100
AcDbEntity
  8
BEZUGSACHSEN
100
AcDbSpline
 62
7
  6
CONTINUOUS
 70
0
 71
3
 72
8
 73
4
 74
0
 42
0.0000001
 43
0.0000001
 44
0.0000000001
 40
0.0
 40
0.0
 40
0.0
 40
0.0
 40
1.0
 40
1.0
 40
1.0
 40
1.0
 10
282.4751660189
 20
261.9490412904
 30
0.0
 10
282.4114431937
 20
262.0821736422
 30
0.0
 10
282.3771299929
 20
262.2332457333
 30
0.0
 10
282.3771299929
 20
262.3808425542
 30
0.0
  0
SPLINE
  5
590
100
AcDbEntity
  8
BEZUGSACHSEN
100
AcDbSpline
 62
7
  6
CONTINUOUS
 70
0
 71
3
 72
13
 73
9
 74
0
 42
0.0000001
 43
0.0000001
 44
0.0000000001
 40
0.0
 40
0.0
 40
0.0
 40
0.0
 40
0.1182954174
 40
0.2419247224
 40
0.4995372069
 40
0.7574229771
 40
0.8814660136
 40
1.0
 40
1.0
 40
1.0
 40
1.0
 10
282.7605057975
 20
268.7755338353
 30
0.0
 10
282.8278799826
 20
268.7228101858
 30
0.0
 10
282.9847055508
 20
268.6376865846
 30
0.0
 10
283.3430376155
 20
268.5657055262
 30
0.0
 10
283.816705274
 20
268.666435122
 30
0.0
 10
284.1860306205
 20
268.9800469673
 30
0.0
 10
284.3485503064
 20
269.3081392252
 30
0.0
 10
284.3774416111
 20
269.4846840785
 30
0.0
 10
284.3770804519
 20
269.57040738
 30
0.0
  0
SPLINE
  5
591
100
AcDbEntity
  8
0
100
AcDbSpline
 62
7
  6
CONTINUOUS
 70
0
 71
3
 72
17
 73
13
 74
0
 42
0.0000001
 43
0.0000001
 44
0.0000000001
 40
0.0
 40
0.0
 40
0.0
 40
0.0
 40
0.0320093676
 40
0.0681556805
 40
0.1112130888
 40
0.1623217987
 40
0.2874861186
 40
0.4364612494
 40
0.5963861508
 40
0.7524363799
 40
0.8904954791
 40
1.0
 40
1.0
 40
1.0
 40
1.0
 10
305.2977220649
 20
261.4130578438
 30
0.0
 10
305.2891400106
 20
261.3927486488
 30
0.0
 10
305.2607306994
 20
261.3533659064
 30
0.0
 10
305.1946582558
 20
261.3121455752
 30
0.0
 10
305.1081309786
 20
261.2857931949
 30
0.0
 10
304.9573599459
 20
261.2692515844
 30
0.0
 10
304.7324120258
 20
261.2910602333
 30
0.0
 10
304.4425823945
 20
261.3675533475
 30
0.0
 10
304.1455212068
 20
261.4895756352
 30
0.0
 10
303.8726081803
 20
261.6444748625
 30
0.0
 10
303.6523683696
 20
261.8151949796
 30
0.0
 10
303.5387725904
 20
261.9461263599
 30
0.0
 10
303.5018046081
 20
262.0118723806
 30
0.0
  0
SPLINE
  5
592
100
AcDbEntity
  8
0
100
AcDbSpline
 62
7
  6
CONTINUOUS
 70
0
 71
3
 72
9
 73
5
 74
0
 42
0.0000001
 43
0.0000001
 44
0.0000000001
 40
0.0
 40
0.0
 40
0.0
 40
0.0
 40
0.2722929429
 40
1.0
 40
1.0
 40
1.0
 40
1.0
 10
303.5018046081
 20
262.0118723806
 30
0.0
 10
303.4969968322
 20
262.0204228102
 30
0.0
 10
303.4802706351
 20
262.0523038407
 30
0.0
 10
303.4673828717
 20
262.0864512709
 30
0.0
 10
303.461936242
 20
262.1120950329
 30
0.0
  0
SPLINE
  5
593
100
AcDbEntity
  8
0
100
AcDbSpline
 62
7
  6
CONTINUOUS
 70
0
 71
3
 72
15
 73
11
 74
0
 42
0.0000001
 43
0.0000001
 44
0.0000000001
 40
0.0
 40
0.0
 40
0.0
 40
0.0
 40
0.1064767565
 40
0.220618271
 40
0.3460658559
 40
0.4810681072
 40
0.6201379028
 40
0.7563811387
 40
0.8838935834
 40
1.0
 40
1.0
 40
1.0
 40
1.0
 10
305.2092968677
 20
267.4195910105
 30
0.0
 10
305.1604679687
 20
267.346327556
 30
0.0
 10
305.0212293775
 20
267.2173148287
 30
0.0
 10
304.7422046365
 20
267.1270615465
 30
0.0
 10
304.4274190533
 20
267.1388905233
 30
0.0
 10
304.1109169933
 20
267.2471304624
 30
0.0
 10
303.8261636643
 20
267.4384784628
 30
0.0
 10
303.60413018
 20
267.6922688532
 30
0.0
 10
303.4696843784
 20
267.9812592468
 30
0.0
 10
303.4502965153
 20
268.1875573656
 30
0.0
 10
303.461936242
 20
268.2828560859
 30
0.0
  0
SPLINE
  5
594
100
AcDbEntity
  8
BEZUGSACHSEN
100
AcDbSpline
 62
7
  6
CONTINUOUS
 70
0
 71
3
 72
15
 73
11
 74
0
 42
0.0000001
 43
0.0000001
 44
0.0000000001
 40
0.0
 40
0.0
 40
0.0
 40
0.0
 40
0.1064767565
 40
0.220618271
 40
0.3460658559
 40
0.4810681072
 40
0.6201379028
 40
0.7563811387
 40
0.8838935834
 40
1.0
 40
1.0
 40
1.0
 40
1.0
 10
285.5449631181
 20
267.4195910105
 30
0.0
 10
285.5937920171
 20
267.346327556
 30
0.0
 10
285.7330306083
 20
267.2173148287
 30
0.0
 10
286.0120553493
 20
267.1270615465
 30
0.0
 10
286.3268409325
 20
267.1388905233
 30
0.0
 10
286.6433429926
 20
267.2471304624
 30
0.0
 10
286.9280963215
 20
267.4384784628
 30
0.0
 10
287.1501298058
 20
267.6922688532
 30
0.0
 10
287.2845756074
 20
267.9812592468
 30
0.0
 10
287.3039634706
 20
268.1875573656
 30
0.0
 10
287.2923237439
 20
268.2828560859
 30
0.0
  0
SPLINE
  5
595
100
AcDbEntity
  8
BEZUGSACHSEN
100
AcDbSpline
 62
7
  6
CONTINUOUS
 70
0
 71
3
 72
14
 73
10
 74
0
 42
0.0000001
 43
0.0000001
 44
0.0000000001
 40
0.0
 40
0.0
 40
0.0
 40
0.0
 40
0.10456373
 40
0.2203241064
 40
0.348520989
 40
0.4858062621
 40
0.6260768229
 40
0.7624054631
 40
1.0
 40
1.0
 40
1.0
 40
1.0
 10
282.5212897096
 20
264.9489731238
 30
0.0
 10
282.561863278
 20
264.8818296248
 30
0.0
 10
282.6812594541
 20
264.7595578446
 30
0.0
 10
282.9241513992
 20
264.6510873743
 30
0.0
 10
283.211367799
 20
264.6147154872
 30
0.0
 10
283.5161866937
 20
264.6517817218
 30
0.0
 10
283.8110780624
 20
264.7590749129
 30
0.0
 10
284.1357180111
 20
264.9679683581
 30
0.0
 10
284.3167738763
 20
265.2128720786
 30
0.0
 10
284.3577849433
 20
265.3863489413
 30
0.0
  0
SPLINE
  5
596
100
AcDbEntity
  8
BEZUGSACHSEN
100
AcDbSpline
 62
7
  6
CONTINUOUS
 70
0
 71
3
 72
9
 73
5
 74
0
 42
0.0000001
 43
0.0000001
 44
0.0000000001
 40
0.0
 40
0.0
 40
0.0
 40
0.0
 40
0.2558186918
 40
1.0
 40
1.0
 40
1.0
 40
1.0
 10
284.3577849433
 20
265.3863489413
 30
0.0
 10
284.3605841415
 20
265.398189553
 30
0.0
 10
284.3702053829
 20
265.4447706994
 30
0.0
 10
284.3743582434
 20
265.4925308872
 30
0.0
 10
284.3738812263
 20
265.5279216656
 30
0.0
  0
SPLINE
  5
597
100
AcDbEntity
  8
0
100
AcDbSpline
 62
7
  6
CONTINUOUS
 70
0
 71
3
 72
14
 73
10
 74
0
 42
0.0000001
 43
0.0000001
 44
0.0000000001
 40
0.0
 40
0.0
 40
0.0
 40
0.0
 40
0.10456373
 40
0.2203241064
 40
0.348520989
 40
0.4858062621
 40
0.6260768229
 40
0.7624054631
 40
1.0
 40
1.0
 40
1.0
 40
1.0
 10
308.2329702762
 20
264.9489731238
 30
0.0
 10
308.1923967078
 20
264.8818296248
 30
0.0
 10
308.0730005317
 20
264.7595578446
 30
0.0
 10
307.8301085866
 20
264.6510873743
 30
0.0
 10
307.5428921868
 20
264.6147154872
 30
0.0
 10
307.2380732922
 20
264.6517817218
 30
0.0
 10
306.9431819234
 20
264.7590749129
 30
0.0
 10
306.6185419748
 20
264.9679683581
 30
0.0
 10
306.4374861096
 20
265.2128720786
 30
0.0
 10
306.3964750425
 20
265.3863489413
 30
0.0
  0
SPLINE
  5
598
100
AcDbEntity
  8
0
100
AcDbSpline
 62
7
  6
CONTINUOUS
 70
0
 71
3
 72
9
 73
5
 74
0
 42
0.0000001
 43
0.0000001
 44
0.0000000001
 40
0.0
 40
0.0
 40
0.0
 40
0.0
 40
0.2558186918
 40
1.0
 40
1.0
 40
1.0
 40
1.0
 10
306.3964750425
 20
265.3863489413
 30
0.0
 10
306.3936758444
 20
265.398189553
 30
0.0
 10
306.3840546029
 20
265.4447706994
 30
0.0
 10
306.3799017424
 20
265.4925308872
 30
0.0
 10
306.3803787595
 20
265.5279216656
 30
0.0
  0
SPLINE
  5
599
100
AcDbEntity
  8
BEZUGSACHSEN
100
AcDbSpline
 62
7
  6
CONTINUOUS
 70
0
 71
3
 72
15
 73
11
 74
0
 42
0.0000001
 43
0.0000001
 44
0.0000000001
 40
0.0
 40
0.0
 40
0.0
 40
0.0
 40
0.0933551246
 40
0.2043386312
 40
0.3352266868
 40
0.4801273834
 40
0.6289469072
 40
0.7704803277
 40
0.8954576158
 40
1.0
 40
1.0
 40
1.0
 40
1.0
 10
285.5638302194
 20
263.9238850108
 30
0.0
 10
285.6053170442
 20
263.8659810755
 30
0.0
 10
285.7369892294
 20
263.7678401455
 30
0.0
 10
285.9929481716
 20
263.7176516068
 30
0.0
 10
286.2897680762
 20
263.7458322668
 30
0.0
 10
286.5994189739
 20
263.8490548571
 30
0.0
 10
286.8892876944
 20
264.0155537303
 30
0.0
 10
287.1279559752
 20
264.2280851241
 30
0.0
 10
287.290294963
 20
264.4637751865
 30
0.0
 10
287.3377932169
 20
264.6387010674
 30
0.0
 10
287.3377932169
 20
264.7184693837
 30
0.0
  0
SPLINE
  5
59A
100
AcDbEntity
  8
AUSFORMSCHRAEGEN
100
AcDbSpline
 62
7
  6
CONTINUOUS
 70
0
 71
3
 72
21
 73
17
 74
0
 42
0.0000001
 43
0.0000001
 44
0.0000000001
 40
0.0
 40
0.0
 40
0.0
 40
0.0
 40
0.1501704774
 40
0.2213747071
 40
0.2884519048
 40
0.3507731813
 40
0.4082397834
 40
0.4614258324
 40
0.5116639978
 40
0.5609387806
 40
0.6114720016
 40
0.6651722776
 40
0.7232744387
 40
0.7862604085
 40
0.8539523822
 40
1.0
 40
1.0
 40
1.0
 40
1.0
 10
279.4020619741
 20
272.3419654251
 30
0.0
 10
280.6418347809
 20
272.3022105057
 30
0.0
 10
282.4749081439
 20
272.0373459123
 30
0.0
 10
284.7303222192
 20
271.2528245681
 30
0.0
 10
286.2095171982
 20
270.491878567
 30
0.0
 10
287.4576172962
 20
269.57082543
 30
0.0
 10
288.4347572365
 20
268.5147675606
 30
0.0
 10
289.1053550325
 20
267.3524458408
 30
0.0
 10
289.4383492074
 20
266.1195082025
 30
0.0
 10
289.4132893361
 20
264.8634259097
 30
0.0
 10
289.0320273559
 20
263.6379077266
 30
0.0
 10
288.3171951576
 20
262.4886763457
 30
0.0
 10
287.300769578
 20
261.4499356921
 30
0.0
 10
286.0182369562
 20
260.5494789303
 30
0.0
 10
283.9587845902
 20
259.5426784143
 30
0.0
 10
282.2210970245
 20
259.1083607688
 30
0.0
 10
281.0254100588
 20
258.9482811984
 30
0.0
  0
SPLINE
  5
59B
100
AcDbEntity
  8
KONSTRUKTIONSELEMENTE
100
AcDbSpline
 62
7
  6
CONTINUOUS
 70
0
 71
3
 72
11
 73
7
 74
0
 42
0.0000001
 43
0.0000001
 44
0.0000000001
 40
0.0
 40
0.0
 40
0.0
 40
0.0
 40
0.1921360266
 40
0.4202961068
 40
0.6889661236
 40
1.0
 40
1.0
 40
1.0
 40
1.0
 10
281.0254100588
 20
258.9482811984
 30
0.0
 10
280.8839726016
 20
259.0218225741
 30
0.0
 10
280.5975823476
 20
259.2270907934
 30
0.0
 10
280.2018091063
 20
259.6421789159
 30
0.0
 10
279.8062244083
 20
260.1851102908
 30
0.0
 10
279.5619052597
 20
260.6001467532
 30
0.0
 10
279.4387670012
 20
260.8269363697
 30
0.0
  0
SPLINE
  5
59C
100
AcDbEntity
  8
BEZUGSACHSEN
100
AcDbSpline
 62
7
  6
CONTINUOUS
 70
0
 71
3
 72
9
 73
5
 74
0
 42
0.0000001
 43
0.0000001
 44
0.0000000001
 40
0.0
 40
0.0
 40
0.0
 40
0.0
 40
0.2571282642
 40
1.0
 40
1.0
 40
1.0
 40
1.0
 10
287.3377932169
 20
264.7184693837
 30
0.0
 10
287.3377932169
 20
264.7303984296
 30
0.0
 10
287.3359022882
 20
264.7767624068
 30
0.0
 10
287.3259934537
 20
264.8228777003
 30
0.0
 10
287.3139909119
 20
264.8551844864
 30
0.0
  0
SPLINE
  5
59D
100
AcDbEntity
  8
0
100
AcDbSpline
 62
7
  6
CONTINUOUS
 70
0
 71
3
 72
15
 73
11
 74
0
 42
0.0000001
 43
0.0000001
 44
0.0000000001
 40
0.0
 40
0.0
 40
0.0
 40
0.0
 40
0.0933551246
 40
0.2043386312
 40
0.3352266868
 40
0.4801273834
 40
0.6289469072
 40
0.7704803277
 40
0.8954576158
 40
1.0
 40
1.0
 40
1.0
 40
1.0
 10
305.1904297664
 20
263.9238850108
 30
0.0
 10
305.1489429417
 20
263.8659810755
 30
0.0
 10
305.0172707564
 20
263.7678401455
 30
0.0
 10
304.7613118142
 20
263.7176516068
 30
0.0
 10
304.4644919096
 20
263.7458322668
 30
0.0
 10
304.1548410119
 20
263.8490548571
 30
0.0
 10
303.8649722914
 20
264.0155537303
 30
0.0
 10
303.6263040106
 20
264.2280851241
 30
0.0
 10
303.4639650228
 20
264.4637751865
 30
0.0
 10
303.4164667689
 20
264.6387010674
 30
0.0
 10
303.4164667689
 20
264.7184693837
 30
0.0
  0
SPLINE
  5
59E
100
AcDbEntity
  8
BEZUGSACHSEN
100
AcDbSpline
 62
7
  6
CONTINUOUS
 70
0
 71
3
 72
9
 73
5
 74
0
 42
0.0000001
 43
0.0000001
 44
0.0000000001
 40
0.0
 40
0.0
 40
0.0
 40
0.0
 40
0.2559108888
 40
1.0
 40
1.0
 40
1.0
 40
1.0
 10
287.2923237439
 20
268.2828560859
 30
0.0
 10
287.2890911716
 20
268.3093223427
 30
0.0
 10
287.2702899355
 20
268.4118645637
 30
0.0
 10
287.2250762172
 20
268.5097990216
 30
0.0
 10
287.1787581989
 20
268.5719668078
 30
0.0
  0
SPLINE
  5
59F
100
AcDbEntity
  8
BEZUGSACHSEN
100
AcDbSpline
 62
7
  6
CONTINUOUS
 70
0
 71
3
 72
9
 73
5
 74
0
 42
0.0000001
 43
0.0000001
 44
0.0000000001
 40
0.0
 40
0.0
 40
0.0
 40
0.0
 40
0.2708449515
 40
1.0
 40
1.0
 40
1.0
 40
1.0
 10
287.2923237439
 20
262.1120950329
 30
0.0
 10
287.2945366254
 20
262.1225136972
 30
0.0
 10
287.3003921625
 20
262.1613630128
 30
0.0
 10
287.2943632258
 20
262.2025294635
 30
0.0
 10
287.2822009279
 20
262.228496619
 30
0.0
  0
SPLINE
  5
5A0
100
AcDbEntity
  8
0
100
AcDbSpline
 62
7
  6
CONTINUOUS
 70
0
 71
3
 72
17
 73
13
 74
0
 42
0.0000001
 43
0.0000001
 44
0.0000000001
 40
0.0
 40
0.0
 40
0.0
 40
0.0
 40
0.0672418723
 40
0.1173530227
 40
0.1784688784
 40
0.3279067958
 40
0.4988246575
 40
0.6699295892
 40
0.819945766
 40
0.8814631024
 40
0.932029677
 40
1.0
 40
1.0
 40
1.0
 40
1.0
 10
308.2674398656
 20
259.8512979834
 30
0.0
 10
308.2461549924
 20
259.8095994571
 30
0.0
 10
308.162868162
 20
259.7687081403
 30
0.0
 10
308.0436825526
 20
259.7440107968
 30
0.0
 10
307.8612407383
 20
259.7297203314
 30
0.0
 10
307.5957751584
 20
259.7482736229
 30
0.0
 10
307.2587177683
 20
259.8115310483
 30
0.0
 10
306.9301778718
 20
259.9112782144
 30
0.0
 10
306.6854209249
 20
260.0177590387
 30
0.0
 10
306.5291568767
 20
260.1148477189
 30
0.0
 10
306.4337608399
 20
260.192299244
 30
0.0
 10
306.3777466227
 20
260.2669452166
 30
0.0
 10
306.3771795339
 20
260.3142658005
 30
0.0
  0
SPLINE
  5
5A1
100
AcDbEntity
  8
0
100
AcDbSpline
 62
7
  6
CONTINUOUS
 70
0
 71
3
 72
17
 73
13
 74
0
 42
0.0000001
 43
0.0000001
 44
0.0000000001
 40
0.0
 40
0.0
 40
0.0
 40
0.0
 40
0.0893633462
 40
0.1429174184
 40
0.2030726331
 40
0.3407956441
 40
0.4935286551
 40
0.6475386024
 40
0.7887881834
 40
0.8512150464
 40
0.9071374142
 40
1.0
 40
1.0
 40
1.0
 40
1.0
 10
308.2790811343
 20
261.9490440301
 30
0.0
 10
308.2496532085
 20
261.8874713045
 30
0.0
 10
308.1649108537
 20
261.8071316876
 30
0.0
 10
308.0239477648
 20
261.742619114
 30
0.0
 10
307.8373209174
 20
261.693184984
 30
0.0
 10
307.5669345509
 20
261.6824899125
 30
0.0
 10
307.2301132664
 20
261.7375577202
 30
0.0
 10
306.906571444
 20
261.8544518013
 30
0.0
 10
306.6704501788
 20
261.9968510864
 30
0.0
 10
306.5243099714
 20
262.1322502356
 30
0.0
 10
306.4249728053
 20
262.2591246162
 30
0.0
 10
306.3816625291
 20
262.3716368057
 30
0.0
 10
306.3803787595
 20
262.4425411391
 30
0.0
  0
SPLINE
  5
5A2
100
AcDbEntity
  8
KONSTRUKTIONSELEMENTE
100
AcDbSpline
 62
7
  6
CONTINUOUS
 70
0
 71
3
 72
9
 73
5
 74
0
 42
0.0000001
 43
0.0000001
 44
0.0000000001
 40
0.0
 40
0.0
 40
0.0
 40
0.0
 40
0.5137484035
 40
1.0
 40
1.0
 40
1.0
 40
1.0
 10
279.1501519751
 20
261.9734601183
 30
0.0
 10
279.1536517774
 20
261.7695290852
 30
0.0
 10
279.201985694
 20
261.3714763075
 30
0.0
 10
279.346653153
 20
260.9965868469
 30
0.0
 10
279.4387670012
 20
260.8269363697
 30
0.0
  0
SPLINE
  5
5A3
100
AcDbEntity
  8
0
100
AcDbSpline
 62
7
  6
CONTINUOUS
 70
0
 71
3
 72
9
 73
5
 74
0
 42
0.0000001
 43
0.0000001
 44
0.0000000001
 40
0.0
 40
0.0
 40
0.0
 40
0.0
 40
0.4526724488
 40
1.0
 40
1.0
 40
1.0
 40
1.0
 10
311.6145131487
 20
263.2813763485
 30
0.0
 10
311.6145131487
 20
264.6491993452
 30
0.0
 10
311.5548770253
 20
267.6707745244
 30
0.0
 10
311.4324116947
 20
270.6900731195
 30
0.0
 10
311.3521980118
 20
272.3419654251
 30
0.0
  0
SPLINE
  5
5A4
100
AcDbEntity
  8
0
100
AcDbSpline
 62
7
  6
CONTINUOUS
 70
0
 71
3
 72
13
 73
9
 74
0
 42
0.0000001
 43
0.0000001
 44
0.0000000001
 40
0.0
 40
0.0
 40
0.0
 40
0.0
 40
0.1182954174
 40
0.2419247224
 40
0.4995372069
 40
0.7574229771
 40
0.8814660136
 40
1.0
 40
1.0
 40
1.0
 40
1.0
 10
307.9937541883
 20
268.7755338353
 30
0.0
 10
307.9263800032
 20
268.7228101858
 30
0.0
 10
307.769554435
 20
268.6376865846
 30
0.0
 10
307.4112223703
 20
268.5657055262
 30
0.0
 10
306.9375547118
 20
268.666435122
 30
0.0
 10
306.5682293653
 20
268.9800469673
 30
0.0
 10
306.4057096794
 20
269.3081392252
 30
0.0
 10
306.3768183748
 20
269.4846840785
 30
0.0
 10
306.3771795339
 20
269.57040738
 30
0.0
  0
SPLINE
  5
5A5
100
AcDbEntity
  8
BEZUGSACHSEN
100
AcDbSpline
 62
7
  6
CONTINUOUS
 70
0
 71
3
 72
17
 73
13
 74
0
 42
0.0000001
 43
0.0000001
 44
0.0000000001
 40
0.0
 40
0.0
 40
0.0
 40
0.0
 40
0.0672418723
 40
0.1173530227
 40
0.1784688784
 40
0.3279067958
 40
0.4988246575
 40
0.6699295892
 40
0.819945766
 40
0.8814631024
 40
0.932029677
 40
1.0
 40
1.0
 40
1.0
 40
1.0
 10
282.4868201202
 20
259.8512979834
 30
0.0
 10
282.5081049934
 20
259.8095994571
 30
0.0
 10
282.5913918238
 20
259.7687081403
 30
0.0
 10
282.7105774333
 20
259.7440107968
 30
0.0
 10
282.8930192475
 20
259.7297203314
 30
0.0
 10
283.1584848275
 20
259.7482736229
 30
0.0
 10
283.4955422176
 20
259.8115310483
 30
0.0
 10
283.824082114
 20
259.9112782144
 30
0.0
 10
284.068839061
 20
260.0177590387
 30
0.0
 10
284.2251031091
 20
260.1148477189
 30
0.0
 10
284.3204991459
 20
260.192299244
 30
0.0
 10
284.3765133631
 20
260.2669452166
 30
0.0
 10
284.3770804519
 20
260.3142658005
 30
0.0
  0
SPLINE
  5
5A6
100
AcDbEntity
  8
0
100
AcDbSpline
 62
7
  6
CONTINUOUS
 70
0
 71
3
 72
11
 73
7
 74
0
 42
0.0000001
 43
0.0000001
 44
0.0000000001
 40
0.0
 40
0.0
 40
0.0
 40
0.0
 40
0.1921360266
 40
0.4202961068
 40
0.6889661236
 40
1.0
 40
1.0
 40
1.0
 40
1.0
 10
309.728849927
 20
258.9482811984
 30
0.0
 10
309.8702873842
 20
259.0218225741
 30
0.0
 10
310.1566776383
 20
259.2270907934
 30
0.0
 10
310.5524508795
 20
259.6421789159
 30
0.0
 10
310.9480355775
 20
260.1851102908
 30
0.0
 10
311.1923547261
 20
260.6001467532
 30
0.0
 10
311.3154929846
 20
260.8269363697
 30
0.0
  0
SPLINE
  5
5A7
100
AcDbEntity
  8
0
100
AcDbSpline
 62
7
  6
CONTINUOUS
 70
0
 71
3
 72
21
 73
17
 74
0
 42
0.0000001
 43
0.0000001
 44
0.0000000001
 40
0.0
 40
0.0
 40
0.0
 40
0.0
 40
0.1501704774
 40
0.2213747071
 40
0.2884519048
 40
0.3507731813
 40
0.4082397834
 40
0.4614258324
 40
0.5116639978
 40
0.5609387806
 40
0.6114720016
 40
0.6651722776
 40
0.7232744387
 40
0.7862604085
 40
0.8539523822
 40
1.0
 40
1.0
 40
1.0
 40
1.0
 10
311.3521980118
 20
272.3419654251
 30
0.0
 10
310.112425205
 20
272.3022105057
 30
0.0
 10
308.2793518419
 20
272.0373459123
 30
0.0
 10
306.0239377666
 20
271.2528245681
 30
0.0
 10
304.5447427877
 20
270.491878567
 30
0.0
 10
303.2966426896
 20
269.57082543
 30
0.0
 10
302.3195027493
 20
268.5147675606
 30
0.0
 10
301.6489049533
 20
267.3524458408
 30
0.0
 10
301.3159107784
 20
266.1195082025
 30
0.0
 10
301.3409706498
 20
264.8634259097
 30
0.0
 10
301.7222326299
 20
263.6379077266
 30
0.0
 10
302.4370648283
 20
262.4886763457
 30
0.0
 10
303.4534904078
 20
261.4499356921
 30
0.0
 10
304.7360230296
 20
260.5494789303
 30
0.0
 10
306.7954753956
 20
259.5426784143
 30
0.0
 10
308.5331629613
 20
259.1083607688
 30
0.0
 10
309.728849927
 20
258.9482811984
 30
0.0
  0
SPLINE
  5
5A8
100
AcDbEntity
  8
0
100
AcDbSpline
 62
7
  6
CONTINUOUS
 70
0
 71
3
 72
9
 73
5
 74
0
 42
0.0000001
 43
0.0000001
 44
0.0000000001
 40
0.0
 40
0.0
 40
0.0
 40
0.0
 40
0.2571282642
 40
1.0
 40
1.0
 40
1.0
 40
1.0
 10
303.4164667689
 20
264.7184693837
 30
0.0
 10
303.4164667689
 20
264.7303984296
 30
0.0
 10
303.4183576976
 20
264.7767624068
 30
0.0
 10
303.4282665321
 20
264.8228777003
 30
0.0
 10
303.440269074
 20
264.8551844864
 30
0.0
  0
SPLINE
  5
5A9
100
AcDbEntity
  8
0
100
AcDbSpline
 62
7
  6
CONTINUOUS
 70
0
 71
3
 72
9
 73
5
 74
0
 42
0.0000001
 43
0.0000001
 44
0.0000000001
 40
0.0
 40
0.0
 40
0.0
 40
0.0
 40
0.2559108888
 40
1.0
 40
1.0
 40
1.0
 40
1.0
 10
303.461936242
 20
268.2828560859
 30
0.0
 10
303.4651688142
 20
268.3093223427
 30
0.0
 10
303.4839700503
 20
268.4118645637
 30
0.0
 10
303.5291837686
 20
268.5097990216
 30
0.0
 10
303.5755017869
 20
268.5719668078
 30
0.0
  0
SPLINE
  5
5AA
100
AcDbEntity
  8
0
100
AcDbSpline
 62
7
  6
CONTINUOUS
 70
0
 71
3
 72
9
 73
5
 74
0
 42
0.0000001
 43
0.0000001
 44
0.0000000001
 40
0.0
 40
0.0
 40
0.0
 40
0.0
 40
0.2708449515
 40
1.0
 40
1.0
 40
1.0
 40
1.0
 10
303.461936242
 20
262.1120950329
 30
0.0
 10
303.4597233604
 20
262.1225136972
 30
0.0
 10
303.4538678233
 20
262.1613630128
 30
0.0
 10
303.45989676
 20
262.2025294635
 30
0.0
 10
303.4720590579
 20
262.228496619
 30
0.0
  0
SPLINE
  5
5AB
100
AcDbEntity
  8
0
100
AcDbSpline
 62
7
  6
CONTINUOUS
 70
0
 71
3
 72
9
 73
5
 74
0
 42
0.0000001
 43
0.0000001
 44
0.0000000001
 40
0.0
 40
0.0
 40
0.0
 40
0.0
 40
0.5137484035
 40
1.0
 40
1.0
 40
1.0
 40
1.0
 10
311.6041080107
 20
261.9734601183
 30
0.0
 10
311.6006082084
 20
261.7695290852
 30
0.0
 10
311.5522742919
 20
261.3714763075
 30
0.0
 10
311.4076068329
 20
260.9965868469
 30
0.0
 10
311.3154929846
 20
260.8269363697
 30
0.0
  0
SPLINE
  5
5AC
100
AcDbEntity
  8
BEZUGSACHSEN
100
AcDbSpline
 62
7
  6
CONTINUOUS
 70
0
 71
3
 72
17
 73
13
 74
0
 42
0.0000001
 43
0.0000001
 44
0.0000000001
 40
0.0
 40
0.0
 40
0.0
 40
0.0
 40
0.0320093676
 40
0.0681556805
 40
0.1112130888
 40
0.1623217987
 40
0.2874861186
 40
0.4364612494
 40
0.5963861508
 40
0.7524363799
 40
0.8904954791
 40
1.0
 40
1.0
 40
1.0
 40
1.0
 10
285.4565379209
 20
261.4130578438
 30
0.0
 10
285.4651199752
 20
261.3927486488
 30
0.0
 10
285.4935292864
 20
261.3533659064
 30
0.0
 10
285.55960173
 20
261.3121455752
 30
0.0
 10
285.6461290072
 20
261.2857931949
 30
0.0
 10
285.7969000399
 20
261.2692515844
 30
0.0
 10
286.02184796
 20
261.2910602333
 30
0.0
 10
286.3116775914
 20
261.3675533475
 30
0.0
 10
286.608738779
 20
261.4895756352
 30
0.0
 10
286.8816518056
 20
261.6444748625
 30
0.0
 10
287.1018916162
 20
261.8151949796
 30
0.0
 10
287.2154873955
 20
261.9461263599
 30
0.0
 10
287.2524553777
 20
262.0118723806
 30
0.0
  0
SPLINE
  5
5AD
100
AcDbEntity
  8
BEZUGSACHSEN
100
AcDbSpline
 62
7
  6
CONTINUOUS
 70
0
 71
3
 72
9
 73
5
 74
0
 42
0.0000001
 43
0.0000001
 44
0.0000000001
 40
0.0
 40
0.0
 40
0.0
 40
0.0
 40
0.2722929429
 40
1.0
 40
1.0
 40
1.0
 40
1.0
 10
287.2524553777
 20
262.0118723806
 30
0.0
 10
287.2572631536
 20
262.0204228102
 30
0.0
 10
287.2739893507
 20
262.0523038407
 30
0.0
 10
287.2868771141
 20
262.0864512709
 30
0.0
 10
287.2923237439
 20
262.1120950329
 30
0.0
  0
SPLINE
  5
5AE
100
AcDbEntity
  8
BEZUGSACHSEN
100
AcDbSpline
 62
7
  6
CONTINUOUS
 70
0
 71
3
 72
17
 73
13
 74
0
 42
0.0000001
 43
0.0000001
 44
0.0000000001
 40
0.0
 40
0.0
 40
0.0
 40
0.0
 40
0.0893633462
 40
0.1429174184
 40
0.2030726331
 40
0.3407956441
 40
0.4935286551
 40
0.6475386024
 40
0.7887881834
 40
0.8512150464
 40
0.9071374142
 40
1.0
 40
1.0
 40
1.0
 40
1.0
 10
282.4751788515
 20
261.9490440301
 30
0.0
 10
282.5046067773
 20
261.8874713045
 30
0.0
 10
282.5893491322
 20
261.8071316876
 30
0.0
 10
282.730312221
 20
261.742619114
 30
0.0
 10
282.9169390685
 20
261.693184984
 30
0.0
 10
283.1873254349
 20
261.6824899125
 30
0.0
 10
283.5241467194
 20
261.7375577202
 30
0.0
 10
283.8476885419
 20
261.8544518013
 30
0.0
 10
284.0838098071
 20
261.9968510864
 30
0.0
 10
284.2299500144
 20
262.1322502356
 30
0.0
 10
284.3292871805
 20
262.2591246162
 30
0.0
 10
284.3725974567
 20
262.3716368057
 30
0.0
 10
284.3738812263
 20
262.4425411391
 30
0.0
  0
SPLINE
  5
5AF
100
AcDbEntity
  8
0
100
AcDbSpline
 62
7
  6
CONTINUOUS
 70
0
 71
3
 72
9
 73
5
 74
0
 42
0.0000001
 43
0.0000001
 44
0.0000000001
 40
0.0
 40
0.0
 40
0.0
 40
0.0
 40
0.2789733476
 40
1.0
 40
1.0
 40
1.0
 40
1.0
 10
307.2007934133
 20
251.9096181601
 30
0.0
 10
307.0849545957
 20
251.9385141833
 30
0.0
 10
306.6789411959
 20
252.067591865
 30
0.0
 10
306.2929456597
 20
252.3150345817
 30
0.0
 10
306.1117531756
 20
252.5648016222
 30
0.0
  0
SPLINE
  5
5B0
100
AcDbEntity
  8
0
100
AcDbSpline
 62
7
  6
CONTINUOUS
 70
0
 71
3
 72
11
 73
7
 74
0
 42
0.0000001
 43
0.0000001
 44
0.0000000001
 40
0.0
 40
0.0
 40
0.0
 40
0.0
 40
0.2144843352
 40
0.4568045744
 40
0.7220336853
 40
1.0
 40
1.0
 40
1.0
 40
1.0
 10
304.8149767151
 20
254.3523593145
 30
0.0
 10
304.5603147078
 20
254.703401336
 30
0.0
 10
303.8770069844
 20
255.351039372
 30
0.0
 10
302.5780137725
 20
256.0437263018
 30
0.0
 10
301.0402708746
 20
256.4807468387
 30
0.0
 10
299.9391757032
 20
256.579162279
 30
0.0
 10
299.3771299929
 20
256.579162279
 30
0.0
  0
SPLINE
  5
5B1
100
AcDbEntity
  8
KONSTRUKTIONSELEMENTE
100
AcDbSpline
 62
7
  6
CONTINUOUS
 70
0
 71
3
 72
11
 73
7
 74
0
 42
0.0000001
 43
0.0000001
 44
0.0000000001
 40
0.0
 40
0.0
 40
0.0
 40
0.0
 40
0.2144843352
 40
0.4568045744
 40
0.7220336853
 40
1.0
 40
1.0
 40
1.0
 40
1.0
 10
285.9392832707
 20
254.3523593145
 30
0.0
 10
286.193945278
 20
254.703401336
 30
0.0
 10
286.8772530014
 20
255.351039372
 30
0.0
 10
288.1762462133
 20
256.0437263018
 30
0.0
 10
289.7139891112
 20
256.4807468387
 30
0.0
 10
290.8150842826
 20
256.579162279
 30
0.0
 10
291.3771299929
 20
256.579162279
 30
0.0
  0
SPLINE
  5
5B2
100
AcDbEntity
  8
AUSFORMSCHRAEGEN
100
AcDbSpline
 62
7
  6
CONTINUOUS
 70
0
 71
3
 72
9
 73
5
 74
0
 42
0.0000001
 43
0.0000001
 44
0.0000000001
 40
0.0
 40
0.0
 40
0.0
 40
0.0
 40
0.2789733476
 40
1.0
 40
1.0
 40
1.0
 40
1.0
 10
283.5534665725
 20
251.9096181601
 30
0.0
 10
283.6693053902
 20
251.9385141833
 30
0.0
 10
284.0753187899
 20
252.067591865
 30
0.0
 10
284.4613143261
 20
252.3150345817
 30
0.0
 10
284.6425068102
 20
252.5648016222
 30
0.0
  0
SPLINE
  5
5B3
100
AcDbEntity
  8
AUSFORMSCHRAEGEN
100
AcDbSpline
 62
7
  6
CONTINUOUS
 70
0
 71
3
 72
9
 73
5
 74
0
 42
0.0000001
 43
0.0000001
 44
0.0000000001
 40
0.0
 40
0.0
 40
0.0
 40
0.0
 40
0.4526724488
 40
1.0
 40
1.0
 40
1.0
 40
1.0
 10
279.1397468371
 20
263.2813763485
 30
0.0
 10
279.1397468371
 20
264.6491993452
 30
0.0
 10
279.1993829606
 20
267.6707745244
 30
0.0
 10
279.3218482911
 20
270.6900731195
 30
0.0
 10
279.4020619741
 20
272.3419654251
 30
0.0
  0
SPLINE
  5
5B4
100
AcDbEntity
  8
0
100
AcDbSpline
 62
7
  6
CONTINUOUS
 70
0
 71
3
 72
13
 73
9
 74
0
 42
0.0000001
 43
0.0000001
 44
0.0000000001
 40
0.0
 40
0.0
 40
0.0
 40
0.0
 40
0.1033364106
 40
0.1878417135
 40
0.2976770413
 40
0.4336751813
 40
0.5961412914
 40
1.0
 40
1.0
 40
1.0
 40
1.0
 10
307.3771299929
 20
147.1622766547
 30
0.0
 10
307.3771299929
 20
147.1067153066
 30
0.0
 10
307.294460716
 20
147.0209604194
 30
0.0
 10
307.1632016246
 20
146.938812491
 30
0.0
 10
307.0017168478
 20
146.8599043779
 30
0.0
 10
306.7982237747
 20
146.7790141914
 30
0.0
 10
306.440557026
 20
146.6566097733
 30
0.0
 10
306.1472141184
 20
146.5745614917
 30
0.0
 10
305.9371297758
 20
146.5196405724
 30
0.0
  0
SPLINE
  5
5B5
100
AcDbEntity
  8
0
100
AcDbSpline
 62
7
  6
CONTINUOUS
 70
0
 71
3
 72
17
 73
13
 74
0
 42
0.0000001
 43
0.0000001
 44
0.0000000001
 40
0.0
 40
0.0
 40
0.0
 40
0.0
 40
0.0139638374
 40
0.0334046017
 40
0.0599701541
 40
0.0941232457
 40
0.135904366
 40
0.1851509302
 40
0.3048776728
 40
0.4503476341
 40
0.6177650304
 40
1.0
 40
1.0
 40
1.0
 40
1.0
 10
306.5771352566
 20
311.0426516482
 30
0.0
 10
306.5771286448
 20
311.0191374179
 30
0.0
 10
306.5999587565
 20
310.963897585
 30
0.0
 10
306.672559658
 20
310.8927194438
 30
0.0
 10
306.7844183113
 20
310.8163170696
 30
0.0
 10
306.9374265739
 20
310.7359713594
 30
0.0
 10
307.1307362255
 20
310.6515950876
 30
0.0
 10
307.4631664846
 20
310.5269855212
 30
0.0
 10
307.969883952
 20
310.3718567183
 30
0.0
 10
308.6765849121
 20
310.1941826478
 30
0.0
 10
309.8227114572
 20
309.955181632
 30
0.0
 10
310.7384346276
 20
309.8146148727
 30
0.0
 10
311.3771299929
 20
309.7348262308
 30
0.0
  0
SPLINE
  5
5B6
100
AcDbEntity
  8
0
100
AcDbSpline
 62
7
  6
CONTINUOUS
 70
0
 71
3
 72
11
 73
7
 74
0
 42
0.0000001
 43
0.0000001
 44
0.0000000001
 40
0.0
 40
0.0
 40
0.0
 40
0.0
 40
0.2146740787
 40
0.4550280824
 40
0.7186323465
 40
1.0
 40
1.0
 40
1.0
 40
1.0
 10
306.9667327361
 20
300.0726112467
 30
0.0
 10
306.9074202658
 20
299.9374022302
 30
0.0
 10
306.8116652007
 20
299.6376253735
 30
0.0
 10
306.7236714578
 20
299.1506082051
 30
0.0
 10
306.6707093296
 20
298.6126987489
 30
0.0
 10
306.6523288996
 20
298.2382474518
 30
0.0
 10
306.6457064135
 20
298.0448446131
 30
0.0
  0
SPLINE
  5
5B7
100
AcDbEntity
  8
KONSTRUKTIONSELEMENTE
100
AcDbSpline
 62
7
  6
CONTINUOUS
 70
0
 71
3
 72
13
 73
9
 74
0
 42
0.0000001
 43
0.0000001
 44
0.0000000001
 40
0.0
 40
0.0
 40
0.0
 40
0.0
 40
0.1033364106
 40
0.1878417135
 40
0.2976770413
 40
0.4336751813
 40
0.5961412914
 40
1.0
 40
1.0
 40
1.0
 40
1.0
 10
283.3771299929
 20
147.1622766547
 30
0.0
 10
283.3771299929
 20
147.1067153066
 30
0.0
 10
283.4597992699
 20
147.0209604194
 30
0.0
 10
283.5910583612
 20
146.938812491
 30
0.0
 10
283.752543138
 20
146.8599043779
 30
0.0
 10
283.9560362111
 20
146.7790141914
 30
0.0
 10
284.3137029598
 20
146.6566097733
 30
0.0
 10
284.6070458675
 20
146.5745614917
 30
0.0
 10
284.81713021
 20
146.5196405724
 30
0.0
  0
SPLINE
  5
5B8
100
AcDbEntity
  8
KONSTRUKTIONSELEMENTE
100
AcDbSpline
 62
7
  6
CONTINUOUS
 70
0
 71
3
 72
17
 73
13
 74
0
 42
0.0000001
 43
0.0000001
 44
0.0000000001
 40
0.0
 40
0.0
 40
0.0
 40
0.0
 40
0.0139638374
 40
0.0334046017
 40
0.0599701541
 40
0.0941232457
 40
0.135904366
 40
0.1851509302
 40
0.3048776728
 40
0.4503476341
 40
0.6177650304
 40
1.0
 40
1.0
 40
1.0
 40
1.0
 10
284.1771247292
 20
311.0426516482
 30
0.0
 10
284.1771313411
 20
311.0191374179
 30
0.0
 10
284.1543012294
 20
310.963897585
 30
0.0
 10
284.0817003278
 20
310.8927194438
 30
0.0
 10
283.9698416745
 20
310.8163170696
 30
0.0
 10
283.816833412
 20
310.7359713594
 30
0.0
 10
283.6235237603
 20
310.6515950876
 30
0.0
 10
283.2910935012
 20
310.5269855212
 30
0.0
 10
282.7843760339
 20
310.3718567183
 30
0.0
 10
282.0776750737
 20
310.1941826478
 30
0.0
 10
280.9315485287
 20
309.955181632
 30
0.0
 10
280.0158253582
 20
309.8146148727
 30
0.0
 10
279.3771299929
 20
309.7348262308
 30
0.0
  0
SPLINE
  5
5B9
100
AcDbEntity
  8
KONSTRUKTIONSELEMENTE
100
AcDbSpline
 62
7
  6
CONTINUOUS
 70
0
 71
3
 72
11
 73
7
 74
0
 42
0.0000001
 43
0.0000001
 44
0.0000000001
 40
0.0
 40
0.0
 40
0.0
 40
0.0
 40
0.2146740787
 40
0.4550280824
 40
0.7186323465
 40
1.0
 40
1.0
 40
1.0
 40
1.0
 10
283.7875272497
 20
300.0726112467
 30
0.0
 10
283.84683972
 20
299.9374022302
 30
0.0
 10
283.9425947851
 20
299.6376253735
 30
0.0
 10
284.030588528
 20
299.1506082051
 30
0.0
 10
284.0835506562
 20
298.6126987489
 30
0.0
 10
284.1019310862
 20
298.2382474518
 30
0.0
 10
284.1085535724
 20
298.0448446131
 30
0.0
  0
SPLINE
  5
5BA
100
AcDbEntity
  8
BEZUGSACHSEN
100
AcDbSpline
 62
7
  6
CONTINUOUS
 70
0
 71
3
 72
11
 73
7
 74
0
 42
0.0000001
 43
0.0000001
 44
0.0000000001
 40
0.0
 40
0.0
 40
0.0
 40
0.0
 40
0.3382620305
 40
0.599583605
 40
0.8060141894
 40
1.0
 40
1.0
 40
1.0
 40
1.0
 10
283.367791669
 20
192.5351640737
 30
0.0
 10
283.3642644684
 20
192.5116567557
 30
0.0
 10
283.3557053351
 20
192.4702164417
 30
0.0
 10
283.333175645
 20
192.4175714048
 30
0.0
 10
283.2994808401
 20
192.3830033441
 30
0.0
 10
283.2705380601
 20
192.3761627751
 30
0.0
 10
283.2569062297
 20
192.3761476894
 30
0.0
  0
SPLINE
  5
5BB
100
AcDbEntity
  8
0
100
AcDbSpline
 62
7
  6
CONTINUOUS
 70
0
 71
3
 72
15
 73
11
 74
0
 42
0.0000001
 43
0.0000001
 44
0.0000000001
 40
0.0
 40
0.0
 40
0.0
 40
0.0
 40
0.125003127
 40
0.2500038019
 40
0.3750056415
 40
0.5000062519
 40
0.6250049502
 40
0.7500021832
 40
0.8749987582
 40
1.0
 40
1.0
 40
1.0
 40
1.0
 10
335.1736026538
 20
145.4098360271
 30
0.0
 10
336.0690961014
 20
145.4869371639
 30
0.0
 10
337.8522437928
 20
145.7569789575
 30
0.0
 10
340.4511158921
 20
146.5017939249
 30
0.0
 10
342.9332725675
 20
147.5742077338
 30
0.0
 10
345.2572721077
 20
148.9560292993
 30
0.0
 10
347.3850447919
 20
150.6241877983
 30
0.0
 10
349.281808499
 20
152.5510400982
 30
0.0
 10
350.9165746526
 20
154.7040929676
 30
0.0
 10
351.814639788
 20
156.2679293186
 30
0.0
 10
352.2115531172
 20
157.0743340195
 30
0.0
  0
SPLINE
  5
5BC
100
AcDbEntity
  8
BEZUGSACHSEN
100
AcDbSpline
 62
7
  6
CONTINUOUS
 70
0
 71
3
 72
11
 73
7
 74
0
 42
0.0000001
 43
0.0000001
 44
0.0000000001
 40
0.0
 40
0.0
 40
0.0
 40
0.0
 40
0.3272110698
 40
0.6050618642
 40
0.8292232743
 40
1.0
 40
1.0
 40
1.0
 40
1.0
 10
283.9771299929
 20
194.0243612337
 30
0.0
 10
283.8831807804
 20
193.8951999655
 30
0.0
 10
283.7185884296
 20
193.6494661712
 30
0.0
 10
283.5274820978
 20
193.2915634013
 30
0.0
 10
283.4111479838
 20
192.9836042706
 30
0.0
 10
283.3771299929
 20
192.7913268186
 30
0.0
 10
283.3771299929
 20
192.7079686512
 30
0.0
  0
SPLINE
  5
5BD
100
AcDbEntity
  8
KONSTRUKTIONSELEMENTE
100
AcDbSpline
 62
7
  6
CONTINUOUS
 70
0
 71
3
 72
13
 73
9
 74
0
 42
0.0000001
 43
0.0000001
 44
0.0000000001
 40
0.0
 40
0.0
 40
0.0
 40
0.0
 40
0.4038587271
 40
0.5663248331
 40
0.7023229656
 40
0.8121582862
 40
0.8966635853
 40
1.0
 40
1.0
 40
1.0
 40
1.0
 10
284.81713021
 20
146.5196405724
 30
0.0
 10
285.0272145033
 20
146.4647196659
 30
0.0
 10
285.320557336
 20
146.3826714028
 30
0.0
 10
285.6782239842
 20
146.2602670064
 30
0.0
 10
285.8817169875
 20
146.1793768364
 30
0.0
 10
286.0432017043
 20
146.1004687392
 30
0.0
 10
286.1744607509
 20
146.0183208242
 30
0.0
 10
286.2571299929
 20
145.9325659546
 30
0.0
 10
286.2571299929
 20
145.8770046199
 30
0.0
  0
SPLINE
  5
5BE
100
AcDbEntity
  8
0
100
AcDbSpline
 62
7
  6
CONTINUOUS
 70
0
 71
3
 72
13
 73
9
 74
0
 42
0.0000001
 43
0.0000001
 44
0.0000000001
 40
0.0
 40
0.0
 40
0.0
 40
0.0
 40
0.4038587271
 40
0.5663248331
 40
0.7023229656
 40
0.8121582862
 40
0.8966635853
 40
1.0
 40
1.0
 40
1.0
 40
1.0
 10
305.9371297758
 20
146.5196405724
 30
0.0
 10
305.7270454825
 20
146.4647196659
 30
0.0
 10
305.4337026498
 20
146.3826714028
 30
0.0
 10
305.0760360017
 20
146.2602670064
 30
0.0
 10
304.8725429983
 20
146.1793768364
 30
0.0
 10
304.7110582816
 20
146.1004687392
 30
0.0
 10
304.579799235
 20
146.0183208242
 30
0.0
 10
304.4971299929
 20
145.9325659546
 30
0.0
 10
304.4971299929
 20
145.8770046199
 30
0.0
  0
SPLINE
  5
5BF
100
AcDbEntity
  8
BEZUGSACHSEN
100
AcDbSpline
 62
7
  6
CONTINUOUS
 70
0
 71
3
 72
21
 73
17
 74
0
 42
0.0000001
 43
0.0000001
 44
0.0000000001
 40
0.0
 40
0.0
 40
0.0
 40
0.0
 40
0.0055804789
 40
0.0136215663
 40
0.0244795458
 40
0.0382081297
 40
0.0739462335
 40
0.1198801196
 40
0.174819295
 40
0.2375824548
 40
0.3070474887
 40
0.3820954827
 40
0.5436199321
 40
0.7094709386
 40
0.865366256
 40
1.0
 40
1.0
 40
1.0
 40
1.0
 10
283.2569062297
 20
192.3761476894
 30
0.0
 10
283.231898341
 20
192.3761200144
 30
0.0
 10
283.1721696546
 20
192.39871632
 30
0.0
 10
283.0852168383
 20
192.4655542826
 30
0.0
 10
282.982558813
 20
192.5704222661
 30
0.0
 10
282.8121752692
 20
192.780463101
 30
0.0
 10
282.5753649179
 20
193.137432913
 30
0.0
 10
282.2743284464
 20
193.670809654
 30
0.0
 10
281.9538136134
 20
194.3309149528
 30
0.0
 10
281.6326881867
 20
195.1062864632
 30
0.0
 10
281.3318826133
 20
195.9858828949
 30
0.0
 10
280.979075162
 20
197.3121240453
 30
0.0
 10
280.7240972119
 20
199.1068651154
 30
0.0
 10
280.8041351663
 20
201.2829612014
 30
0.0
 10
281.2272459401
 20
203.2923451501
 30
0.0
 10
281.6719617748
 20
204.5203400366
 30
0.0
 10
281.9141382141
 20
205.0729391198
 30
0.0
  0
SPLINE
  5
5C0
100
AcDbEntity
  8
0
100
AcDbSpline
 62
7
  6
CONTINUOUS
 70
0
 71
3
 72
9
 73
5
 74
0
 42
0.0000001
 43
0.0000001
 44
0.0000000001
 40
0.0
 40
0.0
 40
0.0
 40
0.0
 40
0.2571756674
 40
1.0
 40
1.0
 40
1.0
 40
1.0
 10
328.1215134655
 20
310.0256102113
 30
0.0
 10
327.6018234479
 20
310.0704411475
 30
0.0
 10
325.580923259
 20
310.2430457996
 30
0.0
 10
323.5593862796
 20
310.4087718574
 30
0.0
 10
322.0568335937
 20
310.5197254247
 30
0.0
  0
SPLINE
  5
5C1
100
AcDbEntity
  8
0
100
AcDbSpline
 62
7
  6
CONTINUOUS
 70
0
 71
3
 72
19
 73
15
 74
0
 42
0.0000001
 43
0.0000001
 44
0.0000000001
 40
0.0
 40
0.0
 40
0.0
 40
0.0
 40
0.209901337
 40
0.4011886679
 40
0.5699386034
 40
0.7128879614
 40
0.7738440952
 40
0.8274441382
 40
0.8735316785
 40
0.9120517013
 40
0.9431059152
 40
0.9671230181
 40
0.985203162
 40
1.0
 40
1.0
 40
1.0
 40
1.0
 10
310.0414204225
 20
311.2837244072
 30
0.0
 10
309.7935561228
 20
311.2965952666
 30
0.0
 10
309.3196266636
 20
311.3179042977
 30
0.0
 10
308.6458846777
 20
311.3358177371
 30
0.0
 10
308.0510653275
 20
311.3368561722
 30
0.0
 10
307.6104834402
 20
311.3223433546
 30
0.0
 10
307.3068221888
 20
311.2992503283
 30
0.0
 10
307.1180098337
 20
311.278001761
 30
0.0
 10
306.9565811802
 20
311.2519670759
 30
0.0
 10
306.8231906847
 20
311.2212462561
 30
0.0
 10
306.7179840119
 20
311.185900476
 30
0.0
 10
306.6408839463
 20
311.1458530289
 30
0.0
 10
306.5899915308
 20
311.0994129758
 30
0.0
 10
306.5771401763
 20
311.0601481976
 30
0.0
 10
306.5771352566
 20
311.0426516482
 30
0.0
  0
SPLINE
  5
5C2
100
AcDbEntity
  8
0
100
AcDbSpline
 62
7
  6
CONTINUOUS
 70
0
 71
3
 72
13
 73
9
 74
0
 42
0.0000001
 43
0.0000001
 44
0.0000000001
 40
0.0
 40
0.0
 40
0.0
 40
0.0
 40
0.2456029388
 40
0.4943630211
 40
0.6198512983
 40
0.7460214872
 40
0.8728086363
 40
1.0
 40
1.0
 40
1.0
 40
1.0
 10
322.0568335937
 20
285.490724588
 30
0.0
 10
322.3584797986
 20
285.1633198676
 30
0.0
 10
322.9548609832
 20
284.4943721103
 30
0.0
 10
323.6557066899
 20
283.614208524
 30
0.0
 10
324.1567930601
 20
282.8572038281
 30
0.0
 10
324.481847027
 20
282.2514710744
 30
0.0
 10
324.7186879198
 20
281.6007762902
 30
0.0
 10
324.779421987
 20
281.1388846288
 30
0.0
 10
324.779421987
 20
280.9083380562
 30
0.0
  0
SPLINE
  5
5C3
100
AcDbEntity
  8
0
100
AcDbSpline
 62
7
  6
CONTINUOUS
 70
0
 71
3
 72
9
 73
5
 74
0
 42
0.0000001
 43
0.0000001
 44
0.0000000001
 40
0.0
 40
0.0
 40
0.0
 40
0.0
 40
0.2476287001
 40
1.0
 40
1.0
 40
1.0
 40
1.0
 10
319.0102785084
 20
287.6339313578
 30
0.0
 10
319.0726881861
 20
287.5900321627
 30
0.0
 10
319.3273691794
 20
287.4166252304
 30
0.0
 10
319.5940268993
 20
287.2602274878
 30
0.0
 10
319.8015857779
 20
287.1569565665
 30
0.0
  0
SPLINE
  5
5C4
100
AcDbEntity
  8
0
100
AcDbSpline
 62
7
  6
CONTINUOUS
 70
0
 71
3
 72
10
 73
6
 74
0
 42
0.0000001
 43
0.0000001
 44
0.0000000001
 40
0.0
 40
0.0
 40
0.0
 40
0.0
 40
0.2510571139
 40
0.5014731085
 40
1.0
 40
1.0
 40
1.0
 40
1.0
 10
321.928737481
 20
268.3483808383
 30
0.0
 10
321.6699199705
 20
268.0993948211
 30
0.0
 10
321.1782021438
 20
267.5757436874
 30
0.0
 10
320.2639863599
 20
266.4750367186
 30
0.0
 10
319.6287349254
 20
265.6111820583
 30
0.0
 10
319.2179239685
 20
265.0282490597
 30
0.0
  0
SPLINE
  5
5C5
100
AcDbEntity
  8
0
100
AcDbSpline
 62
7
  6
CONTINUOUS
 70
0
 71
3
 72
11
 73
7
 74
0
 42
0.0000001
 43
0.0000001
 44
0.0000000001
 40
0.0
 40
0.0
 40
0.0
 40
0.0
 40
0.2504575584
 40
0.5007084017
 40
0.7505921717
 40
1.0
 40
1.0
 40
1.0
 40
1.0
 10
324.779421987
 20
275.9083380562
 30
0.0
 10
324.779421987
 20
275.5448665753
 30
0.0
 10
324.7372872244
 20
274.8176116574
 30
0.0
 10
324.5586160098
 20
273.7414563675
 30
0.0
 10
324.2891767201
 20
272.6865779039
 30
0.0
 10
324.0656171536
 20
271.9969373795
 30
0.0
 10
323.9462193706
 20
271.6552495352
 30
0.0
  0
SPLINE
  5
5C6
100
AcDbEntity
  8
KONSTRUKTIONSELEMENTE
100
AcDbSpline
 62
7
  6
CONTINUOUS
 70
0
 71
3
 72
11
 73
7
 74
0
 42
0.0000001
 43
0.0000001
 44
0.0000000001
 40
0.0
 40
0.0
 40
0.0
 40
0.0
 40
0.2486701616
 40
0.4977361733
 40
0.7479333073
 40
1.0
 40
1.0
 40
1.0
 40
1.0
 10
271.5363360173
 20
265.0282490597
 30
0.0
 10
271.6443359694
 20
264.8749991649
 30
0.0
 10
271.8781038453
 20
264.5799115705
 30
0.0
 10
272.294685421
 20
264.1952864962
 30
0.0
 10
272.7903071236
 20
263.9082899178
 30
0.0
 10
273.1695598114
 20
263.827326555
 30
0.0
 10
273.3595360593
 20
263.8222964587
 30
0.0
  0
SPLINE
  5
5C7
100
AcDbEntity
  8
BEZUGSACHSEN
100
AcDbSpline
 62
7
  6
CONTINUOUS
 70
0
 71
3
 72
11
 73
7
 74
0
 42
0.0000001
 43
0.0000001
 44
0.0000000001
 40
0.0
 40
0.0
 40
0.0
 40
0.0
 40
0.2434175658
 40
0.4855870502
 40
0.7360673888
 40
1.0
 40
1.0
 40
1.0
 40
1.0
 10
281.9141382141
 20
205.0729391198
 30
0.0
 10
281.9989589549
 20
205.266483406
 30
0.0
 10
282.2221696309
 20
205.6315906603
 30
0.0
 10
282.6938306493
 20
206.0719928625
 30
0.0
 10
283.2640345081
 20
206.4059609249
 30
0.0
 10
283.6829249701
 20
206.5654837765
 30
0.0
 10
283.9014449138
 20
206.6343819657
 30
0.0
  0
SPLINE
  5
5C8
100
AcDbEntity
  8
RUNDUNGEN
100
AcDbSpline
 62
7
  6
CONTINUOUS
 70
0
 71
3
 72
8
 73
4
 74
0
 42
0.0000001
 43
0.0000001
 44
0.0000000001
 40
0.0
 40
0.0
 40
0.0
 40
0.0
 40
1.0
 40
1.0
 40
1.0
 40
1.0
 10
262.6327465203
 20
310.0256102113
 30
0.0
 10
260.4741230064
 20
309.8393970655
 30
0.0
 10
258.3155238737
 20
309.6529010646
 30
0.0
 10
256.1569495944
 20
309.4661180589
 30
0.0
  0
SPLINE
  5
5C9
100
AcDbEntity
  8
KONSTRUKTIONSELEMENTE
100
AcDbSpline
 62
7
  6
CONTINUOUS
 70
0
 71
3
 72
11
 73
7
 74
0
 42
0.0000001
 43
0.0000001
 44
0.0000000001
 40
0.0
 40
0.0
 40
0.0
 40
0.0
 40
0.1900683088
 40
0.4092665164
 40
0.6760752503
 40
1.0
 40
1.0
 40
1.0
 40
1.0
 10
283.3771299929
 20
188.6527529547
 30
0.0
 10
283.3771299929
 20
188.6944126501
 30
0.0
 10
283.3981547838
 20
188.7846652521
 30
0.0
 10
283.4827712216
 20
188.9088430837
 30
0.0
 10
283.6152341763
 20
189.0285700404
 30
0.0
 10
283.7242078736
 20
189.099287528
 30
0.0
 10
283.7856229
 20
189.1349107311
 30
0.0
  0
SPLINE
  5
5CA
100
AcDbEntity
  8
KONSTRUKTIONSELEMENTE
100
AcDbSpline
 62
7
  6
CONTINUOUS
 70
0
 71
3
 72
9
 73
5
 74
0
 42
0.0000001
 43
0.0000001
 44
0.0000000001
 40
0.0
 40
0.0
 40
0.0
 40
0.0
 40
0.2500038439
 40
1.0
 40
1.0
 40
1.0
 40
1.0
 10
268.8255225048
 20
268.3483808383
 30
0.0
 10
268.5915854742
 20
268.5734314906
 30
0.0
 10
267.7261184506
 20
269.5469089019
 30
0.0
 10
267.1292807129
 20
270.7359373523
 30
0.0
 10
266.8080406152
 20
271.6552495352
 30
0.0
  0
SPLINE
  5
5CB
100
AcDbEntity
  8
KONSTRUKTIONSELEMENTE
100
AcDbSpline
 62
7
  6
CONTINUOUS
 70
0
 71
3
 72
9
 73
5
 74
0
 42
0.0000001
 43
0.0000001
 44
0.0000000001
 40
0.0
 40
0.0
 40
0.0
 40
0.0
 40
0.5003770217
 40
1.0
 40
1.0
 40
1.0
 40
1.0
 10
270.9526742079
 20
287.1569565665
 30
0.0
 10
270.5321971526
 20
286.9477482051
 30
0.0
 10
269.7231211135
 20
286.462288139
 30
0.0
 10
269.0151727887
 20
285.8356043458
 30
0.0
 10
268.6974263922
 20
285.490724588
 30
0.0
  0
SPLINE
  5
5CC
100
AcDbEntity
  8
KONSTRUKTIONSELEMENTE
100
AcDbSpline
 62
7
  6
CONTINUOUS
 70
0
 71
3
 72
9
 73
5
 74
0
 42
0.0000001
 43
0.0000001
 44
0.0000000001
 40
0.0
 40
0.0
 40
0.0
 40
0.0
 40
0.2535511062
 40
1.0
 40
1.0
 40
1.0
 40
1.0
 10
270.9526742079
 20
310.6871155613
 30
0.0
 10
270.7620777777
 20
310.6728283212
 30
0.0
 10
270.010354678
 20
310.6166791642
 30
0.0
 10
269.2585844914
 20
310.5611632348
 30
0.0
 10
268.6974263922
 20
310.5197254247
 30
0.0
  0
SPLINE
  5
5CD
100
AcDbEntity
  8
KONSTRUKTIONSELEMENTE
100
AcDbSpline
 62
7
  6
CONTINUOUS
 70
0
 71
3
 72
13
 73
9
 74
0
 42
0.0000001
 43
0.0000001
 44
0.0000000001
 40
0.0
 40
0.0
 40
0.0
 40
0.0
 40
0.2456029388
 40
0.4943630211
 40
0.6198512983
 40
0.7460214872
 40
0.8728086363
 40
1.0
 40
1.0
 40
1.0
 40
1.0
 10
268.6974263922
 20
285.490724588
 30
0.0
 10
268.3957801872
 20
285.1633198676
 30
0.0
 10
267.7993990026
 20
284.4943721103
 30
0.0
 10
267.0985532959
 20
283.614208524
 30
0.0
 10
266.5974669257
 20
282.8572038281
 30
0.0
 10
266.2724129588
 20
282.2514710744
 30
0.0
 10
266.035572066
 20
281.6007762902
 30
0.0
 10
265.9748379988
 20
281.1388846288
 30
0.0
 10
265.9748379988
 20
280.9083380562
 30
0.0
  0
SPLINE
  5
5CE
100
AcDbEntity
  8
KONSTRUKTIONSELEMENTE
100
AcDbSpline
 62
7
  6
CONTINUOUS
 70
0
 71
3
 72
9
 73
5
 74
0
 42
0.0000001
 43
0.0000001
 44
0.0000000001
 40
0.0
 40
0.0
 40
0.0
 40
0.0
 40
0.2476287001
 40
1.0
 40
1.0
 40
1.0
 40
1.0
 10
271.7439814774
 20
287.6339313578
 30
0.0
 10
271.6815717997
 20
287.5900321627
 30
0.0
 10
271.4268908064
 20
287.4166252304
 30
0.0
 10
271.1602330865
 20
287.2602274878
 30
0.0
 10
270.9526742079
 20
287.1569565665
 30
0.0
  0
SPLINE
  5
5CF
100
AcDbEntity
  8
0
100
AcDbSpline
 62
7
  6
CONTINUOUS
 70
0
 71
3
 72
11
 73
7
 74
0
 42
0.0000001
 43
0.0000001
 44
0.0000000001
 40
0.0
 40
0.0
 40
0.0
 40
0.0
 40
0.2686503872
 40
0.5227599282
 40
0.7652988631
 40
1.0
 40
1.0
 40
1.0
 40
1.0
 10
303.8443637292
 20
231.7654202845
 30
0.0
 10
303.8053087238
 20
232.2989060763
 30
0.0
 10
303.8034622017
 20
233.3444564579
 30
0.0
 10
304.0385965525
 20
234.8563651796
 30
0.0
 10
304.4934130014
 20
236.2463177005
 30
0.0
 10
304.9345279064
 20
237.093471402
 30
0.0
 10
305.1830391922
 20
237.4892326509
 30
0.0
  0
SPLINE
  5
5D0
100
AcDbEntity
  8
KONSTRUKTIONSELEMENTE
100
AcDbSpline
 62
7
  6
CONTINUOUS
 70
0
 71
3
 72
11
 73
7
 74
0
 42
0.0000001
 43
0.0000001
 44
0.0000000001
 40
0.0
 40
0.0
 40
0.0
 40
0.0
 40
0.2669863252
 40
0.5157667046
 40
0.7581852944
 40
1.0
 40
1.0
 40
1.0
 40
1.0
 10
284.2341261887
 20
154.2601459768
 30
0.0
 10
284.3728278505
 20
154.3663522354
 30
0.0
 10
284.6703526464
 20
154.5354472813
 30
0.0
 10
285.1510717945
 20
154.6712487477
 30
0.0
 10
285.6308950596
 20
154.7139478134
 30
0.0
 10
285.9481653556
 20
154.6972247063
 30
0.0
 10
286.1055245
 20
154.6807081893
 30
0.0
  0
SPLINE
  5
5D1
100
AcDbEntity
  8
KONSTRUKTIONSELEMENTE
100
AcDbSpline
 62
7
  6
CONTINUOUS
 70
0
 71
3
 72
11
 73
7
 74
0
 42
0.0000001
 43
0.0000001
 44
0.0000000001
 40
0.0
 40
0.0
 40
0.0
 40
0.0
 40
0.2502768034
 40
0.5005568726
 40
0.7507000805
 40
1.0
 40
1.0
 40
1.0
 40
1.0
 10
286.5249070708
 20
297.4506056937
 30
0.0
 10
286.4202151304
 20
297.535089778
 30
0.0
 10
286.2022191056
 20
297.6938605417
 30
0.0
 10
285.8470928179
 20
297.8885111922
 30
0.0
 10
285.4632033944
 20
298.0192363048
 30
0.0
 10
285.1935843941
 20
298.0486052922
 30
0.0
 10
285.0595827375
 20
298.0478881996
 30
0.0
  0
SPLINE
  5
5D2
100
AcDbEntity
  8
KONSTRUKTIONSELEMENTE
100
AcDbSpline
 62
7
  6
CONTINUOUS
 70
0
 71
3
 72
9
 73
5
 74
0
 42
0.0000001
 43
0.0000001
 44
0.0000000001
 40
0.0
 40
0.0
 40
0.0
 40
0.0
 40
0.2566740161
 40
1.0
 40
1.0
 40
1.0
 40
1.0
 10
282.4052992553
 20
237.3161083241
 30
0.0
 10
282.3846975016
 20
237.2682114298
 30
0.0
 10
282.3091075374
 20
237.0796471242
 30
0.0
 10
282.2530257596
 20
236.883125968
 30
0.0
 10
282.2242660907
 20
236.7348940709
 30
0.0
  0
LINE
  5
5D3
100
AcDbEntity
  8
0
100
AcDbLine
 62
7
  6
CONTINUOUS
 10
295.3771299929
 20
292.8424725686
 11
295.377129993
 21
292.254634321
  0
SPLINE
  5
5D4
100
AcDbEntity
  8
0
100
AcDbSpline
 62
7
  6
CONTINUOUS
 70
0
 71
3
 72
9
 73
5
 74
0
 42
0.0000001
 43
0.0000001
 44
0.0000000001
 40
0.0
 40
0.0
 40
0.0
 40
0.0
 40
0.5219961709
 40
1.0
 40
1.0
 40
1.0
 40
1.0
 10
306.5507216648
 20
154.2362741825
 30
0.0
 10
306.8109340196
 20
154.0292579056
 30
0.0
 10
307.2301692374
 20
153.5161649499
 30
0.0
 10
307.3771299929
 20
152.8715466573
 30
0.0
 10
307.3771299929
 20
152.5670550918
 30
0.0
  0
SPLINE
  5
5D5
100
AcDbEntity
  8
KONSTRUKTIONSELEMENTE
100
AcDbSpline
 62
7
  6
CONTINUOUS
 70
0
 71
3
 72
14
 73
10
 74
0
 42
0.0000001
 43
0.0000001
 44
0.0000000001
 40
0.0
 40
0.0
 40
0.0
 40
0.0
 40
0.1057533598
 40
0.2151559875
 40
0.3305128572
 40
0.4530397488
 40
0.7175997009
 40
0.8577743071
 40
1.0
 40
1.0
 40
1.0
 40
1.0
 10
283.3771299929
 20
183.4585915637
 30
0.0
 10
283.3771299929
 20
183.3372701119
 30
0.0
 10
283.4108060534
 20
183.0893097101
 30
0.0
 10
283.5575960505
 20
182.7357338989
 30
0.0
 10
283.7936146001
 20
182.410609541
 30
0.0
 10
284.2233078936
 20
182.0215497775
 30
0.0
 10
284.7783211095
 20
181.749003612
 30
0.0
 10
285.389611997
 20
181.6019058908
 30
0.0
 10
285.7139897243
 20
181.574849231
 30
0.0
 10
285.8771299929
 20
181.5721302375
 30
0.0
  0
SPLINE
  5
5D6
100
AcDbEntity
  8
KONSTRUKTIONSELEMENTE
100
AcDbSpline
 62
7
  6
CONTINUOUS
 70
0
 71
3
 72
11
 73
7
 74
0
 42
0.0000001
 43
0.0000001
 44
0.0000000001
 40
0.0
 40
0.0
 40
0.0
 40
0.0
 40
0.2504575584
 40
0.5007084017
 40
0.7505921717
 40
1.0
 40
1.0
 40
1.0
 40
1.0
 10
265.9748379988
 20
275.9083380562
 30
0.0
 10
265.9748379988
 20
275.5448665753
 30
0.0
 10
266.0169727614
 20
274.8176116574
 30
0.0
 10
266.195643976
 20
273.7414563675
 30
0.0
 10
266.4650832657
 20
272.6865779039
 30
0.0
 10
266.6886428323
 20
271.9969373795
 30
0.0
 10
266.8080406152
 20
271.6552495352
 30
0.0
  0
SPLINE
  5
5D7
100
AcDbEntity
  8
KONSTRUKTIONSELEMENTE
100
AcDbSpline
 62
7
  6
CONTINUOUS
 70
0
 71
3
 72
10
 73
6
 74
0
 42
0.0000001
 43
0.0000001
 44
0.0000000001
 40
0.0
 40
0.0
 40
0.0
 40
0.0
 40
0.2510571139
 40
0.5014731085
 40
1.0
 40
1.0
 40
1.0
 40
1.0
 10
268.8255225048
 20
268.3483808383
 30
0.0
 10
269.0843400153
 20
268.0993948211
 30
0.0
 10
269.576057842
 20
267.5757436874
 30
0.0
 10
270.4902736259
 20
266.4750367186
 30
0.0
 10
271.1255250604
 20
265.6111820583
 30
0.0
 10
271.5363360173
 20
265.0282490597
 30
0.0
  0
SPLINE
  5
5D8
100
AcDbEntity
  8
0
100
AcDbSpline
 62
7
  6
CONTINUOUS
 70
0
 71
3
 72
11
 73
7
 74
0
 42
0.0000001
 43
0.0000001
 44
0.0000000001
 40
0.0
 40
0.0
 40
0.0
 40
0.0
 40
0.2669863252
 40
0.5157667046
 40
0.7581852944
 40
1.0
 40
1.0
 40
1.0
 40
1.0
 10
306.5201337971
 20
154.2601459768
 30
0.0
 10
306.3814321353
 20
154.3663522354
 30
0.0
 10
306.0839073394
 20
154.5354472813
 30
0.0
 10
305.6031881913
 20
154.6712487477
 30
0.0
 10
305.1233649262
 20
154.7139478134
 30
0.0
 10
304.8060946302
 20
154.6972247063
 30
0.0
 10
304.6487354859
 20
154.6807081893
 30
0.0
  0
SPLINE
  5
5D9
100
AcDbEntity
  8
0
100
AcDbSpline
 62
7
  6
CONTINUOUS
 70
0
 71
3
 72
8
 73
4
 74
0
 42
0.0000001
 43
0.0000001
 44
0.0000000001
 40
0.0
 40
0.0
 40
0.0
 40
0.0
 40
1.0
 40
1.0
 40
1.0
 40
1.0
 10
328.1215134655
 20
310.0256102113
 30
0.0
 10
330.2801369794
 20
309.8393970655
 30
0.0
 10
332.4387361121
 20
309.6529010646
 30
0.0
 10
334.5973103914
 20
309.4661180589
 30
0.0
  0
SPLINE
  5
5DA
100
AcDbEntity
  8
KONSTRUKTIONSELEMENTE
100
AcDbSpline
 62
7
  6
CONTINUOUS
 70
0
 71
3
 72
8
 73
4
 74
0
 42
0.0000001
 43
0.0000001
 44
0.0000000001
 40
0.0
 40
0.0
 40
0.0
 40
0.0
 40
1.0
 40
1.0
 40
1.0
 40
1.0
 10
282.2219139781
 20
236.6936757224
 30
0.0
 10
282.2208167524
 20
236.7073937136
 30
0.0
 10
282.2216449306
 20
236.7213841964
 30
0.0
 10
282.2242660907
 20
236.7348940709
 30
0.0
  0
SPLINE
  5
5DB
100
AcDbEntity
  8
0
100
AcDbSpline
 62
7
  6
CONTINUOUS
 70
0
 71
3
 72
14
 73
10
 74
0
 42
0.0000001
 43
0.0000001
 44
0.0000000001
 40
0.0
 40
0.0
 40
0.0
 40
0.0
 40
0.1057533598
 40
0.2151559875
 40
0.3305128572
 40
0.4530397488
 40
0.7175997009
 40
0.8577743071
 40
1.0
 40
1.0
 40
1.0
 40
1.0
 10
307.3771299929
 20
183.4585915637
 30
0.0
 10
307.3771299929
 20
183.3372701119
 30
0.0
 10
307.3434539324
 20
183.0893097101
 30
0.0
 10
307.1966639353
 20
182.7357338989
 30
0.0
 10
306.9606453857
 20
182.410609541
 30
0.0
 10
306.5309520922
 20
182.0215497775
 30
0.0
 10
305.9759388763
 20
181.749003612
 30
0.0
 10
305.3646479888
 20
181.6019058908
 30
0.0
 10
305.0402702616
 20
181.574849231
 30
0.0
 10
304.8771299929
 20
181.5721302375
 30
0.0
  0
SPLINE
  5
5DC
100
AcDbEntity
  8
0
100
AcDbSpline
 62
7
  6
CONTINUOUS
 70
0
 71
3
 72
11
 73
7
 74
0
 42
0.0000001
 43
0.0000001
 44
0.0000000001
 40
0.0
 40
0.0
 40
0.0
 40
0.0
 40
0.2502768034
 40
0.5005568726
 40
0.7507000805
 40
1.0
 40
1.0
 40
1.0
 40
1.0
 10
304.229352915
 20
297.4506056937
 30
0.0
 10
304.3340448555
 20
297.535089778
 30
0.0
 10
304.5520408802
 20
297.6938605417
 30
0.0
 10
304.9071671679
 20
297.8885111922
 30
0.0
 10
305.2910565914
 20
298.0192363048
 30
0.0
 10
305.5606755917
 20
298.0486052922
 30
0.0
 10
305.6946772483
 20
298.0478881996
 30
0.0
  0
SPLINE
  5
5DD
100
AcDbEntity
  8
KONSTRUKTIONSELEMENTE
100
AcDbSpline
 62
7
  6
CONTINUOUS
 70
0
 71
3
 72
11
 73
7
 74
0
 42
0.0000001
 43
0.0000001
 44
0.0000000001
 40
0.0
 40
0.0
 40
0.0
 40
0.0
 40
0.2686503872
 40
0.5227599282
 40
0.7652988631
 40
1.0
 40
1.0
 40
1.0
 40
1.0
 10
286.9098962566
 20
231.7654202845
 30
0.0
 10
286.9489512621
 20
232.2989060763
 30
0.0
 10
286.9507977841
 20
233.3444564579
 30
0.0
 10
286.7156634333
 20
234.8563651796
 30
0.0
 10
286.2608469844
 20
236.2463177005
 30
0.0
 10
285.8197320794
 20
237.093471402
 30
0.0
 10
285.5712207936
 20
237.4892326509
 30
0.0
  0
SPLINE
  5
5DE
100
AcDbEntity
  8
KONSTRUKTIONSELEMENTE
100
AcDbSpline
 62
7
  6
CONTINUOUS
 70
0
 71
3
 72
19
 73
15
 74
0
 42
0.0000001
 43
0.0000001
 44
0.0000000001
 40
0.0
 40
0.0
 40
0.0
 40
0.0
 40
0.209901337
 40
0.4011886679
 40
0.5699386034
 40
0.7128879614
 40
0.7738440952
 40
0.8274441382
 40
0.8735316785
 40
0.9120517013
 40
0.9431059152
 40
0.9671230181
 40
0.985203162
 40
1.0
 40
1.0
 40
1.0
 40
1.0
 10
280.7128395634
 20
311.2837244072
 30
0.0
 10
280.960703863
 20
311.2965952666
 30
0.0
 10
281.4346333222
 20
311.3179042977
 30
0.0
 10
282.1083753081
 20
311.3358177371
 30
0.0
 10
282.7031946583
 20
311.3368561722
 30
0.0
 10
283.1437765456
 20
311.3223433546
 30
0.0
 10
283.447437797
 20
311.2992503283
 30
0.0
 10
283.6362501521
 20
311.278001761
 30
0.0
 10
283.7976788057
 20
311.2519670759
 30
0.0
 10
283.9310693011
 20
311.2212462561
 30
0.0
 10
284.036275974
 20
311.185900476
 30
0.0
 10
284.1133760395
 20
311.1458530289
 30
0.0
 10
284.164268455
 20
311.0994129758
 30
0.0
 10
284.1771198095
 20
311.0601481976
 30
0.0
 10
284.1771247292
 20
311.0426516482
 30
0.0
  0
SPLINE
  5
5DF
100
AcDbEntity
  8
KONSTRUKTIONSELEMENTE
100
AcDbSpline
 62
7
  6
CONTINUOUS
 70
0
 71
3
 72
9
 73
5
 74
0
 42
0.0000001
 43
0.0000001
 44
0.0000000001
 40
0.0
 40
0.0
 40
0.0
 40
0.0
 40
0.2571756674
 40
1.0
 40
1.0
 40
1.0
 40
1.0
 10
262.6327465203
 20
310.0256102113
 30
0.0
 10
263.1524365379
 20
310.0704411475
 30
0.0
 10
265.1733367268
 20
310.2430457996
 30
0.0
 10
267.1948737062
 20
310.4087718574
 30
0.0
 10
268.6974263922
 20
310.5197254247
 30
0.0
  0
SPLINE
  5
5E0
100
AcDbEntity
  8
0
100
AcDbSpline
 62
7
  6
CONTINUOUS
 70
0
 71
3
 72
9
 73
5
 74
0
 42
0.0000001
 43
0.0000001
 44
0.0000000001
 40
0.0
 40
0.0
 40
0.0
 40
0.0
 40
0.5003770217
 40
1.0
 40
1.0
 40
1.0
 40
1.0
 10
319.8015857779
 20
287.1569565665
 30
0.0
 10
320.2220628332
 20
286.9477482051
 30
0.0
 10
321.0311388723
 20
286.462288139
 30
0.0
 10
321.7390871971
 20
285.8356043458
 30
0.0
 10
322.0568335937
 20
285.490724588
 30
0.0
  0
SPLINE
  5
5E1
100
AcDbEntity
  8
0
100
AcDbSpline
 62
7
  6
CONTINUOUS
 70
0
 71
3
 72
9
 73
5
 74
0
 42
0.0000001
 43
0.0000001
 44
0.0000000001
 40
0.0
 40
0.0
 40
0.0
 40
0.0
 40
0.2535511062
 40
1.0
 40
1.0
 40
1.0
 40
1.0
 10
319.8015857779
 20
310.6871155613
 30
0.0
 10
319.9921822081
 20
310.6728283212
 30
0.0
 10
320.7439053079
 20
310.6166791642
 30
0.0
 10
321.4956754944
 20
310.5611632348
 30
0.0
 10
322.0568335937
 20
310.5197254247
 30
0.0
  0
SPLINE
  5
5E2
100
AcDbEntity
  8
0
100
AcDbSpline
 62
7
  6
CONTINUOUS
 70
0
 71
3
 72
9
 73
5
 74
0
 42
0.0000001
 43
0.0000001
 44
0.0000000001
 40
0.0
 40
0.0
 40
0.0
 40
0.0
 40
0.2500038439
 40
1.0
 40
1.0
 40
1.0
 40
1.0
 10
321.928737481
 20
268.3483808383
 30
0.0
 10
322.1626745116
 20
268.5734314906
 30
0.0
 10
323.0281415352
 20
269.5469089019
 30
0.0
 10
323.6249792729
 20
270.7359373523
 30
0.0
 10
323.9462193706
 20
271.6552495352
 30
0.0
  0
LINE
  5
5E3
100
AcDbEntity
  8
0
100
AcDbLine
 62
7
  6
CONTINUOUS
 10
295.3771299929
 20
298.6999572827
 11
295.3771299929
 21
297.4496476261
  0
SPLINE
  5
5E4
100
AcDbEntity
  8
0
100
AcDbSpline
 62
7
  6
CONTINUOUS
 70
0
 71
3
 72
11
 73
7
 74
0
 42
0.0000001
 43
0.0000001
 44
0.0000000001
 40
0.0
 40
0.0
 40
0.0
 40
0.0
 40
0.1900683088
 40
0.4092665164
 40
0.6760752503
 40
1.0
 40
1.0
 40
1.0
 40
1.0
 10
307.3771299929
 20
188.6527529547
 30
0.0
 10
307.3771299929
 20
188.6944126501
 30
0.0
 10
307.356105202
 20
188.7846652521
 30
0.0
 10
307.2714887642
 20
188.9088430837
 30
0.0
 10
307.1390258095
 20
189.0285700404
 30
0.0
 10
307.0300521122
 20
189.099287528
 30
0.0
 10
306.9686370859
 20
189.1349107311
 30
0.0
  0
SPLINE
  5
5E5
100
AcDbEntity
  8
0
100
AcDbSpline
 62
7
  6
CONTINUOUS
 70
0
 71
3
 72
11
 73
7
 74
0
 42
0.0000001
 43
0.0000001
 44
0.0000000001
 40
0.0
 40
0.0
 40
0.0
 40
0.0
 40
0.2486701616
 40
0.4977361733
 40
0.7479333073
 40
1.0
 40
1.0
 40
1.0
 40
1.0
 10
319.2179239685
 20
265.0282490597
 30
0.0
 10
319.1099240164
 20
264.8749991649
 30
0.0
 10
318.8761561405
 20
264.5799115705
 30
0.0
 10
318.4595745648
 20
264.1952864962
 30
0.0
 10
317.9639528622
 20
263.9082899178
 30
0.0
 10
317.5847001744
 20
263.827326555
 30
0.0
 10
317.3947239265
 20
263.8222964587
 30
0.0
  0
SPLINE
  5
5E6
100
AcDbEntity
  8
KONSTRUKTIONSELEMENTE
100
AcDbSpline
 62
7
  6
CONTINUOUS
 70
0
 71
3
 72
9
 73
5
 74
0
 42
0.0000001
 43
0.0000001
 44
0.0000000001
 40
0.0
 40
0.0
 40
0.0
 40
0.0
 40
0.5219961709
 40
1.0
 40
1.0
 40
1.0
 40
1.0
 10
284.203538321
 20
154.2362741825
 30
0.0
 10
283.9433259662
 20
154.0292579056
 30
0.0
 10
283.5240907484
 20
153.5161649499
 30
0.0
 10
283.3771299929
 20
152.8715466573
 30
0.0
 10
283.3771299929
 20
152.5670550918
 30
0.0
  0
SPLINE
  5
5E7
100
AcDbEntity
  8
0
100
AcDbSpline
 62
7
  6
CONTINUOUS
 70
0
 71
3
 72
8
 73
4
 74
0
 42
0.0000001
 43
0.0000001
 44
0.0000000001
 40
0.0
 40
0.0
 40
0.0
 40
0.0
 40
1.0
 40
1.0
 40
1.0
 40
1.0
 10
122.9571473507
 20
58.5819949794
 30
0.0
 10
122.8259390683
 20
58.5204769592
 30
0.0
 10
122.6777154892
 20
58.4874895618
 30
0.0
 10
122.5328014452
 20
58.4874895618
 30
0.0
  0
SPLINE
  5
5E8
100
AcDbEntity
  8
0
100
AcDbSpline
 62
7
  6
CONTINUOUS
 70
0
 71
3
 72
9
 73
5
 74
0
 42
0.0000001
 43
0.0000001
 44
0.0000000001
 40
0.0
 40
0.0
 40
0.0
 40
0.0
 40
0.2461806271
 40
1.0
 40
1.0
 40
1.0
 40
1.0
 10
117.5752666982
 20
52.3271837919
 30
0.0
 10
117.4861599724
 20
52.3393825698
 30
0.0
 10
117.1250937028
 20
52.3953247634
 30
0.0
 10
116.767987328
 20
52.4761341344
 30
0.0
 10
116.5024416949
 20
52.5491265701
 30
0.0
  0
SPLINE
  5
5E9
100
AcDbEntity
  8
0
100
AcDbSpline
 62
7
  6
CONTINUOUS
 70
0
 71
3
 72
12
 73
8
 74
0
 42
0.0000001
 43
0.0000001
 44
0.0000000001
 40
0.0
 40
0.0
 40
0.0
 40
0.0
 40
0.1085833304
 40
0.2201594841
 40
0.4579795042
 40
0.7207844644
 40
1.0
 40
1.0
 40
1.0
 40
1.0
 10
106.0338199008
 20
64.4874895618
 30
0.0
 10
106.1090978783
 20
64.4874895618
 30
0.0
 10
106.2623882468
 20
64.5076104523
 30
0.0
 10
106.5598695264
 20
64.6265192031
 30
0.0
 10
106.8841935099
 20
64.9219709136
 30
0.0
 10
107.1270896827
 20
65.4154356252
 30
0.0
 10
107.1828865655
 20
65.7939167481
 30
0.0
 10
107.1828865655
 20
65.9874895618
 30
0.0
  0
SPLINE
  5
5EA
100
AcDbEntity
  8
BEZUGSACHSEN
100
AcDbSpline
 62
7
  6
CONTINUOUS
 70
0
 71
3
 72
8
 73
4
 74
0
 42
0.0000001
 43
0.0000001
 44
0.0000000001
 40
0.0
 40
0.0
 40
0.0
 40
0.0
 40
1.0
 40
1.0
 40
1.0
 40
1.0
 10
122.9571473507
 20
78.3929841443
 30
0.0
 10
122.8259390683
 20
78.4545021645
 30
0.0
 10
122.6777154892
 20
78.4874895618
 30
0.0
 10
122.5328014452
 20
78.4874895618
 30
0.0
  0
SPLINE
  5
5EB
100
AcDbEntity
  8
KONSTRUKTIONSELEMENTE
100
AcDbSpline
 62
7
  6
CONTINUOUS
 70
0
 71
3
 72
9
 73
5
 74
0
 42
0.0000001
 43
0.0000001
 44
0.0000000001
 40
0.0
 40
0.0
 40
0.0
 40
0.0
 40
0.2461806271
 40
1.0
 40
1.0
 40
1.0
 40
1.0
 10
117.5752666982
 20
84.6477953318
 30
0.0
 10
117.4861599724
 20
84.6355965539
 30
0.0
 10
117.1250937028
 20
84.5796543603
 30
0.0
 10
116.767987328
 20
84.4988449893
 30
0.0
 10
116.5024416949
 20
84.4258525535
 30
0.0
  0
SPLINE
  5
5EC
100
AcDbEntity
  8
0
100
AcDbSpline
 62
7
  6
CONTINUOUS
 70
0
 71
3
 72
9
 73
5
 74
0
 42
0.0000001
 43
0.0000001
 44
0.0000000001
 40
0.0
 40
0.0
 40
0.0
 40
0.0
 40
0.5238975792
 40
1.0
 40
1.0
 40
1.0
 40
1.0
 10
101.9877110863
 20
56.6638261414
 30
0.0
 10
102.0555124604
 20
56.8918960897
 30
0.0
 10
102.2497657284
 20
57.3120408836
 30
0.0
 10
102.5838288529
 20
57.6404358512
 30
0.0
 10
102.768528331
 20
57.7528663791
 30
0.0
  0
SPLINE
  5
5ED
100
AcDbEntity
  8
0
100
AcDbSpline
 62
7
  6
CONTINUOUS
 70
0
 71
3
 72
11
 73
7
 74
0
 42
0.0000001
 43
0.0000001
 44
0.0000000001
 40
0.0
 40
0.0
 40
0.0
 40
0.0
 40
0.2271084234
 40
0.4718306461
 40
0.7316261264
 40
1.0
 40
1.0
 40
1.0
 40
1.0
 10
104.8988566329
 20
59.0496428396
 30
0.0
 10
105.3058424986
 20
59.2973838521
 30
0.0
 10
106.0662064673
 20
59.9597240612
 30
0.0
 10
106.9050203192
 20
61.2646008543
 30
0.0
 10
107.4333894443
 20
62.8124675168
 30
0.0
 10
107.5526570658
 20
63.9244583693
 30
0.0
 10
107.5526570658
 20
64.4874895618
 30
0.0
  0
SPLINE
  5
5EE
100
AcDbEntity
  8
KONSTRUKTIONSELEMENTE
100
AcDbSpline
 62
7
  6
CONTINUOUS
 70
0
 71
3
 72
11
 73
7
 74
0
 42
0.0000001
 43
0.0000001
 44
0.0000000001
 40
0.0
 40
0.0
 40
0.0
 40
0.0
 40
0.2271084234
 40
0.4718306461
 40
0.7316261264
 40
1.0
 40
1.0
 40
1.0
 40
1.0
 10
104.8988566329
 20
77.9253362841
 30
0.0
 10
105.3058424986
 20
77.6775952716
 30
0.0
 10
106.0662064673
 20
77.0152550625
 30
0.0
 10
106.9050203192
 20
75.7103782694
 30
0.0
 10
107.4333894443
 20
74.1625116069
 30
0.0
 10
107.5526570658
 20
73.0505207543
 30
0.0
 10
107.5526570658
 20
72.4874895618
 30
0.0
  0
SPLINE
  5
5EF
100
AcDbEntity
  8
AUSFORMSCHRAEGEN
100
AcDbSpline
 62
7
  6
CONTINUOUS
 70
0
 71
3
 72
9
 73
5
 74
0
 42
0.0000001
 43
0.0000001
 44
0.0000000001
 40
0.0
 40
0.0
 40
0.0
 40
0.0
 40
0.5238975792
 40
1.0
 40
1.0
 40
1.0
 40
1.0
 10
101.9877110863
 20
80.3111529823
 30
0.0
 10
102.0555124604
 20
80.083083034
 30
0.0
 10
102.2497657284
 20
79.6629382401
 30
0.0
 10
102.5838288529
 20
79.3345432724
 30
0.0
 10
102.768528331
 20
79.2221127446
 30
0.0
  0
SPLINE
  5
5F0
100
AcDbEntity
  8
KONSTRUKTIONSELEMENTE
100
AcDbSpline
 62
7
  6
CONTINUOUS
 70
0
 71
3
 72
12
 73
8
 74
0
 42
0.0000001
 43
0.0000001
 44
0.0000000001
 40
0.0
 40
0.0
 40
0.0
 40
0.0
 40
0.1085833304
 40
0.2201594841
 40
0.4579795042
 40
0.7207844644
 40
1.0
 40
1.0
 40
1.0
 40
1.0
 10
106.0338199008
 20
72.4874895618
 30
0.0
 10
106.1090978783
 20
72.4874895618
 30
0.0
 10
106.2623882468
 20
72.4673686713
 30
0.0
 10
106.5598695264
 20
72.3484599205
 30
0.0
 10
106.8841935099
 20
72.0530082101
 30
0.0
 10
107.1270896827
 20
71.5595434984
 30
0.0
 10
107.1828865655
 20
71.1810623755
 30
0.0
 10
107.1828865655
 20
70.9874895618
 30
0.0
  0
SPLINE
  5
5F1
100
AcDbEntity
  8
AUSFORMSCHRAEGEN
100
AcDbSpline
 62
7
  6
CONTINUOUS
 70
0
 71
3
 72
21
 73
17
 74
0
 42
0.0000001
 43
0.0000001
 44
0.0000000001
 40
0.0
 40
0.0
 40
0.0
 40
0.0
 40
0.1404617815
 40
0.2082705572
 40
0.2734613273
 40
0.3357095722
 40
0.3950474009
 40
0.4519061149
 40
0.5071081342
 40
0.561777634
 40
0.6171399837
 40
0.6742841083
 40
0.7339897409
 40
0.7966402397
 40
0.8622169288
 40
1.0
 40
1.0
 40
1.0
 40
1.0
 10
126.3380343445
 20
84.4625575807
 30
0.0
 10
126.2904461766
 20
83.2172869518
 30
0.0
 10
125.9671027322
 20
81.3645816889
 30
0.0
 10
125.032073704
 20
79.1183113557
 30
0.0
 10
124.1195919429
 20
77.6361948563
 30
0.0
 10
123.0158629006
 20
76.3882392823
 30
0.0
 10
121.7535410995
 20
75.4153523913
 30
0.0
 10
120.3714220521
 20
74.7526478699
 30
0.0
 10
118.9148691667
 20
74.4263747388
 30
0.0
 10
117.4352504114
 20
74.4508412842
 30
0.0
 10
115.9862720958
 20
74.8247953113
 30
0.0
 10
114.6185177413
 20
75.5320811212
 30
0.0
 10
113.3762781401
 20
76.5448130615
 30
0.0
 10
112.2970781517
 20
77.8278890698
 30
0.0
 10
111.1006832022
 20
79.8715809325
 30
0.0
 10
110.568666671
 20
81.6320641501
 30
0.0
 10
110.3760630493
 20
82.839209496
 30
0.0
  0
SPLINE
  5
5F2
100
AcDbEntity
  8
BEZUGSACHSEN
100
AcDbSpline
 62
7
  6
CONTINUOUS
 70
0
 71
3
 72
14
 73
10
 74
0
 42
0.0000001
 43
0.0000001
 44
0.0000000001
 40
0.0
 40
0.0
 40
0.0
 40
0.0
 40
0.238444498
 40
0.3757444344
 40
0.5168171902
 40
0.6543369044
 40
0.7819807074
 40
0.8965397012
 40
1.0
 40
1.0
 40
1.0
 40
1.0
 10
118.9986695269
 20
76.5268263378
 30
0.0
 10
119.1807321377
 20
76.5268263378
 30
0.0
 10
119.4666816897
 20
76.6519057919
 30
0.0
 10
119.7484199657
 20
76.9284333123
 30
0.0
 10
119.9218173878
 20
77.198558914
 30
0.0
 10
120.0259972641
 20
77.4936850417
 30
0.0
 10
120.0513817335
 20
77.7862547414
 30
0.0
 10
119.9929498109
 20
78.0487947245
 30
0.0
 10
119.8933442527
 20
78.1897607654
 30
0.0
 10
119.8338166967
 20
78.241692433
 30
0.0
  0
SPLINE
  5
5F3
100
AcDbEntity
  8
BEZUGSACHSEN
100
AcDbSpline
 62
7
  6
CONTINUOUS
 70
0
 71
3
 72
9
 73
5
 74
0
 42
0.0000001
 43
0.0000001
 44
0.0000000001
 40
0.0
 40
0.0
 40
0.0
 40
0.0
 40
0.2439884701
 40
1.0
 40
1.0
 40
1.0
 40
1.0
 10
121.4524359101
 20
79.4907383284
 30
0.0
 10
121.4629363137
 20
79.4908901443
 30
0.0
 10
121.5059463957
 20
79.4929744904
 30
0.0
 10
121.5486209179
 20
79.5007670531
 30
0.0
 10
121.5800216618
 20
79.509299959
 30
0.0
  0
SPLINE
  5
5F4
100
AcDbEntity
  8
BEZUGSACHSEN
100
AcDbSpline
 62
7
  6
CONTINUOUS
 70
0
 71
3
 72
14
 73
10
 74
0
 42
0.0000001
 43
0.0000001
 44
0.0000000001
 40
0.0
 40
0.0
 40
0.0
 40
0.0
 40
0.2351013099
 40
0.3737730794
 40
0.517288941
 40
0.6572910404
 40
0.7862943606
 40
0.9000210733
 40
1.0
 40
1.0
 40
1.0
 40
1.0
 10
121.5800216618
 20
79.509299959
 30
0.0
 10
121.7489046213
 20
79.5551925785
 30
0.0
 10
121.9815248969
 20
79.7488522031
 30
0.0
 10
122.1780527117
 20
80.0792209759
 30
0.0
 10
122.2798698438
 20
80.3798654532
 30
0.0
 10
122.3145359745
 20
80.6873276505
 30
0.0
 10
122.2790336263
 20
80.9732628869
 30
0.0
 10
122.1748663835
 20
81.2110635423
 30
0.0
 10
122.0553057349
 20
81.3252057604
 30
0.0
 10
121.9902843055
 20
81.3614143766
 30
0.0
  0
SPLINE
  5
5F5
100
AcDbEntity
  8
BEZUGSACHSEN
100
AcDbSpline
 62
7
  6
CONTINUOUS
 70
0
 71
3
 72
17
 73
13
 74
0
 42
0.0000001
 43
0.0000001
 44
0.0000000001
 40
0.0
 40
0.0
 40
0.0
 40
0.0
 40
0.105255736
 40
0.2349109639
 40
0.3823872241
 40
0.5359940139
 40
0.6825700061
 40
0.810637064
 40
0.8657110746
 40
0.9147193193
 40
0.9587396314
 40
1.0
 40
1.0
 40
1.0
 40
1.0
 10
122.2737489485
 20
76.5722958109
 30
0.0
 10
122.3520271599
 20
76.5848716863
 30
0.0
 10
122.5183451193
 20
76.6601235866
 30
0.0
 10
122.7355316111
 20
76.8524647199
 30
0.0
 10
122.929413689
 20
77.1153461732
 30
0.0
 10
123.0776541831
 20
77.420279619
 30
0.0
 10
123.1640542394
 20
77.7328589922
 30
0.0
 10
123.1776328588
 20
77.9842421531
 30
0.0
 10
123.1441498333
 20
78.1567728574
 30
0.0
 10
123.1010691911
 20
78.2607281038
 30
0.0
 10
123.0391463081
 20
78.3423598289
 30
0.0
 10
122.9852959083
 20
78.3798111388
 30
0.0
 10
122.9571510402
 20
78.3929924599
 30
0.0
  0
SPLINE
  5
5F6
100
AcDbEntity
  8
BEZUGSACHSEN
100
AcDbSpline
 62
7
  6
CONTINUOUS
 70
0
 71
3
 72
17
 73
13
 74
0
 42
0.0000001
 43
0.0000001
 44
0.0000000001
 40
0.0
 40
0.0
 40
0.0
 40
0.0
 40
0.0849634454
 40
0.1386967202
 40
0.2001834099
 40
0.3428017351
 40
0.5011437512
 40
0.6592824745
 40
0.8013097753
 40
0.8624132453
 40
0.9157023137
 40
1.0
 40
1.0
 40
1.0
 40
1.0
 10
124.3263426269
 20
79.4875391028
 30
0.0
 10
124.3885303414
 20
79.488030378
 30
0.0
 10
124.4882793954
 20
79.5323586417
 30
0.0
 10
124.5983017624
 20
79.628295337
 30
0.0
 10
124.7205827197
 20
79.7733549155
 30
0.0
 10
124.8508055316
 20
80.0067777203
 30
0.0
 10
124.9623914044
 20
80.3252303268
 30
0.0
 10
125.0216705794
 20
80.656973793
 30
0.0
 10
125.0227927733
 20
80.9234370111
 30
0.0
 10
124.9872041836
 20
81.1087473658
 30
0.0
 10
124.9382481803
 20
81.2451204288
 30
0.0
 10
124.8726414054
 20
81.3314947986
 30
0.0
 10
124.8187102936
 20
81.3614717041
 30
0.0
  0
SPLINE
  5
5F7
100
AcDbEntity
  8
BEZUGSACHSEN
100
AcDbSpline
 62
7
  6
CONTINUOUS
 70
0
 71
3
 72
15
 73
11
 74
0
 42
0.0000001
 43
0.0000001
 44
0.0000000001
 40
0.0
 40
0.0
 40
0.0
 40
0.0
 40
0.1158966389
 40
0.2395538158
 40
0.3700824384
 40
0.5042769619
 40
0.6376081869
 40
0.7658505762
 40
0.8865122822
 40
1.0
 40
1.0
 40
1.0
 40
1.0
 10
117.7754225831
 20
79.4907383284
 30
0.0
 10
117.8673405172
 20
79.4896578962
 30
0.0
 10
118.0589512356
 20
79.5251304915
 30
0.0
 10
118.3177119696
 20
79.6730684066
 30
0.0
 10
118.5324139552
 20
79.899604245
 30
0.0
 10
118.6828769584
 20
80.181310462
 30
0.0
 10
118.7547865739
 20
80.490699946
 30
0.0
 10
118.7405211786
 20
80.7978100608
 30
0.0
 10
118.6399277208
 20
81.0722915821
 30
0.0
 10
118.5163094689
 20
81.2176972397
 30
0.0
 10
118.4455713312
 20
81.2733620352
 30
0.0
  0
SPLINE
  5
5F8
100
AcDbEntity
  8
BEZUGSACHSEN
100
AcDbSpline
 62
7
  6
CONTINUOUS
 70
0
 71
3
 72
15
 73
11
 74
0
 42
0.0000001
 43
0.0000001
 44
0.0000000001
 40
0.0
 40
0.0
 40
0.0
 40
0.0
 40
0.1223754682
 40
0.2513226558
 40
0.3843154142
 40
0.5176038166
 40
0.6472575562
 40
0.7706059647
 40
0.8873477439
 40
1.0
 40
1.0
 40
1.0
 40
1.0
 10
114.9197222946
 20
76.5722958109
 30
0.0
 10
115.0177181639
 20
76.5615786784
 30
0.0
 10
115.2239683956
 20
76.5754741474
 30
0.0
 10
115.5160294807
 20
76.6899803088
 30
0.0
 10
115.7722315516
 20
76.8856824386
 30
0.0
 10
115.9674735945
 20
77.1428202869
 30
0.0
 10
116.0824532732
 20
77.4365702069
 30
0.0
 10
116.1044551656
 20
77.738726738
 30
0.0
 10
116.0285299561
 20
78.018646422
 30
0.0
 10
115.9144487055
 20
78.1708683112
 30
0.0
 10
115.8469294695
 20
78.231500607
 30
0.0
  0
SPLINE
  5
5F9
100
AcDbEntity
  8
BEZUGSACHSEN
100
AcDbSpline
 62
7
  6
CONTINUOUS
 70
0
 71
3
 72
11
 73
7
 74
0
 42
0.0000001
 43
0.0000001
 44
0.0000000001
 40
0.0
 40
0.0
 40
0.0
 40
0.0
 40
0.2467744327
 40
0.5004628082
 40
0.7538811967
 40
1.0
 40
1.0
 40
1.0
 40
1.0
 10
113.295302646
 20
79.4875391028
 30
0.0
 10
113.4475187906
 20
79.4869438835
 30
0.0
 10
113.7605497195
 20
79.5663778823
 30
0.0
 10
114.123527415
 20
79.8810219125
 30
0.0
 10
114.3175623455
 20
80.3200169094
 30
0.0
 10
114.3013020091
 20
80.6420702445
 30
0.0
 10
114.2557989004
 20
80.7869033316
 30
0.0
  0
SPLINE
  5
5FA
100
AcDbEntity
  8
KONSTRUKTIONSELEMENTE
100
AcDbSpline
 62
7
  6
CONTINUOUS
 70
0
 71
3
 72
9
 73
5
 74
0
 42
0.0000001
 43
0.0000001
 44
0.0000000001
 40
0.0
 40
0.0
 40
0.0
 40
0.0
 40
0.2466068512
 40
1.0
 40
1.0
 40
1.0
 40
1.0
 10
118.4607956825
 20
84.7144675796
 30
0.0
 10
118.3877750493
 20
84.7136304237
 30
0.0
 10
118.0917419179
 20
84.7053761118
 30
0.0
 10
117.7963004505
 20
84.678055019
 30
0.0
 10
117.5752666982
 20
84.6477953318
 30
0.0
  0
SPLINE
  5
5FB
100
AcDbEntity
  8
0
100
AcDbSpline
 62
7
  6
CONTINUOUS
 70
0
 71
3
 72
11
 73
7
 74
0
 42
0.0000001
 43
0.0000001
 44
0.0000000001
 40
0.0
 40
0.0
 40
0.0
 40
0.0
 40
0.3244592883
 40
0.6025656671
 40
0.8291023759
 40
1.0
 40
1.0
 40
1.0
 40
1.0
 10
120.2045337627
 20
52.250106406
 30
0.0
 10
120.8689023382
 20
52.250106406
 30
0.0
 10
122.1027446541
 20
52.2590981997
 30
0.0
 10
123.8000254462
 20
52.3052306324
 30
0.0
 10
125.1812096097
 20
52.3819244241
 30
0.0
 10
125.9918678213
 20
52.4612176328
 30
0.0
 10
126.3380343445
 20
52.512421543
 30
0.0
  0
SPLINE
  5
5FC
100
AcDbEntity
  8
BEZUGSACHSEN
100
AcDbSpline
 62
7
  6
CONTINUOUS
 70
0
 71
3
 72
9
 73
5
 74
0
 42
0.0000001
 43
0.0000001
 44
0.0000000001
 40
0.0
 40
0.0
 40
0.0
 40
0.0
 40
0.4927761856
 40
1.0
 40
1.0
 40
1.0
 40
1.0
 10
114.463152811
 20
76.7890230669
 30
0.0
 10
114.5219726652
 20
76.7286714877
 30
0.0
 10
114.6649748219
 20
76.6274424599
 30
0.0
 10
114.833491731
 20
76.581726253
 30
0.0
 10
114.9197222946
 20
76.5722958109
 30
0.0
  0
SPLINE
  5
5FD
100
AcDbEntity
  8
AUSFORMSCHRAEGEN
100
AcDbSpline
 62
7
  6
CONTINUOUS
 70
0
 71
3
 72
11
 73
7
 74
0
 42
0.0000001
 43
0.0000001
 44
0.0000000001
 40
0.0
 40
0.0
 40
0.0
 40
0.0
 40
0.3244592883
 40
0.6025656671
 40
0.8291023759
 40
1.0
 40
1.0
 40
1.0
 40
1.0
 10
120.2045337627
 20
84.7248727177
 30
0.0
 10
120.8689023382
 20
84.7248727177
 30
0.0
 10
122.1027446541
 20
84.715880924
 30
0.0
 10
123.8000254462
 20
84.6697484913
 30
0.0
 10
125.1812096097
 20
84.5930546996
 30
0.0
 10
125.9918678213
 20
84.5137614909
 30
0.0
 10
126.3380343445
 20
84.4625575807
 30
0.0
  0
SPLINE
  5
5FE
100
AcDbEntity
  8
0
100
AcDbSpline
 62
7
  6
CONTINUOUS
 70
0
 71
3
 72
21
 73
17
 74
0
 42
0.0000001
 43
0.0000001
 44
0.0000000001
 40
0.0
 40
0.0
 40
0.0
 40
0.0
 40
0.1404617815
 40
0.2082705572
 40
0.2734613273
 40
0.3357095722
 40
0.3950474009
 40
0.4519061149
 40
0.5071081342
 40
0.561777634
 40
0.6171399837
 40
0.6742841083
 40
0.7339897409
 40
0.7966402397
 40
0.8622169288
 40
1.0
 40
1.0
 40
1.0
 40
1.0
 10
126.3380343445
 20
52.512421543
 30
0.0
 10
126.2904461766
 20
53.7576921718
 30
0.0
 10
125.9671027322
 20
55.6103974348
 30
0.0
 10
125.032073704
 20
57.856667768
 30
0.0
 10
124.1195919429
 20
59.3387842674
 30
0.0
 10
123.0158629006
 20
60.5867398413
 30
0.0
 10
121.7535410995
 20
61.5596267323
 30
0.0
 10
120.3714220521
 20
62.2223312538
 30
0.0
 10
118.9148691667
 20
62.5486043849
 30
0.0
 10
117.4352504114
 20
62.5241378395
 30
0.0
 10
115.9862720958
 20
62.1501838124
 30
0.0
 10
114.6185177413
 20
61.4428980025
 30
0.0
 10
113.3762781401
 20
60.4301660621
 30
0.0
 10
112.2970781517
 20
59.1470900539
 30
0.0
 10
111.1006832022
 20
57.1033981911
 30
0.0
 10
110.568666671
 20
55.3429149736
 30
0.0
 10
110.3760630493
 20
54.1357696277
 30
0.0
  0
SPLINE
  5
5FF
100
AcDbEntity
  8
0
100
AcDbSpline
 62
7
  6
CONTINUOUS
 70
0
 71
3
 72
14
 73
10
 74
0
 42
0.0000001
 43
0.0000001
 44
0.0000000001
 40
0.0
 40
0.0
 40
0.0
 40
0.0
 40
0.238444498
 40
0.3757444344
 40
0.5168171902
 40
0.6543369044
 40
0.7819807074
 40
0.8965397012
 40
1.0
 40
1.0
 40
1.0
 40
1.0
 10
118.9986695269
 20
60.4481527859
 30
0.0
 10
119.1807321377
 20
60.4481527859
 30
0.0
 10
119.4666816897
 20
60.3230733318
 30
0.0
 10
119.7484199657
 20
60.0465458114
 30
0.0
 10
119.9218173878
 20
59.7764202097
 30
0.0
 10
120.0259972641
 20
59.481294082
 30
0.0
 10
120.0513817335
 20
59.1887243823
 30
0.0
 10
119.9929498109
 20
58.9261843991
 30
0.0
 10
119.8933442527
 20
58.7852183582
 30
0.0
 10
119.8338166967
 20
58.7332866907
 30
0.0
  0
SPLINE
  5
600
100
AcDbEntity
  8
0
100
AcDbSpline
 62
7
  6
CONTINUOUS
 70
0
 71
3
 72
9
 73
5
 74
0
 42
0.0000001
 43
0.0000001
 44
0.0000000001
 40
0.0
 40
0.0
 40
0.0
 40
0.0
 40
0.2439884701
 40
1.0
 40
1.0
 40
1.0
 40
1.0
 10
121.4524359101
 20
57.4842407952
 30
0.0
 10
121.4629363137
 20
57.4840889794
 30
0.0
 10
121.5059463957
 20
57.4820046333
 30
0.0
 10
121.5486209179
 20
57.4742120705
 30
0.0
 10
121.5800216618
 20
57.4656791647
 30
0.0
  0
SPLINE
  5
601
100
AcDbEntity
  8
0
100
AcDbSpline
 62
7
  6
CONTINUOUS
 70
0
 71
3
 72
14
 73
10
 74
0
 42
0.0000001
 43
0.0000001
 44
0.0000000001
 40
0.0
 40
0.0
 40
0.0
 40
0.0
 40
0.2351013099
 40
0.3737730794
 40
0.517288941
 40
0.6572910404
 40
0.7862943606
 40
0.9000210733
 40
1.0
 40
1.0
 40
1.0
 40
1.0
 10
121.5800216618
 20
57.4656791647
 30
0.0
 10
121.7489046213
 20
57.4197865451
 30
0.0
 10
121.9815248969
 20
57.2261269206
 30
0.0
 10
122.1780527117
 20
56.8957581478
 30
0.0
 10
122.2798698438
 20
56.5951136705
 30
0.0
 10
122.3145359745
 20
56.2876514731
 30
0.0
 10
122.2790336263
 20
56.0017162368
 30
0.0
 10
122.1748663835
 20
55.7639155813
 30
0.0
 10
122.0553057349
 20
55.6497733633
 30
0.0
 10
121.9902843055
 20
55.6135647471
 30
0.0
  0
SPLINE
  5
602
100
AcDbEntity
  8
0
100
AcDbSpline
 62
7
  6
CONTINUOUS
 70
0
 71
3
 72
17
 73
13
 74
0
 42
0.0000001
 43
0.0000001
 44
0.0000000001
 40
0.0
 40
0.0
 40
0.0
 40
0.0
 40
0.105255736
 40
0.2349109639
 40
0.3823872241
 40
0.5359940139
 40
0.6825700061
 40
0.810637064
 40
0.8657110746
 40
0.9147193193
 40
0.9587396314
 40
1.0
 40
1.0
 40
1.0
 40
1.0
 10
122.2737489485
 20
60.4026833128
 30
0.0
 10
122.3520271599
 20
60.3901074373
 30
0.0
 10
122.5183451193
 20
60.3148555371
 30
0.0
 10
122.7355316111
 20
60.1225144037
 30
0.0
 10
122.929413689
 20
59.8596329504
 30
0.0
 10
123.0776541831
 20
59.5546995047
 30
0.0
 10
123.1640542394
 20
59.2421201315
 30
0.0
 10
123.1776328588
 20
58.9907369706
 30
0.0
 10
123.1441498333
 20
58.8182062662
 30
0.0
 10
123.1010691911
 20
58.7142510199
 30
0.0
 10
123.0391463081
 20
58.6326192948
 30
0.0
 10
122.9852959083
 20
58.5951679849
 30
0.0
 10
122.9571510402
 20
58.5819866638
 30
0.0
  0
SPLINE
  5
603
100
AcDbEntity
  8
0
100
AcDbSpline
 62
7
  6
CONTINUOUS
 70
0
 71
3
 72
17
 73
13
 74
0
 42
0.0000001
 43
0.0000001
 44
0.0000000001
 40
0.0
 40
0.0
 40
0.0
 40
0.0
 40
0.0849634454
 40
0.1386967202
 40
0.2001834099
 40
0.3428017351
 40
0.5011437512
 40
0.6592824745
 40
0.8013097753
 40
0.8624132453
 40
0.9157023137
 40
1.0
 40
1.0
 40
1.0
 40
1.0
 10
124.3263426269
 20
57.4874400208
 30
0.0
 10
124.3885303414
 20
57.4869487457
 30
0.0
 10
124.4882793954
 20
57.4426204819
 30
0.0
 10
124.5983017624
 20
57.3466837867
 30
0.0
 10
124.7205827197
 20
57.2016242082
 30
0.0
 10
124.8508055316
 20
56.9682014034
 30
0.0
 10
124.9623914044
 20
56.6497487969
 30
0.0
 10
125.0216705794
 20
56.3180053306
 30
0.0
 10
125.0227927733
 20
56.0515421125
 30
0.0
 10
124.9872041836
 20
55.8662317578
 30
0.0
 10
124.9382481803
 20
55.7298586949
 30
0.0
 10
124.8726414054
 20
55.643484325
 30
0.0
 10
124.8187102936
 20
55.6135074196
 30
0.0
  0
SPLINE
  5
604
100
AcDbEntity
  8
0
100
AcDbSpline
 62
7
  6
CONTINUOUS
 70
0
 71
3
 72
15
 73
11
 74
0
 42
0.0000001
 43
0.0000001
 44
0.0000000001
 40
0.0
 40
0.0
 40
0.0
 40
0.0
 40
0.1158966389
 40
0.2395538158
 40
0.3700824384
 40
0.5042769619
 40
0.6376081869
 40
0.7658505762
 40
0.8865122822
 40
1.0
 40
1.0
 40
1.0
 40
1.0
 10
117.7754225831
 20
57.4842407952
 30
0.0
 10
117.8673405172
 20
57.4853212275
 30
0.0
 10
118.0589512356
 20
57.4498486322
 30
0.0
 10
118.3177119696
 20
57.3019107171
 30
0.0
 10
118.5324139552
 20
57.0753748787
 30
0.0
 10
118.6828769584
 20
56.7936686617
 30
0.0
 10
118.7547865739
 20
56.4842791776
 30
0.0
 10
118.7405211786
 20
56.1771690629
 30
0.0
 10
118.6399277208
 20
55.9026875416
 30
0.0
 10
118.5163094689
 20
55.757281884
 30
0.0
 10
118.4455713312
 20
55.7016170885
 30
0.0
  0
SPLINE
  5
605
100
AcDbEntity
  8
0
100
AcDbSpline
 62
7
  6
CONTINUOUS
 70
0
 71
3
 72
15
 73
11
 74
0
 42
0.0000001
 43
0.0000001
 44
0.0000000001
 40
0.0
 40
0.0
 40
0.0
 40
0.0
 40
0.1223754682
 40
0.2513226558
 40
0.3843154142
 40
0.5176038166
 40
0.6472575562
 40
0.7706059647
 40
0.8873477439
 40
1.0
 40
1.0
 40
1.0
 40
1.0
 10
114.9197222946
 20
60.4026833128
 30
0.0
 10
115.0177181639
 20
60.4134004453
 30
0.0
 10
115.2239683956
 20
60.3995049762
 30
0.0
 10
115.5160294807
 20
60.2849988148
 30
0.0
 10
115.7722315516
 20
60.0892966851
 30
0.0
 10
115.9674735945
 20
59.8321588368
 30
0.0
 10
116.0824532732
 20
59.5384089168
 30
0.0
 10
116.1044551656
 20
59.2362523857
 30
0.0
 10
116.0285299561
 20
58.9563327016
 30
0.0
 10
115.9144487055
 20
58.8041108125
 30
0.0
 10
115.8469294695
 20
58.7434785166
 30
0.0
  0
SPLINE
  5
606
100
AcDbEntity
  8
0
100
AcDbSpline
 62
7
  6
CONTINUOUS
 70
0
 71
3
 72
11
 73
7
 74
0
 42
0.0000001
 43
0.0000001
 44
0.0000000001
 40
0.0
 40
0.0
 40
0.0
 40
0.0
 40
0.2467744327
 40
0.5004628082
 40
0.7538811967
 40
1.0
 40
1.0
 40
1.0
 40
1.0
 10
113.295302646
 20
57.4874400208
 30
0.0
 10
113.4475187906
 20
57.4880352402
 30
0.0
 10
113.7605497195
 20
57.4086012414
 30
0.0
 10
114.123527415
 20
57.0939572112
 30
0.0
 10
114.3175623455
 20
56.6549622142
 30
0.0
 10
114.3013020091
 20
56.3329088791
 30
0.0
 10
114.2557989004
 20
56.188075792
 30
0.0
  0
SPLINE
  5
607
100
AcDbEntity
  8
0
100
AcDbSpline
 62
7
  6
CONTINUOUS
 70
0
 71
3
 72
9
 73
5
 74
0
 42
0.0000001
 43
0.0000001
 44
0.0000000001
 40
0.0
 40
0.0
 40
0.0
 40
0.0
 40
0.4825222433
 40
1.0
 40
1.0
 40
1.0
 40
1.0
 10
122.0713892811
 20
60.3746796113
 30
0.0
 10
122.1009289207
 20
60.3900247788
 30
0.0
 10
122.168429292
 20
60.4106419937
 30
0.0
 10
122.2385018546
 20
60.4083459749
 30
0.0
 10
122.2737489485
 20
60.4026833128
 30
0.0
  0
SPLINE
  5
608
100
AcDbEntity
  8
0
100
AcDbSpline
 62
7
  6
CONTINUOUS
 70
0
 71
3
 72
9
 73
5
 74
0
 42
0.0000001
 43
0.0000001
 44
0.0000000001
 40
0.0
 40
0.0
 40
0.0
 40
0.0
 40
0.2466068512
 40
1.0
 40
1.0
 40
1.0
 40
1.0
 10
118.4607956825
 20
52.2605115441
 30
0.0
 10
118.3877750493
 20
52.2613487
 30
0.0
 10
118.0917419179
 20
52.2696030119
 30
0.0
 10
117.7963004505
 20
52.2969241046
 30
0.0
 10
117.5752666982
 20
52.3271837919
 30
0.0
  0
SPLINE
  5
609
100
AcDbEntity
  8
BEZUGSACHSEN
100
AcDbSpline
 62
7
  6
CONTINUOUS
 70
0
 71
3
 72
9
 73
5
 74
0
 42
0.0000001
 43
0.0000001
 44
0.0000000001
 40
0.0
 40
0.0
 40
0.0
 40
0.0
 40
0.4825222433
 40
1.0
 40
1.0
 40
1.0
 40
1.0
 10
122.0713892811
 20
76.6002995123
 30
0.0
 10
122.1009289207
 20
76.5849543448
 30
0.0
 10
122.168429292
 20
76.5643371299
 30
0.0
 10
122.2385018546
 20
76.5666331488
 30
0.0
 10
122.2737489485
 20
76.5722958109
 30
0.0
  0
SPLINE
  5
60A
100
AcDbEntity
  8
BEZUGSACHSEN
100
AcDbSpline
 62
7
  6
CONTINUOUS
 70
0
 71
3
 72
9
 73
5
 74
0
 42
0.0000001
 43
0.0000001
 44
0.0000000001
 40
0.0
 40
0.0
 40
0.0
 40
0.0
 40
0.2449583762
 40
1.0
 40
1.0
 40
1.0
 40
1.0
 10
118.773661766
 20
76.5725494295
 30
0.0
 10
118.7908916587
 20
76.5649652391
 30
0.0
 10
118.8629206927
 20
76.5379029785
 30
0.0
 10
118.9406440383
 20
76.5268263378
 30
0.0
 10
118.9986695269
 20
76.5268263378
 30
0.0
  0
SPLINE
  5
60B
100
AcDbEntity
  8
0
100
AcDbSpline
 62
7
  6
CONTINUOUS
 70
0
 71
3
 72
9
 73
5
 74
0
 42
0.0000001
 43
0.0000001
 44
0.0000000001
 40
0.0
 40
0.0
 40
0.0
 40
0.0
 40
0.4927761856
 40
1.0
 40
1.0
 40
1.0
 40
1.0
 10
114.463152811
 20
60.1859560568
 30
0.0
 10
114.5219726652
 20
60.2463076359
 30
0.0
 10
114.6649748219
 20
60.3475366638
 30
0.0
 10
114.833491731
 20
60.3932528706
 30
0.0
 10
114.9197222946
 20
60.4026833128
 30
0.0
  0
SPLINE
  5
60C
100
AcDbEntity
  8
0
100
AcDbSpline
 62
7
  6
CONTINUOUS
 70
0
 71
3
 72
9
 73
5
 74
0
 42
0.0000001
 43
0.0000001
 44
0.0000000001
 40
0.0
 40
0.0
 40
0.0
 40
0.0
 40
0.2449583762
 40
1.0
 40
1.0
 40
1.0
 40
1.0
 10
118.773661766
 20
60.4024296942
 30
0.0
 10
118.7908916587
 20
60.4100138845
 30
0.0
 10
118.8629206927
 20
60.4370761452
 30
0.0
 10
118.9406440383
 20
60.4481527859
 30
0.0
 10
118.9986695269
 20
60.4481527859
 30
0.0
  0
SPLINE
  5
60D
100
AcDbEntity
  8
0
100
AcDbSpline
 62
7
  6
CONTINUOUS
 70
0
 71
3
 72
9
 73
5
 74
0
 42
0.0000001
 43
0.0000001
 44
0.0000000001
 40
0.0
 40
0.0
 40
0.0
 40
0.0
 40
0.4730975918
 40
1.0
 40
1.0
 40
1.0
 40
1.0
 10
66.0870035599
 20
60.0442193518
 30
0.0
 10
66.9418399159
 20
60.0143121555
 30
0.0
 10
68.7406264276
 20
59.7004363964
 30
0.0
 10
70.4420043899
 20
59.069220722
 30
0.0
 10
71.3122082561
 20
58.6815803626
 30
0.0
  0
LINE
  5
60E
100
AcDbEntity
  8
KONSTRUKTIONSELEMENTE
100
AcDbLine
 62
7
  6
CONTINUOUS
 10
106.4442524267
 20
71.2374895618
 11
106.2669381766
 21
72.452227342
  0
SPLINE
  5
60F
100
AcDbEntity
  8
KONSTRUKTIONSELEMENTE
100
AcDbSpline
 62
7
  6
CONTINUOUS
 70
0
 71
3
 72
8
 73
4
 74
0
 42
0.0000001
 43
0.0000001
 44
0.0000000001
 40
0.0
 40
0.0
 40
0.0
 40
0.0
 40
1.0
 40
1.0
 40
1.0
 40
1.0
 10
106.2570042076
 20
72.5201218739
 30
0.0
 10
106.1119229754
 20
73.5115678223
 30
0.0
 10
105.9660655576
 20
74.5029004921
 30
0.0
 10
105.8194413429
 20
75.4941194246
 30
0.0
  0
SPLINE
  5
610
100
AcDbEntity
  8
KONSTRUKTIONSELEMENTE
100
AcDbSpline
 62
7
  6
CONTINUOUS
 70
0
 71
3
 72
9
 73
5
 74
0
 42
0.0000001
 43
0.0000001
 44
0.0000000001
 40
0.0
 40
0.0
 40
0.0
 40
0.0
 40
0.4730975918
 40
1.0
 40
1.0
 40
1.0
 40
1.0
 10
66.0870035599
 20
76.9307597719
 30
0.0
 10
66.9418399159
 20
76.9606669681
 30
0.0
 10
68.7406264276
 20
77.2745427272
 30
0.0
 10
70.4420043899
 20
77.9057584017
 30
0.0
 10
71.3122082561
 20
78.2933987611
 30
0.0
  0
SPLINE
  5
611
100
AcDbEntity
  8
0
100
AcDbSpline
 62
7
  6
CONTINUOUS
 70
0
 71
3
 72
16
 73
12
 74
0
 42
0.0000001
 43
0.0000001
 44
0.0000000001
 40
0.0
 40
0.0
 40
0.0
 40
0.0
 40
0.2295979731
 40
0.430111368
 40
0.6009308127
 40
0.7415579616
 40
0.8516524865
 40
0.9309595578
 40
0.9795923356
 40
0.9928288804
 40
1.0
 40
1.0
 40
1.0
 40
1.0
 10
173.1973099698
 20
11.4935872524
 30
0.0
 10
173.1904232104
 20
11.3387953263
 30
0.0
 10
173.176670127
 20
11.0488522252
 30
0.0
 10
173.1542452302
 20
10.6439427582
 30
0.0
 10
173.1314593606
 20
10.2991423695
 30
0.0
 10
173.108569766
 20
10.0156998659
 30
0.0
 10
173.0854697897
 20
9.7938154901
 30
0.0
 10
173.0633897459
 20
9.6354260292
 30
0.0
 10
173.0424762893
 20
9.5408861268
 30
0.0
 10
173.0257586071
 20
9.4985885521
 30
0.0
 10
173.0142221211
 20
9.4874895618
 30
0.0
 10
173.0093826643
 20
9.4874895618
 30
0.0
  0
SPLINE
  5
612
100
AcDbEntity
  8
0
100
AcDbSpline
 62
7
  6
CONTINUOUS
 70
0
 71
3
 72
18
 73
14
 74
0
 42
0.0000001
 43
0.0000001
 44
0.0000000001
 40
0.0
 40
0.0
 40
0.0
 40
0.0
 40
0.0058876732
 40
0.0186771256
 40
0.0391788147
 40
0.0675299543
 40
0.103749887
 40
0.1477989028
 40
0.2591545046
 40
0.4009982239
 40
0.5724700849
 40
0.7725468615
 40
1.0
 40
1.0
 40
1.0
 40
1.0
 10
173.0093826643
 20
127.4874895618
 30
0.0
 10
173.0172587545
 20
127.4874895618
 30
0.0
 10
173.0337832497
 20
127.4612742853
 30
0.0
 10
173.0466172077
 20
127.4145483284
 30
0.0
 10
173.064120002
 20
127.3317529801
 30
0.0
 10
173.0800294179
 20
127.2199339334
 30
0.0
 10
173.0968583209
 20
127.075256376
 30
0.0
 10
173.1207900623
 20
126.820179679
 30
0.0
 10
173.1492034969
 20
126.4234197415
 30
0.0
 10
173.1807711959
 20
125.8562383171
 30
0.0
 10
173.2115403467
 20
125.1701230132
 30
0.0
 10
173.2412410619
 20
124.369374079
 30
0.0
 10
173.2590639238
 20
123.7977296037
 30
0.0
 10
173.2678713704
 20
123.4935872524
 30
0.0
  0
LINE
  5
613
100
AcDbEntity
  8
0
100
AcDbLine
 62
7
  6
CONTINUOUS
 10
106.4442524267
 20
65.7374895618
 11
106.2669381766
 21
64.5227517817
  0
SPLINE
  5
614
100
AcDbEntity
  8
0
100
AcDbSpline
 62
7
  6
CONTINUOUS
 70
0
 71
3
 72
8
 73
4
 74
0
 42
0.0000001
 43
0.0000001
 44
0.0000000001
 40
0.0
 40
0.0
 40
0.0
 40
0.0
 40
1.0
 40
1.0
 40
1.0
 40
1.0
 10
106.2570042076
 20
64.4548572498
 30
0.0
 10
106.1119229754
 20
63.4634113014
 30
0.0
 10
105.9660655576
 20
62.4720786316
 30
0.0
 10
105.8194413429
 20
61.4808596991
 30
0.0
  0
SPLINE
  5
615
100
AcDbEntity
  8
KONSTRUKTIONSELEMENTE
100
AcDbSpline
 62
7
  6
CONTINUOUS
 70
0
 71
3
 72
9
 73
5
 74
0
 42
0.0000001
 43
0.0000001
 44
0.0000000001
 40
0.0
 40
0.0
 40
0.0
 40
0.0
 40
0.7474890183
 40
1.0
 40
1.0
 40
1.0
 40
1.0
 10
59.3236779391
 20
77.6074895618
 30
0.0
 10
59.3743038276
 20
77.6074895618
 30
0.0
 10
59.442121944
 20
77.6033825408
 30
0.0
 10
59.5092194983
 20
77.5941297967
 30
0.0
 10
59.5261143931
 20
77.5914760132
 30
0.0
  0
SPLINE
  5
616
100
AcDbEntity
  8
KONSTRUKTIONSELEMENTE
100
AcDbSpline
 62
7
  6
CONTINUOUS
 70
0
 71
3
 72
9
 73
5
 74
0
 42
0.0000001
 43
0.0000001
 44
0.0000000001
 40
0.0
 40
0.0
 40
0.0
 40
0.0
 40
0.5328164006
 40
1.0
 40
1.0
 40
1.0
 40
1.0
 10
104.6553978563
 20
75.3008619152
 30
0.0
 10
104.8648820476
 20
75.3142170871
 30
0.0
 10
105.2572837178
 20
75.3557611345
 30
0.0
 10
105.643317611
 20
75.4406797009
 30
0.0
 10
105.8194413429
 20
75.4941194246
 30
0.0
  0
SPLINE
  5
617
100
AcDbEntity
  8
KONSTRUKTIONSELEMENTE
100
AcDbSpline
 62
7
  6
CONTINUOUS
 70
0
 71
3
 72
9
 73
5
 74
0
 42
0.0000001
 43
0.0000001
 44
0.0000000001
 40
0.0
 40
0.0
 40
0.0
 40
0.0
 40
0.2454081269
 40
1.0
 40
1.0
 40
1.0
 40
1.0
 10
65.0829900957
 20
76.9547232981
 30
0.0
 10
65.1648659208
 20
76.9476199986
 30
0.0
 10
65.4989595508
 20
76.9241336656
 30
0.0
 10
65.8344569504
 20
76.9219242083
 30
0.0
 10
66.0870035599
 20
76.9307597719
 30
0.0
  0
SPLINE
  5
618
100
AcDbEntity
  8
KONSTRUKTIONSELEMENTE
100
AcDbSpline
 62
7
  6
CONTINUOUS
 70
0
 71
3
 72
9
 73
5
 74
0
 42
0.0000001
 43
0.0000001
 44
0.0000000001
 40
0.0
 40
0.0
 40
0.0
 40
0.0
 40
0.2445026355
 40
1.0
 40
1.0
 40
1.0
 40
1.0
 10
100.4487348177
 20
79.2154221664
 30
0.0
 10
100.5069142108
 20
79.2191256668
 30
0.0
 10
100.7453963177
 20
79.2250120977
 30
0.0
 10
100.9845584167
 20
79.1924052323
 30
0.0
 10
101.1592720121
 20
79.1485466777
 30
0.0
  0
SPLINE
  5
619
100
AcDbEntity
  8
KONSTRUKTIONSELEMENTE
100
AcDbSpline
 62
7
  6
CONTINUOUS
 70
0
 71
3
 72
11
 73
7
 74
0
 42
0.0000001
 43
0.0000001
 44
0.0000000001
 40
0.0
 40
0.0
 40
0.0
 40
0.0
 40
0.2058844289
 40
0.4265965943
 40
0.6854697857
 40
1.0
 40
1.0
 40
1.0
 40
1.0
 10
100.0545192316
 20
78.9604244786
 30
0.0
 10
100.0620469732
 20
78.9941224938
 30
0.0
 10
100.0911252177
 20
79.061837866
 30
0.0
 10
100.1763373027
 20
79.1429901042
 30
0.0
 10
100.3001035318
 20
79.1974286615
 30
0.0
 10
100.3960919546
 20
79.2120711025
 30
0.0
 10
100.4487348177
 20
79.2154221664
 30
0.0
  0
SPLINE
  5
61A
100
AcDbEntity
  8
0
100
AcDbSpline
 62
7
  6
CONTINUOUS
 70
0
 71
3
 72
9
 73
5
 74
0
 42
0.0000001
 43
0.0000001
 44
0.0000000001
 40
0.0
 40
0.0
 40
0.0
 40
0.0
 40
0.7474890183
 40
1.0
 40
1.0
 40
1.0
 40
1.0
 10
59.3236779391
 20
59.3674895618
 30
0.0
 10
59.3743038276
 20
59.3674895618
 30
0.0
 10
59.442121944
 20
59.3715965829
 30
0.0
 10
59.5092194983
 20
59.380849327
 30
0.0
 10
59.5261143931
 20
59.3835031105
 30
0.0
  0
SPLINE
  5
61B
100
AcDbEntity
  8
0
100
AcDbSpline
 62
7
  6
CONTINUOUS
 70
0
 71
3
 72
11
 73
7
 74
0
 42
0.0000001
 43
0.0000001
 44
0.0000000001
 40
0.0
 40
0.0
 40
0.0
 40
0.0
 40
0.2058844289
 40
0.4265965943
 40
0.6854697857
 40
1.0
 40
1.0
 40
1.0
 40
1.0
 10
100.0545192316
 20
58.0145546451
 30
0.0
 10
100.0620469732
 20
57.9808566299
 30
0.0
 10
100.0911252177
 20
57.9131412577
 30
0.0
 10
100.1763373027
 20
57.8319890195
 30
0.0
 10
100.3001035318
 20
57.7775504622
 30
0.0
 10
100.3960919546
 20
57.7629080212
 30
0.0
 10
100.4487348177
 20
57.7595569573
 30
0.0
  0
SPLINE
  5
61C
100
AcDbEntity
  8
0
100
AcDbSpline
 62
7
  6
CONTINUOUS
 70
0
 71
3
 72
9
 73
5
 74
0
 42
0.0000001
 43
0.0000001
 44
0.0000000001
 40
0.0
 40
0.0
 40
0.0
 40
0.0
 40
0.2445026355
 40
1.0
 40
1.0
 40
1.0
 40
1.0
 10
100.4487348177
 20
57.7595569573
 30
0.0
 10
100.5069142108
 20
57.7558534569
 30
0.0
 10
100.7453963177
 20
57.7499670259
 30
0.0
 10
100.9845584167
 20
57.7825738914
 30
0.0
 10
101.1592720121
 20
57.826432446
 30
0.0
  0
SPLINE
  5
61D
100
AcDbEntity
  8
0
100
AcDbSpline
 62
7
  6
CONTINUOUS
 70
0
 71
3
 72
9
 73
5
 74
0
 42
0.0000001
 43
0.0000001
 44
0.0000000001
 40
0.0
 40
0.0
 40
0.0
 40
0.0
 40
0.2454081269
 40
1.0
 40
1.0
 40
1.0
 40
1.0
 10
65.0829900957
 20
60.0202558256
 30
0.0
 10
65.1648659208
 20
60.027359125
 30
0.0
 10
65.4989595508
 20
60.0508454581
 30
0.0
 10
65.8344569504
 20
60.0530549154
 30
0.0
 10
66.0870035599
 20
60.0442193518
 30
0.0
  0
SPLINE
  5
61E
100
AcDbEntity
  8
0
100
AcDbSpline
 62
7
  6
CONTINUOUS
 70
0
 71
3
 72
9
 73
5
 74
0
 42
0.0000001
 43
0.0000001
 44
0.0000000001
 40
0.0
 40
0.0
 40
0.0
 40
0.0
 40
0.5328164006
 40
1.0
 40
1.0
 40
1.0
 40
1.0
 10
104.6553978563
 20
61.6741172085
 30
0.0
 10
104.8648820476
 20
61.6607620366
 30
0.0
 10
105.2572837178
 20
61.6192179892
 30
0.0
 10
105.643317611
 20
61.5342994228
 30
0.0
 10
105.8194413429
 20
61.4808596991
 30
0.0
  0
ELLIPSE
  5
61F
100
AcDbEntity
  8
0
100
AcDbEllipse
 62
7
  6
CONTINUOUS
 10
105.5143783432
 20
250.6073796043
 30
0.0
 11
-14.3470046585
 21
17.8031382883
 31
0.0
 40
0.0852130878
 41
1.4291937052
 42
1.5609162981
  0
ELLIPSE
  5
620
100
AcDbEntity
  8
0
100
AcDbEllipse
 62
7
  6
CONTINUOUS
 10
147.9867630196
 20
280.9083380562
 30
0.0
 11
12.4743798147
 21
0.0
 31
0.0
 40
0.9856543725
 41
0.5787758507
 42
0.8837630538
  0
ELLIPSE
  5
621
100
AcDbEntity
  8
0
100
AcDbEllipse
 62
7
  6
CONTINUOUS
 10
140.8612507609
 20
195.3083380562
 30
0.0
 11
118.8285187328
 21
0.0
 31
0.0
 40
0.9822416805
 41
1.4224071563
 42
1.4579071581
  0
ELLIPSE
  5
622
100
AcDbEntity
  8
0
100
AcDbEllipse
 62
7
  6
CONTINUOUS
 10
80.5843090934
 20
245.9405397136
 30
0.0
 11
15.8238892182
 21
11.6358722027
 31
0.0
 40
0.0801278201
 41
-1.915969264
 42
-1.5356844293
  0
ELLIPSE
  5
623
100
AcDbEntity
  8
0
100
AcDbEllipse
 62
7
  6
CONTINUOUS
 10
82.9962046684
 20
246.8104726133
 30
0.0
 11
8.439407583
 21
6.2057985081
 31
0.0
 40
0.0801278201
 41
-1.5356844293
 42
-1.0949887932
  0
ELLIPSE
  5
624
100
AcDbEntity
  8
0
100
AcDbEllipse
 62
7
  6
CONTINUOUS
 10
143.1693826643
 20
149.644301184
 30
0.0
 11
17.9997228852
 21
1.143939173
 31
0.0
 40
0.0873125237
 41
-0.3120422685
 42
-0.0753620995
  0
ELLIPSE
  5
625
100
AcDbEntity
  8
0
100
AcDbEllipse
 62
7
  6
CONTINUOUS
 10
183.2120755486
 20
151.0587924698
 30
0.0
 11
23.9996305135
 21
1.5252522307
 31
0.0
 40
0.0873125237
 41
2.8295503851
 42
2.9166319766
  0
ELLIPSE
  5
626
100
AcDbEntity
  8
0
100
AcDbEllipse
 62
7
  6
CONTINUOUS
 10
141.6333826643
 20
149.2493782749
 30
0.0
 11
18.599713648
 21
1.1820704788
 31
0.0
 40
0.0873125237
 41
-1.5763452562
 42
-0.224960677
  0
ELLIPSE
  5
627
100
AcDbEntity
  8
0
100
AcDbEllipse
 62
7
  6
CONTINUOUS
 10
139.3636240149
 20
275.9083380562
 30
0.0
 11
33.6632194044
 21
0.0
 31
0.0
 40
0.4367876886
 41
-1.0014075097
 42
-0.9648683385
  0
ELLIPSE
  5
628
100
AcDbEntity
  8
0
100
AcDbEllipse
 62
7
  6
CONTINUOUS
 10
148.8093826643
 20
297.769803689
 30
0.0
 11
-5.990189471
 21
6.3515557118
 31
0.0
 40
0.0539981802
 41
1.4766539112
 42
2.762453591
  0
ELLIPSE
  5
629
100
AcDbEntity
  8
0
100
AcDbEllipse
 62
7
  6
CONTINUOUS
 10
161.4930440775
 20
165.2319624863
 30
0.0
 11
0.0043298196
 21
14.0279501119
 31
0.0
 40
0.0697868031
 41
-3.049903369
 42
-1.5663735048
  0
ELLIPSE
  5
62A
100
AcDbEntity
  8
0
100
AcDbEllipse
 62
7
  6
CONTINUOUS
 10
102.0015227362
 20
246.2924889728
 30
0.0
 11
0.9780571717
 21
1.6940447141
 31
0.0
 40
0.9987706333
 41
1.1241586576
 42
2.1814324594
  0
ELLIPSE
  5
62B
100
AcDbEntity
  8
0
100
AcDbEllipse
 62
7
  6
CONTINUOUS
 10
94.2685629946
 20
205.0974423719
 30
0.0
 11
19.8608670501
 21
34.400030813
 31
0.0
 40
0.9993882581
 41
1.1286085066
 42
1.1403779394
  0
ELLIPSE
  5
62C
100
AcDbEntity
  8
0
100
AcDbEllipse
 62
7
  6
CONTINUOUS
 10
94.9631567754
 20
206.5509271944
 30
0.0
 11
0.0
 21
39.0977192311
 31
0.0
 40
0.9999794891
 41
0.8698913802
 42
1.1346578307
  0
ELLIPSE
  5
62D
100
AcDbEntity
  8
AUSFORMSCHRAEGEN
100
AcDbEllipse
 62
7
  6
CONTINUOUS
 10
278.8771299929
 20
280.9083380562
 30
0.0
 11
0.6723139926
 21
9.9999291648
 31
0.0
 40
0.0559843693
 41
0.8764285424
 42
2.6348916625
  0
ELLIPSE
  5
62E
100
AcDbEntity
  8
KONSTRUKTIONSELEMENTE
100
AcDbEllipse
 62
7
  6
CONTINUOUS
 10
288.5770205928
 20
256.5815135325
 30
0.0
 11
10.039295433
 21
-0.1028127266
 31
0.0
 40
0.4943506781
 41
-3.1200107602
 42
-2.8939850548
  0
ELLIPSE
  5
62F
100
AcDbEntity
  8
0
100
AcDbEllipse
 62
7
  6
CONTINUOUS
 10
311.8771299929
 20
280.9083380562
 30
0.0
 11
-0.6723139926
 21
9.9999291648
 31
0.0
 40
0.0559843693
 41
-2.6348916625
 42
-0.8764285424
  0
ELLIPSE
  5
630
100
AcDbEntity
  8
0
100
AcDbEllipse
 62
7
  6
CONTINUOUS
 10
302.177239393
 20
256.5815135325
 30
0.0
 11
10.039295433
 21
0.1028127266
 31
0.0
 40
0.4943506781
 41
-0.2476075988
 42
-0.0215818934
  0
ELLIPSE
  5
631
100
AcDbEntity
  8
AUSFORMSCHRAEGEN
100
AcDbEllipse
 62
7
  6
CONTINUOUS
 10
278.8158879284
 20
280.8220582728
 30
0.0
 11
1.1429337874
 21
16.9998795801
 31
0.0
 40
0.0559843693
 41
-0.4820391956
 42
-0.2276024454
  0
ELLIPSE
  5
632
100
AcDbEntity
  8
AUSFORMSCHRAEGEN
100
AcDbEllipse
 62
7
  6
CONTINUOUS
 10
278.8771299929
 20
280.9083380562
 30
0.0
 11
0.268925597
 21
3.9999716659
 31
0.0
 40
0.0559843693
 41
0.0
 42
6.2831853072
  0
ELLIPSE
  5
633
100
AcDbEntity
  8
AUSFORMSCHRAEGEN
100
AcDbEllipse
 62
7
  6
CONTINUOUS
 10
282.0267218798
 20
295.6301858147
 30
0.0
 11
2.0169419778
 21
29.9997874943
 31
0.0
 40
0.0559843693
 41
-4.6349850683
 42
-3.835960438
  0
ELLIPSE
  5
634
100
AcDbEntity
  8
0
100
AcDbEllipse
 62
7
  6
CONTINUOUS
 10
308.727538106
 20
295.6301858147
 30
0.0
 11
-2.0169419778
 21
29.9997874943
 31
0.0
 40
0.0559843693
 41
-2.4472248692
 42
-1.6482002389
  0
ELLIPSE
  5
635
100
AcDbEntity
  8
0
100
AcDbEllipse
 62
7
  6
CONTINUOUS
 10
311.9383720574
 20
280.8220582728
 30
0.0
 11
-1.1429337874
 21
16.9998795801
 31
0.0
 40
0.0559843693
 41
0.2276024454
 42
0.4820391956
  0
ELLIPSE
  5
636
100
AcDbEntity
  8
0
100
AcDbEllipse
 62
7
  6
CONTINUOUS
 10
311.8771299929
 20
280.9083380562
 30
0.0
 11
-0.268925597
 21
3.9999716659
 31
0.0
 40
0.0559843693
 41
0.0
 42
6.2831853072
  0
ELLIPSE
  5
637
100
AcDbEntity
  8
KONSTRUKTIONSELEMENTE
100
AcDbEllipse
 62
7
  6
CONTINUOUS
 10
303.0129612887
 20
295.6301858147
 30
0.0
 11
-4.8858730345
 21
29.9866973066
 31
0.0
 40
0.1828332123
 41
-3.9431321991
 42
-3.9267281277
  0
ELLIPSE
  5
638
100
AcDbEntity
  8
0
100
AcDbEllipse
 62
7
  6
CONTINUOUS
 10
310.8445538107
 20
294.449014083
 30
0.0
 11
-0.2016941978
 21
2.9999787494
 31
0.0
 40
0.0559843693
 41
5.4067567648
 42
6.5107877526
  0
ELLIPSE
  5
639
100
AcDbEntity
  8
KONSTRUKTIONSELEMENTE
100
AcDbEllipse
 62
7
  6
CONTINUOUS
 10
303.9133120128
 20
295.6301858147
 30
0.0
 11
-15.471689658
 21
29.3236362344
 31
0.0
 40
0.4094174065
 41
-4.1384142089
 42
-4.1260983474
  0
ELLIPSE
  5
63A
100
AcDbEntity
  8
KONSTRUKTIONSELEMENTE
100
AcDbEllipse
 62
7
  6
CONTINUOUS
 10
306.014526012
 20
295.6301858147
 30
0.0
 11
42.8980189913
 21
-24.0224885601
 31
0.0
 40
0.418899907
 41
-1.4345427612
 42
-1.4263250446
  0
ELLIPSE
  5
63B
100
AcDbEntity
  8
KONSTRUKTIONSELEMENTE
100
AcDbEllipse
 62
7
  6
CONTINUOUS
 10
312.9192040502
 20
295.6301858147
 30
0.0
 11
117.4381547609
 21
-20.0184375073
 31
0.0
 40
0.1902633358
 41
-1.6366470914
 42
-1.6325358753
  0
ELLIPSE
  5
63C
100
AcDbEntity
  8
AUSFORMSCHRAEGEN
100
AcDbEllipse
 62
7
  6
CONTINUOUS
 10
279.9097061752
 20
294.449014083
 30
0.0
 11
0.2016941978
 21
2.9999787494
 31
0.0
 40
0.0559843693
 41
-0.2276024454
 42
0.8764285424
  0
ELLIPSE
  5
63D
100
AcDbEntity
  8
0
100
AcDbEllipse
 62
7
  6
CONTINUOUS
 10
307.9243687497
 20
250.6073796043
 30
0.0
 11
-1.9143789672
 21
17.8449575659
 31
0.0
 40
0.0324418899
 41
1.4942763877
 42
1.6259989807
  0
ELLIPSE
  5
63E
100
AcDbEntity
  8
AUSFORMSCHRAEGEN
100
AcDbEllipse
 62
7
  6
CONTINUOUS
 10
282.8298912361
 20
250.6073796043
 30
0.0
 11
1.9143789672
 21
17.8449575659
 31
0.0
 40
0.0324418899
 41
-1.6259989807
 42
-1.4942763877
  0
ELLIPSE
  5
63F
100
AcDbEntity
  8
0
100
AcDbEllipse
 62
7
  6
CONTINUOUS
 10
310.7410372173
 20
293.2022617217
 30
0.0
 11
-0.2016941978
 21
2.9999787494
 31
0.0
 40
0.0559843693
 41
0.4820391956
 42
1.4933924147
  0
ELLIPSE
  5
640
100
AcDbEntity
  8
AUSFORMSCHRAEGEN
100
AcDbEllipse
 62
7
  6
CONTINUOUS
 10
280.0132227685
 20
293.2022617217
 30
0.0
 11
0.2016941978
 21
2.9999787494
 31
0.0
 40
0.0559843693
 41
-1.4933924147
 42
-0.4820391956
  0
ELLIPSE
  5
641
100
AcDbEntity
  8
KONSTRUKTIONSELEMENTE
100
AcDbEllipse
 62
7
  6
CONTINUOUS
 10
292.1739348519
 20
295.6301858147
 30
0.0
 11
-6.6842098013
 21
29.9574893095
 31
0.0
 40
0.2388475145
 41
-3.9830171399
 42
-3.9706971415
  0
ELLIPSE
  5
642
100
AcDbEntity
  8
KONSTRUKTIONSELEMENTE
100
AcDbEllipse
 62
7
  6
CONTINUOUS
 10
290.6339850945
 20
295.6301858147
 30
0.0
 11
-7.7730793192
 21
29.9270457333
 31
0.0
 40
0.2689946752
 41
-3.9257483603
 42
-3.9094781377
  0
ELLIPSE
  5
643
100
AcDbEntity
  8
KONSTRUKTIONSELEMENTE
100
AcDbEllipse
 62
7
  6
CONTINUOUS
 10
293.9350483488
 20
295.6301858147
 30
0.0
 11
26.4650360741
 21
-27.3460856173
 31
0.0
 40
0.4661469566
 41
-1.220195189
 42
-1.2119743523
  0
ELLIPSE
  5
644
100
AcDbEntity
  8
KONSTRUKTIONSELEMENTE
100
AcDbEllipse
 62
7
  6
CONTINUOUS
 10
289.7365052645
 20
295.6301858147
 30
0.0
 11
58.2437255841
 21
22.1279553265
 31
0.0
 40
0.3478003168
 41
-1.675443978
 42
-1.6695274472
  0
ELLIPSE
  5
645
100
AcDbEntity
  8
KONSTRUKTIONSELEMENTE
100
AcDbEllipse
 62
7
  6
CONTINUOUS
 10
290.9349424233
 20
295.6301858147
 30
0.0
 11
18.0876461137
 21
28.9525575648
 31
0.0
 40
0.4344445519
 41
-2.1457891831
 42
-2.1294065503
  0
ELLIPSE
  5
646
100
AcDbEntity
  8
KONSTRUKTIONSELEMENTE
100
AcDbEllipse
 62
7
  6
CONTINUOUS
 10
291.5347693085
 20
295.6301858147
 30
0.0
 11
6.6842098013
 21
29.9574893095
 31
0.0
 40
0.2388475145
 41
-2.341192178
 42
-2.3288967962
  0
ELLIPSE
  5
647
100
AcDbEntity
  8
KONSTRUKTIONSELEMENTE
100
AcDbEllipse
 62
7
  6
CONTINUOUS
 10
299.6992145003
 20
295.6301858147
 30
0.0
 11
87.9769525712
 21
-20.5828306583
 31
0.0
 40
0.2480806209
 41
-1.6152056092
 42
-1.611092726
  0
ELLIPSE
  5
648
100
AcDbEntity
  8
0
100
AcDbEllipse
 62
7
  6
CONTINUOUS
 10
333.3771299929
 20
165.2319624863
 30
0.0
 11
7.6120955167
 21
11.8066367848
 31
0.0
 40
0.9951795497
 41
-2.4794616514
 42
-0.9959317872
  0
ELLIPSE
  5
649
100
AcDbEntity
  8
KONSTRUKTIONSELEMENTE
100
AcDbEllipse
 62
7
  6
CONTINUOUS
 10
283.4338013202
 20
243.6598098898
 30
0.0
 11
4.6802951774
 21
10.9124626082
 31
0.0
 40
0.2005649868
 41
0.1067972934
 42
0.6850764869
  0
ELLIPSE
  5
64A
100
AcDbEntity
  8
KONSTRUKTIONSELEMENTE
100
AcDbEllipse
 62
7
  6
CONTINUOUS
 10
278.1771299929
 20
297.769803689
 30
0.0
 11
-3.3549376403
 21
5.6254765042
 31
0.0
 40
0.8842581901
 41
-2.1065552737
 42
-2.0128284232
  0
ELLIPSE
  5
64B
100
AcDbEntity
  8
0
100
AcDbEllipse
 62
7
  6
CONTINUOUS
 10
325.9771299929
 20
149.2493782749
 30
0.0
 11
18.5997178627
 21
1.6369584041
 31
0.0
 40
0.0625838721
 41
1.7847001329
 42
3.136084712
  0
ELLIPSE
  5
64C
100
AcDbEntity
  8
RUNDUNGEN
100
AcDbEllipse
 62
7
  6
CONTINUOUS
 10
257.3771299929
 20
165.2319624863
 30
0.0
 11
7.6120955167
 21
-11.8066367848
 31
0.0
 40
0.9951795497
 41
-2.1456608664
 42
-0.6621310022
  0
ELLIPSE
  5
64D
100
AcDbEntity
  8
KONSTRUKTIONSELEMENTE
100
AcDbEllipse
 62
7
  6
CONTINUOUS
 10
264.7771299929
 20
149.2493782749
 30
0.0
 11
18.5997178627
 21
-1.6369584041
 31
0.0
 40
0.0625838721
 41
0.0055079416
 42
1.3568925207
  0
ELLIPSE
  5
64E
100
AcDbEntity
  8
KONSTRUKTIONSELEMENTE
100
AcDbEllipse
 62
7
  6
CONTINUOUS
 10
261.3771299929
 20
149.644301184
 30
0.0
 11
17.9997269639
 21
-1.5841532943
 31
0.0
 40
0.0625838721
 41
1.2698109293
 42
1.5064910983
  0
ELLIPSE
  5
64F
100
AcDbEntity
  8
KONSTRUKTIONSELEMENTE
100
AcDbEllipse
 62
7
  6
CONTINUOUS
 10
274.0492547783
 20
151.0587924698
 30
0.0
 11
23.9996359519
 21
-2.1122043924
 31
0.0
 40
0.0625838721
 41
-1.8717817243
 42
-1.7847001329
  0
ELLIPSE
  5
650
100
AcDbEntity
  8
KONSTRUKTIONSELEMENTE
100
AcDbEllipse
 62
7
  6
CONTINUOUS
 10
291.7771299929
 20
246.8104726133
 30
0.0
 11
9.5865283303
 21
0.7870251943
 31
0.0
 40
0.6459817939
 41
2.6479134868
 42
3.0886091229
  0
ELLIPSE
  5
651
100
AcDbEntity
  8
0
100
AcDbEllipse
 62
7
  6
CONTINUOUS
 10
307.3204586657
 20
243.6598098898
 30
0.0
 11
-4.6802951774
 21
10.9124626082
 31
0.0
 40
0.2005649868
 41
-0.6850764869
 42
-0.1067972934
  0
ELLIPSE
  5
652
100
AcDbEntity
  8
0
100
AcDbEllipse
 62
7
  6
CONTINUOUS
 10
312.5771299929
 20
297.769803689
 30
0.0
 11
3.3549376403
 21
5.6254765042
 31
0.0
 40
0.8842581901
 41
-4.2703568839
 42
-4.1766300335
  0
ELLIPSE
  5
653
100
AcDbEntity
  8
0
100
AcDbEllipse
 62
7
  6
CONTINUOUS
 10
298.9771299929
 20
246.8104726133
 30
0.0
 11
9.5865283303
 21
-0.7870251943
 31
0.0
 40
0.6459817939
 41
0.0529835307
 42
0.4936791668
  0
ELLIPSE
  5
654
100
AcDbEntity
  8
0
100
AcDbEllipse
 62
7
  6
CONTINUOUS
 10
329.3771299929
 20
149.644301184
 30
0.0
 11
17.9997269639
 21
1.5841532943
 31
0.0
 40
0.0625838721
 41
1.6351015553
 42
1.8717817243
  0
ELLIPSE
  5
655
100
AcDbEntity
  8
0
100
AcDbEllipse
 62
7
  6
CONTINUOUS
 10
316.7050052075
 20
151.0587924698
 30
0.0
 11
23.9996359519
 21
2.1122043924
 31
0.0
 40
0.0625838721
 41
-1.3568925207
 42
-1.2698109293
  0
ELLIPSE
  5
656
100
AcDbEntity
  8
0
100
AcDbEllipse
 62
7
  6
CONTINUOUS
 10
98.2572066302
 20
275.9083380562
 30
0.0
 11
384.7723584717
 21
0.0
 31
0.0
 40
0.0382139711
 41
-0.9804100132
 42
-0.9648683385
  0
ELLIPSE
  5
657
100
AcDbEntity
  8
KONSTRUKTIONSELEMENTE
100
AcDbEllipse
 62
7
  6
CONTINUOUS
 10
492.4970533557
 20
275.9083380562
 30
0.0
 11
384.7723584717
 21
-0.0
 31
0.0
 40
0.0382139711
 41
-2.176724315
 42
-2.1611826404
  0
ELLIPSE
  5
658
100
AcDbEntity
  8
KONSTRUKTIONSELEMENTE
100
AcDbEllipse
 62
7
  6
CONTINUOUS
 10
292.1965362027
 20
205.0974423719
 30
0.0
 11
-14.2306833565
 21
39.6350586464
 31
0.0
 40
0.1777143704
 41
-0.6807647831
 42
-0.6689953503
  0
ELLIPSE
  5
659
100
AcDbEntity
  8
KONSTRUKTIONSELEMENTE
100
AcDbEllipse
 62
7
  6
CONTINUOUS
 10
309.4191633638
 20
195.3083380562
 30
0.0
 11
254.8285807764
 21
0.0
 31
0.0
 40
0.4580268178
 41
1.6836854955
 42
1.7191854973
  0
ELLIPSE
  5
65A
100
AcDbEntity
  8
KONSTRUKTIONSELEMENTE
100
AcDbEllipse
 62
7
  6
CONTINUOUS
 10
294.1384530129
 20
280.9083380562
 30
0.0
 11
26.7513938418
 21
0.0
 31
0.0
 40
0.4596181822
 41
2.2578295998
 42
2.5628168029
  0
ELLIPSE
  5
65B
100
AcDbEntity
  8
KONSTRUKTIONSELEMENTE
100
AcDbEllipse
 62
7
  6
CONTINUOUS
 10
300.1771299929
 20
239.5886149865
 30
0.0
 11
18.0
 21
-0.0
 31
0.0
 40
0.7954374101
 41
-3.1415926536
 42
-2.9822004236
  0
ELLIPSE
  5
65C
100
AcDbEntity
  8
0
100
AcDbEllipse
 62
7
  6
CONTINUOUS
 10
290.5771299929
 20
245.9405397136
 30
0.0
 11
17.9747406192
 21
-1.4756722392
 31
0.0
 40
0.6459817939
 41
-0.327301304
 42
0.0529835307
  0
ELLIPSE
  5
65D
100
AcDbEntity
  8
KONSTRUKTIONSELEMENTE
100
AcDbEllipse
 62
7
  6
CONTINUOUS
 10
300.1771299929
 20
245.9405397136
 30
0.0
 11
17.9747406192
 21
1.4756722392
 31
0.0
 40
0.6459817939
 41
3.0886091229
 42
3.4688939576
  0
ELLIPSE
  5
65E
100
AcDbEntity
  8
0
100
AcDbEllipse
 62
7
  6
CONTINUOUS
 10
298.5577237831
 20
205.0974423719
 30
0.0
 11
14.2306833565
 21
39.6350586464
 31
0.0
 40
0.1777143704
 41
0.6689953503
 42
0.6807647831
  0
ELLIPSE
  5
65F
100
AcDbEntity
  8
0
100
AcDbEllipse
 62
7
  6
CONTINUOUS
 10
296.615806973
 20
280.9083380562
 30
0.0
 11
26.7513938418
 21
0.0
 31
0.0
 40
0.4596181822
 41
0.5787758507
 42
0.8837630538
  0
ELLIPSE
  5
660
100
AcDbEntity
  8
0
100
AcDbEllipse
 62
7
  6
CONTINUOUS
 10
281.335096622
 20
195.3083380562
 30
0.0
 11
254.8285807764
 21
-0.0
 31
0.0
 40
0.4580268178
 41
1.4224071563
 42
1.4579071581
  0
ELLIPSE
  5
661
100
AcDbEntity
  8
AUSFORMSCHRAEGEN
100
AcDbEllipse
 62
7
  6
CONTINUOUS
 10
145.8813826643
 20
84.9874895618
 30
0.0
 11
9.9999287872
 21
0.5648915772
 31
0.0
 40
0.0668079701
 41
0.291914019
 42
1.0565574844
  0
ELLIPSE
  5
662
100
AcDbEntity
  8
0
100
AcDbEllipse
 62
7
  6
CONTINUOUS
 10
122.905592599
 20
61.6873801618
 30
0.0
 11
-0.6262830811
 21
10.0242118582
 31
0.0
 40
0.8821259247
 41
-3.3178827825
 42
-3.2131688482
  0
ELLIPSE
  5
663
100
AcDbEntity
  8
KONSTRUKTIONSELEMENTE
100
AcDbEllipse
 62
7
  6
CONTINUOUS
 10
122.905592599
 20
75.2875989619
 30
0.0
 11
0.6262830811
 21
10.0242118582
 31
0.0
 40
0.8821259247
 41
0.0715761946
 42
0.1762901289
  0
ELLIPSE
  5
664
100
AcDbEntity
  8
KONSTRUKTIONSELEMENTE
100
AcDbEllipse
 62
7
  6
CONTINUOUS
 10
102.2035976852
 20
78.5190852901
 30
0.0
 11
-0.0
 21
1.5060345411
 31
0.0
 40
0.7629749739
 41
0.2260143686
 42
1.5707963268
  0
ELLIPSE
  5
665
100
AcDbEntity
  8
0
100
AcDbEllipse
 62
7
  6
CONTINUOUS
 10
145.8813826643
 20
51.9874895618
 30
0.0
 11
9.9999287872
 21
-0.5648915772
 31
0.0
 40
0.0668079701
 41
-1.0565574844
 42
-0.291914019
  0
ELLIPSE
  5
666
100
AcDbEntity
  8
0
100
AcDbEllipse
 62
7
  6
CONTINUOUS
 10
102.2035976852
 20
58.4558938336
 30
0.0
 11
0.0
 21
1.5060345411
 31
0.0
 40
0.7629749739
 41
1.5707963268
 42
2.915578285
  0
ELLIPSE
  5
667
100
AcDbEntity
  8
KONSTRUKTIONSELEMENTE
100
AcDbEllipse
 62
7
  6
CONTINUOUS
 10
107.4201398532
 20
44.4570570018
 30
0.0
 11
23.369611358
 21
146.8446164325
 31
0.0
 40
0.1281027591
 41
-1.4315581162
 42
-1.4274358169
  0
ELLIPSE
  5
668
100
AcDbEntity
  8
KONSTRUKTIONSELEMENTE
100
AcDbEllipse
 62
7
  6
CONTINUOUS
 10
107.4201398532
 20
54.906453221
 30
0.0
 11
25.1318965042
 21
58.3243008294
 31
0.0
 40
0.2808871206
 41
-1.3397326473
 42
-1.3314940608
  0
ELLIPSE
  5
669
100
AcDbEntity
  8
KONSTRUKTIONSELEMENTE
100
AcDbEllipse
 62
7
  6
CONTINUOUS
 10
107.4201398532
 20
58.1491588914
 30
0.0
 11
28.2802904061
 21
27.5136480976
 31
0.0
 40
0.3638649575
 41
-1.1187390371
 42
-1.1022838833
  0
ELLIPSE
  5
66A
100
AcDbEntity
  8
KONSTRUKTIONSELEMENTE
100
AcDbEllipse
 62
7
  6
CONTINUOUS
 10
107.4201398532
 20
59.5300913384
 30
0.0
 11
29.8139515497
 21
12.2313308738
 31
0.0
 40
0.2727348033
 41
-0.9063613123
 42
-0.8899316934
  0
ELLIPSE
  5
66B
100
AcDbEntity
  8
0
100
AcDbEllipse
 62
7
  6
CONTINUOUS
 10
145.8813826643
 20
51.9874895618
 30
0.0
 11
9.9999287872
 21
-0.5648915772
 31
0.0
 40
0.0668079701
 41
0.3629159557
 42
0.7019056357
  0
ELLIPSE
  5
66C
100
AcDbEntity
  8
KONSTRUKTIONSELEMENTE
100
AcDbEllipse
 62
7
  6
CONTINUOUS
 10
107.4201398532
 20
60.2144081385
 30
0.0
 11
29.9947266321
 21
4.5705040512
 31
0.0
 40
0.1230655447
 41
-0.8341920677
 42
-0.8136840373
  0
ELLIPSE
  5
66D
100
AcDbEntity
  8
0
100
AcDbEllipse
 62
7
  6
CONTINUOUS
 10
107.4201398532
 20
55.1370814488
 30
0.0
 11
29.9997863615
 21
-1.6946747315
 31
0.0
 40
0.0668079701
 41
-0.8688906911
 42
-0.26150507
  0
ELLIPSE
  5
66E
100
AcDbEntity
  8
KONSTRUKTIONSELEMENTE
100
AcDbEllipse
 62
7
  6
CONTINUOUS
 10
107.4201398532
 20
76.7697816215
 30
0.0
 11
-24.0193629718
 21
87.9883075997
 31
0.0
 40
0.2042788891
 41
-1.6714334189
 42
-1.6673374525
  0
ELLIPSE
  5
66F
100
AcDbEntity
  8
KONSTRUKTIONSELEMENTE
100
AcDbEllipse
 62
7
  6
CONTINUOUS
 10
107.4201398532
 20
74.1310320651
 30
0.0
 11
-28.2802844022
 21
27.5136936274
 31
0.0
 40
0.3638649718
 41
-1.98181693
 42
-1.9736226648
  0
ELLIPSE
  5
670
100
AcDbEntity
  8
KONSTRUKTIONSELEMENTE
100
AcDbEllipse
 62
7
  6
CONTINUOUS
 10
107.4201398532
 20
73.0911696525
 30
0.0
 11
29.9604997335
 21
-7.8138449319
 31
0.0
 40
0.1969553792
 41
0.8616383887
 42
0.8708621739
  0
ELLIPSE
  5
671
100
AcDbEntity
  8
KONSTRUKTIONSELEMENTE
100
AcDbEllipse
 62
7
  6
CONTINUOUS
 10
107.4201398532
 20
55.275817311
 30
0.0
 11
23.3696117932
 21
146.8445323382
 31
0.0
 40
0.1281028287
 41
-1.4315580931
 42
-1.4274357938
  0
ELLIPSE
  5
672
100
AcDbEntity
  8
KONSTRUKTIONSELEMENTE
100
AcDbEllipse
 62
7
  6
CONTINUOUS
 10
107.4201398532
 20
68.0472816484
 30
0.0
 11
26.9259066593
 21
38.0303246957
 31
0.0
 40
0.3478431617
 41
-1.2228256855
 42
-1.2104706664
  0
ELLIPSE
  5
673
100
AcDbEntity
  8
KONSTRUKTIONSELEMENTE
100
AcDbEllipse
 62
7
  6
CONTINUOUS
 10
107.4201398532
 20
69.8687392397
 30
0.0
 11
29.2368164618
 21
19.6214977019
 31
0.0
 40
0.3426716679
 41
-1.0086583523
 42
-0.9922100106
  0
ELLIPSE
  5
674
100
AcDbEntity
  8
KONSTRUKTIONSELEMENTE
100
AcDbEllipse
 62
7
  6
CONTINUOUS
 10
107.4201398532
 20
70.9694347029
 30
0.0
 11
29.9604997335
 21
7.8138449319
 31
0.0
 40
0.1969553792
 41
-0.846255706
 42
-0.8339357076
  0
ELLIPSE
  5
675
100
AcDbEntity
  8
KONSTRUKTIONSELEMENTE
100
AcDbEllipse
 62
7
  6
CONTINUOUS
 10
107.4201398532
 20
72.4103608219
 30
0.0
 11
29.9264688728
 21
9.3007574576
 31
0.0
 40
0.2256974419
 41
-0.9426937556
 42
-0.9265663053
  0
ELLIPSE
  5
676
100
AcDbEntity
  8
AUSFORMSCHRAEGEN
100
AcDbEllipse
 62
7
  6
CONTINUOUS
 10
107.4201398532
 20
81.8378976749
 30
0.0
 11
29.9997863615
 21
1.6946747315
 31
0.0
 40
0.0668079701
 41
0.26150507
 42
0.8688906911
  0
ELLIPSE
  5
677
100
AcDbEntity
  8
0
100
AcDbEllipse
 62
7
  6
CONTINUOUS
 10
143.6572574296
 20
53.0200657441
 30
0.0
 11
2.9999786361
 21
-0.1694674731
 31
0.0
 40
0.0668079701
 41
0.7019056357
 42
1.7470151702
  0
ELLIPSE
  5
678
100
AcDbEntity
  8
AUSFORMSCHRAEGEN
100
AcDbEllipse
 62
7
  6
CONTINUOUS
 10
143.6572574296
 20
83.9549133796
 30
0.0
 11
2.9999786361
 21
0.1694674731
 31
0.0
 40
0.0668079701
 41
-1.7470151702
 42
-0.7019056357
  0
ELLIPSE
  5
679
100
AcDbEntity
  8
AUSFORMSCHRAEGEN
100
AcDbEllipse
 62
7
  6
CONTINUOUS
 10
145.8813826643
 20
84.9874895618
 30
0.0
 11
3.9999715149
 21
0.2259566309
 31
0.0
 40
0.0668079701
 41
0.0
 42
6.2831853072
  0
ELLIPSE
  5
67A
100
AcDbEntity
  8
0
100
AcDbEllipse
 62
7
  6
CONTINUOUS
 10
145.8813826643
 20
51.9874895618
 30
0.0
 11
3.9999715149
 21
-0.2259566309
 31
0.0
 40
0.0668079701
 41
0.0
 42
6.2831853072
  0
ELLIPSE
  5
67B
100
AcDbEntity
  8
AUSFORMSCHRAEGEN
100
AcDbEllipse
 62
7
  6
CONTINUOUS
 10
145.8813826643
 20
84.9874895618
 30
0.0
 11
9.9999287872
 21
0.5648915772
 31
0.0
 40
0.0668079701
 41
-0.7019056357
 42
-0.3629159557
  0
ELLIPSE
  5
67C
100
AcDbEntity
  8
KONSTRUKTIONSELEMENTE
100
AcDbEllipse
 62
7
  6
CONTINUOUS
 10
94.2685629946
 20
71.6680833521
 30
0.0
 11
39.5926930206
 21
8.9472566071
 31
0.0
 40
0.3313151057
 41
2.1008090555
 42
2.1125784883
  0
ELLIPSE
  5
67D
100
AcDbEntity
  8
KONSTRUKTIONSELEMENTE
100
AcDbEllipse
 62
7
  6
CONTINUOUS
 10
80.5843090934
 20
63.6874895618
 30
0.0
 11
5.6913664765
 21
17.3320281386
 31
0.0
 40
0.853585082
 41
0.2732814167
 42
0.6535662514
  0
ELLIPSE
  5
67E
100
AcDbEntity
  8
0
100
AcDbEllipse
 62
7
  6
CONTINUOUS
 10
80.5843090934
 20
73.2874895618
 30
0.0
 11
5.6913664765
 21
-17.3320281386
 31
0.0
 40
0.853585082
 41
-0.6535662514
 42
-0.2732814167
  0
ELLIPSE
  5
67F
100
AcDbEntity
  8
0
100
AcDbEllipse
 62
7
  6
CONTINUOUS
 10
94.2685629946
 20
65.3068957716
 30
0.0
 11
39.5926930206
 21
-8.9472566071
 31
0.0
 40
0.3313151057
 41
-2.1125784883
 42
-2.1008090555
  0
ELLIPSE
  5
680
100
AcDbEntity
  8
0
100
AcDbEllipse
 62
7
  6
CONTINUOUS
 10
98.0828670234
 20
56.5441608891
 30
0.0
 11
10.885606567
 21
3.0475726166
 31
0.0
 40
0.3832815446
 41
0.8308076166
 42
2.0624291451
  0
ELLIPSE
  5
681
100
AcDbEntity
  8
KONSTRUKTIONSELEMENTE
100
AcDbEllipse
 62
7
  6
CONTINUOUS
 10
94.9631567754
 20
78.8006059423
 30
0.0
 11
39.0969172998
 21
-0.0
 31
0.0
 40
0.0732087097
 41
-2.7054541575
 42
-2.440687707
  0
ELLIPSE
  5
682
100
AcDbEntity
  8
KONSTRUKTIONSELEMENTE
100
AcDbEllipse
 62
7
  6
CONTINUOUS
 10
98.0828670234
 20
80.4308182346
 30
0.0
 11
10.885606567
 21
-3.0475726166
 31
0.0
 40
0.3832815446
 41
-2.0624291451
 42
-0.8308076166
  0
ELLIPSE
  5
683
100
AcDbEntity
  8
KONSTRUKTIONSELEMENTE
100
AcDbEllipse
 62
7
  6
CONTINUOUS
 10
102.0015227362
 20
78.4314369944
 30
0.0
 11
1.9431396433
 21
-0.5443473631
 31
0.0
 40
0.3833255948
 41
-3.1211230292
 42
-2.0638492274
  0
ELLIPSE
  5
684
100
AcDbEntity
  8
KONSTRUKTIONSELEMENTE
100
AcDbEllipse
 62
7
  6
CONTINUOUS
 10
94.2482324939
 20
72.0874895618
 30
0.0
 11
0.0
 21
9.6
 31
0.0
 40
0.6084619688
 41
0.0
 42
0.1224262435
  0
ELLIPSE
  5
685
100
AcDbEntity
  8
KONSTRUKTIONSELEMENTE
100
AcDbEllipse
 62
7
  6
CONTINUOUS
 10
92.8053831408
 20
72.0874895618
 30
0.0
 11
0.0
 21
9.6
 31
0.0
 40
0.6222619915
 41
-0.1224262435
 42
0.0
  0
ELLIPSE
  5
686
100
AcDbEntity
  8
0
100
AcDbEllipse
 62
7
  6
CONTINUOUS
 10
82.9962046684
 20
64.8874895618
 30
0.0
 11
3.0353954541
 21
-9.2437483406
 31
0.0
 40
0.853585082
 41
-0.2732814167
 42
0.1674142194
  0
ELLIPSE
  5
687
100
AcDbEntity
  8
KONSTRUKTIONSELEMENTE
100
AcDbEllipse
 62
7
  6
CONTINUOUS
 10
82.9962046684
 20
72.0874895618
 30
0.0
 11
3.0353954541
 21
9.2437483406
 31
0.0
 40
0.853585082
 41
-0.1674142194
 42
0.2732814167
  0
ELLIPSE
  5
688
100
AcDbEntity
  8
0
100
AcDbEllipse
 62
7
  6
CONTINUOUS
 10
94.9631567754
 20
58.1743731814
 30
0.0
 11
39.0969172998
 21
-0.0
 31
0.0
 40
0.0732087097
 41
2.440687707
 42
2.7054541575
  0
ELLIPSE
  5
689
100
AcDbEntity
  8
0
100
AcDbEllipse
 62
7
  6
CONTINUOUS
 10
102.0015227362
 20
58.5435421293
 30
0.0
 11
1.9431396433
 21
0.5443473631
 31
0.0
 40
0.3833255948
 41
8.3470345346
 42
9.4043083364
  0
ENDSEC
  0
SECTION
  2
OBJECTS
  0
DICTIONARY
  5
C
100
AcDbDictionary
280
0
281
1
  3
ACAD_GROUP
350
D
  3
ACAD_MLINESTYLE
350
17
  3
ACAD_LAYOUT
350
1A
  3
ACAD_PLOTSETTINGS
350
19
  3
ACAD_PLOTSTYLENAME
350
E
  0
DICTIONARY
  5
D
102
{ACAD_REACTORS
330
C
102
}
100
AcDbDictionary
280
0
281
1
  0
ACDBDICTIONARYWDFLT
  5
E
102
{ACAD_REACTORS
330
C
102
}
100
AcDbDictionary
281
1
  3
Normal
350
F
100
AcDbDictionaryWithDefault
340
F
  0
DICTIONARY
  5
17
102
{ACAD_REACTORS
330
C
102
}
100
AcDbDictionary
280
0
281
1
  3
Standard
350
18
  0
DICTIONARY
  5
19
102
{ACAD_REACTORS
330
C
102
}
100
AcDbDictionary
281
1
  0
DICTIONARY
  5
1A
102
{ACAD_REACTORS
330
C
102
}
100
AcDbDictionary
281
1
  3
Model
350
68A
  3
Layout1
350
68B
  0
ACDBPLACEHOLDER
  5
F
102
{ACAD_REACTORS
330
E
102
}
  0
MLINESTYLE
  5
18
102
{ACAD_REACTORS
330
17
102
}
100
AcDbMlineStyle
  2
STANDARD
 70
0
  3

 62
256
 51
90.0
 52
90.0
 71
2
 49
0.5
 62
256
  6
BYLAYER
 49
-0.5
 62
256
  6
BYLAYER
  0
LAYOUT
  5
68A
102
{ACAD_REACTORS
330
1A
102
}
100
AcDbPlotSettings
  1

  2
none_device
  4
ISO_A3_(420.00_x_297.00_MM)
  6

 40
0.0
 41
0.0
 42
0.0
 43
0.0
 44
420.0
 45
297.0
 46
0.0
 47
0.0
 48
0.0
 49
0.0
140
0.0
141
0.0
142
1.0
143
1.0
 70
1024
 72
1
 73
0
 74
0
  7

 75
0
147
1.0
148
0.0
149
0.0
100
AcDbLayout
  1
Model
 70
0
 71
0
 10
0.0
 20
0.0
 11
420.0
 21
297.0
 12
0.0
 22
0.0
 32
0.0
 14
0.0
 24
0.0
 34
0.0
 15
0.0
 25
0.0
 35
0.0
146
0.0
 13
0.0
 23
0.0
 33
0.0
 16
1.0
 26
0.0
 36
0.0
 17
0.0
 27
1.0
 37
0.0
 76
0
330
20B
345
0
346
0
  0
LAYOUT
  5
68B
102
{ACAD_REACTORS
330
1A
102
}
100
AcDbPlotSettings
  1

  2
none_device
  4
ISO_A3_(420.00_x_297.00_MM)
  6

 40
0.0
 41
0.0
 42
0.0
 43
0.0
 44
420.0
 45
297.0
 46
0.0
 47
0.0
 48
0.0
 49
0.0
140
0.0
141
0.0
142
1.0
143
1.0
 70
0
 72
1
 73
0
 74
0
  7

 75
0
147
1.0
148
0.0
149
0.0
100
AcDbLayout
  1
Layout1
 70
0
 71
1
 10
0.0
 20
0.0
 11
420.0
 21
297.0
 12
0.0
 22
0.0
 32
0.0
 14
0.0
 24
0.0
 34
0.0
 15
0.0
 25
0.0
 35
0.0
146
0.0
 13
0.0
 23
0.0
 33
0.0
 16
1.0
 26
0.0
 36
0.0
 17
0.0
 27
1.0
 37
0.0
 76
0
330
20C
345
0
346
0
  0
ENDSEC
  0
EOF
