999
DXF file: vabh-w-2-5.dxf
999
Pro/ENGINEER 2010140 by Parametric Technology Corporation
  0
SECTION
  2
HEADER
  9
$ACADVER
  1
AC1015
  9
$DWGCODEPAGE
  3
ANSI_1252
  9
$EXTMAX
 10
420.0
 20
297.0
 30
0.0
  9
$EXTMIN
 10
0.0
 20
0.0
 30
0.0
  9
$LIMMIN
 10
0.0
 20
0.0
  9
$LIMMAX
 10
420.0
 20
297.0
  9
$VIEWCTR
 10
210.0
 20
148.5
  9
$VIEWSIZE
 40
297.0
  9
$CLAYER
  8
0
  9
$LTSCALE
 40
23.1
  9
$CELTYPE
  6
BYLAYER
  9
$DIMSCALE
 40
1.0
  9
$DIMASZ
 40
3.5
  9
$DIMEXO
 40
2.625
  9
$DIMDLI
 40
15.96
  9
$DIMEXE
 40
7.56
  9
$DIMCEN
 40
3.78
  9
$DIMLFAC
 40
1.0
  9
$DIMBLK
  1
_FILLED
  9
$DIMTXT
 40
3.5
  9
$DIMTOL
 70
1
  9
$DIMLIM
 70
0
  9
$DIMTFAC
 40
1.0
  9
$DIMTP
 40
0.005
  9
$DIMTM
 40
0.005
  9
$PDMODE
 70
3
  9
$PDSIZE
 40
0.3125
  9
$HANDSEED
  5
6D9
  9
$TILEMODE
 70
1
  9
$MEASUREMENT
 70
1
  9
$INSUNITS
 70
4
  0
ENDSEC
  0
SECTION
  2
CLASSES
  0
CLASS
  1
ACDBDICTIONARYWDFLT
  2
AcDbDictionaryWithDefault
  3
AutoCAD 2000
 90
0
280
0
281
0
  0
CLASS
  1
ACDBPLACEHOLDER
  2
AcDbPlaceHolder
  3
AutoCAD 2000
 90
0
280
0
281
0
  0
CLASS
  1
LAYOUT
  2
AcDbLayout
  3
AutoCAD 2000
 90
0
280
0
281
0
  0
ENDSEC
  0
SECTION
  2
TABLES
  0
TABLE
  2
VPORT
  5
8
100
AcDbSymbolTable
 70
2
  0
VPORT
  5
1F4
100
AcDbSymbolTableRecord
100
AcDbViewportTableRecord
  2
*ACTIVE
 70
0
 10
0.0
 20
0.0
 11
1.0
 21
1.0
 12
210.0
 22
148.5
 13
0.0
 23
0.0
 14
1.0
 24
1.0
 15
0.0
 25
0.0
 16
0.0
 26
0.0
 36
1.0
 17
0.0
 27
0.0
 37
0.0
 40
297.0
 41
1.4141414141
 42
50.0
 43
0.0
 44
0.0
 50
0.0
 51
0.0
 71
0
 72
100
 73
1
 74
1
 75
0
 76
0
 77
0
 78
0
  0
ENDTAB
  0
TABLE
  2
LTYPE
  5
5
100
AcDbSymbolTable
 70
6
  0
LTYPE
  5
14
100
AcDbSymbolTableRecord
100
AcDbLinetypeTableRecord
  2
BYBLOCK
 70
0
  3

 72
65
 73
0
 40
0.0
  0
LTYPE
  5
15
100
AcDbSymbolTableRecord
100
AcDbLinetypeTableRecord
  2
BYLAYER
 70
0
  3

 72
65
 73
0
 40
0.0
  0
LTYPE
  5
16
100
AcDbSymbolTableRecord
100
AcDbLinetypeTableRecord
  2
CONTINUOUS
 70
64
  3
Solid line
 72
65
 73
0
 40
0.0
  0
LTYPE
  5
1F5
100
AcDbSymbolTableRecord
100
AcDbLinetypeTableRecord
  2
CENTER
 70
64
  3
____ _ ____ _ ____ _ ____ _ ____ _ ____ _ ____
 72
65
 73
4
 40
0.6
 49
0.375
 74
0
 49
-0.075
 74
0
 49
0.075
 74
0
 49
-0.075
 74
0
  0
LTYPE
  5
1F6
100
AcDbSymbolTableRecord
100
AcDbLinetypeTableRecord
  2
HIDDEN
 70
64
  3
- - - - - - - - - - - - - - - - - - - -
 72
65
 73
2
 40
0.2
 49
0.1
 74
0
 49
-0.1
 74
0
  0
LTYPE
  5
1F7
100
AcDbSymbolTableRecord
100
AcDbLinetypeTableRecord
  2
PHANTOM
 70
64
  3
_____ _ _ _____ _ _ _____ _ _ _____
 72
65
 73
6
 40
0.8
 49
0.45
 74
0
 49
-0.05
 74
0
 49
0.1
 74
0
 49
-0.05
 74
0
 49
0.1
 74
0
 49
-0.05
 74
0
  0
LTYPE
  5
1F8
100
AcDbSymbolTableRecord
100
AcDbLinetypeTableRecord
  2
DOT
 70
64
  3
. . . . . . . . . . . . . . . . . . . .
 72
65
 73
2
 40
0.2
 49
0.1
 74
0
 49
-0.1
 74
0
  0
LTYPE
  5
1F9
100
AcDbSymbolTableRecord
100
AcDbLinetypeTableRecord
  2
DASHED
 70
64
  3
- - - - - - - - - - - - - - - - - - - -
 72
65
 73
2
 40
0.2
 49
0.1
 74
0
 49
-0.1
 74
0
  0
ENDTAB
  0
TABLE
  2
LAYER
  5
2
100
AcDbSymbolTable
 70
36
  0
LAYER
  5
10
100
AcDbSymbolTableRecord
100
AcDbLayerTableRecord
  2
0
 70
0
 62
7
  6
CONTINUOUS
370
-3
390
F
  0
LAYER
  5
1FA
100
AcDbSymbolTableRecord
100
AcDbLayerTableRecord
  2
DEFAULT_1
 70
0
 62
7
  6
CENTER
370
-3
390
F
  0
LAYER
  5
1FB
100
AcDbSymbolTableRecord
100
AcDbLayerTableRecord
  2
DEFAULT_2
 70
0
 62
8
  6
HIDDEN
370
-3
390
F
  0
LAYER
  5
1FC
100
AcDbSymbolTableRecord
100
AcDbLayerTableRecord
  2
DEFAULT_3
 70
0
 62
7
  6
PHANTOM
370
-3
390
F
  0
LAYER
  5
1FD
100
AcDbSymbolTableRecord
100
AcDbLayerTableRecord
  2
AUSFORMSCHRAEGEN
 70
0
 62
7
  6
CONTINUOUS
370
-3
390
F
  0
LAYER
  5
1FE
100
AcDbSymbolTableRecord
100
AcDbLayerTableRecord
  2
BEZUGSACHSEN
 70
0
 62
7
  6
CONTINUOUS
370
-3
390
F
  0
LAYER
  5
1FF
100
AcDbSymbolTableRecord
100
AcDbLayerTableRecord
  2
BEZUGSEBENEN
 70
0
 62
7
  6
CONTINUOUS
370
-3
390
F
  0
LAYER
  5
200
100
AcDbSymbolTableRecord
100
AcDbLayerTableRecord
  2
BG_STARTBEZUEGE
 70
0
 62
7
  6
CONTINUOUS
370
-3
390
F
  0
LAYER
  5
201
100
AcDbSymbolTableRecord
100
AcDbLayerTableRecord
  2
BOHRUNGEN
 70
0
 62
7
  6
CONTINUOUS
370
-3
390
F
  0
LAYER
  5
202
100
AcDbSymbolTableRecord
100
AcDbLayerTableRecord
  2
FASEN
 70
0
 62
7
  6
CONTINUOUS
370
-3
390
F
  0
LAYER
  5
203
100
AcDbSymbolTableRecord
100
AcDbLayerTableRecord
  2
HILFEN
 70
0
 62
7
  6
CONTINUOUS
370
-3
390
F
  0
LAYER
  5
204
100
AcDbSymbolTableRecord
100
AcDbLayerTableRecord
  2
KONSTRUKTIONSELEMENTE
 70
0
 62
7
  6
CONTINUOUS
370
-3
390
F
  0
LAYER
  5
205
100
AcDbSymbolTableRecord
100
AcDbLayerTableRecord
  2
PLATZIERUNG
 70
0
 62
7
  6
CONTINUOUS
370
-3
390
F
  0
LAYER
  5
206
100
AcDbSymbolTableRecord
100
AcDbLayerTableRecord
  2
PLAZIERUNG
 70
0
 62
7
  6
CONTINUOUS
370
-3
390
F
  0
LAYER
  5
207
100
AcDbSymbolTableRecord
100
AcDbLayerTableRecord
  2
RUNDUNGEN
 70
0
 62
7
  6
CONTINUOUS
370
-3
390
F
  0
LAYER
  5
208
100
AcDbSymbolTableRecord
100
AcDbLayerTableRecord
  2
TEIL_STARTBEZUEGE
 70
0
 62
7
  6
CONTINUOUS
370
-3
390
F
  0
LAYER
  5
209
100
AcDbSymbolTableRecord
100
AcDbLayerTableRecord
  2
ZEICHNUNGSBEMASSUNGEN
 70
0
 62
7
  6
CONTINUOUS
370
-3
390
F
  0
ENDTAB
  0
TABLE
  2
STYLE
  5
3
100
AcDbSymbolTable
 70
1
  0
STYLE
  5
11
100
AcDbSymbolTableRecord
100
AcDbTextStyleTableRecord
  2
STANDARD
 70
0
 40
0.0
 41
0.7
 50
0.0
 71
0
 42
0.2
  3
txt
  4

  0
STYLE
  5
20A
100
AcDbSymbolTableRecord
100
AcDbTextStyleTableRecord
  2
TEXTSTYLE_1
 70
0
 40
0.0
 41
0.8
 50
0.0
 71
0
 42
0.2
  3
gdt
  4

  0
ENDTAB
  0
TABLE
  2
VIEW
  5
6
100
AcDbSymbolTable
 70
0
  0
ENDTAB
  0
TABLE
  2
UCS
  5
7
100
AcDbSymbolTable
 70
0
  0
ENDTAB
  0
TABLE
  2
APPID
  5
9
100
AcDbSymbolTable
 70
1
  0
APPID
  5
20B
100
AcDbSymbolTableRecord
100
AcDbRegAppTableRecord
  2
ACAD
 70
0
  0
ENDTAB
  0
TABLE
  2
BLOCK_RECORD
  5
1
100
AcDbSymbolTable
 70
0
  0
BLOCK_RECORD
  5
20C
100
AcDbSymbolTableRecord
100
AcDbBlockTableRecord
  2
*Model_Space
  0
BLOCK_RECORD
  5
20D
100
AcDbSymbolTableRecord
100
AcDbBlockTableRecord
  2
*Paper_Space
  0
ENDTAB
  0
TABLE
  2
DIMSTYLE
  5
A
100
AcDbSymbolTable
 70
1
100
AcDbDimStyleTable
 71
0
  0
DIMSTYLE
105
20E
100
AcDbSymbolTableRecord
100
AcDbDimStyleTableRecord
  2
STANDARD
 70
0
  3

  4

 40
1.0
 41
3.5
 42
0.0625
 43
0.38
 44
0.18
 45
0.0
 46
0.0
 47
0.005
 48
0.005
140
3.5
141
0.09
142
0.0
143
25.4
144
1.0
145
0.0
146
1.0
147
0.09
 71
1.0
 72
0.0
 73
0
 74
0
 75
0
 76
0
 77
1
 78
8
170
0
171
2
172
0
173
0
174
0
175
0
176
0
177
0
178
5
270
2
271
3
272
3
273
2
274
2
275
0
280
0
281
0
282
0
283
1
284
8
285
0
286
0
287
3
288
0
340
11
  0
ENDTAB
  0
ENDSEC
  0
SECTION
  2
BLOCKS
  0
BLOCK
  5
20
100
AcDbEntity
  8
0
100
AcDbBlockBegin
  2
*Model_Space
 70
0
 10
0.0
 20
0.0
 30
0.0
  3
*Model_Space
  1

  0
ENDBLK
  5
21
100
AcDbEntity
  8
0
100
AcDbBlockEnd
  0
BLOCK
  5
1C
100
AcDbEntity
  8
0
100
AcDbBlockBegin
  2
*Paper_Space
 70
0
 10
0.0
 20
0.0
 30
0.0
  3
*Paper_Space
  1

  0
ENDBLK
  5
1D
100
AcDbEntity
  8
0
100
AcDbBlockEnd
  0
ENDSEC
  0
SECTION
  2
ENTITIES
  0
MTEXT
  5
20F
100
AcDbEntity
  8
0
100
AcDbMText
 62
5
  6
CONTINUOUS
  7
STANDARD
 71
1
 72
1
 10
133.1345550254
 20
174.8155824115
 30
0.0
 11
0.0
 21
1.0
 31
0.0
 44
0.9
  1
RUD VABH-W 2,5t
 40
5.0
 41
60.119047619
  0
MTEXT
  5
210
100
AcDbEntity
  8
0
100
AcDbMText
 62
5
  6
CONTINUOUS
  7
STANDARD
 71
1
 72
1
 10
254.3398696083
 20
142.8203906738
 30
0.0
 11
0.0
 21
1.0
 31
0.0
 44
0.9
  1
RUD VABH-W
 40
5.0
 41
42.9761904762
  0
MTEXT
  5
211
100
AcDbEntity
  8
0
100
AcDbMText
 62
5
  6
CONTINUOUS
  7
STANDARD
 71
1
 72
1
 10
82.0488659794
 20
105.6620203842
 30
0.0
 11
1.0
 21
0.0
 31
0.0
 44
0.9
  1
RUD VABH-W 2,5t
 40
5.0
 41
60.119047619
  0
LINE
  5
212
100
AcDbEntity
  8
0
100
AcDbLine
 62
7
  6
CONTINUOUS
 10
0.0
 20
0.0
 11
0.0
 21
297.0
  0
LINE
  5
213
100
AcDbEntity
  8
0
100
AcDbLine
 62
7
  6
CONTINUOUS
 10
0.0
 20
0.0
 11
420.0
 21
0.0
  0
LINE
  5
214
100
AcDbEntity
  8
0
100
AcDbLine
 62
7
  6
CONTINUOUS
 10
0.0
 20
297.0
 11
420.0
 21
297.0
  0
LINE
  5
215
100
AcDbEntity
  8
0
100
AcDbLine
 62
7
  6
CONTINUOUS
 10
420.0
 20
0.0
 11
420.0
 21
297.0
  0
LINE
  5
216
100
AcDbEntity
  8
0
100
AcDbLine
 62
7
  6
CONTINUOUS
 10
115.9209067674
 20
134.4330047795
 11
111.9722837964
 21
134.087545033
  0
LINE
  5
217
100
AcDbEntity
  8
KONSTRUKTIONSELEMENTE
100
AcDbLine
 62
7
  6
CONTINUOUS
 10
111.9722837964
 20
134.087545033
 11
108.0236608254
 21
134.4330047795
  0
LWPOLYLINE
  5
218
100
AcDbEntity
  8
0
100
AcDbPolyline
 62
7
  6
CONTINUOUS
 90
22
 70
0
 10
118.3510185678
 20
135.5459748897
 10
118.3743931772
 20
135.5524846608
 10
118.5720976648
 20
135.6114963028
 10
118.7646540615
 20
135.6734182976
 10
118.9546416096
 20
135.7396381987
 10
119.1463446466
 20
135.8125582797
 10
119.3436900565
 20
135.8951421764
 10
119.5486583946
 20
135.9903237224
 10
119.7645632909
 20
136.1025963482
 10
119.9889612728
 20
136.2344073206
 10
120.2209815753
 20
136.3895521623
 10
120.4558431516
 20
136.5695733734
 10
120.6889421971
 20
136.7756984612
 10
120.9158697651
 20
137.0088880217
 10
121.1317100091
 20
137.2690363401
 10
121.3316871871
 20
137.5553360684
 10
121.5104973044
 20
137.864813383
 10
121.6656092564
 20
138.1982075243
 10
121.7932127455
 20
138.5542154479
 10
121.8898433483
 20
138.9329777483
 10
121.9512535143
 20
139.3343875341
 10
121.9722862159
 20
139.7470074008
  0
LWPOLYLINE
  5
219
100
AcDbEntity
  8
0
100
AcDbPolyline
 62
7
  6
CONTINUOUS
 90
8
 70
0
 10
120.7398160565
 20
136.8279761682
 10
120.7832907783
 20
136.8373679205
 10
120.9327402099
 20
136.8686736398
 10
121.093293165
 20
136.9013225168
 10
121.2651060993
 20
136.9352754416
 10
121.4483353107
 20
136.9704966245
 10
121.6431689611
 20
137.006958381
 10
121.8497807741
 20
137.0446324488
  0
LINE
  5
21A
100
AcDbEntity
  8
0
100
AcDbLine
 62
7
  6
CONTINUOUS
 10
121.8497807741
 20
137.0446324488
 11
122.2991804196
 21
137.1235364293
  0
LINE
  5
21B
100
AcDbEntity
  8
0
100
AcDbLine
 62
7
  6
CONTINUOUS
 10
122.2991804196
 20
137.1235364293
 11
122.7982479253
 21
137.2070586926
  0
LINE
  5
21C
100
AcDbEntity
  8
0
100
AcDbLine
 62
7
  6
CONTINUOUS
 10
122.7982479253
 20
137.2070586926
 11
123.3487267185
 21
137.2950598206
  0
LINE
  5
21D
100
AcDbEntity
  8
0
100
AcDbLine
 62
7
  6
CONTINUOUS
 10
123.3487267185
 20
137.2950598206
 11
123.9518807221
 21
137.3873285699
  0
LINE
  5
21E
100
AcDbEntity
  8
0
100
AcDbLine
 62
7
  6
CONTINUOUS
 10
123.9518807221
 20
137.3873285699
 11
124.6083074127
 21
137.483565085
  0
LINE
  5
21F
100
AcDbEntity
  8
0
100
AcDbLine
 62
7
  6
CONTINUOUS
 10
124.6083074127
 20
137.483565085
 11
125.3182341661
 21
137.58343455
  0
LINE
  5
220
100
AcDbEntity
  8
0
100
AcDbLine
 62
7
  6
CONTINUOUS
 10
125.3182341661
 20
137.58343455
 11
126.0815392967
 21
137.6865719103
  0
LINE
  5
221
100
AcDbEntity
  8
0
100
AcDbLine
 62
7
  6
CONTINUOUS
 10
126.0815392967
 20
137.6865719103
 11
126.8976783892
 21
137.7925729743
  0
LINE
  5
222
100
AcDbEntity
  8
0
100
AcDbLine
 62
7
  6
CONTINUOUS
 10
126.8976783892
 20
137.7925729743
 11
127.7656269437
 21
137.9009895884
  0
LWPOLYLINE
  5
223
100
AcDbEntity
  8
0
100
AcDbPolyline
 62
7
  6
CONTINUOUS
 90
21
 70
0
 10
143.5269924997
 20
139.4822583287
 10
144.2698216642
 20
139.5740211609
 10
145.1572668128
 20
139.7463138093
 10
146.0302099188
 20
139.9851628487
 10
146.88352005
 20
140.2893227948
 10
147.7122323565
 20
140.6571600529
 10
148.5115174181
 20
141.0866521719
 10
149.2767215101
 20
141.5754067725
 10
150.0033704799
 20
142.1206598539
 10
150.6872230329
 20
142.7193049979
 10
151.3242942706
 20
143.3679134972
 10
151.9108767835
 20
144.0627529078
 10
152.4435651375
 20
144.7998099568
 10
152.91927778
 20
145.5748165848
 10
153.3352725533
 20
146.3832689478
 10
153.6891674503
 20
147.2204537523
 10
153.9789694168
 20
148.0815118882
 10
154.2030685617
 20
148.9614336502
 10
154.3602557049
 20
149.8551055342
 10
154.4497253249
 20
150.7572787747
 10
154.4722836092
 20
151.4939756683
  0
LINE
  5
224
100
AcDbEntity
  8
0
100
AcDbLine
 62
7
  6
CONTINUOUS
 10
127.7656269437
 20
137.9009895884
 11
128.6838726066
 21
138.01133196
  0
LINE
  5
225
100
AcDbEntity
  8
0
100
AcDbLine
 62
7
  6
CONTINUOUS
 10
128.6838726066
 20
138.01133196
 11
129.6503995139
 21
138.1230691404
  0
LINE
  5
226
100
AcDbEntity
  8
0
100
AcDbLine
 62
7
  6
CONTINUOUS
 10
129.6503995139
 20
138.1230691404
 11
131.1850095674
 21
138.292029287
  0
LINE
  5
227
100
AcDbEntity
  8
0
100
AcDbLine
 62
7
  6
CONTINUOUS
 10
131.1850095674
 20
138.292029287
 11
132.2599280657
 21
138.4046673724
  0
LINE
  5
228
100
AcDbEntity
  8
0
100
AcDbLine
 62
7
  6
CONTINUOUS
 10
133.6644826933
 20
138.5459452561
 11
136.0692512996
 21
138.7926317762
  0
LINE
  5
229
100
AcDbEntity
  8
0
100
AcDbLine
 62
7
  6
CONTINUOUS
 10
132.2599280657
 20
138.4046673724
 11
133.6644826933
 21
138.5459452561
  0
LINE
  5
22A
100
AcDbEntity
  8
0
100
AcDbLine
 62
7
  6
CONTINUOUS
 10
136.0692512996
 20
138.7926317762
 11
137.6536623703
 21
138.9469041195
  0
LINE
  5
22B
100
AcDbEntity
  8
0
100
AcDbLine
 62
7
  6
CONTINUOUS
 10
137.6536623703
 20
138.9469041195
 11
143.5269882519
 21
139.4822607125
  0
LINE
  5
22C
100
AcDbEntity
  8
RUNDUNGEN
100
AcDbLine
 62
7
  6
CONTINUOUS
 10
80.417579341
 20
139.4822607125
 11
85.534347551
 21
139.0174853007
  0
LINE
  5
22D
100
AcDbEntity
  8
RUNDUNGEN
100
AcDbLine
 62
7
  6
CONTINUOUS
 10
85.534347551
 20
139.0174853007
 11
87.0718212984
 21
138.871939097
  0
LINE
  5
22E
100
AcDbEntity
  8
RUNDUNGEN
100
AcDbLine
 62
7
  6
CONTINUOUS
 10
87.0718212984
 20
138.871939097
 11
88.6995610475
 21
138.7090446838
  0
LWPOLYLINE
  5
22F
100
AcDbEntity
  8
RUNDUNGEN
100
AcDbPolyline
 62
7
  6
CONTINUOUS
 90
3
 70
0
 10
88.6995610475
 20
138.7090446838
 10
89.48452146
 20
138.6274309003
 10
91.6838267154
 20
138.4047508465
  0
LINE
  5
230
100
AcDbEntity
  8
RUNDUNGEN
100
AcDbLine
 62
7
  6
CONTINUOUS
 10
91.6838267154
 20
138.4047508465
 11
93.2799954975
 21
138.2358375743
  0
LINE
  5
231
100
AcDbEntity
  8
RUNDUNGEN
100
AcDbLine
 62
7
  6
CONTINUOUS
 10
93.2799954975
 20
138.2358375743
 11
94.7804871954
 21
138.0673885096
  0
LINE
  5
232
100
AcDbEntity
  8
RUNDUNGEN
100
AcDbLine
 62
7
  6
CONTINUOUS
 10
94.7804871954
 20
138.0673885096
 11
95.7226387901
 21
137.9563551369
  0
LINE
  5
233
100
AcDbEntity
  8
RUNDUNGEN
100
AcDbLine
 62
7
  6
CONTINUOUS
 10
95.7226387901
 20
137.9563551369
 11
96.6155169732
 21
137.8469825665
  0
LINE
  5
234
100
AcDbEntity
  8
RUNDUNGEN
100
AcDbLine
 62
7
  6
CONTINUOUS
 10
96.6155169732
 20
137.8469825665
 11
97.4573622343
 21
137.7397802326
  0
LINE
  5
235
100
AcDbEntity
  8
RUNDUNGEN
100
AcDbLine
 62
7
  6
CONTINUOUS
 10
97.4573622343
 20
137.7397802326
 11
98.2469042841
 21
137.6352170306
  0
LINE
  5
236
100
AcDbEntity
  8
RUNDUNGEN
100
AcDbLine
 62
7
  6
CONTINUOUS
 10
98.2469042841
 20
137.6352170306
 11
98.9833581726
 21
137.5337186817
  0
LINE
  5
237
100
AcDbEntity
  8
RUNDUNGEN
100
AcDbLine
 62
7
  6
CONTINUOUS
 10
98.9833581726
 20
137.5337186817
 11
99.6664014596
 21
137.4356679298
  0
LINE
  5
238
100
AcDbEntity
  8
RUNDUNGEN
100
AcDbLine
 62
7
  6
CONTINUOUS
 10
99.6664014596
 20
137.4356679298
 11
100.2960918801
 21
137.3414133166
  0
LINE
  5
239
100
AcDbEntity
  8
RUNDUNGEN
100
AcDbLine
 62
7
  6
CONTINUOUS
 10
100.2960918801
 20
137.3414133166
 11
100.8728295982
 21
137.2512732143
  0
LINE
  5
23A
100
AcDbEntity
  8
RUNDUNGEN
100
AcDbLine
 62
7
  6
CONTINUOUS
 10
100.8728295982
 20
137.2512732143
 11
101.3974574311
 21
137.1655178767
  0
LWPOLYLINE
  5
23B
100
AcDbEntity
  8
RUNDUNGEN
100
AcDbPolyline
 62
7
  6
CONTINUOUS
 90
10
 70
0
 10
101.3974574311
 20
137.1655178767
 10
101.871598903
 20
137.0843037482
 10
102.090292085
 20
137.045441506
 10
102.2970076045
 20
137.0077692696
 10
102.4919600347
 20
136.9713066572
 10
102.6753232545
 20
136.9360817017
 10
102.8472855461
 20
136.9021218379
 10
103.0080029771
 20
136.8694626381
 10
103.1576314214
 20
136.8381430524
 10
103.2048923723
 20
136.8279415723
  0
LWPOLYLINE
  5
23C
100
AcDbEntity
  8
RUNDUNGEN
100
AcDbPolyline
 62
7
  6
CONTINUOUS
 90
21
 70
0
 10
69.4722839837
 20
151.4939756683
 10
69.494842268
 20
150.7572787747
 10
69.584311888
 20
149.8551055342
 10
69.7414990312
 20
148.9614336502
 10
69.9655981761
 20
148.0815118882
 10
70.2554001426
 20
147.2204537523
 10
70.6092950395
 20
146.3832689478
 10
71.0252898129
 20
145.5748165848
 10
71.5010024554
 20
144.7998099568
 10
72.0336908093
 20
144.0627529078
 10
72.6202733222
 20
143.3679134972
 10
73.25734456
 20
142.7193049979
 10
73.941197113
 20
142.1206598539
 10
74.6678460828
 20
141.5754067725
 10
75.4330501748
 20
141.0866521719
 10
76.2323352363
 20
140.6571600529
 10
77.0610475429
 20
140.2893227948
 10
77.9143576741
 20
139.9851628487
 10
78.7873007801
 20
139.7463138093
 10
79.6747459287
 20
139.5740211609
 10
80.4175750932
 20
139.4822583287
  0
LINE
  5
23D
100
AcDbEntity
  8
RUNDUNGEN
100
AcDbLine
 62
7
  6
CONTINUOUS
 10
69.4722837964
 20
264.7533027449
 11
69.4722837964
 21
151.4939756683
  0
LINE
  5
23E
100
AcDbEntity
  8
0
100
AcDbLine
 62
7
  6
CONTINUOUS
 10
116.114584695
 20
244.9120450968
 11
116.1146457144
 21
244.9120730179
  0
LWPOLYLINE
  5
23F
100
AcDbEntity
  8
0
100
AcDbPolyline
 62
7
  6
CONTINUOUS
 90
7
 70
0
 10
116.1145847687
 20
244.9120449401
 10
116.0329651053
 20
244.8768884247
 10
115.8431400747
 20
244.8105699505
 10
115.6459966534
 20
244.7619348332
 10
115.4467513831
 20
244.7317138891
 10
115.2507852798
 20
244.7195948109
 10
115.211337992
 20
244.7192419987
  0
LINE
  5
240
100
AcDbEntity
  8
KONSTRUKTIONSELEMENTE
100
AcDbLine
 62
7
  6
CONTINUOUS
 10
115.9344928524
 20
245.0019847295
 11
116.0527966341
 21
245.0481118362
  0
LWPOLYLINE
  5
241
100
AcDbEntity
  8
0
100
AcDbPolyline
 62
7
  6
CONTINUOUS
 90
14
 70
0
 10
108.2222837964
 20
256.9327918955
 10
108.1933617455
 20
256.8933406494
 10
108.1537264447
 20
256.8188785724
 10
108.1316560036
 20
256.7630170291
 10
108.1178546995
 20
256.7179978559
 10
108.1080581577
 20
256.6783337109
 10
108.1004655198
 20
256.6414513082
 10
108.0936717751
 20
256.6028125403
 10
108.087463792
 20
256.5621812417
 10
108.0815075003
 20
256.5179934938
 10
108.0757379403
 20
256.4700699824
 10
108.0700807655
 20
256.4180279452
 10
108.0644800783
 20
256.3614871461
 10
108.0588887016
 20
256.3000143685
  0
LWPOLYLINE
  5
242
100
AcDbEntity
  8
0
100
AcDbPolyline
 62
7
  6
CONTINUOUS
 90
14
 70
0
 10
107.4183370119
 20
245.1796159693
 10
107.4589953237
 20
245.2229249023
 10
107.5156666978
 20
245.3082551474
 10
107.5480986864
 20
245.3756646219
 10
107.5678325739
 20
245.4304836128
 10
107.5804867432
 20
245.4758931515
 10
107.5895412528
 20
245.5161223367
 10
107.5970740778
 20
245.5561676646
 10
107.6036343593
 20
245.5968416192
 10
107.6097751876
 20
245.6403594218
 10
107.6156376014
 20
245.6871421388
 10
107.6214029981
 20
245.7383395595
 10
107.6271068863
 20
245.7941707558
 10
107.6328039365
 20
245.855140108
  0
LWPOLYLINE
  5
243
100
AcDbEntity
  8
KONSTRUKTIONSELEMENTE
100
AcDbPolyline
 62
7
  6
CONTINUOUS
 90
7
 70
0
 10
116.0527966341
 20
245.0481118362
 10
116.1562211066
 20
245.1168971105
 10
116.2387056374
 20
245.1969624046
 10
116.2993493649
 20
245.2787727304
 10
116.3394836653
 20
245.3532156816
 10
116.361947076
 20
245.4092828713
 10
116.3727561951
 20
245.4440565796
  0
LINE
  5
244
100
AcDbEntity
  8
0
100
AcDbLine
 62
7
  6
CONTINUOUS
 10
99.0152199591
 20
265.5278614286
 11
99.001981547
 21
265.4450152295
  0
LINE
  5
245
100
AcDbEntity
  8
0
100
AcDbLine
 62
7
  6
CONTINUOUS
 10
99.0366420343
 20
265.6587698425
 11
99.0157523947
 21
265.5301770141
  0
LWPOLYLINE
  5
246
100
AcDbEntity
  8
0
100
AcDbPolyline
 62
7
  6
CONTINUOUS
 90
5
 70
0
 10
116.6299846184
 20
245.2819626331
 10
116.5025605483
 20
245.156270625
 10
116.351667835
 20
245.0427895072
 10
116.1795273247
 20
244.9432727473
 10
116.1146457144
 20
244.9120730179
  0
LWPOLYLINE
  5
247
100
AcDbEntity
  8
0
100
AcDbPolyline
 62
7
  6
CONTINUOUS
 90
5
 70
0
 10
98.9826421127
 20
265.2926704732
 10
98.9795568954
 20
265.2517863829
 10
98.9776781013
 20
265.2106712724
 10
98.9768622271
 20
265.1703796716
 10
98.976780255
 20
265.1602784386
  0
LWPOLYLINE
  5
248
100
AcDbEntity
  8
0
100
AcDbPolyline
 62
7
  6
CONTINUOUS
 90
3
 70
0
 10
98.9915827306
 20
265.3726303247
 10
98.9867693065
 20
265.3332535849
 10
98.9826421127
 20
265.2926704732
  0
LINE
  5
249
100
AcDbEntity
  8
0
100
AcDbLine
 62
7
  6
CONTINUOUS
 10
98.9967893685
 20
265.4103780449
 11
98.9915827306
 21
265.3726303247
  0
LINE
  5
24A
100
AcDbEntity
  8
0
100
AcDbLine
 62
7
  6
CONTINUOUS
 10
99.0155792211
 20
265.5301896713
 11
99.0157782587
 21
265.53152568
  0
LINE
  5
24B
100
AcDbEntity
  8
0
100
AcDbLine
 62
7
  6
CONTINUOUS
 10
99.001981547
 20
265.4450152295
 11
98.9967893685
 21
265.4103780449
  0
LINE
  5
24C
100
AcDbEntity
  8
KONSTRUKTIONSELEMENTE
100
AcDbLine
 62
7
  6
CONTINUOUS
 10
101.0334077851
 20
210.1600530319
 11
101.0463724169
 21
210.0355536546
  0
LINE
  5
24D
100
AcDbEntity
  8
KONSTRUKTIONSELEMENTE
100
AcDbLine
 62
7
  6
CONTINUOUS
 10
101.013437905
 20
210.4197493182
 11
101.0334077851
 21
210.1600530319
  0
LWPOLYLINE
  5
24E
100
AcDbEntity
  8
RUNDUNGEN
100
AcDbPolyline
 62
7
  6
CONTINUOUS
 90
22
 70
0
 10
101.972281377
 20
139.7470074283
 10
101.9932765816
 20
139.3347546626
 10
102.0546342808
 20
138.9334176918
 10
102.1512925475
 20
138.5544184512
 10
102.2790572157
 20
138.1979673364
 10
102.4345041258
 20
137.8639810644
 10
102.6137921526
 20
137.5539060767
 10
102.8143196076
 20
137.2671219883
 10
103.0307302932
 20
137.0066326414
 10
103.2581559484
 20
136.7732929059
 10
103.4916561565
 20
136.5671663553
 10
103.7268012068
 20
136.3872570648
 10
103.9589190181
 20
136.2323379896
 10
104.1830944004
 20
136.1008939372
 10
104.3986085295
 20
135.9890016889
 10
104.6031404465
 20
135.8941474184
 10
104.8000222729
 20
135.8118421777
 10
104.9913041683
 20
135.7391373526
 10
105.1809014208
 20
135.6730880317
 10
105.3731163864
 20
135.6112962495
 10
105.5705316274
 20
135.5523817502
 10
105.5935530832
 20
135.5459708537
  0
LINE
  5
24F
100
AcDbEntity
  8
0
100
AcDbLine
 62
7
  6
CONTINUOUS
 10
98.986976666
 20
263.5803735266
 11
98.9901813245
 21
263.4893650036
  0
LINE
  5
250
100
AcDbEntity
  8
0
100
AcDbLine
 62
7
  6
CONTINUOUS
 10
98.9901813245
 20
263.4893650036
 11
98.9961009344
 21
263.2977343211
  0
LINE
  5
251
100
AcDbEntity
  8
0
100
AcDbLine
 62
7
  6
CONTINUOUS
 10
98.9863079792
 20
263.6017628635
 11
98.986976666
 21
263.5803735266
  0
LINE
  5
252
100
AcDbEntity
  8
0
100
AcDbLine
 62
7
  6
CONTINUOUS
 10
98.9852458111
 20
263.6420233835
 11
98.9863079792
 21
263.6017628635
  0
LWPOLYLINE
  5
253
100
AcDbEntity
  8
0
100
AcDbPolyline
 62
7
  6
CONTINUOUS
 90
4
 70
0
 10
98.9961009344
 20
263.2977343211
 10
99.0001527619
 20
263.1218743582
 10
99.0024933508
 20
262.9603701144
 10
99.0033044405
 20
262.8007968882
  0
LINE
  5
254
100
AcDbEntity
  8
0
100
AcDbLine
 62
7
  6
CONTINUOUS
 10
98.9839178123
 20
263.704015669
 11
98.9852458111
 21
263.6420233835
  0
LWPOLYLINE
  5
255
100
AcDbEntity
  8
0
100
AcDbPolyline
 62
7
  6
CONTINUOUS
 90
7
 70
0
 10
98.9775559474
 20
226.7926014901
 10
98.9810697816
 20
226.5829049536
 10
98.9956989294
 20
226.286584645
 10
99.0216925486
 20
225.9893729153
 10
99.0590879082
 20
225.6917042648
 10
99.1079120552
 20
225.394018132
 10
99.1575260522
 20
225.1453984619
  0
LINE
  5
256
100
AcDbEntity
  8
0
100
AcDbLine
 62
7
  6
CONTINUOUS
 10
98.9824679696
 20
263.7919890047
 11
98.9839178123
 21
263.704015669
  0
LINE
  5
257
100
AcDbEntity
  8
0
100
AcDbLine
 62
7
  6
CONTINUOUS
 10
98.9809834247
 20
263.9187229728
 11
98.9824679696
 21
263.7919890047
  0
LINE
  5
258
100
AcDbEntity
  8
0
100
AcDbLine
 62
7
  6
CONTINUOUS
 10
98.9765473837
 20
265.1599534668
 11
98.9809834247
 21
263.9187229728
  0
LINE
  5
259
100
AcDbEntity
  8
RUNDUNGEN
100
AcDbLine
 62
7
  6
CONTINUOUS
 10
101.0012313336
 20
214.7029602365
 11
101.001230247
 21
214.7061980431
  0
LINE
  5
25A
100
AcDbEntity
  8
KONSTRUKTIONSELEMENTE
100
AcDbLine
 62
7
  6
CONTINUOUS
 10
98.9722837964
 20
247.677517555
 11
98.9722837964
 21
251.498930173
  0
LINE
  5
25B
100
AcDbEntity
  8
KONSTRUKTIONSELEMENTE
100
AcDbLine
 62
7
  6
CONTINUOUS
 10
98.9722837964
 20
251.5216654772
 11
98.9722837964
 21
254.497572511
  0
LINE
  5
25C
100
AcDbEntity
  8
KONSTRUKTIONSELEMENTE
100
AcDbLine
 62
7
  6
CONTINUOUS
 10
98.9722837964
 20
272.2943172501
 11
98.9722837964
 21
276.1928081612
  0
LINE
  5
25D
100
AcDbEntity
  8
RUNDUNGEN
100
AcDbLine
 62
7
  6
CONTINUOUS
 10
98.9722837964
 20
276.1928081612
 11
98.9722837964
 21
276.4209154419
  0
LINE
  5
25E
100
AcDbEntity
  8
0
100
AcDbLine
 62
7
  6
CONTINUOUS
 10
98.9775573245
 20
226.7926056368
 11
98.9764449206
 21
247.6814245597
  0
LINE
  5
25F
100
AcDbEntity
  8
KONSTRUKTIONSELEMENTE
100
AcDbLine
 62
7
  6
CONTINUOUS
 10
100.4722837964
 20
207.7763044313
 11
100.4722837964
 21
214.8969952937
  0
LINE
  5
260
100
AcDbEntity
  8
KONSTRUKTIONSELEMENTE
100
AcDbLine
 62
7
  6
CONTINUOUS
 10
101.001230247
 20
214.7062135797
 11
101.001230247
 21
212.3230471697
  0
LINE
  5
261
100
AcDbEntity
  8
0
100
AcDbLine
 62
7
  6
CONTINUOUS
 10
99.0033038562
 20
262.800622483
 11
99.0027600586
 21
255.0332402545
  0
LINE
  5
262
100
AcDbEntity
  8
0
100
AcDbLine
 62
7
  6
CONTINUOUS
 10
99.0027600586
 20
255.0332402545
 11
99.0013912293
 21
254.8600932462
  0
LINE
  5
263
100
AcDbEntity
  8
0
100
AcDbLine
 62
7
  6
CONTINUOUS
 10
99.0013912293
 20
254.8600932462
 11
98.9962633057
 21
254.5044820998
  0
LINE
  5
264
100
AcDbEntity
  8
0
100
AcDbLine
 62
7
  6
CONTINUOUS
 10
101.0481113731
 20
222.512405596
 11
101.0703825776
 21
223.2551432769
  0
LWPOLYLINE
  5
265
100
AcDbEntity
  8
RUNDUNGEN
100
AcDbPolyline
 62
7
  6
CONTINUOUS
 90
8
 70
0
 10
102.0596837423
 20
218.1149679278
 10
101.8462203003
 20
217.7739821856
 10
101.5855585756
 20
217.2794704972
 10
101.3733360701
 20
216.7738278229
 10
101.208942325
 20
216.2589515308
 10
101.0922405794
 20
215.737562198
 10
101.0230483989
 20
215.2120705855
 10
101.0012313787
 20
214.7029579434
  0
LWPOLYLINE
  5
266
100
AcDbEntity
  8
RUNDUNGEN
100
AcDbPolyline
 62
7
  6
CONTINUOUS
 90
7
 70
0
 10
105.63696798
 20
223.3962192111
 10
105.6251507037
 20
223.3818952325
 10
105.5327387687
 20
223.2668095976
 10
105.4386973546
 20
223.1440007263
 10
105.3431860063
 20
223.013261615
 10
105.2462695221
 20
222.8742963995
 10
102.0596837424
 20
218.1149679278
  0
LINE
  5
267
100
AcDbEntity
  8
0
100
AcDbLine
 62
7
  6
CONTINUOUS
 10
111.9722837964
 20
191.6516051417
 11
108.0236608254
 21
191.57340622
  0
LINE
  5
268
100
AcDbEntity
  8
0
100
AcDbLine
 62
7
  6
CONTINUOUS
 10
111.9722837964
 20
191.6516051417
 11
115.9209067674
 21
191.57340622
  0
LWPOLYLINE
  5
269
100
AcDbEntity
  8
KONSTRUKTIONSELEMENTE
100
AcDbPolyline
 62
7
  6
CONTINUOUS
 90
5
 70
0
 10
101.0463851171
 20
210.0354101325
 10
101.0533781514
 20
209.9749656427
 10
101.0824311634
 20
209.7484341566
 10
101.115911521
 20
209.5224790589
 10
101.1253647429
 20
209.4636867349
  0
LINE
  5
26A
100
AcDbEntity
  8
KONSTRUKTIONSELEMENTE
100
AcDbLine
 62
7
  6
CONTINUOUS
 10
104.3173833491
 20
200.6845915877
 11
104.3665642076
 21
200.1423240823
  0
LWPOLYLINE
  5
26B
100
AcDbEntity
  8
KONSTRUKTIONSELEMENTE
100
AcDbPolyline
 62
7
  6
CONTINUOUS
 90
3
 70
0
 10
104.3665642076
 20
200.1423240823
 10
104.3864121956
 20
199.5964193042
 10
104.3785677768
 20
199.0535907822
  0
LWPOLYLINE
  5
26C
100
AcDbEntity
  8
KONSTRUKTIONSELEMENTE
100
AcDbPolyline
 62
7
  6
CONTINUOUS
 90
3
 70
0
 10
102.9694820679
 20
270.0329435563
 10
102.9701386667
 20
269.9952305312
 10
102.9719772464
 20
269.7457012178
  0
LINE
  5
26D
100
AcDbEntity
  8
0
100
AcDbLine
 62
7
  6
CONTINUOUS
 10
105.0071284752
 20
226.7879744427
 11
105.0065176903
 21
226.8839190554
  0
LINE
  5
26E
100
AcDbEntity
  8
RUNDUNGEN
100
AcDbLine
 62
7
  6
CONTINUOUS
 10
101.9722837964
 20
139.7471018852
 11
101.9722837964
 21
140.2078992145
  0
LINE
  5
26F
100
AcDbEntity
  8
KONSTRUKTIONSELEMENTE
100
AcDbLine
 62
7
  6
CONTINUOUS
 10
101.9722837964
 20
139.7471018852
 11
101.9722837964
 21
167.4611065865
  0
LINE
  5
270
100
AcDbEntity
  8
RUNDUNGEN
100
AcDbLine
 62
7
  6
CONTINUOUS
 10
101.9722837964
 20
166.087545033
 11
101.9722837964
 21
171.5171961409
  0
LINE
  5
271
100
AcDbEntity
  8
KONSTRUKTIONSELEMENTE
100
AcDbLine
 62
7
  6
CONTINUOUS
 10
101.9722837964
 20
167.4691236301
 11
101.9722837964
 21
173.0151384595
  0
LINE
  5
272
100
AcDbEntity
  8
KONSTRUKTIONSELEMENTE
100
AcDbLine
 62
7
  6
CONTINUOUS
 10
101.9722837964
 20
176.823819036
 11
101.9722837964
 21
177.4394805113
  0
LINE
  5
273
100
AcDbEntity
  8
KONSTRUKTIONSELEMENTE
100
AcDbLine
 62
7
  6
CONTINUOUS
 10
102.4722837964
 20
174.8241323726
 11
102.4722837964
 21
174.9509059011
  0
LINE
  5
274
100
AcDbEntity
  8
KONSTRUKTIONSELEMENTE
100
AcDbLine
 62
7
  6
CONTINUOUS
 10
102.4722837964
 20
174.9610857965
 11
102.4722837964
 21
177.2426060936
  0
LINE
  5
275
100
AcDbEntity
  8
KONSTRUKTIONSELEMENTE
100
AcDbLine
 62
7
  6
CONTINUOUS
 10
102.4722837964
 20
179.6705195029
 11
102.4722837964
 21
184.7189892373
  0
LINE
  5
276
100
AcDbEntity
  8
RUNDUNGEN
100
AcDbLine
 62
7
  6
CONTINUOUS
 10
104.3722837964
 20
138.4187761064
 11
104.3722837964
 21
198.6884285403
  0
LINE
  5
277
100
AcDbEntity
  8
0
100
AcDbLine
 62
7
  6
CONTINUOUS
 10
105.6347823416
 20
240.8127025014
 11
105.6347823416
 21
244.3245993328
  0
LINE
  5
278
100
AcDbEntity
  8
0
100
AcDbLine
 62
7
  6
CONTINUOUS
 10
106.3847823416
 20
240.8127025014
 11
106.3847823416
 21
242.5336716392
  0
LINE
  5
279
100
AcDbEntity
  8
0
100
AcDbLine
 62
7
  6
CONTINUOUS
 10
106.3847823416
 20
243.0451704093
 11
106.3847823416
 21
243.5062013007
  0
LINE
  5
27A
100
AcDbEntity
  8
KONSTRUKTIONSELEMENTE
100
AcDbLine
 62
7
  6
CONTINUOUS
 10
102.9719772464
 20
269.7457012178
 11
102.9722626241
 21
269.5061325793
  0
LINE
  5
27B
100
AcDbEntity
  8
RUNDUNGEN
100
AcDbLine
 62
7
  6
CONTINUOUS
 10
101.9733540177
 20
167.5296481605
 11
101.9723148506
 21
167.4688766045
  0
LINE
  5
27C
100
AcDbEntity
  8
0
100
AcDbLine
 62
7
  6
CONTINUOUS
 10
106.6996813301
 20
259.7618309344
 11
106.7002213555
 21
259.7930499981
  0
LINE
  5
27D
100
AcDbEntity
  8
0
100
AcDbLine
 62
7
  6
CONTINUOUS
 10
102.8246379236
 20
222.986314329
 11
102.8008771125
 21
222.2346824537
  0
LINE
  5
27E
100
AcDbEntity
  8
0
100
AcDbLine
 62
7
  6
CONTINUOUS
 10
107.7110088269
 20
247.1987475575
 11
107.9714074768
 21
254.7106353038
  0
LINE
  5
27F
100
AcDbEntity
  8
0
100
AcDbLine
 62
7
  6
CONTINUOUS
 10
107.9702486867
 20
254.6900458709
 11
107.9919368169
 21
255.1756382864
  0
LINE
  5
280
100
AcDbEntity
  8
0
100
AcDbLine
 62
7
  6
CONTINUOUS
 10
107.6921875419
 20
246.7941635094
 11
107.7113804748
 21
247.2161113226
  0
LINE
  5
281
100
AcDbEntity
  8
0
100
AcDbLine
 62
7
  6
CONTINUOUS
 10
108.0070349613
 20
255.4952632615
 11
107.9888522916
 21
255.1192488066
  0
LINE
  5
282
100
AcDbEntity
  8
0
100
AcDbLine
 62
7
  6
CONTINUOUS
 10
107.6798575614
 20
246.5554168505
 11
107.6948783314
 21
246.8608731743
  0
LINE
  5
283
100
AcDbEntity
  8
0
100
AcDbLine
 62
7
  6
CONTINUOUS
 10
108.0188980659
 20
255.715538951
 11
108.002010189
 21
255.3834312812
  0
LINE
  5
284
100
AcDbEntity
  8
KONSTRUKTIONSELEMENTE
100
AcDbLine
 62
7
  6
CONTINUOUS
 10
104.3785310293
 20
199.0510478828
 11
104.3559599921
 21
198.6482805671
  0
LINE
  5
285
100
AcDbEntity
  8
0
100
AcDbLine
 62
7
  6
CONTINUOUS
 10
107.6677492058
 20
246.3424996073
 11
107.6798575614
 21
246.5554168505
  0
LINE
  5
286
100
AcDbEntity
  8
0
100
AcDbLine
 62
7
  6
CONTINUOUS
 10
108.0305496792
 20
255.9115573675
 11
108.0168764428
 21
255.6635892113
  0
LINE
  5
287
100
AcDbEntity
  8
0
100
AcDbLine
 62
7
  6
CONTINUOUS
 10
107.6558871636
 20
246.1554841998
 11
107.6685486333
 21
246.3739666605
  0
LINE
  5
288
100
AcDbEntity
  8
RUNDUNGEN
100
AcDbLine
 62
7
  6
CONTINUOUS
 10
101.9870575439
 20
167.7307714517
 11
101.9733540177
 21
167.5296481605
  0
LINE
  5
289
100
AcDbEntity
  8
0
100
AcDbLine
 62
7
  6
CONTINUOUS
 10
108.0420030053
 20
256.0838795487
 11
108.0266173257
 21
255.8291021525
  0
LINE
  5
28A
100
AcDbEntity
  8
0
100
AcDbLine
 62
7
  6
CONTINUOUS
 10
107.6500457113
 20
246.0714517416
 11
107.6584372128
 21
246.2152446448
  0
LINE
  5
28B
100
AcDbEntity
  8
RUNDUNGEN
100
AcDbLine
 62
7
  6
CONTINUOUS
 10
104.2583459163
 20
197.3148268467
 11
104.0069373936
 21
193.8806223593
  0
LINE
  5
28C
100
AcDbEntity
  8
RUNDUNGEN
100
AcDbLine
 62
7
  6
CONTINUOUS
 10
103.7491093692
 20
190.3587283977
 11
101.9822415912
 21
166.2235670856
  0
LINE
  5
28D
100
AcDbEntity
  8
KONSTRUKTIONSELEMENTE
100
AcDbLine
 62
7
  6
CONTINUOUS
 10
101.9722837964
 20
166.087545033
 11
104.5452193912
 21
201.2334775109
  0
LINE
  5
28E
100
AcDbEntity
  8
RUNDUNGEN
100
AcDbLine
 62
7
  6
CONTINUOUS
 10
104.3559622651
 20
198.6482522181
 11
104.7668148394
 21
204.2604396604
  0
LINE
  5
28F
100
AcDbEntity
  8
0
100
AcDbLine
 62
7
  6
CONTINUOUS
 10
108.0361993665
 20
255.9772945551
 11
108.0476637044
 21
256.1614184043
  0
LINE
  5
290
100
AcDbEntity
  8
0
100
AcDbLine
 62
7
  6
CONTINUOUS
 10
106.0835229316
 20
259.8337570042
 11
106.0811132199
 21
259.8027853309
  0
LINE
  5
291
100
AcDbEntity
  8
0
100
AcDbLine
 62
7
  6
CONTINUOUS
 10
107.6485890575
 20
246.076696145
 11
107.6442577571
 21
245.9935253949
  0
LINE
  5
292
100
AcDbEntity
  8
0
100
AcDbLine
 62
7
  6
CONTINUOUS
 10
108.0455736845
 20
256.1077051499
 11
108.0532899168
 21
256.2334158502
  0
LINE
  5
293
100
AcDbEntity
  8
0
100
AcDbLine
 62
7
  6
CONTINUOUS
 10
107.6437783192
 20
246.0149595113
 11
107.6385134534
 21
245.9214853078
  0
LWPOLYLINE
  5
294
100
AcDbEntity
  8
0
100
AcDbPolyline
 62
7
  6
CONTINUOUS
 90
10
 70
0
 10
108.0501609497
 20
256.1661064215
 10
108.0546679676
 20
256.2199323505
 10
108.059078416
 20
256.2691250364
 10
108.0633762901
 20
256.3136749796
 10
108.0675341032
 20
256.3535067339
 10
108.0715289699
 20
256.3886520321
 10
108.075292619
 20
256.4188395596
 10
108.0787690235
 20
256.4440483685
 10
108.0817997204
 20
256.4637311393
 10
108.0823691918
 20
256.467165774
  0
LINE
  5
295
100
AcDbEntity
  8
0
100
AcDbLine
 62
7
  6
CONTINUOUS
 10
108.0588887016
 20
256.3000143685
 11
108.0532899168
 21
256.2334158502
  0
LINE
  5
296
100
AcDbEntity
  8
0
100
AcDbLine
 62
7
  6
CONTINUOUS
 10
107.6390550927
 20
245.9582421022
 11
107.6328039365
 21
245.855140108
  0
LINE
  5
297
100
AcDbEntity
  8
0
100
AcDbLine
 62
7
  6
CONTINUOUS
 10
107.6344360621
 20
245.9065892401
 11
107.6299364816
 21
245.8599842099
  0
LINE
  5
298
100
AcDbEntity
  8
KONSTRUKTIONSELEMENTE
100
AcDbLine
 62
7
  6
CONTINUOUS
 10
102.4724147719
 20
174.9610857965
 11
102.4722837964
 21
174.9597995756
  0
LWPOLYLINE
  5
299
100
AcDbEntity
  8
KONSTRUKTIONSELEMENTE
100
AcDbPolyline
 62
7
  6
CONTINUOUS
 90
3
 70
0
 10
102.4722837964
 20
174.9597995756
 10
102.4709301326
 20
174.9489576972
 10
102.46803372
 20
174.9306238501
  0
LINE
  5
29A
100
AcDbEntity
  8
KONSTRUKTIONSELEMENTE
100
AcDbLine
 62
7
  6
CONTINUOUS
 10
115.8260537882
 20
256.7424137783
 11
115.8228003535
 21
256.730607854
  0
LWPOLYLINE
  5
29B
100
AcDbEntity
  8
KONSTRUKTIONSELEMENTE
100
AcDbPolyline
 62
7
  6
CONTINUOUS
 90
3
 70
0
 10
102.2124712499
 20
206.0823632926
 10
103.5074247948
 20
203.4436867549
 10
103.5893974591
 20
203.2687544859
  0
LINE
  5
29C
100
AcDbEntity
  8
KONSTRUKTIONSELEMENTE
100
AcDbLine
 62
7
  6
CONTINUOUS
 10
103.5893974591
 20
203.2687544859
 11
103.6678476535
 21
203.0925586941
  0
LINE
  5
29D
100
AcDbEntity
  8
0
100
AcDbLine
 62
7
  6
CONTINUOUS
 10
100.7351399975
 20
220.6943139841
 11
101.8319779751
 21
218.1269518325
  0
LINE
  5
29E
100
AcDbEntity
  8
0
100
AcDbLine
 62
7
  6
CONTINUOUS
 10
100.7657022441
 20
220.6106869048
 11
101.8598178399
 21
218.0455774809
  0
LWPOLYLINE
  5
29F
100
AcDbEntity
  8
KONSTRUKTIONSELEMENTE
100
AcDbPolyline
 62
7
  6
CONTINUOUS
 90
3
 70
0
 10
101.8085283133
 20
206.9956651739
 10
102.032800522
 20
206.4644603736
 10
102.2124718806
 20
206.0823636022
  0
LWPOLYLINE
  5
2A0
100
AcDbEntity
  8
KONSTRUKTIONSELEMENTE
100
AcDbPolyline
 62
7
  6
CONTINUOUS
 90
4
 70
0
 10
103.6678476535
 20
203.0925586941
 10
103.7427076074
 20
202.9151524734
 10
103.8139112141
 20
202.7365890606
 10
103.8493449328
 20
202.6436319556
  0
LINE
  5
2A1
100
AcDbEntity
  8
KONSTRUKTIONSELEMENTE
100
AcDbLine
 62
7
  6
CONTINUOUS
 10
103.8492642051
 20
202.6438311582
 11
103.8493396705
 21
202.6436299815
  0
LINE
  5
2A2
100
AcDbEntity
  8
0
100
AcDbLine
 62
7
  6
CONTINUOUS
 10
101.8310293135
 20
218.1266044012
 11
101.8598271249
 21
218.0455557135
  0
LWPOLYLINE
  5
2A3
100
AcDbEntity
  8
KONSTRUKTIONSELEMENTE
100
AcDbPolyline
 62
7
  6
CONTINUOUS
 90
5
 70
0
 10
103.8492642051
 20
202.6438311582
 10
103.9839114402
 20
202.2534956332
 10
104.1266651407
 20
201.7431924291
 10
104.2376652949
 20
201.2192985429
 10
104.3173833491
 20
200.6845915877
  0
LWPOLYLINE
  5
2A4
100
AcDbEntity
  8
0
100
AcDbPolyline
 62
7
  6
CONTINUOUS
 90
3
 70
0
 10
99.4850686053
 20
223.6835439851
 10
99.6448154266
 20
223.166743489
 10
99.8392383141
 20
222.6573176123
  0
LWPOLYLINE
  5
2A5
100
AcDbEntity
  8
KONSTRUKTIONSELEMENTE
100
AcDbPolyline
 62
7
  6
CONTINUOUS
 90
4
 70
0
 10
101.417549778
 20
208.1516689951
 10
101.4393986426
 20
208.075392795
 10
101.6106669984
 20
207.5330112577
 10
101.8085283133
 20
206.9956651739
  0
LINE
  5
2A6
100
AcDbEntity
  8
0
100
AcDbLine
 62
7
  6
CONTINUOUS
 10
99.3805669764
 20
224.1106997479
 11
99.4850686053
 21
223.6835439851
  0
LINE
  5
2A7
100
AcDbEntity
  8
0
100
AcDbLine
 62
7
  6
CONTINUOUS
 10
99.1571161964
 20
225.1454066925
 11
99.3808052863
 21
224.1096590492
  0
LINE
  5
2A8
100
AcDbEntity
  8
0
100
AcDbLine
 62
7
  6
CONTINUOUS
 10
107.1636081376
 20
259.7914154529
 11
107.1627425741
 21
259.8226936478
  0
LINE
  5
2A9
100
AcDbEntity
  8
0
100
AcDbLine
 62
7
  6
CONTINUOUS
 10
107.0911383671
 20
245.8164972784
 11
107.0797110667
 21
247.4360671535
  0
LINE
  5
2AA
100
AcDbEntity
  8
0
100
AcDbLine
 62
7
  6
CONTINUOUS
 10
107.2222823416
 20
260.086620138
 11
107.2222823416
 21
245.5188981572
  0
LINE
  5
2AB
100
AcDbEntity
  8
KONSTRUKTIONSELEMENTE
100
AcDbLine
 62
7
  6
CONTINUOUS
 10
108.2222837964
 20
261.1447542967
 11
108.2222837964
 21
244.7807540896
  0
LINE
  5
2AC
100
AcDbEntity
  8
0
100
AcDbLine
 62
7
  6
CONTINUOUS
 10
108.6687569378
 20
240.8127025014
 11
108.6687569378
 21
241.2515147223
  0
LINE
  5
2AD
100
AcDbEntity
  8
0
100
AcDbLine
 62
7
  6
CONTINUOUS
 10
109.2347823416
 20
242.990323265
 11
109.2347823416
 21
243.429135486
  0
LINE
  5
2AE
100
AcDbEntity
  8
0
100
AcDbLine
 62
7
  6
CONTINUOUS
 10
109.5347823416
 20
240.8127025014
 11
109.5347823416
 21
241.2515147223
  0
LINE
  5
2AF
100
AcDbEntity
  8
0
100
AcDbLine
 62
7
  6
CONTINUOUS
 10
110.1347823416
 20
242.0443915396
 11
110.1347823416
 21
244.3245993328
  0
LINE
  5
2B0
100
AcDbEntity
  8
0
100
AcDbLine
 62
7
  6
CONTINUOUS
 10
111.0347823416
 20
242.4832037606
 11
111.0347823416
 21
244.3245993328
  0
LWPOLYLINE
  5
2B1
100
AcDbEntity
  8
KONSTRUKTIONSELEMENTE
100
AcDbPolyline
 62
7
  6
CONTINUOUS
 90
3
 70
0
 10
102.46803372
 20
174.9306238501
 10
102.463356045
 20
174.9058311387
 10
102.4568469498
 20
174.875739405
  0
LWPOLYLINE
  5
2B2
100
AcDbEntity
  8
KONSTRUKTIONSELEMENTE
100
AcDbPolyline
 62
7
  6
CONTINUOUS
 90
4
 70
0
 10
102.4568469498
 20
174.875739405
 10
102.4486328555
 20
174.8416259553
 10
102.4389650167
 20
174.8047432952
 10
102.4282278608
 20
174.7664574061
  0
LWPOLYLINE
  5
2B3
100
AcDbEntity
  8
RUNDUNGEN
100
AcDbPolyline
 62
7
  6
CONTINUOUS
 90
5
 70
0
 10
102.1531918799
 20
168.5587235963
 10
102.1097377745
 20
168.3942960995
 10
102.056604087
 20
168.1632842776
 10
102.0152470903
 20
167.9418598985
 10
101.9870575439
 20
167.7307714517
  0
LWPOLYLINE
  5
2B4
100
AcDbEntity
  8
KONSTRUKTIONSELEMENTE
100
AcDbPolyline
 62
7
  6
CONTINUOUS
 90
7
 70
0
 10
102.4282278608
 20
174.7664574061
 10
102.4166231691
 20
174.7272582076
 10
102.4043822392
 20
174.687677756
 10
102.3916499474
 20
174.647943069
 10
102.3785481259
 20
174.6082206136
 10
102.3651888592
 20
174.5686543815
 10
102.3516557051
 20
174.5293181302
  0
LWPOLYLINE
  5
2B5
100
AcDbEntity
  8
0
100
AcDbPolyline
 62
7
  6
CONTINUOUS
 90
3
 70
0
 10
100.0243610211
 20
222.2453872982
 10
100.1230818232
 20
222.038368195
 10
100.2593720464
 20
221.7472360191
  0
LINE
  5
2B6
100
AcDbEntity
  8
0
100
AcDbLine
 62
7
  6
CONTINUOUS
 10
100.2593720464
 20
221.7472360191
 11
100.3948614379
 21
221.4515463572
  0
LINE
  5
2B7
100
AcDbEntity
  8
0
100
AcDbLine
 62
7
  6
CONTINUOUS
 10
99.8392383141
 20
222.6573176123
 11
100.0243651066
 21
222.2453787949
  0
LWPOLYLINE
  5
2B8
100
AcDbEntity
  8
0
100
AcDbPolyline
 62
7
  6
CONTINUOUS
 90
3
 70
0
 10
100.3948614379
 20
221.4515463572
 10
100.5295063048
 20
221.1513205684
 10
100.6633516003
 20
220.8463574919
  0
LINE
  5
2B9
100
AcDbEntity
  8
0
100
AcDbLine
 62
7
  6
CONTINUOUS
 10
100.6633516003
 20
220.8463574919
 11
100.7644694078
 21
220.6115102061
  0
LINE
  5
2BA
100
AcDbEntity
  8
0
100
AcDbLine
 62
7
  6
CONTINUOUS
 10
101.9190332983
 20
224.4568558875
 11
102.0413616115
 21
224.1416545501
  0
LINE
  5
2BB
100
AcDbEntity
  8
KONSTRUKTIONSELEMENTE
100
AcDbLine
 62
7
  6
CONTINUOUS
 10
116.2614737685
 20
246.6159807385
 11
116.2440250475
 21
246.9786850397
  0
LINE
  5
2BC
100
AcDbEntity
  8
KONSTRUKTIONSELEMENTE
100
AcDbLine
 62
7
  6
CONTINUOUS
 10
115.9429177607
 20
255.3762419723
 11
115.9588335459
 21
255.0408371703
  0
LINE
  5
2BD
100
AcDbEntity
  8
KONSTRUKTIONSELEMENTE
100
AcDbLine
 62
7
  6
CONTINUOUS
 10
116.2277216187
 20
247.3334873348
 11
116.2481082498
 21
246.8818449163
  0
LINE
  5
2BE
100
AcDbEntity
  8
KONSTRUKTIONSELEMENTE
100
AcDbLine
 62
7
  6
CONTINUOUS
 10
115.9591535979
 20
255.0431827241
 11
115.9864851796
 21
254.381515354
  0
LINE
  5
2BF
100
AcDbEntity
  8
KONSTRUKTIONSELEMENTE
100
AcDbLine
 62
7
  6
CONTINUOUS
 10
116.2000857509
 20
248.0249528381
 11
116.2284446595
 21
247.3247707302
  0
LINE
  5
2C0
100
AcDbEntity
  8
KONSTRUKTIONSELEMENTE
100
AcDbLine
 62
7
  6
CONTINUOUS
 10
115.9856505926
 20
254.4085383901
 11
116.0274004152
 21
253.259717013
  0
LINE
  5
2C1
100
AcDbEntity
  8
KONSTRUKTIONSELEMENTE
100
AcDbLine
 62
7
  6
CONTINUOUS
 10
116.201657331
 20
247.988351573
 11
116.1565716876
 21
249.2611180505
  0
LINE
  5
2C2
100
AcDbEntity
  8
KONSTRUKTIONSELEMENTE
100
AcDbLine
 62
7
  6
CONTINUOUS
 10
116.0265885649
 20
253.2855743526
 11
116.1582725266
 21
249.2087505078
  0
LINE
  5
2C3
100
AcDbEntity
  8
0
100
AcDbLine
 62
7
  6
CONTINUOUS
 10
117.244882944
 20
259.7618308895
 11
117.2443438594
 21
259.7930425528
  0
LINE
  5
2C4
100
AcDbEntity
  8
0
100
AcDbLine
 62
7
  6
CONTINUOUS
 10
112.8347823416
 20
244.3245993328
 11
112.8347823416
 21
242.4832037606
  0
LINE
  5
2C5
100
AcDbEntity
  8
0
100
AcDbLine
 62
7
  6
CONTINUOUS
 10
113.7347823416
 20
242.0443915396
 11
113.7347823416
 21
244.3245993328
  0
LINE
  5
2C6
100
AcDbEntity
  8
0
100
AcDbLine
 62
7
  6
CONTINUOUS
 10
114.6347823416
 20
240.8127025014
 11
114.6347823416
 21
244.3205073426
  0
LINE
  5
2C7
100
AcDbEntity
  8
0
100
AcDbLine
 62
7
  6
CONTINUOUS
 10
115.5347823416
 20
241.7630134924
 11
115.5347823416
 21
243.5021093105
  0
LINE
  5
2C8
100
AcDbEntity
  8
0
100
AcDbLine
 62
7
  6
CONTINUOUS
 10
115.7222837964
 20
261.143801892
 11
115.7222837964
 21
244.7807548076
  0
LINE
  5
2C9
100
AcDbEntity
  8
0
100
AcDbLine
 62
7
  6
CONTINUOUS
 10
116.7222823416
 20
245.5188981572
 11
116.7222823416
 21
260.086620138
  0
LINE
  5
2CA
100
AcDbEntity
  8
0
100
AcDbLine
 62
7
  6
CONTINUOUS
 10
117.4102823416
 20
243.1692941108
 11
117.4102823416
 21
242.4027279541
  0
LINE
  5
2CB
100
AcDbEntity
  8
0
100
AcDbLine
 62
7
  6
CONTINUOUS
 10
118.3147823416
 20
241.9379997955
 11
118.3147823416
 21
243.1952100485
  0
LINE
  5
2CC
100
AcDbEntity
  8
0
100
AcDbLine
 62
7
  6
CONTINUOUS
 10
116.8648536177
 20
247.4360673325
 11
116.8534333389
 21
245.8164761287
  0
LINE
  5
2CD
100
AcDbEntity
  8
0
100
AcDbLine
 62
7
  6
CONTINUOUS
 10
116.7818195418
 20
259.822694129
 11
116.7809565411
 21
259.791415453
  0
LWPOLYLINE
  5
2CE
100
AcDbEntity
  8
0
100
AcDbPolyline
 62
7
  6
CONTINUOUS
 90
5
 70
0
 10
116.8534373849
 20
245.8177843215
 10
116.8450932472
 20
245.7145262167
 10
116.8032494397
 20
245.560804344
 10
116.7308325831
 20
245.417134754
 10
116.6299846184
 20
245.2819626331
  0
LWPOLYLINE
  5
2CF
100
AcDbEntity
  8
KONSTRUKTIONSELEMENTE
100
AcDbPolyline
 62
7
  6
CONTINUOUS
 90
23
 70
0
 10
102.1837598249
 20
174.0560012864
 10
102.169494821
 20
174.014000303
 10
102.1552959462
 20
173.9714164698
 10
102.1412184844
 20
173.928284218
 10
102.1273111143
 20
173.8846036357
 10
102.1136330322
 20
173.8404045833
 10
102.1002457721
 20
173.7957265915
 10
102.0871862909
 20
173.7505271379
 10
102.0744995312
 20
173.7047731835
 10
102.0622381694
 20
173.6584369759
 10
102.0504539812
 20
173.6114755884
 10
102.0392091221
 20
173.5638759544
 10
102.0285683656
 20
173.5156286785
 10
102.0185878849
 20
173.4666623961
 10
102.0093320737
 20
173.416888704
 10
102.0008898307
 20
173.3663147952
 10
101.9933480645
 20
173.3149207777
 10
101.9867984574
 20
173.2626946318
 10
101.9813375752
 20
173.2096412715
 10
101.977060467
 20
173.1556981697
 10
101.9740745125
 20
173.1007948039
 10
101.9725008904
 20
173.0449778742
 10
101.9722808056
 20
173.0151083828
  0
LINE
  5
2D0
100
AcDbEntity
  8
KONSTRUKTIONSELEMENTE
100
AcDbLine
 62
7
  6
CONTINUOUS
 10
102.2123472705
 20
174.1383240616
 11
102.1837598249
 21
174.0560012864
  0
LINE
  5
2D1
100
AcDbEntity
  8
KONSTRUKTIONSELEMENTE
100
AcDbLine
 62
7
  6
CONTINUOUS
 10
102.3516557051
 20
174.5293181302
 11
102.324286497
 21
174.4513935382
  0
LINE
  5
2D2
100
AcDbEntity
  8
0
100
AcDbLine
 62
7
  6
CONTINUOUS
 10
122.0847358541
 20
218.0455517186
 11
122.1135353696
 21
218.1266044012
  0
LINE
  5
2D3
100
AcDbEntity
  8
KONSTRUKTIONSELEMENTE
100
AcDbLine
 62
7
  6
CONTINUOUS
 10
102.2549500585
 20
174.2580731574
 11
102.2123472705
 21
174.1383240616
  0
LINE
  5
2D4
100
AcDbEntity
  8
KONSTRUKTIONSELEMENTE
100
AcDbLine
 62
7
  6
CONTINUOUS
 10
102.324286497
 20
174.4513935382
 11
102.2549500585
 21
174.2580731574
  0
LINE
  5
2D5
100
AcDbEntity
  8
0
100
AcDbLine
 62
7
  6
CONTINUOUS
 10
121.9032030716
 20
224.1416545501
 11
122.0255313848
 21
224.4568558875
  0
LINE
  5
2D6
100
AcDbEntity
  8
0
100
AcDbLine
 62
7
  6
CONTINUOUS
 10
123.3947696413
 20
221.6262295678
 11
123.3821542073
 21
221.5941085026
  0
LINE
  5
2D7
100
AcDbEntity
  8
0
100
AcDbLine
 62
7
  6
CONTINUOUS
 10
122.1125867082
 20
218.1269518328
 11
123.2094246856
 21
220.6943139841
  0
LINE
  5
2D8
100
AcDbEntity
  8
0
100
AcDbLine
 62
7
  6
CONTINUOUS
 10
122.0847468433
 20
218.0455774812
 11
123.2812206017
 21
220.8463748104
  0
LINE
  5
2D9
100
AcDbEntity
  8
0
100
AcDbLine
 62
7
  6
CONTINUOUS
 10
123.2812206017
 20
220.8463748104
 11
123.4150630878
 21
221.1513311833
  0
LINE
  5
2DA
100
AcDbEntity
  8
0
100
AcDbLine
 62
7
  6
CONTINUOUS
 10
123.4150630878
 20
221.1513311833
 11
123.5497051146
 21
221.4515504808
  0
LWPOLYLINE
  5
2DB
100
AcDbEntity
  8
0
100
AcDbPolyline
 62
7
  6
CONTINUOUS
 90
3
 70
0
 10
123.9201919217
 20
222.2453628656
 10
124.1053207632
 20
222.6573042222
 10
124.299745531
 20
223.1667326955
  0
LWPOLYLINE
  5
2DC
100
AcDbEntity
  8
0
100
AcDbPolyline
 62
7
  6
CONTINUOUS
 90
4
 70
0
 10
123.5497051146
 20
221.4515504808
 10
123.6851916324
 20
221.7472338507
 10
123.8214789516
 20
222.0383599355
 10
123.9201586844
 20
222.2452936971
  0
LINE
  5
2DD
100
AcDbEntity
  8
KONSTRUKTIONSELEMENTE
100
AcDbLine
 62
7
  6
CONTINUOUS
 10
101.5338420717
 20
207.7763044313
 11
100.4722837964
 21
207.7763044313
  0
LINE
  5
2DE
100
AcDbEntity
  8
KONSTRUKTIONSELEMENTE
100
AcDbLine
 62
7
  6
CONTINUOUS
 10
101.3642124368
 20
208.3919659066
 11
100.4722837964
 21
208.3919659066
  0
LINE
  5
2DF
100
AcDbEntity
  8
KONSTRUKTIONSELEMENTE
100
AcDbLine
 62
7
  6
CONTINUOUS
 10
101.013437905
 20
210.3619927906
 11
100.4722837964
 21
210.3619927906
  0
LINE
  5
2E0
100
AcDbEntity
  8
KONSTRUKTIONSELEMENTE
100
AcDbLine
 62
7
  6
CONTINUOUS
 10
101.1640047184
 20
210.9273535896
 11
100.4722837964
 21
210.9273535896
  0
LWPOLYLINE
  5
2E1
100
AcDbEntity
  8
0
100
AcDbPolyline
 62
7
  6
CONTINUOUS
 90
8
 70
0
 10
107.5715891931
 20
245.4439642561
 10
107.5719465425
 20
245.4426251504
 10
107.5863624862
 20
245.3988142094
 10
107.6091099558
 20
245.3445639511
 10
107.6485230764
 20
245.273560234
 10
107.7071637613
 20
245.1954660974
 10
107.785931817
 20
245.1188761346
 10
107.8861447633
 20
245.0511227146
  0
LWPOLYLINE
  5
2E2
100
AcDbEntity
  8
0
100
AcDbPolyline
 62
7
  6
CONTINUOUS
 90
5
 70
0
 10
121.957584198
 20
167.7300505955
 10
121.9293272013
 20
167.9418185062
 10
121.8876723574
 20
168.1646710072
 10
121.8339527587
 20
168.3978200594
 10
121.7913915238
 20
168.5585076222
  0
LINE
  5
2E3
100
AcDbEntity
  8
KONSTRUKTIONSELEMENTE
100
AcDbLine
 62
7
  6
CONTINUOUS
 10
116.3147051594
 20
245.8592484387
 11
116.3105158046
 21
245.9024646742
  0
LWPOLYLINE
  5
2E4
100
AcDbEntity
  8
KONSTRUKTIONSELEMENTE
100
AcDbPolyline
 62
7
  6
CONTINUOUS
 90
5
 70
0
 10
116.3127967022
 20
245.8436969455
 10
116.319032997
 20
245.7782620099
 10
116.3252996413
 20
245.7187712478
 10
116.3316336545
 20
245.664915624
 10
116.3381802666
 20
245.6156751469
  0
LWPOLYLINE
  5
2E5
100
AcDbEntity
  8
KONSTRUKTIONSELEMENTE
100
AcDbPolyline
 62
7
  6
CONTINUOUS
 90
14
 70
0
 10
115.8866848128
 20
256.2884206739
 10
115.8810243204
 20
256.3515386001
 10
115.8753417856
 20
256.4097213674
 10
115.8696161661
 20
256.4631366935
 10
115.8638187341
 20
256.5119841564
 10
115.8578615096
 20
256.5568499602
 10
115.8516812375
 20
256.5979642535
 10
115.8449400996
 20
256.6369914481
 10
115.8374306705
 20
256.6741750195
 10
115.8277483041
 20
256.7141602329
 10
115.8141137219
 20
256.7594833295
 10
115.7920924665
 20
256.8160799855
 10
115.7517248199
 20
256.8925013551
 10
115.7222837964
 20
256.9326289528
  0
LINE
  5
2E6
100
AcDbEntity
  8
KONSTRUKTIONSELEMENTE
100
AcDbLine
 62
7
  6
CONTINUOUS
 10
116.3062165533
 20
245.9501232728
 11
116.3127967022
 21
245.8436969455
  0
LINE
  5
2E7
100
AcDbEntity
  8
KONSTRUKTIONSELEMENTE
100
AcDbLine
 62
7
  6
CONTINUOUS
 10
115.8940642027
 20
256.1703206024
 11
115.8866848128
 21
256.2884206739
  0
LINE
  5
2E8
100
AcDbEntity
  8
KONSTRUKTIONSELEMENTE
100
AcDbLine
 62
7
  6
CONTINUOUS
 10
116.3018246511
 20
246.0021933733
 11
116.3065436818
 21
245.9155910457
  0
LINE
  5
2E9
100
AcDbEntity
  8
KONSTRUKTIONSELEMENTE
100
AcDbLine
 62
7
  6
CONTINUOUS
 10
116.3018246511
 20
246.0021933733
 11
116.2973484797
 21
246.05871234
  0
LINE
  5
2EA
100
AcDbEntity
  8
0
100
AcDbLine
 62
7
  6
CONTINUOUS
 10
117.8634514479
 20
259.8027975633
 11
117.8610424271
 21
259.8337496313
  0
LINE
  5
2EB
100
AcDbEntity
  8
KONSTRUKTIONSELEMENTE
100
AcDbLine
 62
7
  6
CONTINUOUS
 10
115.8986169187
 20
256.1126406034
 11
115.8923575188
 21
256.2199909353
  0
LINE
  5
2EC
100
AcDbEntity
  8
0
100
AcDbLine
 62
7
  6
CONTINUOUS
 10
121.9722837964
 20
166.087545033
 11
119.1777527535
 21
204.2604396604
  0
LINE
  5
2ED
100
AcDbEntity
  8
KONSTRUKTIONSELEMENTE
100
AcDbLine
 62
7
  6
CONTINUOUS
 10
116.3002604762
 20
245.9941673465
 11
116.2881749816
 21
246.1851576808
  0
LINE
  5
2EE
100
AcDbEntity
  8
KONSTRUKTIONSELEMENTE
100
AcDbLine
 62
7
  6
CONTINUOUS
 10
115.8980703832
 20
256.1458571678
 11
115.9079680142
 21
255.9831603543
  0
LINE
  5
2EF
100
AcDbEntity
  8
KONSTRUKTIONSELEMENTE
100
AcDbLine
 62
7
  6
CONTINUOUS
 10
116.2875512489
 20
246.1723469993
 11
116.2939310362
 21
246.079706359
  0
LINE
  5
2F0
100
AcDbEntity
  8
0
100
AcDbLine
 62
7
  6
CONTINUOUS
 10
121.9712324345
 20
167.5290229266
 11
121.957584198
 21
167.7300505955
  0
LINE
  5
2F1
100
AcDbEntity
  8
KONSTRUKTIONSELEMENTE
100
AcDbLine
 62
7
  6
CONTINUOUS
 10
115.9038332543
 20
256.0658045037
 11
115.917617651
 21
255.8344924748
  0
LINE
  5
2F2
100
AcDbEntity
  8
KONSTRUKTIONSELEMENTE
100
AcDbLine
 62
7
  6
CONTINUOUS
 10
116.2875512489
 20
246.1723469993
 11
116.2739364989
 21
246.4086691642
  0
LINE
  5
2F3
100
AcDbEntity
  8
KONSTRUKTIONSELEMENTE
100
AcDbLine
 62
7
  6
CONTINUOUS
 10
115.9155541746
 20
255.8868937429
 11
115.9275442871
 21
255.666193071
  0
LINE
  5
2F4
100
AcDbEntity
  8
0
100
AcDbLine
 62
7
  6
CONTINUOUS
 10
119.5886076007
 20
198.6482805671
 11
119.5660365636
 21
199.0510478828
  0
LINE
  5
2F5
100
AcDbEntity
  8
KONSTRUKTIONSELEMENTE
100
AcDbLine
 62
7
  6
CONTINUOUS
 10
116.2614737685
 20
246.6159807385
 11
116.2746266152
 21
246.3794153662
  0
LINE
  5
2F6
100
AcDbEntity
  8
KONSTRUKTIONSELEMENTE
100
AcDbLine
 62
7
  6
CONTINUOUS
 10
116.2641645023
 20
246.5804288862
 11
116.2592015354
 21
246.6731590253
  0
LINE
  5
2F7
100
AcDbEntity
  8
KONSTRUKTIONSELEMENTE
100
AcDbLine
 62
7
  6
CONTINUOUS
 10
115.9275854468
 20
255.6813557134
 11
115.9429177607
 21
255.3762419723
  0
LINE
  5
2F8
100
AcDbEntity
  8
KONSTRUKTIONSELEMENTE
100
AcDbLine
 62
7
  6
CONTINUOUS
 10
115.9462862902
 20
255.31986602
 11
115.9399674858
 21
255.4475505265
  0
LWPOLYLINE
  5
2F9
100
AcDbEntity
  8
0
100
AcDbPolyline
 62
7
  6
CONTINUOUS
 90
8
 70
0
 10
122.9433361666
 20
214.7028879939
 10
122.9205201705
 20
215.2235120063
 10
122.8504551892
 20
215.7480596779
 10
122.7325569466
 20
216.270231626
 10
122.5667561025
 20
216.7859280254
 10
122.3536400077
 20
217.2908103666
 10
122.0943214027
 20
217.7808660535
 10
121.8848422775
 20
218.1150300704
  0
LINE
  5
2FA
100
AcDbEntity
  8
0
100
AcDbLine
 62
7
  6
CONTINUOUS
 10
121.1436875712
 20
222.2346824532
 11
121.1199270859
 21
222.9863140505
  0
LINE
  5
2FB
100
AcDbEntity
  8
0
100
AcDbLine
 62
7
  6
CONTINUOUS
 10
122.8741821125
 20
223.2551430504
 11
122.8964396177
 21
222.5123749095
  0
LINE
  5
2FC
100
AcDbEntity
  8
0
100
AcDbLine
 62
7
  6
CONTINUOUS
 10
121.9722535526
 20
167.4686904546
 11
121.9712324345
 21
167.5290229266
  0
LWPOLYLINE
  5
2FD
100
AcDbEntity
  8
0
100
AcDbPolyline
 62
7
  6
CONTINUOUS
 90
3
 70
0
 10
119.5660365636
 20
199.0510478828
 10
119.5581553972
 20
199.5964193042
 10
119.5780033852
 20
200.1423240823
  0
LINE
  5
2FE
100
AcDbEntity
  8
0
100
AcDbLine
 62
7
  6
CONTINUOUS
 10
119.5722837964
 20
138.4187761064
 11
119.5722837964
 21
198.6884285403
  0
LINE
  5
2FF
100
AcDbEntity
  8
0
100
AcDbLine
 62
7
  6
CONTINUOUS
 10
121.9722837964
 20
139.7471018852
 11
121.9722671717
 21
167.4689383098
  0
LINE
  5
300
100
AcDbEntity
  8
0
100
AcDbLine
 62
7
  6
CONTINUOUS
 10
121.9722837964
 20
167.4958052953
 11
121.9722837964
 21
171.5171961409
  0
LWPOLYLINE
  5
301
100
AcDbEntity
  8
0
100
AcDbPolyline
 62
7
  6
CONTINUOUS
 90
4
 70
0
 10
120.9723049687
 20
269.5061325793
 10
120.9724135469
 20
269.6858878768
 10
120.9739210599
 20
269.9483592037
 10
120.9752264386
 20
270.0329610818
  0
LINE
  5
302
100
AcDbEntity
  8
0
100
AcDbLine
 62
7
  6
CONTINUOUS
 10
118.9380469928
 20
226.8839190554
 11
118.9373401409
 21
226.7879879069
  0
LINE
  5
303
100
AcDbEntity
  8
0
100
AcDbLine
 62
7
  6
CONTINUOUS
 10
124.9597621852
 20
263.6611332606
 11
124.9611127486
 21
263.7295364753
  0
LINE
  5
304
100
AcDbEntity
  8
0
100
AcDbLine
 62
7
  6
CONTINUOUS
 10
124.9585720944
 20
263.6129271293
 11
124.9597621852
 21
263.6611332606
  0
LINE
  5
305
100
AcDbEntity
  8
0
100
AcDbLine
 62
7
  6
CONTINUOUS
 10
124.9484637487
 20
263.297734321
 11
124.9543833586
 21
263.4893650036
  0
LINE
  5
306
100
AcDbEntity
  8
0
100
AcDbLine
 62
7
  6
CONTINUOUS
 10
124.9578159849
 20
263.5872967757
 11
124.9585720944
 21
263.6129271293
  0
LINE
  5
307
100
AcDbEntity
  8
0
100
AcDbLine
 62
7
  6
CONTINUOUS
 10
124.9543833586
 20
263.4893650036
 11
124.9578159849
 21
263.5872967757
  0
LINE
  5
308
100
AcDbEntity
  8
0
100
AcDbLine
 62
7
  6
CONTINUOUS
 10
124.9572722116
 20
263.5716217361
 11
124.9573486942
 21
263.5736271543
  0
LWPOLYLINE
  5
309
100
AcDbEntity
  8
0
100
AcDbPolyline
 62
7
  6
CONTINUOUS
 90
4
 70
0
 10
122.910701539
 20
210.1552604109
 10
122.934135448
 20
210.4747047161
 10
122.9432063343
 20
210.7948139735
 10
122.9433373459
 20
214.7062135797
  0
LWPOLYLINE
  5
30A
100
AcDbEntity
  8
0
100
AcDbPolyline
 62
7
  6
CONTINUOUS
 90
6
 70
0
 10
119.5780033852
 20
200.1423240823
 10
119.6271842438
 20
200.6845915877
 10
119.7069022979
 20
201.2192985429
 10
119.8179024522
 20
201.7431924291
 10
119.9606561527
 20
202.2534956332
 10
120.0953033878
 20
202.6438311582
  0
LINE
  5
30B
100
AcDbEntity
  8
0
100
AcDbLine
 62
7
  6
CONTINUOUS
 10
122.8981949481
 20
210.0355516373
 11
122.910701539
 21
210.1552604109
  0
LWPOLYLINE
  5
30C
100
AcDbEntity
  8
0
100
AcDbPolyline
 62
7
  6
CONTINUOUS
 90
4
 70
0
 10
122.8286560719
 20
209.5224790591
 10
122.8621364295
 20
209.7484341567
 10
122.8911894414
 20
209.9749656428
 10
122.8981824758
 20
210.0354101325
  0
LINE
  5
30D
100
AcDbEntity
  8
0
100
AcDbLine
 62
7
  6
CONTINUOUS
 10
122.7907581786
 20
209.2971825743
 11
122.8286560719
 21
209.5224790591
  0
LWPOLYLINE
  5
30E
100
AcDbEntity
  8
0
100
AcDbPolyline
 62
7
  6
CONTINUOUS
 90
7
 70
0
 10
124.787038631
 20
225.1453984619
 10
124.8366526279
 20
225.394018132
 10
124.8854767749
 20
225.6917042648
 10
124.9228721345
 20
225.9893729153
 10
124.9488657537
 20
226.286584645
 10
124.9634949015
 20
226.5829049536
 10
124.9670087357
 20
226.7926014901
  0
LWPOLYLINE
  5
30F
100
AcDbEntity
  8
0
100
AcDbPolyline
 62
7
  6
CONTINUOUS
 90
3
 70
0
 10
122.7336203236
 20
208.999135988
 10
122.7484544304
 20
209.0726234842
 10
122.7907581786
 20
209.2971825743
  0
LINE
  5
310
100
AcDbEntity
  8
0
100
AcDbLine
 62
7
  6
CONTINUOUS
 10
124.7874486332
 20
225.1454073706
 11
124.5637593968
 21
224.1096590492
  0
LWPOLYLINE
  5
311
100
AcDbEntity
  8
0
100
AcDbPolyline
 62
7
  6
CONTINUOUS
 90
3
 70
0
 10
124.299745531
 20
223.1667326955
 10
124.4594938632
 20
223.6835358874
 10
124.5639977092
 20
224.1106997597
  0
LINE
  5
312
100
AcDbEntity
  8
0
100
AcDbLine
 62
7
  6
CONTINUOUS
 10
120.0953033878
 20
202.6438311582
 11
120.0952279224
 21
202.6436299815
  0
LWPOLYLINE
  5
313
100
AcDbEntity
  8
0
100
AcDbPolyline
 62
7
  6
CONTINUOUS
 90
4
 70
0
 10
120.0952226601
 20
202.6436319556
 10
120.1306563788
 20
202.7365890606
 10
120.2018599855
 20
202.9151524734
 10
120.2767199394
 20
203.0925586941
  0
LWPOLYLINE
  5
314
100
AcDbEntity
  8
0
100
AcDbPolyline
 62
7
  6
CONTINUOUS
 90
6
 70
0
 10
121.9117670708
 20
206.4644603736
 10
122.1360392796
 20
206.9956651739
 10
122.3339005945
 20
207.5330112577
 10
122.5051689503
 20
208.075392795
 10
122.6497197425
 20
208.6216810165
 10
122.7335948043
 20
208.9990229002
  0
LINE
  5
315
100
AcDbEntity
  8
0
100
AcDbLine
 62
7
  6
CONTINUOUS
 10
120.2767199394
 20
203.0925586941
 11
120.3551701338
 21
203.2687544859
  0
LINE
  5
316
100
AcDbEntity
  8
0
100
AcDbLine
 62
7
  6
CONTINUOUS
 10
120.3551701338
 20
203.2687544859
 11
120.4371427981
 21
203.4436867549
  0
LINE
  5
317
100
AcDbEntity
  8
0
100
AcDbLine
 62
7
  6
CONTINUOUS
 10
121.7320957122
 20
206.0823636022
 11
121.9117670708
 21
206.4644603736
  0
LINE
  5
318
100
AcDbEntity
  8
0
100
AcDbLine
 62
7
  6
CONTINUOUS
 10
120.4371427981
 20
203.4436867549
 11
121.7320700458
 21
206.0823097229
  0
LINE
  5
319
100
AcDbEntity
  8
KONSTRUKTIONSELEMENTE
100
AcDbLine
 62
7
  6
CONTINUOUS
 10
101.0095464674
 20
214.8969952937
 11
100.4722837964
 21
214.8969952937
  0
LINE
  5
31A
100
AcDbEntity
  8
0
100
AcDbLine
 62
7
  6
CONTINUOUS
 10
108.1217536971
 20
256.7307161938
 11
108.1188341039
 21
256.7413742187
  0
LWPOLYLINE
  5
31B
100
AcDbEntity
  8
KONSTRUKTIONSELEMENTE
100
AcDbPolyline
 62
7
  6
CONTINUOUS
 90
9
 70
0
 10
116.3381802666
 20
245.6156751469
 10
116.3450630322
 20
245.5705684396
 10
116.3527547522
 20
245.5275066817
 10
116.3616576002
 20
245.4859215195
 10
116.3738172216
 20
245.440054288
 10
116.3925108629
 20
245.3855306207
 10
116.4235993402
 20
245.3179939618
 10
116.4797189561
 20
245.2305141107
 10
116.5262711081
 20
245.1796588896
  0
LINE
  5
31C
100
AcDbEntity
  8
0
100
AcDbLine
 62
7
  6
CONTINUOUS
 10
119.9650494315
 20
232.3582215958
 11
119.9650921004
 21
232.3578512185
  0
LWPOLYLINE
  5
31D
100
AcDbEntity
  8
0
100
AcDbPolyline
 62
7
  6
CONTINUOUS
 90
3
 70
0
 10
124.9666660707
 20
265.2171894827
 10
124.9642980343
 20
265.2627572529
 10
124.9604023486
 20
265.3087440389
  0
LWPOLYLINE
  5
31E
100
AcDbEntity
  8
0
100
AcDbPolyline
 62
7
  6
CONTINUOUS
 90
3
 70
0
 10
124.9483013611
 20
254.5044828838
 10
124.9431734426
 20
254.8600943569
 10
124.9418046205
 20
255.0332409694
  0
LWPOLYLINE
  5
31F
100
AcDbEntity
  8
0
100
AcDbPolyline
 62
7
  6
CONTINUOUS
 90
3
 70
0
 10
124.9677827072
 20
265.160535507
 10
124.9676948249
 20
265.1711178115
 10
124.9666660707
 20
265.2171894827
  0
LINE
  5
320
100
AcDbEntity
  8
0
100
AcDbLine
 62
7
  6
CONTINUOUS
 10
124.9418046205
 20
255.0332409694
 11
124.941260827
 21
262.8006224815
  0
LINE
  5
321
100
AcDbEntity
  8
KONSTRUKTIONSELEMENTE
100
AcDbLine
 62
7
  6
CONTINUOUS
 10
124.9722837964
 20
254.497572511
 11
124.9722837964
 21
250.676159893
  0
LINE
  5
322
100
AcDbEntity
  8
KONSTRUKTIONSELEMENTE
100
AcDbLine
 62
7
  6
CONTINUOUS
 10
124.9722837964
 20
247.677517555
 11
124.9722837964
 21
250.6534245888
  0
LINE
  5
323
100
AcDbEntity
  8
0
100
AcDbLine
 62
7
  6
CONTINUOUS
 10
124.9722837964
 20
272.2943172501
 11
124.9722837964
 21
276.4209154419
  0
LINE
  5
324
100
AcDbEntity
  8
0
100
AcDbLine
 62
7
  6
CONTINUOUS
 10
124.9671524762
 20
246.1186409722
 11
124.9681188785
 21
247.6775184988
  0
LINE
  5
325
100
AcDbEntity
  8
0
100
AcDbLine
 62
7
  6
CONTINUOUS
 10
124.9670073586
 20
226.7926056368
 11
124.9671524762
 21
246.1186409722
  0
LWPOLYLINE
  5
326
100
AcDbEntity
  8
0
100
AcDbPolyline
 62
7
  6
CONTINUOUS
 90
4
 70
0
 10
124.9412602426
 20
262.8007968877
 10
124.9420713323
 20
262.960370114
 10
124.9444119212
 20
263.121874358
 10
124.9484637487
 20
263.297734321
  0
LINE
  5
327
100
AcDbEntity
  8
0
100
AcDbLine
 62
7
  6
CONTINUOUS
 10
124.9644033764
 20
264.0145370969
 11
124.9680173
 21
265.1599541831
  0
LINE
  5
328
100
AcDbEntity
  8
0
100
AcDbLine
 62
7
  6
CONTINUOUS
 10
124.9627647674
 20
263.8430099773
 11
124.9644033764
 21
264.0145370969
  0
LINE
  5
329
100
AcDbEntity
  8
0
100
AcDbLine
 62
7
  6
CONTINUOUS
 10
124.9614316904
 20
263.7483858583
 11
124.9627647674
 21
263.8430099773
  0
LINE
  5
32A
100
AcDbEntity
  8
0
100
AcDbLine
 62
7
  6
CONTINUOUS
 10
124.9611127486
 20
263.7295364753
 11
124.9614316904
 21
263.7483858583
  0
LWPOLYLINE
  5
32B
100
AcDbEntity
  8
0
100
AcDbPolyline
 62
7
  6
CONTINUOUS
 90
13
 70
0
 10
118.3074725751
 20
223.3963726829
 10
118.1236581488
 20
223.6120102037
 10
117.8698636262
 20
223.8884030654
 10
117.6151417923
 20
224.1409779989
 10
117.3531395608
 20
224.3753040017
 10
117.0782898347
 20
224.5943496499
 10
116.785939732
 20
224.798783206
 10
116.4696011598
 20
224.9889031049
 10
116.1299052704
 20
225.1595831768
 10
115.7648251401
 20
225.3071052817
 10
115.3817861647
 20
225.4245176214
 10
114.9880932702
 20
225.507499742
 10
114.663094953
 20
225.5482767759
  0
LWPOLYLINE
  5
32C
100
AcDbEntity
  8
0
100
AcDbPolyline
 62
7
  6
CONTINUOUS
 90
6
 70
0
 10
118.6982980708
 20
222.8742963995
 10
118.6013815866
 20
223.013261615
 10
118.5058702382
 20
223.1440007263
 10
118.4118288242
 20
223.2668095976
 10
118.3194168892
 20
223.3818952325
 10
118.3075996128
 20
223.3962192111
  0
LINE
  5
32D
100
AcDbEntity
  8
0
100
AcDbLine
 62
7
  6
CONTINUOUS
 10
118.6982980708
 20
222.8742963995
 11
121.8845282685
 21
218.1154992668
  0
LWPOLYLINE
  5
32E
100
AcDbEntity
  8
0
100
AcDbPolyline
 62
7
  6
CONTINUOUS
 90
8
 70
0
 10
108.1188341039
 20
256.7413742187
 10
108.0993497714
 20
256.7963572597
 10
108.0672180845
 20
256.8640264521
 10
108.0105649806
 20
256.950152115
 10
107.9281819668
 20
257.0384758978
 10
107.8247877812
 20
257.1141116929
 10
107.700361038
 20
257.1684426258
 10
107.5717021503
 20
257.1875449652
  0
LWPOLYLINE
  5
32F
100
AcDbEntity
  8
KONSTRUKTIONSELEMENTE
100
AcDbPolyline
 62
7
  6
CONTINUOUS
 90
11
 70
0
 10
115.858773273
 20
256.4855827133
 10
115.8588838665
 20
256.4850719253
 10
115.8603288658
 20
256.4777664785
 10
115.8627633695
 20
256.4637586455
 10
115.8657594416
 20
256.4443166567
 10
115.8691952683
 20
256.419447042
 10
115.8729216071
 20
256.389634065
 10
115.8768773945
 20
256.3549382434
 10
115.8809896986
 20
256.3156812029
 10
115.8852399766
 20
256.2718002342
 10
115.8896014388
 20
256.2233675498
  0
LWPOLYLINE
  5
330
100
AcDbEntity
  8
RUNDUNGEN
100
AcDbPolyline
 62
7
  6
CONTINUOUS
 90
13
 70
0
 10
109.2814833653
 20
225.5482777183
 10
108.9459627434
 20
225.5057664207
 10
108.5541571267
 20
225.4222787836
 10
108.1729785578
 20
225.3046951406
 10
107.809565927
 20
225.1572665349
 10
107.4711515405
 20
224.9867940931
 10
107.1557724494
 20
224.7969231862
 10
106.8640195582
 20
224.592658127
 10
106.5895845046
 20
224.3737435584
 10
106.327926948
 20
224.1395638449
 10
106.0735679617
 20
223.8872211046
 10
105.8202847941
 20
223.6112993553
 10
105.6370884587
 20
223.3963647566
  0
LINE
  5
331
100
AcDbEntity
  8
RUNDUNGEN
100
AcDbLine
 62
7
  6
CONTINUOUS
 10
109.2814789952
 20
225.5482774347
 11
109.2815661134
 21
225.5482850681
  0
LINE
  5
332
100
AcDbEntity
  8
AUSFORMSCHRAEGEN
100
AcDbLine
 62
7
  6
CONTINUOUS
 10
111.9722837964
 20
225.7836923628
 11
109.2811095949
 21
225.5482451286
  0
LINE
  5
333
100
AcDbEntity
  8
0
100
AcDbLine
 62
7
  6
CONTINUOUS
 10
108.4722823416
 20
229.247564864
 11
115.4722823416
 21
229.247564864
  0
LINE
  5
334
100
AcDbEntity
  8
0
100
AcDbLine
 62
7
  6
CONTINUOUS
 10
114.6634579979
 20
225.5482451286
 11
111.9722837964
 21
225.7836923628
  0
LINE
  5
335
100
AcDbEntity
  8
0
100
AcDbLine
 62
7
  6
CONTINUOUS
 10
105.4856660755
 20
233.0963316457
 11
105.4926599112
 21
233.0924785738
  0
LINE
  5
336
100
AcDbEntity
  8
0
100
AcDbLine
 62
7
  6
CONTINUOUS
 10
107.7998447826
 20
241.8391100332
 11
108.6687569378
 21
240.8127025014
  0
LINE
  5
337
100
AcDbEntity
  8
0
100
AcDbLine
 62
7
  6
CONTINUOUS
 10
107.7998447826
 20
242.2779222542
 11
108.6687569378
 21
241.2515147223
  0
LINE
  5
338
100
AcDbEntity
  8
0
100
AcDbLine
 62
7
  6
CONTINUOUS
 10
109.5347823416
 20
241.2515147223
 11
108.3977926541
 21
242.5945903968
  0
LWPOLYLINE
  5
339
100
AcDbEntity
  8
0
100
AcDbPolyline
 62
7
  6
CONTINUOUS
 90
5
 70
0
 10
107.3145787091
 20
245.2819641808
 10
107.2137308067
 20
245.4171368294
 10
107.1413142935
 20
245.5608067839
 10
107.099471034
 20
245.7145287799
 10
107.0911272842
 20
245.8177868017
  0
LWPOLYLINE
  5
33A
100
AcDbEntity
  8
0
100
AcDbPolyline
 62
7
  6
CONTINUOUS
 90
19
 70
0
 10
124.9288120841
 20
265.5301783936
 10
124.9079226488
 20
265.6587698425
 10
124.8806805267
 20
265.7967561278
 10
124.8488036346
 20
265.9282996091
 10
124.8097019455
 20
266.0602715795
 10
124.7612374825
 20
266.194547726
 10
124.7024136365
 20
266.3293660029
 10
124.6313026217
 20
266.4653686671
 10
124.5465799446
 20
266.6015673052
 10
124.447458032
 20
266.7360264152
 10
124.3334369877
 20
266.8665261654
 10
124.2041832667
 20
266.9907510219
 10
124.0598110969
 20
267.1063735817
 10
123.9011461461
 20
267.2109746881
 10
123.7294752769
 20
267.3021003235
 10
123.5458662846
 20
267.3775914373
 10
123.3518984224
 20
267.435466631
 10
123.1495663412
 20
267.4741370693
 10
122.9412935945
 20
267.492095787
  0
LINE
  5
33B
100
AcDbEntity
  8
0
100
AcDbLine
 62
7
  6
CONTINUOUS
 10
124.9385804829
 20
265.470394875
 11
124.9295293878
 21
265.5266677549
  0
LINE
  5
33C
100
AcDbEntity
  8
0
100
AcDbLine
 62
7
  6
CONTINUOUS
 10
124.9438139164
 20
265.4370098203
 11
124.9385804829
 21
265.470394875
  0
LINE
  5
33D
100
AcDbEntity
  8
0
100
AcDbLine
 62
7
  6
CONTINUOUS
 10
124.9295293878
 20
265.5266677549
 11
124.9288198051
 21
265.5313019422
  0
LINE
  5
33E
100
AcDbEntity
  8
0
100
AcDbLine
 62
7
  6
CONTINUOUS
 10
124.9288120841
 20
265.5301783936
 11
124.9286481323
 21
265.5312861092
  0
LWPOLYLINE
  5
33F
100
AcDbEntity
  8
0
100
AcDbPolyline
 62
7
  6
CONTINUOUS
 90
3
 70
0
 10
124.9553916023
 20
265.3536360077
 10
124.9496445065
 20
265.3972484857
 10
124.9438139164
 20
265.4370098203
  0
LINE
  5
340
100
AcDbEntity
  8
0
100
AcDbLine
 62
7
  6
CONTINUOUS
 10
124.9604023486
 20
265.3087440389
 11
124.9553916023
 21
265.3536360077
  0
LINE
  5
341
100
AcDbEntity
  8
0
100
AcDbLine
 62
7
  6
CONTINUOUS
 10
121.7524426375
 20
238.9371491421
 11
121.7515393789
 21
238.9369449556
  0
LINE
  5
342
100
AcDbEntity
  8
0
100
AcDbLine
 62
7
  6
CONTINUOUS
 10
105.6347823416
 20
240.8127025014
 11
106.3847823416
 21
240.8127025014
  0
LINE
  5
343
100
AcDbEntity
  8
0
100
AcDbLine
 62
7
  6
CONTINUOUS
 10
108.6687569378
 20
240.8127025014
 11
109.5347823416
 21
240.8127025014
  0
LINE
  5
344
100
AcDbEntity
  8
0
100
AcDbLine
 62
7
  6
CONTINUOUS
 10
114.6347823416
 20
240.8127025014
 11
116.6647823416
 21
240.8127025014
  0
LINE
  5
345
100
AcDbEntity
  8
0
100
AcDbLine
 62
7
  6
CONTINUOUS
 10
104.9882971865
 20
237.9630675124
 11
104.9878297568
 21
237.963074974
  0
LINE
  5
346
100
AcDbEntity
  8
0
100
AcDbLine
 62
7
  6
CONTINUOUS
 10
107.8861447633
 20
245.0511227146
 11
108.0053401596
 21
245.003220278
  0
LINE
  5
347
100
AcDbEntity
  8
0
100
AcDbLine
 62
7
  6
CONTINUOUS
 10
107.8299798568
 20
244.9120449665
 11
107.8299188336
 21
244.9120728893
  0
LWPOLYLINE
  5
348
100
AcDbEntity
  8
0
100
AcDbPolyline
 62
7
  6
CONTINUOUS
 90
5
 70
0
 10
107.8299189071
 20
244.9120730461
 10
107.7650371073
 20
244.9432728741
 10
107.5928962271
 20
245.0427899169
 10
107.4420030435
 20
245.1562715626
 10
107.3145787091
 20
245.2819641808
  0
LINE
  5
349
100
AcDbEntity
  8
KONSTRUKTIONSELEMENTE
100
AcDbLine
 62
7
  6
CONTINUOUS
 10
124.4934906252
 20
247.5487410128
 11
124.9722837964
 21
247.6770332563
  0
LINE
  5
34A
100
AcDbEntity
  8
0
100
AcDbLine
 62
7
  6
CONTINUOUS
 10
108.1217020914
 20
244.987545101
 11
108.2222837964
 21
245.0024659091
  0
LINE
  5
34B
100
AcDbEntity
  8
KONSTRUKTIONSELEMENTE
100
AcDbLine
 62
7
  6
CONTINUOUS
 10
115.822805368
 20
244.9875451479
 11
115.9344928524
 21
245.0019847295
  0
LINE
  5
34C
100
AcDbEntity
  8
0
100
AcDbLine
 62
7
  6
CONTINUOUS
 10
105.6347823416
 20
241.2515147223
 11
106.3847823416
 21
241.2515147223
  0
LINE
  5
34D
100
AcDbEntity
  8
0
100
AcDbLine
 62
7
  6
CONTINUOUS
 10
108.6687569378
 20
241.2515147223
 11
109.5347823416
 21
241.2515147223
  0
LINE
  5
34E
100
AcDbEntity
  8
0
100
AcDbLine
 62
7
  6
CONTINUOUS
 10
114.6347823416
 20
241.2515147223
 11
116.6647823416
 21
241.2515147223
  0
LINE
  5
34F
100
AcDbEntity
  8
0
100
AcDbLine
 62
7
  6
CONTINUOUS
 10
116.4722823416
 20
241.7630134924
 11
115.5347823416
 21
241.7630134924
  0
LINE
  5
350
100
AcDbEntity
  8
0
100
AcDbLine
 62
7
  6
CONTINUOUS
 10
106.3847823416
 20
242.0948594183
 11
107.1503257298
 21
242.0948594183
  0
LINE
  5
351
100
AcDbEntity
  8
0
100
AcDbLine
 62
7
  6
CONTINUOUS
 10
106.3847823416
 20
242.5336716392
 11
107.1503257298
 21
242.5336716392
  0
LINE
  5
352
100
AcDbEntity
  8
0
100
AcDbLine
 62
7
  6
CONTINUOUS
 10
107.6217823416
 20
243.0451704093
 11
106.3847823416
 21
243.0451704093
  0
LINE
  5
353
100
AcDbEntity
  8
0
100
AcDbLine
 62
7
  6
CONTINUOUS
 10
115.5347823416
 20
243.3701963516
 11
116.4722823416
 21
243.3701963516
  0
LINE
  5
354
100
AcDbEntity
  8
0
100
AcDbLine
 62
7
  6
CONTINUOUS
 10
106.3847823416
 20
243.3742883417
 11
107.6217823416
 21
243.3742883417
  0
LINE
  5
355
100
AcDbEntity
  8
0
100
AcDbLine
 62
7
  6
CONTINUOUS
 10
115.5347823416
 20
243.5021093105
 11
114.6347823416
 21
243.5021093105
  0
LINE
  5
356
100
AcDbEntity
  8
0
100
AcDbLine
 62
7
  6
CONTINUOUS
 10
106.3847823416
 20
243.5062013007
 11
105.6347823416
 21
243.5062013007
  0
LINE
  5
357
100
AcDbEntity
  8
0
100
AcDbLine
 62
7
  6
CONTINUOUS
 10
114.6347823416
 20
243.8090085726
 11
116.4722823416
 21
243.8090085726
  0
LINE
  5
358
100
AcDbEntity
  8
0
100
AcDbLine
 62
7
  6
CONTINUOUS
 10
105.6347823416
 20
243.8131005627
 11
107.6217823416
 21
243.8131005627
  0
LINE
  5
359
100
AcDbEntity
  8
0
100
AcDbLine
 62
7
  6
CONTINUOUS
 10
116.6647823416
 20
244.3205073426
 11
114.6347823416
 21
244.3205073426
  0
LINE
  5
35A
100
AcDbEntity
  8
0
100
AcDbLine
 62
7
  6
CONTINUOUS
 10
113.7347823416
 20
244.3245993328
 11
112.8347823416
 21
244.3245993328
  0
LINE
  5
35B
100
AcDbEntity
  8
0
100
AcDbLine
 62
7
  6
CONTINUOUS
 10
111.0347823416
 20
244.3245993328
 11
110.1347823416
 21
244.3245993328
  0
LINE
  5
35C
100
AcDbEntity
  8
0
100
AcDbLine
 62
7
  6
CONTINUOUS
 10
107.9217823416
 20
244.3245993328
 11
105.6347823416
 21
244.3245993328
  0
LINE
  5
35D
100
AcDbEntity
  8
0
100
AcDbLine
 62
7
  6
CONTINUOUS
 10
108.7332267346
 20
244.7192593116
 11
115.2113379485
 21
244.7192593116
  0
LWPOLYLINE
  5
35E
100
AcDbEntity
  8
0
100
AcDbPolyline
 62
7
  6
CONTINUOUS
 90
7
 70
0
 10
108.7332266911
 20
244.7192419987
 10
108.6937793925
 20
244.7195948111
 10
108.4978132777
 20
244.7317138915
 10
108.2985679966
 20
244.7619348397
 10
108.1014245661
 20
244.8105699631
 10
107.9115995285
 20
244.8768884447
 10
107.8299798568
 20
244.9120449665
  0
LINE
  5
35F
100
AcDbEntity
  8
0
100
AcDbLine
 62
7
  6
CONTINUOUS
 10
108.0053401596
 20
245.003220278
 11
108.1217604584
 21
244.9875451363
  0
LINE
  5
360
100
AcDbEntity
  8
KONSTRUKTIONSELEMENTE
100
AcDbLine
 62
7
  6
CONTINUOUS
 10
115.7222837964
 20
245.0026715574
 11
115.8228664699
 21
244.9875451062
  0
LINE
  5
361
100
AcDbEntity
  8
KONSTRUKTIONSELEMENTE
100
AcDbLine
 62
7
  6
CONTINUOUS
 10
98.9722837964
 20
247.6770332563
 11
99.4509975777
 21
247.5487622852
  0
LWPOLYLINE
  5
362
100
AcDbEntity
  8
KONSTRUKTIONSELEMENTE
100
AcDbPolyline
 62
7
  6
CONTINUOUS
 90
5
 70
0
 10
116.7222823416
 20
257.0422541777
 10
116.7027108986
 20
257.0610359774
 10
116.5985679137
 20
257.1291901505
 10
116.4814713538
 20
257.173867722
 10
116.3728054052
 20
257.1875449183
  0
LINE
  5
363
100
AcDbEntity
  8
0
100
AcDbLine
 62
7
  6
CONTINUOUS
 10
154.4722837964
 20
264.7533027449
 11
154.4722837964
 21
151.4939756683
  0
LINE
  5
364
100
AcDbEntity
  8
KONSTRUKTIONSELEMENTE
100
AcDbLine
 62
7
  6
CONTINUOUS
 10
124.0730461239
 20
250.4534753482
 11
124.9722837964
 21
250.4953158781
  0
LINE
  5
365
100
AcDbEntity
  8
KONSTRUKTIONSELEMENTE
100
AcDbLine
 62
7
  6
CONTINUOUS
 10
98.9722837964
 20
251.6797741879
 11
99.9780732344
 21
251.726572453
  0
LINE
  5
366
100
AcDbEntity
  8
KONSTRUKTIONSELEMENTE
100
AcDbLine
 62
7
  6
CONTINUOUS
 10
98.9722837964
 20
250.6534245888
 11
99.8918621516
 21
250.6534245888
  0
LINE
  5
367
100
AcDbEntity
  8
KONSTRUKTIONSELEMENTE
100
AcDbLine
 62
7
  6
CONTINUOUS
 10
124.0526982863
 20
250.6534245888
 11
124.9722837964
 21
250.6534245888
  0
LINE
  5
368
100
AcDbEntity
  8
KONSTRUKTIONSELEMENTE
100
AcDbLine
 62
7
  6
CONTINUOUS
 10
98.9722837964
 20
251.5216654772
 11
99.964643796
 21
251.5216654772
  0
LINE
  5
369
100
AcDbEntity
  8
KONSTRUKTIONSELEMENTE
100
AcDbLine
 62
7
  6
CONTINUOUS
 10
123.9799193903
 20
251.5216654772
 11
124.9722837964
 21
251.5216654772
  0
LINE
  5
36A
100
AcDbEntity
  8
KONSTRUKTIONSELEMENTE
100
AcDbLine
 62
7
  6
CONTINUOUS
 10
98.9722837964
 20
250.4953158781
 11
99.8715191233
 21
250.4534754574
  0
LINE
  5
36B
100
AcDbEntity
  8
KONSTRUKTIONSELEMENTE
100
AcDbLine
 62
7
  6
CONTINUOUS
 10
123.9664904676
 20
251.726572634
 11
124.9722837964
 21
251.6797741879
  0
LINE
  5
36C
100
AcDbEntity
  8
KONSTRUKTIONSELEMENTE
100
AcDbLine
 62
7
  6
CONTINUOUS
 10
98.9722837964
 20
254.4980568096
 11
99.892246078
 21
254.74455996
  0
LWPOLYLINE
  5
36D
100
AcDbEntity
  8
KONSTRUKTIONSELEMENTE
100
AcDbPolyline
 62
7
  6
CONTINUOUS
 90
8
 70
0
 10
116.372866258
 20
257.1875449609
 10
116.2435709542
 20
257.1682555051
 10
116.1187906147
 20
257.1135307484
 10
116.015353546
 20
257.0375503262
 10
115.9334942945
 20
256.949496824
 10
115.8773215885
 20
256.8639756024
 10
115.8454221267
 20
256.7968615323
 10
115.8260537882
 20
256.7424137783
  0
LWPOLYLINE
  5
36E
100
AcDbEntity
  8
0
100
AcDbPolyline
 62
7
  6
CONTINUOUS
 90
5
 70
0
 10
107.5717616834
 20
257.1875449217
 10
107.461161221
 20
257.1733818703
 10
107.343572935
 20
257.1279261305
 10
107.2404547232
 20
257.059905282
 10
107.2222823416
 20
257.042418192
  0
LINE
  5
36F
100
AcDbEntity
  8
KONSTRUKTIONSELEMENTE
100
AcDbLine
 62
7
  6
CONTINUOUS
 10
124.0523494197
 20
254.744552483
 11
124.9722837964
 21
254.4980568096
  0
LINE
  5
370
100
AcDbEntity
  8
0
100
AcDbLine
 62
7
  6
CONTINUOUS
 10
115.2222823416
 20
261.2408168529
 11
108.7222823416
 21
261.2408168529
  0
LINE
  5
371
100
AcDbEntity
  8
0
100
AcDbLine
 62
7
  6
CONTINUOUS
 10
108.7222823416
 20
261.7326963926
 11
115.2222823416
 21
261.7326963926
  0
LINE
  5
372
100
AcDbEntity
  8
0
100
AcDbLine
 62
7
  6
CONTINUOUS
 10
111.9722837964
 20
268.8872344175
 11
115.5025832776
 21
269.3439839504
  0
LINE
  5
373
100
AcDbEntity
  8
0
100
AcDbLine
 62
7
  6
CONTINUOUS
 10
115.5025832776
 20
269.3439839504
 11
119.3893529723
 21
269.8357250724
  0
LINE
  5
374
100
AcDbEntity
  8
0
100
AcDbLine
 62
7
  6
CONTINUOUS
 10
119.3893529723
 20
269.8357250724
 11
123.2152889046
 21
270.3091114786
  0
LWPOLYLINE
  5
375
100
AcDbEntity
  8
0
100
AcDbPolyline
 62
7
  6
CONTINUOUS
 90
18
 70
0
 10
101.0032710886
 20
267.492095787
 10
100.7949983419
 20
267.4741370693
 10
100.5926662607
 20
267.435466631
 10
100.3986983985
 20
267.3775914373
 10
100.2150894062
 20
267.3021003235
 10
100.043418537
 20
267.2109746881
 10
99.8847535862
 20
267.1063735817
 10
99.7403814164
 20
266.9907510219
 10
99.6111276954
 20
266.8665261654
 10
99.4971066511
 20
266.7360264152
 10
99.3979847385
 20
266.6015673052
 10
99.3132620614
 20
266.4653686671
 10
99.2421510466
 20
266.3293660029
 10
99.1833272007
 20
266.194547726
 10
99.1348627376
 20
266.0602715795
 10
99.0957610485
 20
265.9282996091
 10
99.0638841564
 20
265.7967561278
 10
99.0366420343
 20
265.6587698425
  0
LINE
  5
376
100
AcDbEntity
  8
0
100
AcDbLine
 62
7
  6
CONTINUOUS
 10
101.0708161784
 20
267.4932424747
 11
101.0032710886
 21
267.492095787
  0
LINE
  5
377
100
AcDbEntity
  8
0
100
AcDbLine
 62
7
  6
CONTINUOUS
 10
101.0708532994
 20
267.4932623129
 11
122.8737113837
 21
267.4932623129
  0
LINE
  5
378
100
AcDbEntity
  8
0
100
AcDbLine
 62
7
  6
CONTINUOUS
 10
122.9412935945
 20
267.492095787
 11
122.8737485048
 21
267.4932424747
  0
LINE
  5
379
100
AcDbEntity
  8
KONSTRUKTIONSELEMENTE
100
AcDbLine
 62
7
  6
CONTINUOUS
 10
100.7292786883
 20
270.3091114786
 11
104.5552146206
 21
269.8357250724
  0
LINE
  5
37A
100
AcDbEntity
  8
KONSTRUKTIONSELEMENTE
100
AcDbLine
 62
7
  6
CONTINUOUS
 10
104.5552146206
 20
269.8357250724
 11
108.4419843152
 21
269.3439839504
  0
LINE
  5
37B
100
AcDbEntity
  8
KONSTRUKTIONSELEMENTE
100
AcDbLine
 62
7
  6
CONTINUOUS
 10
108.4419843152
 20
269.3439839504
 11
111.9722837964
 21
268.8872344175
  0
LINE
  5
37C
100
AcDbEntity
  8
RUNDUNGEN
100
AcDbLine
 62
7
  6
CONTINUOUS
 10
101.5051835666
 20
278.4904788854
 11
100.7601813358
 21
278.4096366673
  0
LWPOLYLINE
  5
37D
100
AcDbEntity
  8
RUNDUNGEN
100
AcDbPolyline
 62
7
  6
CONTINUOUS
 90
5
 70
0
 10
104.3194800674
 20
278.7980051061
 10
104.1482794213
 20
278.7821250753
 10
103.8543837415
 20
278.7523796728
 10
103.5284969321
 20
278.71732607
 10
101.5051835666
 20
278.4904788854
  0
LINE
  5
37E
100
AcDbEntity
  8
0
100
AcDbLine
 62
7
  6
CONTINUOUS
 10
111.9722837964
 20
279.467545033
 11
104.33273155
 21
278.799170817
  0
LINE
  5
37F
100
AcDbEntity
  8
RUNDUNGEN
100
AcDbLine
 62
7
  6
CONTINUOUS
 10
104.3327326786
 20
278.7991709157
 11
80.4264148835
 21
276.707639122
  0
LINE
  5
380
100
AcDbEntity
  8
0
100
AcDbLine
 62
7
  6
CONTINUOUS
 10
119.7220402311
 20
278.7895291999
 11
143.5181527094
 21
276.707639122
  0
LINE
  5
381
100
AcDbEntity
  8
0
100
AcDbLine
 62
7
  6
CONTINUOUS
 10
119.6250288723
 20
278.7980103793
 11
111.9722837964
 21
279.467545033
  0
LWPOLYLINE
  5
382
100
AcDbEntity
  8
0
100
AcDbPolyline
 62
7
  6
CONTINUOUS
 90
3
 70
0
 10
120.0901838514
 20
278.7523796728
 10
119.7962881716
 20
278.7821250753
 10
119.6250875255
 20
278.7980051061
  0
LINE
  5
383
100
AcDbEntity
  8
0
100
AcDbLine
 62
7
  6
CONTINUOUS
 10
123.1856288875
 20
278.4095038521
 11
121.9946060598
 21
278.5399061995
  0
LINE
  5
384
100
AcDbEntity
  8
0
100
AcDbLine
 62
7
  6
CONTINUOUS
 10
120.7725753302
 20
278.6777210633
 11
120.0901838514
 21
278.7523796728
  0
LINE
  5
385
100
AcDbEntity
  8
0
100
AcDbLine
 62
7
  6
CONTINUOUS
 10
121.9946060598
 20
278.5399061995
 11
120.7725753302
 21
278.6777210633
  0
LINE
  5
386
100
AcDbEntity
  8
0
100
AcDbLine
 62
7
  6
CONTINUOUS
 10
246.3778817257
 20
137.1388240708
 11
294.4893570844
 21
134.1763904384
  0
LINE
  5
387
100
AcDbEntity
  8
0
100
AcDbLine
 62
7
  6
CONTINUOUS
 10
261.0043447095
 20
257.9075286336
 11
269.0535619972
 21
266.5392573931
  0
LINE
  5
388
100
AcDbEntity
  8
KONSTRUKTIONSELEMENTE
100
AcDbLine
 62
7
  6
CONTINUOUS
 10
319.4988594175
 20
153.2963835003
 11
319.9818780357
 21
153.3704878823
  0
LINE
  5
389
100
AcDbEntity
  8
KONSTRUKTIONSELEMENTE
100
AcDbLine
 62
7
  6
CONTINUOUS
 10
319.9442048457
 20
156.1251238359
 11
319.4611855137
 21
156.0510188211
  0
LINE
  5
38A
100
AcDbEntity
  8
KONSTRUKTIONSELEMENTE
100
AcDbLine
 62
7
  6
CONTINUOUS
 10
319.7707274626
 20
153.7492191824
 11
319.4699247647
 21
153.7177530784
  0
LINE
  5
38B
100
AcDbEntity
  8
KONSTRUKTIONSELEMENTE
100
AcDbLine
 62
7
  6
CONTINUOUS
 10
319.6723360531
 20
155.6722875608
 11
319.9731394792
 21
155.7037542806
  0
LINE
  5
38C
100
AcDbEntity
  8
0
100
AcDbLine
 62
7
  6
CONTINUOUS
 10
246.3778817257
 20
137.1388240708
 11
246.3778817257
 21
279.467545033
  0
LINE
  5
38D
100
AcDbEntity
  8
KONSTRUKTIONSELEMENTE
100
AcDbLine
 62
7
  6
CONTINUOUS
 10
319.0881442565
 20
153.3948852362
 11
319.4988594175
 21
153.2963835003
  0
LINE
  5
38E
100
AcDbEntity
  8
KONSTRUKTIONSELEMENTE
100
AcDbLine
 62
7
  6
CONTINUOUS
 10
331.484933264
 20
172.102461057
 11
331.9504158461
 21
172.1908131455
  0
LINE
  5
38F
100
AcDbEntity
  8
KONSTRUKTIONSELEMENTE
100
AcDbLine
 62
7
  6
CONTINUOUS
 10
332.1157389725
 20
172.7935512842
 11
331.6502563904
 21
172.7051991957
  0
LINE
  5
390
100
AcDbEntity
  8
KONSTRUKTIONSELEMENTE
100
AcDbLine
 62
7
  6
CONTINUOUS
 10
327.2918350392
 20
169.327584382
 11
327.6701410559
 21
169.373881208
  0
LINE
  5
391
100
AcDbEntity
  8
KONSTRUKTIONSELEMENTE
100
AcDbLine
 62
7
  6
CONTINUOUS
 10
320.3549199875
 20
156.0266221228
 11
319.9442048457
 21
156.1251238359
  0
LINE
  5
392
100
AcDbEntity
  8
KONSTRUKTIONSELEMENTE
100
AcDbLine
 62
7
  6
CONTINUOUS
 10
319.9731394792
 20
155.7037542806
 11
320.2652678289
 21
155.6164247585
  0
LINE
  5
393
100
AcDbEntity
  8
KONSTRUKTIONSELEMENTE
100
AcDbLine
 62
7
  6
CONTINUOUS
 10
312.5944748422
 20
152.9915226894
 11
314.8385368587
 21
152.0955727259
  0
LINE
  5
394
100
AcDbEntity
  8
KONSTRUKTIONSELEMENTE
100
AcDbLine
 62
7
  6
CONTINUOUS
 10
315.2773980196
 20
151.8697890929
 11
317.1281279595
 21
151.1277186791
  0
LINE
  5
395
100
AcDbEntity
  8
KONSTRUKTIONSELEMENTE
100
AcDbLine
 62
7
  6
CONTINUOUS
 10
314.867643513
 20
152.5169304335
 11
313.0169143788
 21
153.2590013575
  0
LINE
  5
396
100
AcDbEntity
  8
KONSTRUKTIONSELEMENTE
100
AcDbLine
 62
7
  6
CONTINUOUS
 10
317.5505674961
 20
151.3951973472
 11
315.2609763953
 21
152.363051394
  0
LINE
  5
397
100
AcDbEntity
  8
KONSTRUKTIONSELEMENTE
100
AcDbLine
 62
7
  6
CONTINUOUS
 10
265.1104078191
 20
179.0193952825
 11
268.214235524
 21
175.0466769839
  0
LINE
  5
398
100
AcDbEntity
  8
0
100
AcDbLine
 62
7
  6
CONTINUOUS
 10
259.3778817257
 20
233.087545033
 11
259.3778817257
 21
214.9105614187
  0
LINE
  5
399
100
AcDbEntity
  8
KONSTRUKTIONSELEMENTE
100
AcDbLine
 62
7
  6
CONTINUOUS
 10
259.1178817257
 20
233.9670403279
 11
259.9535430637
 21
241.476280003
  0
LINE
  5
39A
100
AcDbEntity
  8
KONSTRUKTIONSELEMENTE
100
AcDbLine
 62
7
  6
CONTINUOUS
 10
259.9754687971
 20
235.5585015281
 11
260.3956261814
 21
238.5480766595
  0
LINE
  5
39B
100
AcDbEntity
  8
0
100
AcDbLine
 62
7
  6
CONTINUOUS
 10
260.3956261814
 20
238.5480766595
 11
261.1747671167
 21
244.0919524799
  0
LINE
  5
39C
100
AcDbEntity
  8
KONSTRUKTIONSELEMENTE
100
AcDbLine
 62
7
  6
CONTINUOUS
 10
261.0647636727
 20
235.4054111171
 11
261.484921057
 21
238.3949862484
  0
LINE
  5
39D
100
AcDbEntity
  8
0
100
AcDbLine
 62
7
  6
CONTINUOUS
 10
261.484921057
 20
238.3949862484
 11
262.1613379556
 21
243.2079425679
  0
LINE
  5
39E
100
AcDbEntity
  8
KONSTRUKTIONSELEMENTE
100
AcDbLine
 62
7
  6
CONTINUOUS
 10
331.9639034548
 20
175.8595904057
 11
331.3958269296
 21
175.7993778653
  0
LINE
  5
39F
100
AcDbEntity
  8
KONSTRUKTIONSELEMENTE
100
AcDbLine
 62
7
  6
CONTINUOUS
 10
318.7410589182
 20
153.5471980965
 11
319.0881442565
 21
153.3948852362
  0
LINE
  5
3A0
100
AcDbEntity
  8
KONSTRUKTIONSELEMENTE
100
AcDbLine
 62
7
  6
CONTINUOUS
 10
319.4699247647
 20
153.7177530784
 11
319.1228394264
 21
153.8700659387
  0
LINE
  5
3A1
100
AcDbEntity
  8
KONSTRUKTIONSELEMENTE
100
AcDbLine
 62
7
  6
CONTINUOUS
 10
267.5733748832
 20
181.5518835577
 11
269.1125285715
 21
179.5818566736
  0
LINE
  5
3A2
100
AcDbEntity
  8
KONSTRUKTIONSELEMENTE
100
AcDbLine
 62
7
  6
CONTINUOUS
 10
269.7281900468
 20
178.79384592
 11
271.2673437351
 21
176.823819036
  0
LINE
  5
3A3
100
AcDbEntity
  8
KONSTRUKTIONSELEMENTE
100
AcDbLine
 62
7
  6
CONTINUOUS
 10
272.0553544887
 20
177.4394805113
 11
268.3613856368
 21
182.167545033
  0
LINE
  5
3A4
100
AcDbEntity
  8
0
100
AcDbLine
 62
7
  6
CONTINUOUS
 10
284.8384966914
 20
243.8857871118
 11
285.2476957075
 21
244.3245993328
  0
LINE
  5
3A5
100
AcDbEntity
  8
0
100
AcDbLine
 62
7
  6
CONTINUOUS
 10
285.3870119676
 20
243.3742883417
 11
285.7962109837
 21
243.8131005627
  0
LINE
  5
3A6
100
AcDbEntity
  8
0
100
AcDbLine
 62
7
  6
CONTINUOUS
 10
285.7161211334
 20
243.0673890797
 11
286.1253201494
 21
243.5062013007
  0
LINE
  5
3A7
100
AcDbEntity
  8
0
100
AcDbLine
 62
7
  6
CONTINUOUS
 10
288.1339764709
 20
240.8127025014
 11
288.543175487
 21
241.2515147223
  0
LINE
  5
3A8
100
AcDbEntity
  8
KONSTRUKTIONSELEMENTE
100
AcDbLine
 62
7
  6
CONTINUOUS
 10
333.4547340746
 20
178.3182479942
 11
333.1233949412
 21
178.2642011901
  0
LINE
  5
3A9
100
AcDbEntity
  8
KONSTRUKTIONSELEMENTE
100
AcDbLine
 62
7
  6
CONTINUOUS
 10
331.5933927577
 20
175.3131325129
 11
331.9287279489
 21
175.3291687117
  0
LINE
  5
3AA
100
AcDbEntity
  8
KONSTRUKTIONSELEMENTE
100
AcDbLine
 62
7
  6
CONTINUOUS
 10
327.9456759682
 20
169.934867404
 11
327.5178055238
 21
170.0289680096
  0
LINE
  5
3AB
100
AcDbEntity
  8
KONSTRUKTIONSELEMENTE
100
AcDbLine
 62
7
  6
CONTINUOUS
 10
320.756960858
 20
155.8093246926
 11
320.3549199875
 21
156.0266221228
  0
LINE
  5
3AC
100
AcDbEntity
  8
KONSTRUKTIONSELEMENTE
100
AcDbLine
 62
7
  6
CONTINUOUS
 10
320.2652678289
 20
155.6164247585
 11
320.4937671418
 21
155.4752846594
  0
LINE
  5
3AD
100
AcDbEntity
  8
KONSTRUKTIONSELEMENTE
100
AcDbLine
 62
7
  6
CONTINUOUS
 10
305.3667758167
 20
148.9895256189
 11
307.494410292
 21
146.391433588
  0
LINE
  5
3AE
100
AcDbEntity
  8
0
100
AcDbLine
 62
7
  6
CONTINUOUS
 10
268.9173978134
 20
187.2057950291
 11
278.3296559
 21
175.1586540511
  0
LINE
  5
3AF
100
AcDbEntity
  8
0
100
AcDbLine
 62
7
  6
CONTINUOUS
 10
267.8178817257
 20
265.8680909964
 11
267.8178817257
 21
267.4103453115
  0
LINE
  5
3B0
100
AcDbEntity
  8
0
100
AcDbLine
 62
7
  6
CONTINUOUS
 10
292.5952019586
 20
233.4149680471
 11
292.5926724302
 21
233.413800762
  0
LINE
  5
3B1
100
AcDbEntity
  8
0
100
AcDbLine
 62
7
  6
CONTINUOUS
 10
343.1752684855
 20
191.6516051417
 11
342.8387752655
 21
191.57340622
  0
LINE
  5
3B2
100
AcDbEntity
  8
KONSTRUKTIONSELEMENTE
100
AcDbLine
 62
7
  6
CONTINUOUS
 10
269.1125285715
 20
179.5818566736
 11
265.1104078191
 21
179.0193952825
  0
LINE
  5
3B3
100
AcDbEntity
  8
KONSTRUKTIONSELEMENTE
100
AcDbLine
 62
7
  6
CONTINUOUS
 10
329.0478817257
 20
182.4110078525
 11
335.0478817257
 21
182.4110078525
  0
LINE
  5
3B4
100
AcDbEntity
  8
KONSTRUKTIONSELEMENTE
100
AcDbLine
 62
7
  6
CONTINUOUS
 10
330.6031508041
 20
177.284544701
 11
331.0236601026
 21
177.2193580663
  0
LINE
  5
3B5
100
AcDbEntity
  8
KONSTRUKTIONSELEMENTE
100
AcDbLine
 62
7
  6
CONTINUOUS
 10
329.8897889659
 20
178.2384147051
 11
330.7308078573
 21
178.1080413899
  0
LINE
  5
3B6
100
AcDbEntity
  8
KONSTRUKTIONSELEMENTE
100
AcDbLine
 62
7
  6
CONTINUOUS
 10
331.1513171558
 20
178.0428547552
 11
333.2538638688
 21
177.7169215472
  0
LINE
  5
3B7
100
AcDbEntity
  8
KONSTRUKTIONSELEMENTE
100
AcDbLine
 62
7
  6
CONTINUOUS
 10
327.89415286
 20
173.0873647895
 11
330.5615896987
 21
172.3557220258
  0
LINE
  5
3B8
100
AcDbEntity
  8
KONSTRUKTIONSELEMENTE
100
AcDbLine
 62
7
  6
CONTINUOUS
 10
330.1863903506
 20
172.9987041328
 11
328.544890647
 21
173.4489458638
  0
LINE
  5
3B9
100
AcDbEntity
  8
KONSTRUKTIONSELEMENTE
100
AcDbLine
 62
7
  6
CONTINUOUS
 10
313.7585386815
 20
149.06810656
 11
310.8103264903
 21
152.0823764678
  0
LINE
  5
3BA
100
AcDbEntity
  8
KONSTRUKTIONSELEMENTE
100
AcDbLine
 62
7
  6
CONTINUOUS
 10
312.5625184275
 20
149.6221698608
 11
313.3088753572
 21
148.8494678287
  0
LINE
  5
3BB
100
AcDbEntity
  8
KONSTRUKTIONSELEMENTE
100
AcDbLine
 62
7
  6
CONTINUOUS
 10
310.6594116217
 20
151.6304637365
 11
312.338714431
 21
149.8918839275
  0
LINE
  5
3BC
100
AcDbEntity
  8
KONSTRUKTIONSELEMENTE
100
AcDbLine
 62
7
  6
CONTINUOUS
 10
307.6711740903
 20
146.9022595029
 11
305.3263026509
 21
149.8756245933
  0
LINE
  5
3BD
100
AcDbEntity
  8
KONSTRUKTIONSELEMENTE
100
AcDbLine
 62
7
  6
CONTINUOUS
 10
329.0478817257
 20
187.087545033
 11
331.7478817257
 21
187.087545033
  0
LINE
  5
3BE
100
AcDbEntity
  8
KONSTRUKTIONSELEMENTE
100
AcDbLine
 62
7
  6
CONTINUOUS
 10
332.3478817257
 20
187.087545033
 11
335.0478817257
 21
187.087545033
  0
LINE
  5
3BF
100
AcDbEntity
  8
KONSTRUKTIONSELEMENTE
100
AcDbLine
 62
7
  6
CONTINUOUS
 10
335.0478817257
 20
188.087545033
 11
329.0478817257
 21
188.087545033
  0
LINE
  5
3C0
100
AcDbEntity
  8
KONSTRUKTIONSELEMENTE
100
AcDbLine
 62
7
  6
CONTINUOUS
 10
333.1233949412
 20
178.2642011901
 11
331.231102951
 21
178.5575410693
  0
LINE
  5
3C1
100
AcDbEntity
  8
KONSTRUKTIONSELEMENTE
100
AcDbLine
 62
7
  6
CONTINUOUS
 10
330.8105936525
 20
178.622727704
 11
329.9695747612
 21
178.7531010192
  0
LINE
  5
3C2
100
AcDbEntity
  8
KONSTRUKTIONSELEMENTE
100
AcDbLine
 62
7
  6
CONTINUOUS
 10
334.3182826563
 20
179.0276692389
 11
333.8977733211
 21
179.0928558794
  0
LINE
  5
3C3
100
AcDbEntity
  8
KONSTRUKTIONSELEMENTE
100
AcDbLine
 62
7
  6
CONTINUOUS
 10
331.4066316274
 20
179.6898504891
 11
330.9861223289
 21
179.7550371238
  0
LINE
  5
3C4
100
AcDbEntity
  8
KONSTRUKTIONSELEMENTE
100
AcDbLine
 62
7
  6
CONTINUOUS
 10
331.9287279489
 20
175.3291687117
 11
332.1339153759
 21
175.2728885052
  0
LINE
  5
3C5
100
AcDbEntity
  8
KONSTRUKTIONSELEMENTE
100
AcDbLine
 62
7
  6
CONTINUOUS
 10
329.343952372
 20
176.3621800094
 11
328.8309838044
 21
176.5028805258
  0
LINE
  5
3C6
100
AcDbEntity
  8
KONSTRUKTIONSELEMENTE
100
AcDbLine
 62
7
  6
CONTINUOUS
 10
332.3742783088
 20
175.7470299926
 11
331.9639034548
 21
175.8595904057
  0
LINE
  5
3C7
100
AcDbEntity
  8
KONSTRUKTIONSELEMENTE
100
AcDbLine
 62
7
  6
CONTINUOUS
 10
329.2525639843
 20
165.1150638256
 11
329.7299990547
 21
164.880566023
  0
LINE
  5
3C8
100
AcDbEntity
  8
KONSTRUKTIONSELEMENTE
100
AcDbLine
 62
7
  6
CONTINUOUS
 10
327.6701410559
 20
169.373881208
 11
327.8611153248
 21
169.2800819687
  0
LINE
  5
3C9
100
AcDbEntity
  8
KONSTRUKTIONSELEMENTE
100
AcDbLine
 62
7
  6
CONTINUOUS
 10
331.3832085285
 20
168.246483199
 11
330.9057734581
 21
168.4809810016
  0
LINE
  5
3CA
100
AcDbEntity
  8
KONSTRUKTIONSELEMENTE
100
AcDbLine
 62
7
  6
CONTINUOUS
 10
328.1366502371
 20
169.8410681647
 11
327.9456759682
 21
169.934867404
  0
LINE
  5
3CB
100
AcDbEntity
  8
KONSTRUKTIONSELEMENTE
100
AcDbLine
 62
7
  6
CONTINUOUS
 10
321.264684801
 20
156.625662555
 11
321.6342562253
 21
156.2732870548
  0
LINE
  5
3CC
100
AcDbEntity
  8
0
100
AcDbLine
 62
7
  6
CONTINUOUS
 10
279.8778817257
 20
271.8785817725
 11
279.8778817257
 21
276.0977976678
  0
LINE
  5
3CD
100
AcDbEntity
  8
0
100
AcDbLine
 62
7
  6
CONTINUOUS
 10
291.4124068214
 20
234.5145051516
 11
291.4133666448
 21
234.517039939
  0
LINE
  5
3CE
100
AcDbEntity
  8
KONSTRUKTIONSELEMENTE
100
AcDbLine
 62
7
  6
CONTINUOUS
 10
268.214235524
 20
175.0466769839
 11
269.7281900468
 21
178.79384592
  0
LINE
  5
3CF
100
AcDbEntity
  8
KONSTRUKTIONSELEMENTE
100
AcDbLine
 62
7
  6
CONTINUOUS
 10
326.0023634651
 20
166.943543848
 11
326.3383889811
 21
166.6624479301
  0
LINE
  5
3D0
100
AcDbEntity
  8
KONSTRUKTIONSELEMENTE
100
AcDbLine
 62
7
  6
CONTINUOUS
 10
321.4745126095
 20
159.189006123
 11
322.6448220192
 21
158.0731504682
  0
LINE
  5
3D1
100
AcDbEntity
  8
KONSTRUKTIONSELEMENTE
100
AcDbLine
 62
7
  6
CONTINUOUS
 10
323.0143934435
 20
157.720774968
 11
323.8767266519
 21
156.8985655772
  0
LINE
  5
3D2
100
AcDbEntity
  8
KONSTRUKTIONSELEMENTE
100
AcDbLine
 62
7
  6
CONTINUOUS
 10
324.2217609565
 20
157.2604375555
 11
323.3594277481
 21
158.0826469463
  0
LINE
  5
3D3
100
AcDbEntity
  8
KONSTRUKTIONSELEMENTE
100
AcDbLine
 62
7
  6
CONTINUOUS
 10
322.9898563237
 20
158.4350224466
 11
321.32678513
 21
160.0207119919
  0
LINE
  5
3D4
100
AcDbEntity
  8
KONSTRUKTIONSELEMENTE
100
AcDbLine
 62
7
  6
CONTINUOUS
 10
323.934485361
 20
158.6857673703
 11
323.5649139367
 21
159.0381428706
  0
LINE
  5
3D5
100
AcDbEntity
  8
KONSTRUKTIONSELEMENTE
100
AcDbLine
 62
7
  6
CONTINUOUS
 10
316.8175909203
 20
155.8216351687
 11
318.246452844
 21
154.1320533644
  0
LINE
  5
3D6
100
AcDbEntity
  8
KONSTRUKTIONSELEMENTE
100
AcDbLine
 62
7
  6
CONTINUOUS
 10
318.2898224007
 20
154.7260296476
 11
317.4105226961
 21
155.7657723664
  0
LINE
  5
3D7
100
AcDbEntity
  8
KONSTRUKTIONSELEMENTE
100
AcDbLine
 62
7
  6
CONTINUOUS
 10
320.4937671418
 20
155.4752846594
 11
320.6036795856
 21
155.3453168423
  0
LINE
  5
3D8
100
AcDbEntity
  8
KONSTRUKTIONSELEMENTE
100
AcDbLine
 62
7
  6
CONTINUOUS
 10
319.2557953952
 20
157.3263004758
 11
318.9810142857
 21
157.6512200185
  0
LINE
  5
3D9
100
AcDbEntity
  8
KONSTRUKTIONSELEMENTE
100
AcDbLine
 62
7
  6
CONTINUOUS
 10
320.9767857456
 20
155.5493890584
 11
320.756960858
 21
155.8093246926
  0
LINE
  5
3DA
100
AcDbEntity
  8
KONSTRUKTIONSELEMENTE
100
AcDbLine
 62
7
  6
CONTINUOUS
 10
318.054115329
 20
152.3177576857
 11
318.306720645
 21
151.9753135699
  0
LINE
  5
3DB
100
AcDbEntity
  8
KONSTRUKTIONSELEMENTE
100
AcDbLine
 62
7
  6
CONTINUOUS
 10
318.6420299898
 20
152.2226558926
 11
318.3894246737
 21
152.5651000084
  0
LINE
  5
3DC
100
AcDbEntity
  8
0
100
AcDbLine
 62
7
  6
CONTINUOUS
 10
305.6333250823
 20
217.8769211664
 11
304.8395334104
 21
217.5235023439
  0
LINE
  5
3DD
100
AcDbEntity
  8
KONSTRUKTIONSELEMENTE
100
AcDbLine
 62
7
  6
CONTINUOUS
 10
332.1339153759
 20
175.2728885052
 11
332.4141426095
 21
175.0880116474
  0
LINE
  5
3DE
100
AcDbEntity
  8
KONSTRUKTIONSELEMENTE
100
AcDbLine
 62
7
  6
CONTINUOUS
 10
328.4726757983
 20
169.5599723387
 11
328.1366502371
 21
169.8410681647
  0
LINE
  5
3DF
100
AcDbEntity
  8
KONSTRUKTIONSELEMENTE
100
AcDbLine
 62
7
  6
CONTINUOUS
 10
304.6171013442
 20
149.631629703
 11
305.9184074256
 21
145.8492227336
  0
LINE
  5
3E0
100
AcDbEntity
  8
KONSTRUKTIONSELEMENTE
100
AcDbLine
 62
7
  6
CONTINUOUS
 10
306.3912082968
 20
146.0118859938
 11
305.3667758167
 21
148.9895256189
  0
LINE
  5
3E1
100
AcDbEntity
  8
KONSTRUKTIONSELEMENTE
100
AcDbLine
 62
7
  6
CONTINUOUS
 10
308.2035810438
 20
149.96550518
 11
309.2280135239
 21
146.9878655549
  0
LINE
  5
3E2
100
AcDbEntity
  8
KONSTRUKTIONSELEMENTE
100
AcDbLine
 62
7
  6
CONTINUOUS
 10
309.7008143951
 20
147.1505288151
 11
308.3995083136
 21
150.9329357845
  0
LWPOLYLINE
  5
3E3
100
AcDbEntity
  8
0
100
AcDbPolyline
 62
7
  6
CONTINUOUS
 90
11
 70
0
 10
306.0799042908
 20
222.7508387606
 10
306.1461120644
 20
222.8349463565
 10
306.2308983239
 20
222.9798929615
 10
306.2905867832
 20
223.1383646079
 10
306.3229854626
 20
223.3077936872
 10
306.3258976088
 20
223.4807126054
 10
306.2991543616
 20
223.6508625044
 10
306.2445879941
 20
223.8120487132
 10
306.1656072764
 20
223.9581678407
 10
306.0656788431
 20
224.0869070117
 10
306.018290133
 20
224.1352302593
  0
LINE
  5
3E4
100
AcDbEntity
  8
0
100
AcDbLine
 62
7
  6
CONTINUOUS
 10
304.8841882219
 20
222.512405596
 11
305.5330500225
 21
223.2551432769
  0
LINE
  5
3E5
100
AcDbEntity
  8
0
100
AcDbLine
 62
7
  6
CONTINUOUS
 10
306.0797717657
 20
222.7508699928
 11
305.4199250602
 21
221.9994690196
  0
LINE
  5
3E6
100
AcDbEntity
  8
0
100
AcDbLine
 62
7
  6
CONTINUOUS
 10
306.2495635268
 20
218.4503344331
 11
305.8767878762
 21
218.0505814896
  0
LINE
  5
3E7
100
AcDbEntity
  8
KONSTRUKTIONSELEMENTE
100
AcDbLine
 62
7
  6
CONTINUOUS
 10
332.8321391343
 20
175.4054163605
 11
332.3742783088
 21
175.7470299926
  0
LINE
  5
3E8
100
AcDbEntity
  8
KONSTRUKTIONSELEMENTE
100
AcDbLine
 62
7
  6
CONTINUOUS
 10
268.3613856368
 20
182.167545033
 11
267.5733748832
 21
181.5518835577
  0
LINE
  5
3E9
100
AcDbEntity
  8
KONSTRUKTIONSELEMENTE
100
AcDbLine
 62
7
  6
CONTINUOUS
 10
308.8873887016
 20
213.1211994052
 11
308.0978817257
 21
212.5043689529
  0
LINE
  5
3EA
100
AcDbEntity
  8
KONSTRUKTIONSELEMENTE
100
AcDbLine
 62
7
  6
CONTINUOUS
 10
311.040707643
 20
210.3619927906
 11
315.0453603427
 21
210.9273535896
  0
LINE
  5
3EB
100
AcDbEntity
  8
KONSTRUKTIONSELEMENTE
100
AcDbLine
 62
7
  6
CONTINUOUS
 10
331.5726942482
 20
170.2474187902
 11
332.4467288442
 21
169.2493776626
  0
LINE
  5
3EC
100
AcDbEntity
  8
KONSTRUKTIONSELEMENTE
100
AcDbLine
 62
7
  6
CONTINUOUS
 10
332.6306899189
 20
169.7366412336
 11
331.7566554282
 21
170.73468264
  0
LINE
  5
3ED
100
AcDbEntity
  8
KONSTRUKTIONSELEMENTE
100
AcDbLine
 62
7
  6
CONTINUOUS
 10
327.8611153248
 20
169.2800819687
 11
328.151218313
 21
168.9054882651
  0
LINE
  5
3EE
100
AcDbEntity
  8
KONSTRUKTIONSELEMENTE
100
AcDbLine
 62
7
  6
CONTINUOUS
 10
326.5680014067
 20
167.1299364239
 11
326.3733853863
 21
167.4576305068
  0
LINE
  5
3EF
100
AcDbEntity
  8
KONSTRUKTIONSELEMENTE
100
AcDbLine
 62
7
  6
CONTINUOUS
 10
320.6036795856
 20
155.3453168423
 11
320.7049176812
 21
155.0965533991
  0
LINE
  5
3F0
100
AcDbEntity
  8
KONSTRUKTIONSELEMENTE
100
AcDbLine
 62
7
  6
CONTINUOUS
 10
311.9399530274
 20
214.8969952937
 11
310.42654239
 21
211.1511725212
  0
LINE
  5
3F1
100
AcDbEntity
  8
KONSTRUKTIONSELEMENTE
100
AcDbLine
 62
7
  6
CONTINUOUS
 10
271.2673437351
 20
176.823819036
 11
272.0553544887
 21
177.4394805113
  0
LINE
  5
3F2
100
AcDbEntity
  8
KONSTRUKTIONSELEMENTE
100
AcDbLine
 62
7
  6
CONTINUOUS
 10
311.7918505777
 20
207.7763044313
 11
312.5798613313
 21
208.3919659066
  0
LINE
  5
3F3
100
AcDbEntity
  8
KONSTRUKTIONSELEMENTE
100
AcDbLine
 62
7
  6
CONTINUOUS
 10
332.4141426095
 20
175.0880116474
 11
332.6668161656
 21
174.8026787966
  0
LINE
  5
3F4
100
AcDbEntity
  8
KONSTRUKTIONSELEMENTE
100
AcDbLine
 62
7
  6
CONTINUOUS
 10
333.1598526188
 20
174.991487443
 11
332.8321391343
 21
175.4054163605
  0
LINE
  5
3F5
100
AcDbEntity
  8
0
100
AcDbLine
 62
7
  6
CONTINUOUS
 10
311.4261075515
 20
201.0164360148
 11
307.2073777755
 21
206.4161638901
  0
LINE
  5
3F6
100
AcDbEntity
  8
KONSTRUKTIONSELEMENTE
100
AcDbLine
 62
7
  6
CONTINUOUS
 10
328.6672917858
 20
169.232278189
 11
328.4726757983
 21
169.5599723387
  0
LINE
  5
3F7
100
AcDbEntity
  8
KONSTRUKTIONSELEMENTE
100
AcDbLine
 62
7
  6
CONTINUOUS
 10
321.1243072097
 20
155.1168472666
 11
320.9767857456
 21
155.5493890584
  0
LINE
  5
3F8
100
AcDbEntity
  8
0
100
AcDbLine
 62
7
  6
CONTINUOUS
 10
303.2433093404
 20
227.2863934803
 11
303.2350344981
 21
227.3215886527
  0
LWPOLYLINE
  5
3F9
100
AcDbEntity
  8
0
100
AcDbPolyline
 62
7
  6
CONTINUOUS
 90
8
 70
0
 10
303.2350344981
 20
227.3215886527
 10
303.2186992918
 20
227.3943703496
 10
303.2086479
 20
227.4374790889
 10
303.1948473695
 20
227.4910519771
 10
303.1756750998
 20
227.5549084543
 10
303.1476972712
 20
227.6317396068
 10
303.1089305096
 20
227.7175216624
 10
303.0575755009
 20
227.8083340403
  0
LINE
  5
3FA
100
AcDbEntity
  8
KONSTRUKTIONSELEMENTE
100
AcDbLine
 62
7
  6
CONTINUOUS
 10
310.9897244582
 20
149.2359677336
 11
310.6594116217
 21
151.6304637365
  0
LINE
  5
3FB
100
AcDbEntity
  8
KONSTRUKTIONSELEMENTE
100
AcDbLine
 62
7
  6
CONTINUOUS
 10
311.2104463677
 20
147.8291536799
 11
311.0636408229
 21
148.8933741594
  0
LINE
  5
3FC
100
AcDbEntity
  8
KONSTRUKTIONSELEMENTE
100
AcDbLine
 62
7
  6
CONTINUOUS
 10
310.2107755342
 20
151.790858229
 11
310.7607830435
 21
147.6105149486
  0
LINE
  5
3FD
100
AcDbEntity
  8
KONSTRUKTIONSELEMENTE
100
AcDbLine
 62
7
  6
CONTINUOUS
 10
307.6903070068
 20
150.6889408942
 11
307.6711740903
 21
146.9022595029
  0
LINE
  5
3FE
100
AcDbEntity
  8
KONSTRUKTIONSELEMENTE
100
AcDbLine
 62
7
  6
CONTINUOUS
 10
308.124811416
 20
146.608317922
 11
308.2035810438
 21
149.96550518
  0
LINE
  5
3FF
100
AcDbEntity
  8
0
100
AcDbLine
 62
7
  6
CONTINUOUS
 10
303.9108483126
 20
217.5840707733
 11
263.0983971787
 21
242.557774751
  0
LINE
  5
400
100
AcDbEntity
  8
0
100
AcDbLine
 62
7
  6
CONTINUOUS
 10
300.3054909364
 20
220.6943139841
 11
304.4912008456
 21
218.1269518325
  0
LINE
  5
401
100
AcDbEntity
  8
0
100
AcDbLine
 62
7
  6
CONTINUOUS
 10
305.7813351758
 20
220.2542918953
 11
306.2002081853
 21
219.8636864948
  0
LINE
  5
402
100
AcDbEntity
  8
0
100
AcDbLine
 62
7
  6
CONTINUOUS
 10
305.7813313116
 20
220.2542877514
 11
305.7285658796
 21
220.3074526939
  0
LINE
  5
403
100
AcDbEntity
  8
0
100
AcDbLine
 62
7
  6
CONTINUOUS
 10
305.7285658796
 20
220.3074526939
 11
305.6277484058
 21
220.4304453282
  0
LINE
  5
404
100
AcDbEntity
  8
KONSTRUKTIONSELEMENTE
100
AcDbLine
 62
7
  6
CONTINUOUS
 10
315.0453603427
 20
210.9273535896
 11
311.9399530274
 21
214.8969952937
  0
LINE
  5
405
100
AcDbEntity
  8
KONSTRUKTIONSELEMENTE
100
AcDbLine
 62
7
  6
CONTINUOUS
 10
308.0978817257
 20
212.5043689529
 11
311.7918505777
 21
207.7763044313
  0
LINE
  5
406
100
AcDbEntity
  8
KONSTRUKTIONSELEMENTE
100
AcDbLine
 62
7
  6
CONTINUOUS
 10
312.5798613313
 20
208.3919659066
 11
311.040707643
 21
210.3619927906
  0
LINE
  5
407
100
AcDbEntity
  8
KONSTRUKTIONSELEMENTE
100
AcDbLine
 62
7
  6
CONTINUOUS
 10
310.42654239
 20
211.1511725212
 11
308.8873887016
 21
213.1211994052
  0
LWPOLYLINE
  5
408
100
AcDbEntity
  8
0
100
AcDbPolyline
 62
7
  6
CONTINUOUS
 90
3
 70
0
 10
303.6064007084
 20
226.3950402075
 10
303.590107039
 20
226.4192319089
 10
303.586066347
 20
226.4268861855
  0
LWPOLYLINE
  5
409
100
AcDbEntity
  8
0
100
AcDbPolyline
 62
7
  6
CONTINUOUS
 90
13
 70
0
 10
305.6277484058
 20
220.4304453282
 10
305.5397155467
 20
220.5654772759
 10
305.4678415465
 20
220.7062451597
 10
305.4107793972
 20
220.8492640831
 10
305.3639163795
 20
220.9957068213
 10
305.324406627
 20
221.146059557
 10
305.292722894
 20
221.2972778433
 10
305.2717796283
 20
221.4460024504
 10
305.2660560053
 20
221.5903321278
 10
305.2816770624
 20
221.7280649825
 10
305.3239841656
 20
221.8550688515
 10
305.3931655547
 20
221.9674987608
 10
305.4197168175
 20
221.9996255253
  0
LWPOLYLINE
  5
40A
100
AcDbEntity
  8
0
100
AcDbPolyline
 62
7
  6
CONTINUOUS
 90
5
 70
0
 10
303.5527295715
 20
226.504042291
 10
303.5357813165
 20
226.5371561331
 10
303.5095830424
 20
226.5897077028
 10
303.4853790978
 20
226.6399539952
 10
303.4763745502
 20
226.6591225272
  0
LWPOLYLINE
  5
40B
100
AcDbEntity
  8
0
100
AcDbPolyline
 62
7
  6
CONTINUOUS
 90
3
 70
0
 10
303.4769654352
 20
226.6584522989
 10
303.4452920969
 20
226.7274783175
 10
303.4091965495
 20
226.8093149376
  0
LWPOLYLINE
  5
40C
100
AcDbEntity
  8
0
100
AcDbPolyline
 62
7
  6
CONTINUOUS
 90
6
 70
0
 10
303.4091965495
 20
226.8093149376
 10
303.3775251795
 20
226.8846381048
 10
303.3500251683
 20
226.953491974
 10
303.3262983443
 20
227.0162437724
 10
303.3063308307
 20
227.0722128905
 10
303.2893570019
 20
227.1230639237
  0
LINE
  5
40D
100
AcDbEntity
  8
KONSTRUKTIONSELEMENTE
100
AcDbLine
 62
7
  6
CONTINUOUS
 10
325.8041054011
 20
167.5051328555
 11
326.0023634651
 21
166.943543848
  0
LINE
  5
40E
100
AcDbEntity
  8
0
100
AcDbLine
 62
7
  6
CONTINUOUS
 10
303.586066347
 20
226.4268861855
 11
303.586157447
 21
226.4266014314
  0
LINE
  5
40F
100
AcDbEntity
  8
0
100
AcDbLine
 62
7
  6
CONTINUOUS
 10
303.2893583963
 20
227.1230595893
 11
303.2748750805
 21
227.1697398485
  0
LWPOLYLINE
  5
410
100
AcDbEntity
  8
0
100
AcDbPolyline
 62
7
  6
CONTINUOUS
 90
4
 70
0
 10
303.2748741483
 20
227.1697429652
 10
303.2625044217
 20
227.2124655386
 10
303.2522194096
 20
227.2506944962
 10
303.2433092886
 20
227.2863936941
  0
LINE
  5
411
100
AcDbEntity
  8
KONSTRUKTIONSELEMENTE
100
AcDbLine
 62
7
  6
CONTINUOUS
 10
320.9817508254
 20
159.6588400136
 11
321.264684801
 21
156.625662555
  0
LINE
  5
412
100
AcDbEntity
  8
KONSTRUKTIONSELEMENTE
100
AcDbLine
 62
7
  6
CONTINUOUS
 10
321.6672252617
 20
157.0478469898
 11
321.4745126095
 21
159.189006123
  0
LINE
  5
413
100
AcDbEntity
  8
KONSTRUKTIONSELEMENTE
100
AcDbLine
 62
7
  6
CONTINUOUS
 10
321.1532418625
 20
154.6954776886
 11
321.1243072097
 21
155.1168472666
  0
LINE
  5
414
100
AcDbEntity
  8
KONSTRUKTIONSELEMENTE
100
AcDbLine
 62
7
  6
CONTINUOUS
 10
314.8385368587
 20
152.0955727259
 11
314.7343041872
 21
149.6120063965
  0
LINE
  5
415
100
AcDbEntity
  8
KONSTRUKTIONSELEMENTE
100
AcDbLine
 62
7
  6
CONTINUOUS
 10
314.9882986145
 20
154.507234972
 11
314.867643513
 21
152.5169304335
  0
LINE
  5
416
100
AcDbEntity
  8
KONSTRUKTIONSELEMENTE
100
AcDbLine
 62
7
  6
CONTINUOUS
 10
315.1567437238
 20
149.8794850646
 11
315.2773980196
 21
151.8697890929
  0
LINE
  5
417
100
AcDbEntity
  8
KONSTRUKTIONSELEMENTE
100
AcDbLine
 62
7
  6
CONTINUOUS
 10
315.2609763953
 20
152.363051394
 11
315.4107381511
 21
154.7747136402
  0
LINE
  5
418
100
AcDbEntity
  8
0
100
AcDbLine
 62
7
  6
CONTINUOUS
 10
302.6748405547
 20
228.1659614306
 11
300.6406889219
 21
229.247564864
  0
LINE
  5
419
100
AcDbEntity
  8
0
100
AcDbLine
 62
7
  6
CONTINUOUS
 10
283.9286926866
 20
244.7341930717
 11
306.0114866571
 21
224.1416545501
  0
LINE
  5
41A
100
AcDbEntity
  8
0
100
AcDbLine
 62
7
  6
CONTINUOUS
 10
303.2785166994
 20
226.7879744427
 11
300.6406889221
 21
229.2475648639
  0
LINE
  5
41B
100
AcDbEntity
  8
0
100
AcDbLine
 62
7
  6
CONTINUOUS
 10
285.2476957075
 20
244.3245993328
 11
288.543175487
 21
241.2515147223
  0
LINE
  5
41C
100
AcDbEntity
  8
0
100
AcDbLine
 62
7
  6
CONTINUOUS
 10
303.6806038033
 20
226.3152390258
 11
303.6384306114
 21
226.3572722008
  0
LWPOLYLINE
  5
41D
100
AcDbEntity
  8
0
100
AcDbPolyline
 62
7
  6
CONTINUOUS
 90
4
 70
0
 10
302.9907105337
 20
227.9021897352
 10
302.9070448468
 20
227.9947136015
 10
302.803578092
 20
228.0835868188
 10
302.6748405547
 20
228.1659614306
  0
LINE
  5
41E
100
AcDbEntity
  8
0
100
AcDbLine
 62
7
  6
CONTINUOUS
 10
303.6384306114
 20
226.3572722008
 11
303.6064007084
 21
226.3950402075
  0
LINE
  5
41F
100
AcDbEntity
  8
0
100
AcDbLine
 62
7
  6
CONTINUOUS
 10
303.0575612932
 20
227.8083565232
 11
302.9906909305
 21
227.9022142329
  0
LINE
  5
420
100
AcDbEntity
  8
KONSTRUKTIONSELEMENTE
100
AcDbLine
 62
7
  6
CONTINUOUS
 10
335.0478817257
 20
182.4110078525
 11
332.3478817257
 21
187.087545033
  0
LINE
  5
421
100
AcDbEntity
  8
KONSTRUKTIONSELEMENTE
100
AcDbLine
 62
7
  6
CONTINUOUS
 10
330.754466732
 20
173.0589167126
 11
330.556900904
 21
173.545162065
  0
LINE
  5
422
100
AcDbEntity
  8
KONSTRUKTIONSELEMENTE
100
AcDbLine
 62
7
  6
CONTINUOUS
 10
328.151218313
 20
168.9054882651
 11
329.2525639843
 21
165.1150638256
  0
LINE
  5
423
100
AcDbEntity
  8
KONSTRUKTIONSELEMENTE
100
AcDbLine
 62
7
  6
CONTINUOUS
 10
330.0163785871
 20
173.5854066081
 11
330.1863903506
 21
172.9987041328
  0
LINE
  5
424
100
AcDbEntity
  8
KONSTRUKTIONSELEMENTE
100
AcDbLine
 62
7
  6
CONTINUOUS
 10
329.6199438783
 20
165.8630454426
 11
328.6672917858
 21
169.232278189
  0
LINE
  5
425
100
AcDbEntity
  8
KONSTRUKTIONSELEMENTE
100
AcDbLine
 62
7
  6
CONTINUOUS
 10
320.7049176812
 20
155.0965533991
 11
320.7425267015
 21
154.7939794244
  0
LINE
  5
426
100
AcDbEntity
  8
KONSTRUKTIONSELEMENTE
100
AcDbLine
 62
7
  6
CONTINUOUS
 10
325.7968213302
 20
167.9729227385
 11
325.8041054011
 21
167.5051328555
  0
LINE
  5
427
100
AcDbEntity
  8
KONSTRUKTIONSELEMENTE
100
AcDbLine
 62
7
  6
CONTINUOUS
 10
259.1453804232
 20
233.9670403279
 11
259.1193284377
 21
233.9670403279
  0
LINE
  5
428
100
AcDbEntity
  8
0
100
AcDbLine
 62
7
  6
CONTINUOUS
 10
332.880003088
 20
208.3613408728
 11
314.265420714
 21
223.9256160449
  0
LINE
  5
429
100
AcDbEntity
  8
KONSTRUKTIONSELEMENTE
100
AcDbLine
 62
7
  6
CONTINUOUS
 10
332.6668161656
 20
174.8026787966
 11
332.7893420294
 21
174.4450295207
  0
LINE
  5
42A
100
AcDbEntity
  8
KONSTRUKTIONSELEMENTE
100
AcDbLine
 62
7
  6
CONTINUOUS
 10
333.3298644091
 20
174.4047849603
 11
333.1598526188
 21
174.991487443
  0
LINE
  5
42B
100
AcDbEntity
  8
KONSTRUKTIONSELEMENTE
100
AcDbLine
 62
7
  6
CONTINUOUS
 10
326.3733853863
 20
167.4576305068
 11
326.320178841
 21
167.8319227127
  0
LINE
  5
42C
100
AcDbEntity
  8
KONSTRUKTIONSELEMENTE
100
AcDbLine
 62
7
  6
CONTINUOUS
 10
329.0478817257
 20
188.087545033
 11
329.0478817257
 21
187.087545033
  0
LINE
  5
42D
100
AcDbEntity
  8
KONSTRUKTIONSELEMENTE
100
AcDbLine
 62
7
  6
CONTINUOUS
 10
330.556900904
 20
173.545162065
 11
330.5645226606
 21
173.9751277857
  0
LINE
  5
42E
100
AcDbEntity
  8
KONSTRUKTIONSELEMENTE
100
AcDbLine
 62
7
  6
CONTINUOUS
 10
318.6918631942
 20
154.5087323084
 11
318.7815153527
 21
154.9189296728
  0
LINE
  5
42F
100
AcDbEntity
  8
0
100
AcDbLine
 62
7
  6
CONTINUOUS
 10
265.3778817257
 20
239.087545033
 11
268.3178817257
 21
239.087545033
  0
LINE
  5
430
100
AcDbEntity
  8
KONSTRUKTIONSELEMENTE
100
AcDbLine
 62
7
  6
CONTINUOUS
 10
335.0478817257
 20
187.087545033
 11
335.0478817257
 21
188.087545033
  0
LINE
  5
431
100
AcDbEntity
  8
KONSTRUKTIONSELEMENTE
100
AcDbLine
 62
7
  6
CONTINUOUS
 10
332.7893420294
 20
174.4450295207
 11
332.7817202728
 21
174.0150638
  0
LINE
  5
432
100
AcDbEntity
  8
KONSTRUKTIONSELEMENTE
100
AcDbLine
 62
7
  6
CONTINUOUS
 10
330.0515540931
 20
174.115828302
 11
330.0163785871
 21
173.5854066081
  0
LINE
  5
433
100
AcDbEntity
  8
KONSTRUKTIONSELEMENTE
100
AcDbLine
 62
7
  6
CONTINUOUS
 10
333.2946889122
 20
173.8743632639
 11
333.3298644091
 21
174.4047849603
  0
LINE
  5
434
100
AcDbEntity
  8
KONSTRUKTIONSELEMENTE
100
AcDbLine
 62
7
  6
CONTINUOUS
 10
329.9695747612
 20
178.7531010192
 11
329.8897889659
 21
178.2384147051
  0
LINE
  5
435
100
AcDbEntity
  8
KONSTRUKTIONSELEMENTE
100
AcDbLine
 62
7
  6
CONTINUOUS
 10
330.9861223289
 20
179.7550371238
 11
330.8105936525
 21
178.622727704
  0
LINE
  5
436
100
AcDbEntity
  8
KONSTRUKTIONSELEMENTE
100
AcDbLine
 62
7
  6
CONTINUOUS
 10
330.7308078573
 20
178.1080413899
 11
330.6031508041
 21
177.284544701
  0
LINE
  5
437
100
AcDbEntity
  8
KONSTRUKTIONSELEMENTE
100
AcDbLine
 62
7
  6
CONTINUOUS
 10
331.0236601026
 20
177.2193580663
 11
331.1513171558
 21
178.0428547552
  0
LINE
  5
438
100
AcDbEntity
  8
KONSTRUKTIONSELEMENTE
100
AcDbLine
 62
7
  6
CONTINUOUS
 10
331.231102951
 20
178.5575410693
 11
331.4066316274
 21
179.6898504891
  0
LINE
  5
439
100
AcDbEntity
  8
KONSTRUKTIONSELEMENTE
100
AcDbLine
 62
7
  6
CONTINUOUS
 10
326.320178841
 20
167.8319227127
 11
326.4543042782
 21
168.3463107856
  0
LINE
  5
43A
100
AcDbEntity
  8
KONSTRUKTIONSELEMENTE
100
AcDbLine
 62
7
  6
CONTINUOUS
 10
328.8309838044
 20
176.5028805258
 11
327.89415286
 21
173.0873647895
  0
LINE
  5
43B
100
AcDbEntity
  8
KONSTRUKTIONSELEMENTE
100
AcDbLine
 62
7
  6
CONTINUOUS
 10
328.544890647
 20
173.4489458638
 11
329.343952372
 21
176.3621800094
  0
LINE
  5
43C
100
AcDbEntity
  8
KONSTRUKTIONSELEMENTE
100
AcDbLine
 62
7
  6
CONTINUOUS
 10
320.7425267015
 20
154.7939794244
 11
320.661548163
 21
154.5025770704
  0
LINE
  5
43D
100
AcDbEntity
  8
KONSTRUKTIONSELEMENTE
100
AcDbLine
 62
7
  6
CONTINUOUS
 10
326.0227917163
 20
168.6743061655
 11
325.7968213302
 21
167.9729227385
  0
LINE
  5
43E
100
AcDbEntity
  8
KONSTRUKTIONSELEMENTE
100
AcDbLine
 62
7
  6
CONTINUOUS
 10
318.443103673
 20
155.1900374979
 11
318.2898224007
 21
154.7260296476
  0
LINE
  5
43F
100
AcDbEntity
  8
KONSTRUKTIONSELEMENTE
100
AcDbLine
 62
7
  6
CONTINUOUS
 10
320.9999598764
 20
154.2314692054
 11
321.1532418625
 21
154.6954776886
  0
LINE
  5
440
100
AcDbEntity
  8
KONSTRUKTIONSELEMENTE
100
AcDbLine
 62
7
  6
CONTINUOUS
 10
331.7478817257
 20
187.087545033
 11
329.0478817257
 21
182.4110078525
  0
LINE
  5
441
100
AcDbEntity
  8
KONSTRUKTIONSELEMENTE
100
AcDbLine
 62
7
  6
CONTINUOUS
 10
331.2305039609
 20
175.1966403014
 11
331.5933927577
 21
175.3131325129
  0
LINE
  5
442
100
AcDbEntity
  8
KONSTRUKTIONSELEMENTE
100
AcDbLine
 62
7
  6
CONTINUOUS
 10
333.2538638688
 20
177.7169215472
 11
333.7062875587
 21
177.857609668
  0
LINE
  5
443
100
AcDbEntity
  8
KONSTRUKTIONSELEMENTE
100
AcDbLine
 62
7
  6
CONTINUOUS
 10
265.8558623432
 20
251.5216654772
 11
266.8406700962
 21
251.3480172995
  0
LINE
  5
444
100
AcDbEntity
  8
KONSTRUKTIONSELEMENTE
100
AcDbLine
 62
7
  6
CONTINUOUS
 10
270.7799011083
 20
250.6534245888
 11
272.2571127378
 21
250.3929523223
  0
LINE
  5
445
100
AcDbEntity
  8
KONSTRUKTIONSELEMENTE
100
AcDbLine
 62
7
  6
CONTINUOUS
 10
330.2168772195
 20
174.7185664407
 11
330.0515540931
 21
174.115828302
  0
LINE
  5
446
100
AcDbEntity
  8
KONSTRUKTIONSELEMENTE
100
AcDbLine
 62
7
  6
CONTINUOUS
 10
330.5645226606
 20
173.9751277857
 11
330.729845787
 21
174.5778659244
  0
LINE
  5
447
100
AcDbEntity
  8
KONSTRUKTIONSELEMENTE
100
AcDbLine
 62
7
  6
CONTINUOUS
 10
330.5615896987
 20
172.3557220258
 11
330.754466732
 21
173.0589167126
  0
LINE
  5
448
100
AcDbEntity
  8
KONSTRUKTIONSELEMENTE
100
AcDbLine
 62
7
  6
CONTINUOUS
 10
331.6502563904
 20
172.7051991957
 11
331.484933264
 21
172.102461057
  0
LINE
  5
449
100
AcDbEntity
  8
KONSTRUKTIONSELEMENTE
100
AcDbLine
 62
7
  6
CONTINUOUS
 10
332.7817202728
 20
174.0150638
 11
332.6163971464
 21
173.4123256612
  0
LINE
  5
44A
100
AcDbEntity
  8
KONSTRUKTIONSELEMENTE
100
AcDbLine
 62
7
  6
CONTINUOUS
 10
333.1293657858
 20
173.2716251252
 11
333.2946889122
 21
173.8743632639
  0
LINE
  5
44B
100
AcDbEntity
  8
KONSTRUKTIONSELEMENTE
100
AcDbLine
 62
7
  6
CONTINUOUS
 10
334.1174124413
 20
178.4263427934
 11
334.3182826563
 21
179.0276692389
  0
LINE
  5
44C
100
AcDbEntity
  8
KONSTRUKTIONSELEMENTE
100
AcDbLine
 62
7
  6
CONTINUOUS
 10
333.8977733211
 20
179.0928558794
 11
333.7128601644
 21
178.5944662297
  0
LINE
  5
44D
100
AcDbEntity
  8
KONSTRUKTIONSELEMENTE
100
AcDbLine
 62
7
  6
CONTINUOUS
 10
331.7566554282
 20
170.73468264
 11
331.5726942482
 21
170.2474187902
  0
LINE
  5
44E
100
AcDbEntity
  8
KONSTRUKTIONSELEMENTE
100
AcDbLine
 62
7
  6
CONTINUOUS
 10
326.2064816797
 20
169.0482970074
 11
326.0227917163
 21
168.6743061655
  0
LINE
  5
44F
100
AcDbEntity
  8
KONSTRUKTIONSELEMENTE
100
AcDbLine
 62
7
  6
CONTINUOUS
 10
326.4543042782
 20
168.3463107856
 11
326.6379941759
 21
168.7203014937
  0
LINE
  5
450
100
AcDbEntity
  8
KONSTRUKTIONSELEMENTE
100
AcDbLine
 62
7
  6
CONTINUOUS
 10
326.3383889811
 20
166.6624479301
 11
326.5680014067
 21
167.1299364239
  0
LINE
  5
451
100
AcDbEntity
  8
KONSTRUKTIONSELEMENTE
100
AcDbLine
 62
7
  6
CONTINUOUS
 10
330.4572401524
 20
175.1927079281
 11
330.2168772195
 21
174.7185664407
  0
LINE
  5
452
100
AcDbEntity
  8
KONSTRUKTIONSELEMENTE
100
AcDbLine
 62
7
  6
CONTINUOUS
 10
333.9644136669
 20
178.1338279006
 11
334.1174124413
 21
178.4263427934
  0
LINE
  5
453
100
AcDbEntity
  8
KONSTRUKTIONSELEMENTE
100
AcDbLine
 62
7
  6
CONTINUOUS
 10
330.729845787
 20
174.5778659244
 11
330.9426549707
 21
174.9515514386
  0
LINE
  5
454
100
AcDbEntity
  8
KONSTRUKTIONSELEMENTE
100
AcDbLine
 62
7
  6
CONTINUOUS
 10
326.5775035927
 20
169.5623836494
 11
326.2064816797
 21
169.0482970074
  0
LINE
  5
455
100
AcDbEntity
  8
KONSTRUKTIONSELEMENTE
100
AcDbLine
 62
7
  6
CONTINUOUS
 10
333.7128601644
 20
178.5944662297
 11
333.4547340746
 21
178.3182479942
  0
LINE
  5
456
100
AcDbEntity
  8
KONSTRUKTIONSELEMENTE
100
AcDbLine
 62
7
  6
CONTINUOUS
 10
330.90279067
 20
175.6105697838
 11
330.4572401524
 21
175.1927079281
  0
LINE
  5
457
100
AcDbEntity
  8
KONSTRUKTIONSELEMENTE
100
AcDbLine
 62
7
  6
CONTINUOUS
 10
330.9426549707
 20
174.9515514386
 11
331.2305039609
 21
175.1966403014
  0
LINE
  5
458
100
AcDbEntity
  8
KONSTRUKTIONSELEMENTE
100
AcDbLine
 62
7
  6
CONTINUOUS
 10
331.3958269296
 20
175.7993778653
 11
330.90279067
 21
175.6105697838
  0
LINE
  5
459
100
AcDbEntity
  8
KONSTRUKTIONSELEMENTE
100
AcDbLine
 62
7
  6
CONTINUOUS
 10
331.9504158461
 20
172.1908131455
 11
332.4434522993
 21
172.379621792
  0
LINE
  5
45A
100
AcDbEntity
  8
KONSTRUKTIONSELEMENTE
100
AcDbLine
 62
7
  6
CONTINUOUS
 10
327.5178055238
 20
170.0289680096
 11
326.9521674918
 21
169.8425752497
  0
LINE
  5
45B
100
AcDbEntity
  8
KONSTRUKTIONSELEMENTE
100
AcDbLine
 62
7
  6
CONTINUOUS
 10
332.4467288442
 20
169.2493776626
 11
332.6306899189
 21
169.7366412336
  0
LINE
  5
45C
100
AcDbEntity
  8
KONSTRUKTIONSELEMENTE
100
AcDbLine
 62
7
  6
CONTINUOUS
 10
330.9057734581
 20
168.4809810016
 11
329.6199438783
 21
165.8630454426
  0
LINE
  5
45D
100
AcDbEntity
  8
KONSTRUKTIONSELEMENTE
100
AcDbLine
 62
7
  6
CONTINUOUS
 10
329.7299990547
 20
164.880566023
 11
331.3832085285
 21
168.246483199
  0
LINE
  5
45E
100
AcDbEntity
  8
KONSTRUKTIONSELEMENTE
100
AcDbLine
 62
7
  6
CONTINUOUS
 10
332.8890028439
 20
172.7974836403
 11
333.1293657858
 21
173.2716251252
  0
LINE
  5
45F
100
AcDbEntity
  8
KONSTRUKTIONSELEMENTE
100
AcDbLine
 62
7
  6
CONTINUOUS
 10
332.6163971464
 20
173.4123256612
 11
332.4035879627
 21
173.0386401471
  0
LINE
  5
460
100
AcDbEntity
  8
KONSTRUKTIONSELEMENTE
100
AcDbLine
 62
7
  6
CONTINUOUS
 10
318.7815153527
 20
154.9189296728
 11
318.9810792269
 21
155.1991586042
  0
LINE
  5
461
100
AcDbEntity
  8
KONSTRUKTIONSELEMENTE
100
AcDbLine
 62
7
  6
CONTINUOUS
 10
320.661548163
 20
154.5025770704
 11
320.4619842888
 21
154.222348139
  0
LINE
  5
462
100
AcDbEntity
  8
KONSTRUKTIONSELEMENTE
100
AcDbLine
 62
7
  6
CONTINUOUS
 10
326.6379941759
 20
168.7203014937
 11
326.9630935816
 21
169.1408903919
  0
LINE
  5
463
100
AcDbEntity
  8
KONSTRUKTIONSELEMENTE
100
AcDbLine
 62
7
  6
CONTINUOUS
 10
318.7062981173
 20
155.5240781469
 11
318.443103673
 21
155.1900374979
  0
LINE
  5
464
100
AcDbEntity
  8
KONSTRUKTIONSELEMENTE
100
AcDbLine
 62
7
  6
CONTINUOUS
 10
320.7367654369
 20
153.8974285507
 11
320.9999598764
 21
154.2314692054
  0
LINE
  5
465
100
AcDbEntity
  8
KONSTRUKTIONSELEMENTE
100
AcDbLine
 62
7
  6
CONTINUOUS
 10
333.7062875587
 20
177.857609668
 11
333.9644136669
 21
178.1338279006
  0
LINE
  5
466
100
AcDbEntity
  8
KONSTRUKTIONSELEMENTE
100
AcDbLine
 62
7
  6
CONTINUOUS
 10
321.32678513
 20
160.0207119919
 11
320.9817508254
 21
159.6588400136
  0
LINE
  5
467
100
AcDbEntity
  8
KONSTRUKTIONSELEMENTE
100
AcDbLine
 62
7
  6
CONTINUOUS
 10
323.5649139367
 20
159.0381428706
 11
322.9898563237
 21
158.4350224466
  0
LINE
  5
468
100
AcDbEntity
  8
KONSTRUKTIONSELEMENTE
100
AcDbLine
 62
7
  6
CONTINUOUS
 10
322.6448220192
 20
158.0731504682
 11
321.6672252617
 21
157.0478469898
  0
LINE
  5
469
100
AcDbEntity
  8
KONSTRUKTIONSELEMENTE
100
AcDbLine
 62
7
  6
CONTINUOUS
 10
332.4434522993
 20
172.379621792
 11
332.8890028439
 21
172.7974836403
  0
LINE
  5
46A
100
AcDbEntity
  8
KONSTRUKTIONSELEMENTE
100
AcDbLine
 62
7
  6
CONTINUOUS
 10
332.4035879627
 20
173.0386401471
 11
332.1157389725
 21
172.7935512842
  0
LINE
  5
46B
100
AcDbEntity
  8
KONSTRUKTIONSELEMENTE
100
AcDbLine
 62
7
  6
CONTINUOUS
 10
318.9810142857
 20
157.6512200185
 11
316.8175909203
 21
155.8216351687
  0
LINE
  5
46C
100
AcDbEntity
  8
KONSTRUKTIONSELEMENTE
100
AcDbLine
 62
7
  6
CONTINUOUS
 10
317.4105226961
 20
155.7657723664
 11
319.2557953952
 21
157.3263004758
  0
LINE
  5
46D
100
AcDbEntity
  8
KONSTRUKTIONSELEMENTE
100
AcDbLine
 62
7
  6
CONTINUOUS
 10
326.9521674918
 20
169.8425752497
 11
326.5775035927
 21
169.5623836494
  0
LINE
  5
46E
100
AcDbEntity
  8
KONSTRUKTIONSELEMENTE
100
AcDbLine
 62
7
  6
CONTINUOUS
 10
326.9630935816
 20
169.1408903919
 11
327.2918350392
 21
169.327584382
  0
LINE
  5
46F
100
AcDbEntity
  8
KONSTRUKTIONSELEMENTE
100
AcDbLine
 62
7
  6
CONTINUOUS
 10
265.8558623432
 20
250.6534245888
 11
266.8406700962
 21
250.8270727665
  0
LINE
  5
470
100
AcDbEntity
  8
KONSTRUKTIONSELEMENTE
100
AcDbLine
 62
7
  6
CONTINUOUS
 10
270.7799011083
 20
251.5216654772
 11
272.2571127378
 21
251.7821377437
  0
LINE
  5
471
100
AcDbEntity
  8
KONSTRUKTIONSELEMENTE
100
AcDbLine
 62
7
  6
CONTINUOUS
 10
321.6342562253
 20
156.2732870548
 11
323.0143934435
 21
157.720774968
  0
LINE
  5
472
100
AcDbEntity
  8
KONSTRUKTIONSELEMENTE
100
AcDbLine
 62
7
  6
CONTINUOUS
 10
323.3594277481
 20
158.0826469463
 11
323.934485361
 21
158.6857673703
  0
LINE
  5
473
100
AcDbEntity
  8
KONSTRUKTIONSELEMENTE
100
AcDbLine
 62
7
  6
CONTINUOUS
 10
323.8767266519
 20
156.8985655772
 11
324.2217609565
 21
157.2604375555
  0
LINE
  5
474
100
AcDbEntity
  8
KONSTRUKTIONSELEMENTE
100
AcDbLine
 62
7
  6
CONTINUOUS
 10
319.0880786256
 20
155.8469459891
 11
318.7062981173
 21
155.5240781469
  0
LINE
  5
475
100
AcDbEntity
  8
KONSTRUKTIONSELEMENTE
100
AcDbLine
 62
7
  6
CONTINUOUS
 10
318.9810792269
 20
155.1991586042
 11
319.3628597351
 21
155.5220264464
  0
LINE
  5
476
100
AcDbEntity
  8
KONSTRUKTIONSELEMENTE
100
AcDbLine
 62
7
  6
CONTINUOUS
 10
318.246452844
 20
154.1320533644
 11
318.6918631942
 21
154.5087323084
  0
LINE
  5
477
100
AcDbEntity
  8
KONSTRUKTIONSELEMENTE
100
AcDbLine
 62
7
  6
CONTINUOUS
 10
319.1228394264
 20
153.8700659387
 11
318.7410589182
 21
153.5471980965
  0
LINE
  5
478
100
AcDbEntity
  8
KONSTRUKTIONSELEMENTE
100
AcDbLine
 62
7
  6
CONTINUOUS
 10
320.4619842888
 20
154.222348139
 11
320.0802037806
 21
153.8994802967
  0
LINE
  5
479
100
AcDbEntity
  8
KONSTRUKTIONSELEMENTE
100
AcDbLine
 62
7
  6
CONTINUOUS
 10
320.3549849287
 20
153.5745607085
 11
320.7367654369
 21
153.8974285507
  0
LINE
  5
47A
100
AcDbEntity
  8
KONSTRUKTIONSELEMENTE
100
AcDbLine
 62
7
  6
CONTINUOUS
 10
318.3894246737
 20
152.5651000084
 11
318.054115329
 21
152.3177576857
  0
LINE
  5
47B
100
AcDbEntity
  8
KONSTRUKTIONSELEMENTE
100
AcDbLine
 62
7
  6
CONTINUOUS
 10
318.306720645
 20
151.9753135699
 11
318.6420299898
 21
152.2226558926
  0
LINE
  5
47C
100
AcDbEntity
  8
KONSTRUKTIONSELEMENTE
100
AcDbLine
 62
7
  6
CONTINUOUS
 10
315.4107381511
 20
154.7747136402
 11
314.9882986145
 21
154.507234972
  0
LINE
  5
47D
100
AcDbEntity
  8
KONSTRUKTIONSELEMENTE
100
AcDbLine
 62
7
  6
CONTINUOUS
 10
313.0169143788
 20
153.2590013575
 11
312.5944748422
 21
152.9915226894
  0
LINE
  5
47E
100
AcDbEntity
  8
KONSTRUKTIONSELEMENTE
100
AcDbLine
 62
7
  6
CONTINUOUS
 10
314.7343041872
 20
149.6120063965
 11
315.1567437238
 21
149.8794850646
  0
LINE
  5
47F
100
AcDbEntity
  8
KONSTRUKTIONSELEMENTE
100
AcDbLine
 62
7
  6
CONTINUOUS
 10
317.1281279595
 20
151.1277186791
 11
317.5505674961
 21
151.3951973472
  0
LINE
  5
480
100
AcDbEntity
  8
KONSTRUKTIONSELEMENTE
100
AcDbLine
 62
7
  6
CONTINUOUS
 10
319.4611855137
 20
156.0510188211
 11
319.0880786256
 21
155.8469459891
  0
LINE
  5
481
100
AcDbEntity
  8
KONSTRUKTIONSELEMENTE
100
AcDbLine
 62
7
  6
CONTINUOUS
 10
319.9818780357
 20
153.3704878823
 11
320.3549849287
 21
153.5745607085
  0
LINE
  5
482
100
AcDbEntity
  8
KONSTRUKTIONSELEMENTE
100
AcDbLine
 62
7
  6
CONTINUOUS
 10
310.8103264903
 20
152.0823764678
 11
310.2107755342
 21
151.790858229
  0
LINE
  5
483
100
AcDbEntity
  8
KONSTRUKTIONSELEMENTE
100
AcDbLine
 62
7
  6
CONTINUOUS
 10
312.338714431
 20
149.8918839275
 11
310.9897244582
 21
149.2359677336
  0
LINE
  5
484
100
AcDbEntity
  8
KONSTRUKTIONSELEMENTE
100
AcDbLine
 62
7
  6
CONTINUOUS
 10
311.0636408229
 20
148.8933741594
 11
312.5625184275
 21
149.6221698608
  0
LINE
  5
485
100
AcDbEntity
  8
KONSTRUKTIONSELEMENTE
100
AcDbLine
 62
7
  6
CONTINUOUS
 10
319.3628597351
 20
155.5220264464
 11
319.6723360531
 21
155.6722875608
  0
LINE
  5
486
100
AcDbEntity
  8
KONSTRUKTIONSELEMENTE
100
AcDbLine
 62
7
  6
CONTINUOUS
 10
320.0802037806
 20
153.8994802967
 11
319.7707274626
 21
153.7492191824
  0
LINE
  5
487
100
AcDbEntity
  8
KONSTRUKTIONSELEMENTE
100
AcDbLine
 62
7
  6
CONTINUOUS
 10
308.3995083136
 20
150.9329357845
 11
307.6903070068
 21
150.6889408942
  0
LINE
  5
488
100
AcDbEntity
  8
KONSTRUKTIONSELEMENTE
100
AcDbLine
 62
7
  6
CONTINUOUS
 10
305.3263026509
 20
149.8756245933
 11
304.6171013442
 21
149.631629703
  0
LINE
  5
489
100
AcDbEntity
  8
KONSTRUKTIONSELEMENTE
100
AcDbLine
 62
7
  6
CONTINUOUS
 10
310.7607830435
 20
147.6105149486
 11
311.2104463677
 21
147.8291536799
  0
LINE
  5
48A
100
AcDbEntity
  8
KONSTRUKTIONSELEMENTE
100
AcDbLine
 62
7
  6
CONTINUOUS
 10
313.3088753572
 20
148.8494678287
 11
313.7585386815
 21
149.06810656
  0
LINE
  5
48B
100
AcDbEntity
  8
KONSTRUKTIONSELEMENTE
100
AcDbLine
 62
7
  6
CONTINUOUS
 10
305.9184074256
 20
145.8492227336
 11
306.3912082968
 21
146.0118859938
  0
LINE
  5
48C
100
AcDbEntity
  8
KONSTRUKTIONSELEMENTE
100
AcDbLine
 62
7
  6
CONTINUOUS
 10
307.494410292
 20
146.391433588
 11
308.124811416
 21
146.608317922
  0
LINE
  5
48D
100
AcDbEntity
  8
KONSTRUKTIONSELEMENTE
100
AcDbLine
 62
7
  6
CONTINUOUS
 10
309.2280135239
 20
146.9878655549
 11
309.7008143951
 21
147.1505288151
  0
LINE
  5
48E
100
AcDbEntity
  8
0
100
AcDbLine
 62
7
  6
CONTINUOUS
 10
268.3872696776
 20
279.467545033
 11
246.3778817257
 21
279.467545033
  0
LINE
  5
48F
100
AcDbEntity
  8
0
100
AcDbLine
 62
7
  6
CONTINUOUS
 10
115.9209067674
 20
11.041027496
 11
111.9722837964
 21
10.6955677495
  0
LINE
  5
490
100
AcDbEntity
  8
0
100
AcDbLine
 62
7
  6
CONTINUOUS
 10
111.9722837964
 20
11.8981809898
 11
115.9209067674
 21
12.2346742097
  0
LINE
  5
491
100
AcDbEntity
  8
0
100
AcDbLine
 62
7
  6
CONTINUOUS
 10
111.9722837964
 20
11.8981809898
 11
108.0236608254
 21
12.2346742097
  0
LINE
  5
492
100
AcDbEntity
  8
KONSTRUKTIONSELEMENTE
100
AcDbLine
 62
7
  6
CONTINUOUS
 10
111.9722837964
 20
10.6955677495
 11
108.0236608254
 21
11.041027496
  0
LINE
  5
493
100
AcDbEntity
  8
0
100
AcDbLine
 62
7
  6
CONTINUOUS
 10
69.4722837964
 20
102.4111651662
 11
69.4722837964
 21
108.6955677495
  0
LINE
  5
494
100
AcDbEntity
  8
RUNDUNGEN
100
AcDbLine
 62
7
  6
CONTINUOUS
 10
69.4722837964
 20
102.4111651662
 11
69.4722837964
 21
108.6955677495
  0
LINE
  5
495
100
AcDbEntity
  8
0
100
AcDbLine
 62
7
  6
CONTINUOUS
 10
123.8591910298
 20
93.7271060048
 11
131.6665763099
 21
97.3677495511
  0
LINE
  5
496
100
AcDbEntity
  8
0
100
AcDbLine
 62
7
  6
CONTINUOUS
 10
99.1436525297
 20
94.1662391334
 11
98.9831885172
 21
92.8454017732
  0
LINE
  5
497
100
AcDbEntity
  8
KONSTRUKTIONSELEMENTE
100
AcDbLine
 62
7
  6
CONTINUOUS
 10
101.001230247
 20
40.0280891325
 11
100.4722837964
 21
40.0280891325
  0
LINE
  5
498
100
AcDbEntity
  8
RUNDUNGEN
100
AcDbLine
 62
7
  6
CONTINUOUS
 10
103.7090663836
 20
29.0729239326
 11
102.1368663605
 21
32.4162252652
  0
LWPOLYLINE
  5
499
100
AcDbEntity
  8
RUNDUNGEN
100
AcDbPolyline
 62
7
  6
CONTINUOUS
 90
7
 70
0
 10
103.7090585785
 20
29.0729405282
 10
103.9842867161
 20
28.4427163849
 10
104.2525792705
 20
27.7087373808
 10
104.4678745573
 20
26.966869137
 10
104.6286819718
 20
26.2191346132
 10
104.7334633386
 20
25.4675061045
 10
104.7774211162
 20
24.8225356582
  0
LWPOLYLINE
  5
49A
100
AcDbEntity
  8
0
100
AcDbPolyline
 62
7
  6
CONTINUOUS
 90
6
 70
0
 10
98.9774132764
 20
84.4467589604
 10
98.9776007579
 20
84.4385384872
 10
98.9778644257
 20
84.4296420917
 10
98.9783483662
 20
84.417579093
 10
98.9793878113
 20
84.3995679322
 10
98.9813987726
 20
84.375737344
  0
LINE
  5
49B
100
AcDbEntity
  8
0
100
AcDbLine
 62
7
  6
CONTINUOUS
 10
98.9771559756
 20
84.4626311321
 11
98.9774132764
 21
84.4467589604
  0
LWPOLYLINE
  5
49C
100
AcDbEntity
  8
0
100
AcDbPolyline
 62
7
  6
CONTINUOUS
 90
7
 70
0
 10
98.9775536997
 20
60.6436710382
 10
98.9826612944
 20
60.2501388295
 10
98.9966002157
 20
59.8526324998
 10
99.0193988971
 20
59.4550677572
 10
99.0510842435
 20
59.0574993129
 10
99.0916742623
 20
58.6599804991
 10
99.1115806029
 20
58.49141609
  0
LINE
  5
49D
100
AcDbEntity
  8
0
100
AcDbLine
 62
7
  6
CONTINUOUS
 10
98.9782541027
 20
92.7382753136
 11
98.9792704056
 21
92.66823134
  0
LINE
  5
49E
100
AcDbEntity
  8
0
100
AcDbLine
 62
7
  6
CONTINUOUS
 10
98.9792704056
 20
92.66823134
 11
98.9858242364
 21
92.1390271626
  0
LINE
  5
49F
100
AcDbEntity
  8
0
100
AcDbLine
 62
7
  6
CONTINUOUS
 10
99.0014257741
 20
91.4092715705
 11
99.0027698518
 21
91.2821826176
  0
LINE
  5
4A0
100
AcDbEntity
  8
0
100
AcDbLine
 62
7
  6
CONTINUOUS
 10
98.9768800226
 20
84.4908455334
 11
98.9771559756
 21
84.4626311321
  0
LINE
  5
4A1
100
AcDbEntity
  8
0
100
AcDbLine
 62
7
  6
CONTINUOUS
 10
98.9765503997
 20
84.5677247865
 11
98.9768800226
 21
84.4908455334
  0
LINE
  5
4A2
100
AcDbEntity
  8
KONSTRUKTIONSELEMENTE
100
AcDbLine
 62
7
  6
CONTINUOUS
 10
98.9722837964
 20
78.1655826854
 11
98.9722837964
 21
79.0820638448
  0
LINE
  5
4A3
100
AcDbEntity
  8
RUNDUNGEN
100
AcDbLine
 62
7
  6
CONTINUOUS
 10
98.9722837964
 20
79.0820638448
 11
98.9722837964
 21
82.8710124292
  0
LINE
  5
4A4
100
AcDbEntity
  8
KONSTRUKTIONSELEMENTE
100
AcDbLine
 62
7
  6
CONTINUOUS
 10
98.9722837964
 20
83.3968693101
 11
98.9722837964
 21
90.1660795261
  0
LINE
  5
4A5
100
AcDbEntity
  8
0
100
AcDbLine
 62
7
  6
CONTINUOUS
 10
98.9775550604
 20
60.6436657321
 11
98.9774740381
 21
78.0817238617
  0
LINE
  5
4A6
100
AcDbEntity
  8
0
100
AcDbLine
 62
7
  6
CONTINUOUS
 10
98.9774740381
 20
82.9629497637
 11
98.9774740381
 21
83.3968693101
  0
LINE
  5
4A7
100
AcDbEntity
  8
0
100
AcDbLine
 62
7
  6
CONTINUOUS
 10
99.0033038562
 20
85.2184179861
 11
99.0027698518
 21
91.2821826176
  0
LINE
  5
4A8
100
AcDbEntity
  8
0
100
AcDbLine
 62
7
  6
CONTINUOUS
 10
98.9768610369
 20
84.5823289448
 11
98.9767775899
 21
84.5677234767
  0
LINE
  5
4A9
100
AcDbEntity
  8
0
100
AcDbLine
 62
7
  6
CONTINUOUS
 10
98.9772182929
 20
92.7202484956
 11
98.9773580927
 21
90.1674391797
  0
LWPOLYLINE
  5
4AA
100
AcDbEntity
  8
0
100
AcDbPolyline
 62
7
  6
CONTINUOUS
 90
3
 70
0
 10
99.0033044655
 20
85.2186881408
 10
99.0025238361
 20
85.1014783496
 10
99.0002601418
 20
84.9896911476
  0
LINE
  5
4AB
100
AcDbEntity
  8
0
100
AcDbLine
 62
7
  6
CONTINUOUS
 10
98.9774266381
 20
92.7454021015
 11
98.9772182929
 21
92.7202484956
  0
LINE
  5
4AC
100
AcDbEntity
  8
0
100
AcDbLine
 62
7
  6
CONTINUOUS
 10
98.9768843423
 20
84.5841577871
 11
98.9768610369
 21
84.5823289448
  0
LINE
  5
4AD
100
AcDbEntity
  8
0
100
AcDbLine
 62
7
  6
CONTINUOUS
 10
98.9775998188
 20
92.7583419672
 11
98.9774266381
 21
92.7454021015
  0
LINE
  5
4AE
100
AcDbEntity
  8
0
100
AcDbLine
 62
7
  6
CONTINUOUS
 10
99.0002601418
 20
84.9896911476
 11
98.9963779859
 21
84.8756138911
  0
LINE
  5
4AF
100
AcDbEntity
  8
0
100
AcDbLine
 62
7
  6
CONTINUOUS
 10
98.9963779859
 20
84.8756138911
 11
98.9907945083
 21
84.7591865439
  0
LWPOLYLINE
  5
4B0
100
AcDbEntity
  8
0
100
AcDbPolyline
 62
7
  6
CONTINUOUS
 90
3
 70
0
 10
98.9839718879
 20
84.7032554707
 10
98.9779645027
 20
84.623623045
 10
98.9768843423
 20
84.5841577871
  0
LWPOLYLINE
  5
4B1
100
AcDbEntity
  8
0
100
AcDbPolyline
 62
7
  6
CONTINUOUS
 90
8
 70
0
 10
98.9832327381
 20
92.8452635929
 10
98.9809544101
 20
92.8239618141
 10
98.9792121488
 20
92.8015563056
 10
98.9784704036
 20
92.787892707
 10
98.9781186492
 20
92.7791870945
 10
98.9779059265
 20
92.7724418208
 10
98.9777763515
 20
92.7673558182
 10
98.9775998188
 20
92.7583419672
  0
LINE
  5
4B2
100
AcDbEntity
  8
0
100
AcDbLine
 62
7
  6
CONTINUOUS
 10
98.9894695751
 20
84.7483620678
 11
98.9839718879
 21
84.7032554707
  0
LINE
  5
4B3
100
AcDbEntity
  8
0
100
AcDbLine
 62
7
  6
CONTINUOUS
 10
99.241065895
 20
86.6590279393
 11
99.1958543111
 21
86.2939970384
  0
LINE
  5
4B4
100
AcDbEntity
  8
0
100
AcDbLine
 62
7
  6
CONTINUOUS
 10
99.1958543111
 20
86.2939970384
 11
99.0975554817
 21
85.5376234963
  0
LWPOLYLINE
  5
4B5
100
AcDbEntity
  8
0
100
AcDbPolyline
 62
7
  6
CONTINUOUS
 90
3
 70
0
 10
99.0975554817
 20
85.5376234963
 10
98.99834847
 20
84.8145644105
 10
98.9884310607
 20
84.7413957527
  0
LWPOLYLINE
  5
4B6
100
AcDbEntity
  8
0
100
AcDbPolyline
 62
7
  6
CONTINUOUS
 90
6
 70
0
 10
116.4210668853
 20
75.4817136471
 10
116.4179344586
 20
75.480525109
 10
116.2847197932
 20
75.4502478728
 10
116.1573323485
 20
75.4400060971
 10
116.0422498412
 20
75.4475926745
 10
116.0170606998
 20
75.4516220391
  0
LINE
  5
4B7
100
AcDbEntity
  8
KONSTRUKTIONSELEMENTE
100
AcDbLine
 62
7
  6
CONTINUOUS
 10
101.6848682847
 20
43.1334964479
 11
100.4722837964
 21
43.1334964479
  0
LINE
  5
4B8
100
AcDbEntity
  8
KONSTRUKTIONSELEMENTE
100
AcDbLine
 62
7
  6
CONTINUOUS
 10
101.0734507938
 20
44.6469070853
 11
100.4722837964
 21
44.6469070853
  0
LINE
  5
4B9
100
AcDbEntity
  8
KONSTRUKTIONSELEMENTE
100
AcDbLine
 62
7
  6
CONTINUOUS
 10
101.7573984431
 20
46.1860607736
 11
100.4722837964
 21
46.1860607736
  0
LINE
  5
4BA
100
AcDbEntity
  8
KONSTRUKTIONSELEMENTE
100
AcDbLine
 62
7
  6
CONTINUOUS
 10
101.9770678205
 20
46.9755677495
 11
100.4722837964
 21
46.9755677495
  0
LWPOLYLINE
  5
4BB
100
AcDbEntity
  8
0
100
AcDbPolyline
 62
7
  6
CONTINUOUS
 90
34
 70
0
 10
101.0977319468
 20
49.4032308385
 10
101.1080070051
 20
49.3764713604
 10
101.1206669817
 20
49.3463033694
 10
101.1344258775
 20
49.3163096269
 10
101.1489131385
 20
49.2872558335
 10
101.1647235642
 20
49.2579801725
 10
101.1828592195
 20
49.2269972802
 10
101.2028627597
 20
49.1955016565
 10
101.224399967
 20
49.1642197632
 10
101.2476161255
 20
49.1331047301
 10
101.2725387504
 20
49.1022851939
 10
101.299148282
 20
49.0719192637
 10
101.3274069548
 20
49.0421776193
 10
101.3573233589
 20
49.0131867571
 10
101.3888653981
 20
48.9850885116
 10
101.4220426841
 20
48.9579619599
 10
101.4568402164
 20
48.9318915083
 10
101.4932261903
 20
48.9069951346
 10
101.5311279407
 20
48.8834424674
 10
101.5705084415
 20
48.8613658945
 10
101.6113099569
 20
48.8408976419
 10
101.6534975096
 20
48.822148946
 10
101.6970215233
 20
48.8052195743
 10
101.7417301762
 20
48.7902140836
 10
101.7874748376
 20
48.7772256705
 10
101.8341478857
 20
48.7663332949
 10
101.8816417075
 20
48.7576165455
 10
101.9298864318
 20
48.751149164
 10
101.9787635144
 20
48.7469931851
 10
102.0281239186
 20
48.7451928931
 10
102.077815631
 20
48.7458018333
 10
102.1276920305
 20
48.7488694181
 10
102.1775670475
 20
48.7544379133
 10
102.2092480873
 20
48.759313651
  0
LINE
  5
4BC
100
AcDbEntity
  8
0
100
AcDbLine
 62
7
  6
CONTINUOUS
 10
101.0957508134
 20
49.4071093651
 11
101.0972370736
 21
49.4030523822
  0
LINE
  5
4BD
100
AcDbEntity
  8
0
100
AcDbLine
 62
7
  6
CONTINUOUS
 10
101.9190332983
 20
49.3999748696
 11
102.0413616115
 21
49.0619628181
  0
LWPOLYLINE
  5
4BE
100
AcDbEntity
  8
0
100
AcDbPolyline
 62
7
  6
CONTINUOUS
 90
3
 70
0
 10
100.2644794985
 20
51.7009925791
 10
100.3468193269
 20
51.4716730866
 10
101.0957542714
 20
49.4070997798
  0
LWPOLYLINE
  5
4BF
100
AcDbEntity
  8
0
100
AcDbPolyline
 62
7
  6
CONTINUOUS
 90
6
 70
0
 10
99.6065288918
 20
54.4589966162
 10
99.6968313316
 20
53.8473747906
 10
99.8091480038
 20
53.2766644678
 10
99.9483471894
 20
52.7085316593
 10
100.1147470295
 20
52.1428869193
 10
100.2644572291
 20
51.7010546905
  0
LWPOLYLINE
  5
4C0
100
AcDbEntity
  8
RUNDUNGEN
100
AcDbPolyline
 62
7
  6
CONTINUOUS
 90
7
 70
0
 10
101.042054691
 20
36.2539565041
 10
101.1166913925
 20
35.7012019572
 10
101.2487158743
 20
35.0074967721
 10
101.4235128512
 20
34.3160402747
 10
101.6410435774
 20
33.629015653
 10
101.9011351863
 20
32.9485483368
 10
102.1368408524
 20
32.4162795125
  0
LINE
  5
4C1
100
AcDbEntity
  8
0
100
AcDbLine
 62
7
  6
CONTINUOUS
 10
99.1112337904
 20
58.4911747656
 11
99.6068572815
 21
54.456133654
  0
LINE
  5
4C2
100
AcDbEntity
  8
RUNDUNGEN
100
AcDbLine
 62
7
  6
CONTINUOUS
 10
101.0420373679
 20
36.2541142668
 11
101.042054827
 21
36.2539565192
  0
LINE
  5
4C3
100
AcDbEntity
  8
RUNDUNGEN
100
AcDbLine
 62
7
  6
CONTINUOUS
 10
104.7778352511
 20
24.8105036324
 11
104.7774209627
 21
24.8225417296
  0
LINE
  5
4C4
100
AcDbEntity
  8
0
100
AcDbLine
 62
7
  6
CONTINUOUS
 10
98.977833021
 20
92.7519870187
 11
98.9782541027
 21
92.7382753136
  0
LWPOLYLINE
  5
4C5
100
AcDbEntity
  8
KONSTRUKTIONSELEMENTE
100
AcDbPolyline
 62
7
  6
CONTINUOUS
 90
12
 70
0
 10
104.5117305497
 20
26.7629442144
 10
104.5154537746
 20
26.6340878069
 10
104.5260519988
 20
26.1537226163
 10
104.5336922608
 20
25.6623918687
 10
104.5383181694
 20
25.1637130145
 10
104.5398942996
 20
24.661310983
 10
104.5384017751
 20
24.1588941793
 10
104.5338654367
 20
23.6601571401
 10
104.5263049766
 20
23.1687321053
 10
104.5158039519
 20
22.6882293998
 10
104.5024240488
 20
22.2222515219
 10
104.4863108887
 20
21.7743657922
  0
LWPOLYLINE
  5
4C6
100
AcDbEntity
  8
0
100
AcDbPolyline
 62
7
  6
CONTINUOUS
 90
4
 70
0
 10
98.9944818785
 20
91.7307836196
 10
98.9960499466
 20
91.6747067064
 10
98.9992021841
 20
91.5401808092
 10
99.0014257741
 20
91.4092715705
  0
LINE
  5
4C7
100
AcDbEntity
  8
0
100
AcDbLine
 62
7
  6
CONTINUOUS
 10
98.9899184718
 20
91.9169356824
 11
98.9946410264
 21
91.7287973972
  0
LINE
  5
4C8
100
AcDbEntity
  8
0
100
AcDbLine
 62
7
  6
CONTINUOUS
 10
98.9858242364
 20
92.1390271626
 11
98.9899184718
 21
91.9169356824
  0
LWPOLYLINE
  5
4C9
100
AcDbEntity
  8
RUNDUNGEN
100
AcDbPolyline
 62
7
  6
CONTINUOUS
 90
5
 70
0
 10
101.0012302941
 20
36.9922086899
 10
101.0018351096
 20
36.9024008068
 10
101.0113928312
 20
36.6238522683
 10
101.0325973394
 20
36.3450447246
 10
101.0420373679
 20
36.2541142668
  0
LINE
  5
4CA
100
AcDbEntity
  8
KONSTRUKTIONSELEMENTE
100
AcDbLine
 62
7
  6
CONTINUOUS
 10
100.4722837964
 20
40.0280891325
 11
100.4722837964
 21
46.9755677495
  0
LINE
  5
4CB
100
AcDbEntity
  8
KONSTRUKTIONSELEMENTE
100
AcDbLine
 62
7
  6
CONTINUOUS
 10
101.001230247
 20
36.9922022392
 11
101.001230247
 21
41.1199675441
  0
LINE
  5
4CC
100
AcDbEntity
  8
RUNDUNGEN
100
AcDbLine
 62
7
  6
CONTINUOUS
 10
101.9722837964
 20
48.7475441503
 11
101.9722837964
 21
47.0992651597
  0
LINE
  5
4CD
100
AcDbEntity
  8
KONSTRUKTIONSELEMENTE
100
AcDbLine
 62
7
  6
CONTINUOUS
 10
101.9722837964
 20
48.7475441503
 11
101.9722837964
 21
47.0992651597
  0
LWPOLYLINE
  5
4CE
100
AcDbEntity
  8
0
100
AcDbPolyline
 62
7
  6
CONTINUOUS
 90
5
 70
0
 10
102.2093820173
 20
48.7590717625
 10
102.357345388
 20
48.7961011521
 10
102.5074356045
 20
48.8599711702
 10
102.6469562229
 20
48.9486265081
 10
102.7181658593
 20
49.0079130766
  0
LINE
  5
4CF
100
AcDbEntity
  8
0
100
AcDbLine
 62
7
  6
CONTINUOUS
 10
102.2093072162
 20
48.7590587627
 11
102.2093820173
 21
48.7590717625
  0
LINE
  5
4D0
100
AcDbEntity
  8
0
100
AcDbLine
 62
7
  6
CONTINUOUS
 10
102.7619611361
 20
48.55523965
 11
105.5057785219
 21
48.55523965
  0
LINE
  5
4D1
100
AcDbEntity
  8
0
100
AcDbLine
 62
7
  6
CONTINUOUS
 10
118.438789071
 20
48.55523965
 11
121.182603547
 21
48.55523965
  0
LWPOLYLINE
  5
4D2
100
AcDbEntity
  8
0
100
AcDbPolyline
 62
7
  6
CONTINUOUS
 90
34
 70
0
 10
121.7353165958
 20
48.759313651
 10
121.7669976357
 20
48.7544379133
 10
121.8168726526
 20
48.7488694181
 10
121.8667490522
 20
48.7458018333
 10
121.9164407645
 20
48.7451928931
 10
121.9658011688
 20
48.7469931851
 10
122.0146782513
 20
48.751149164
 10
122.0629229756
 20
48.7576165455
 10
122.1104167974
 20
48.7663332949
 10
122.1570898455
 20
48.7772256705
 10
122.2028345069
 20
48.7902140836
 10
122.2475431599
 20
48.8052195743
 10
122.2910671735
 20
48.822148946
 10
122.3332547262
 20
48.8408976419
 10
122.3740562416
 20
48.8613658945
 10
122.4134367425
 20
48.8834424674
 10
122.4513384928
 20
48.9069951346
 10
122.4877244668
 20
48.9318915083
 10
122.522521999
 20
48.9579619599
 10
122.555699285
 20
48.9850885116
 10
122.5872413242
 20
49.0131867571
 10
122.6171577284
 20
49.0421776193
 10
122.6454164011
 20
49.0719192637
 10
122.6720259328
 20
49.1022851939
 10
122.6969485576
 20
49.1331047301
 10
122.7201647161
 20
49.1642197632
 10
122.7417019235
 20
49.1955016565
 10
122.7617054636
 20
49.2269972802
 10
122.779841119
 20
49.2579801726
 10
122.7956515447
 20
49.2872558336
 10
122.8101388057
 20
49.316309627
 10
122.8238977015
 20
49.3463033695
 10
122.836557678
 20
49.3764713605
 10
122.8468327364
 20
49.4032308387
  0
LINE
  5
4D3
100
AcDbEntity
  8
0
100
AcDbLine
 62
7
  6
CONTINUOUS
 10
121.735182666
 20
48.7590717625
 11
121.7352574667
 21
48.7590587627
  0
LINE
  5
4D4
100
AcDbEntity
  8
0
100
AcDbLine
 62
7
  6
CONTINUOUS
 10
100.9945748897
 20
66.2380712239
 11
100.9945905725
 21
66.2379980217
  0
LINE
  5
4D5
100
AcDbEntity
  8
0
100
AcDbLine
 62
7
  6
CONTINUOUS
 10
98.9831327012
 20
84.3595717125
 11
99.0840084167
 21
83.5291100481
  0
LWPOLYLINE
  5
4D6
100
AcDbEntity
  8
0
100
AcDbPolyline
 62
7
  6
CONTINUOUS
 90
3
 70
0
 10
107.0925431384
 20
73.5324031741
 10
107.0913505688
 20
73.5482014952
 10
107.091126296
 20
73.5565127614
  0
LINE
  5
4D7
100
AcDbEntity
  8
0
100
AcDbLine
 62
7
  6
CONTINUOUS
 10
107.0911215949
 20
73.5562510678
 11
107.0807125431
 21
74.6951110662
  0
LINE
  5
4D8
100
AcDbEntity
  8
0
100
AcDbLine
 62
7
  6
CONTINUOUS
 10
105.0071284752
 20
51.7949327758
 11
105.0065176903
 21
51.8980607466
  0
LINE
  5
4D9
100
AcDbEntity
  8
KONSTRUKTIONSELEMENTE
100
AcDbLine
 62
7
  6
CONTINUOUS
 10
104.3722837964
 20
27.2962574434
 11
104.3722837964
 21
19.7618689503
  0
LINE
  5
4DA
100
AcDbEntity
  8
RUNDUNGEN
100
AcDbLine
 62
7
  6
CONTINUOUS
 10
104.3722837964
 20
15.025806357
 11
104.3722837964
 21
19.7618689503
  0
LINE
  5
4DB
100
AcDbEntity
  8
0
100
AcDbLine
 62
7
  6
CONTINUOUS
 10
105.6347823416
 20
70.2349527838
 11
105.6347823416
 21
66.5302739883
  0
LINE
  5
4DC
100
AcDbEntity
  8
0
100
AcDbLine
 62
7
  6
CONTINUOUS
 10
106.3847823416
 20
66.5302739883
 11
106.3847823416
 21
67.9052189473
  0
LINE
  5
4DD
100
AcDbEntity
  8
0
100
AcDbLine
 62
7
  6
CONTINUOUS
 10
106.3847823416
 20
68.4537342235
 11
106.3847823416
 21
69.2772384915
  0
LINE
  5
4DE
100
AcDbEntity
  8
0
100
AcDbLine
 62
7
  6
CONTINUOUS
 10
107.2222823416
 20
75.6111390285
 11
107.2222823416
 21
74.1870583858
  0
LINE
  5
4DF
100
AcDbEntity
  8
KONSTRUKTIONSELEMENTE
100
AcDbLine
 62
7
  6
CONTINUOUS
 10
104.3727609318
 20
19.8223028631
 11
104.3722839894
 21
19.7618526305
  0
LINE
  5
4E0
100
AcDbEntity
  8
KONSTRUKTIONSELEMENTE
100
AcDbLine
 62
7
  6
CONTINUOUS
 10
104.3761160379
 20
19.9343349142
 11
104.3727609318
 21
19.8223028631
  0
LINE
  5
4E1
100
AcDbEntity
  8
KONSTRUKTIONSELEMENTE
100
AcDbLine
 62
7
  6
CONTINUOUS
 10
104.4863108887
 20
21.7743657922
 11
104.4666892996
 21
21.3296914898
  0
LWPOLYLINE
  5
4E2
100
AcDbEntity
  8
KONSTRUKTIONSELEMENTE
100
AcDbPolyline
 62
7
  6
CONTINUOUS
 90
6
 70
0
 10
104.4666892996
 20
21.3296914898
 10
104.4508367219
 20
21.0246006028
 10
104.4339108882
 20
20.7389622335
 10
104.4160933046
 20
20.4737865062
 10
104.3975798018
 20
20.2300170714
 10
104.3876860511
 20
20.1113947652
  0
LWPOLYLINE
  5
4E3
100
AcDbEntity
  8
KONSTRUKTIONSELEMENTE
100
AcDbPolyline
 62
7
  6
CONTINUOUS
 90
3
 70
0
 10
104.3876643542
 20
20.1112171632
 10
104.3825714787
 20
20.0464224939
 10
104.3761160379
 20
19.9343349142
  0
LINE
  5
4E4
100
AcDbEntity
  8
0
100
AcDbLine
 62
7
  6
CONTINUOUS
 10
105.4522334029
 20
64.1335061803
 11
105.4524536432
 21
64.1336310418
  0
LINE
  5
4E5
100
AcDbEntity
  8
0
100
AcDbLine
 62
7
  6
CONTINUOUS
 10
105.4524153514
 20
64.1336057645
 11
105.4524754842
 21
64.1336387434
  0
LWPOLYLINE
  5
4E6
100
AcDbEntity
  8
0
100
AcDbPolyline
 62
7
  6
CONTINUOUS
 90
7
 70
0
 10
105.8501756303
 20
51.545276223
 10
106.2002599765
 20
51.6386151854
 10
106.5892317814
 20
51.7163411483
 10
106.9859981414
 20
51.7720602903
 10
107.3719153011
 20
51.808444897
 10
107.7600154713
 20
51.8329626076
 10
108.1760183239
 20
51.8541007481
  0
LWPOLYLINE
  5
4E7
100
AcDbEntity
  8
0
100
AcDbPolyline
 62
7
  6
CONTINUOUS
 90
5
 70
0
 10
108.1760183239
 20
51.8541007481
 10
108.6048553626
 20
51.878857736
 10
108.7127293216
 20
51.8831182753
 10
108.8206709815
 20
51.8852844464
 10
108.8782888691
 20
51.8855830007
  0
LINE
  5
4E8
100
AcDbEntity
  8
0
100
AcDbLine
 62
7
  6
CONTINUOUS
 10
108.5341886038
 20
51.8743253431
 11
108.534033066
 21
51.87432039
  0
LINE
  5
4E9
100
AcDbEntity
  8
0
100
AcDbLine
 62
7
  6
CONTINUOUS
 10
115.4104135566
 20
51.8749257178
 11
115.4105694156
 21
51.8749271959
  0
LINE
  5
4EA
100
AcDbEntity
  8
0
100
AcDbLine
 62
7
  6
CONTINUOUS
 10
115.0662758278
 20
51.8848750297
 11
108.8782888554
 21
51.8848750297
  0
LINE
  5
4EB
100
AcDbEntity
  8
0
100
AcDbLine
 62
7
  6
CONTINUOUS
 10
108.4722823416
 20
54.4327605533
 11
115.4722823416
 21
54.4327605533
  0
LWPOLYLINE
  5
4EC
100
AcDbEntity
  8
0
100
AcDbPolyline
 62
7
  6
CONTINUOUS
 90
4
 70
0
 10
115.066275814
 20
51.8855830007
 10
115.1238937942
 20
51.8852844454
 10
115.2318355004
 20
51.8831182711
 10
115.3397095054
 20
51.8788577269
  0
LWPOLYLINE
  5
4ED
100
AcDbEntity
  8
0
100
AcDbPolyline
 62
7
  6
CONTINUOUS
 90
8
 70
0
 10
115.3397095054
 20
51.8788577269
 10
115.7685517191
 20
51.8541004709
 10
116.1845587061
 20
51.8329620996
 10
116.5726626409
 20
51.8084438884
 10
116.9585832178
 20
51.7720583719
 10
117.3553534355
 20
51.7163376774
 10
117.7443281863
 20
51.6386097195
 10
118.0944174315
 20
51.5452676382
  0
LINE
  5
4EE
100
AcDbEntity
  8
0
100
AcDbLine
 62
7
  6
CONTINUOUS
 10
118.0935241281
 20
51.5455369643
 11
118.0944174315
 21
51.5452676382
  0
LWPOLYLINE
  5
4EF
100
AcDbEntity
  8
0
100
AcDbPolyline
 62
7
  6
CONTINUOUS
 90
5
 70
0
 10
118.0936618915
 20
51.5459869297
 10
118.1279129528
 20
51.5354804762
 10
118.2046298713
 20
51.510817401
 10
118.2799602144
 20
51.485022944
 10
118.3141994782
 20
51.4727621916
  0
LINE
  5
4F0
100
AcDbEntity
  8
0
100
AcDbLine
 62
7
  6
CONTINUOUS
 10
118.3141095614
 20
51.4723935627
 11
118.4007337875
 21
51.4443576127
  0
LWPOLYLINE
  5
4F1
100
AcDbEntity
  8
0
100
AcDbPolyline
 62
7
  6
CONTINUOUS
 90
4
 70
0
 10
118.4007337875
 20
51.4443576127
 10
118.4933765738
 20
51.4048700671
 10
118.5971700722
 20
51.348596467
 10
118.7182215833
 20
51.2680072341
  0
LWPOLYLINE
  5
4F2
100
AcDbEntity
  8
0
100
AcDbPolyline
 62
7
  6
CONTINUOUS
 90
3
 70
0
 10
116.0160620747
 20
51.7425916459
 10
115.9662920964
 20
51.7717451525
 10
115.8277465184
 20
51.8510926329
  0
LWPOLYLINE
  5
4F3
100
AcDbEntity
  8
0
100
AcDbPolyline
 62
7
  6
CONTINUOUS
 90
6
 70
0
 10
119.9064038433
 20
46.0202846976
 10
119.9181980286
 20
46.0121995842
 10
119.9179985417
 20
46.0125363842
 10
119.9005633013
 20
46.0287637589
 10
119.8670508902
 20
46.064143869
 10
119.8195777342
 20
46.1206987628
  0
LINE
  5
4F4
100
AcDbEntity
  8
0
100
AcDbLine
 62
7
  6
CONTINUOUS
 10
107.0926985997
 20
73.5307391135
 11
107.0929953611
 21
73.5278859946
  0
LINE
  5
4F5
100
AcDbEntity
  8
0
100
AcDbLine
 62
7
  6
CONTINUOUS
 10
109.2347823416
 20
69.2746853736
 11
109.2347823416
 21
68.8654863575
  0
LINE
  5
4F6
100
AcDbEntity
  8
0
100
AcDbLine
 62
7
  6
CONTINUOUS
 10
109.5347823416
 20
66.9394730043
 11
109.5347823416
 21
66.5302739883
  0
LINE
  5
4F7
100
AcDbEntity
  8
0
100
AcDbLine
 62
7
  6
CONTINUOUS
 10
110.1347823416
 20
70.2349527838
 11
110.1347823416
 21
67.8510987734
  0
LINE
  5
4F8
100
AcDbEntity
  8
0
100
AcDbLine
 62
7
  6
CONTINUOUS
 10
111.0347823416
 20
67.8510987734
 11
111.0347823416
 21
70.2349527838
  0
LINE
  5
4F9
100
AcDbEntity
  8
0
100
AcDbLine
 62
7
  6
CONTINUOUS
 10
111.9722837964
 20
74.7555677495
 11
111.9722837964
 21
75.1955677495
  0
LINE
  5
4FA
100
AcDbEntity
  8
0
100
AcDbLine
 62
7
  6
CONTINUOUS
 10
111.9722837964
 20
86.6861797976
 11
111.9722837964
 21
108.6955677495
  0
LINE
  5
4FB
100
AcDbEntity
  8
RUNDUNGEN
100
AcDbLine
 62
7
  6
CONTINUOUS
 10
106.4262370139
 20
50.2191986473
 11
104.3538286992
 21
46.47280216
  0
LWPOLYLINE
  5
4FC
100
AcDbEntity
  8
RUNDUNGEN
100
AcDbPolyline
 62
7
  6
CONTINUOUS
 90
5
 70
0
 10
104.3537993391
 20
46.4727454752
 10
104.3296104536
 20
46.429713631
 10
104.2537263867
 20
46.3036221169
 10
104.1849595429
 20
46.2009135408
 10
104.1257326784
 20
46.1216352242
  0
LINE
  5
4FD
100
AcDbEntity
  8
KONSTRUKTIONSELEMENTE
100
AcDbLine
 62
7
  6
CONTINUOUS
 10
102.1686460911
 20
47.4099624869
 11
101.8941064026
 21
46.9755677495
  0
LINE
  5
4FE
100
AcDbEntity
  8
KONSTRUKTIONSELEMENTE
100
AcDbLine
 62
7
  6
CONTINUOUS
 10
102.3585372963
 20
47.6728266344
 11
102.1686460911
 21
47.4099624869
  0
LWPOLYLINE
  5
4FF
100
AcDbEntity
  8
KONSTRUKTIONSELEMENTE
100
AcDbPolyline
 62
7
  6
CONTINUOUS
 90
4
 70
0
 10
102.9453948232
 20
48.4334936911
 10
102.7458150352
 20
48.1776376323
 10
102.5197037612
 20
47.8842470791
 10
102.359221259
 20
47.6737323089
  0
LINE
  5
500
100
AcDbEntity
  8
RUNDUNGEN
100
AcDbLine
 62
7
  6
CONTINUOUS
 10
102.9453581587
 20
48.4334469549
 11
102.9455227326
 21
48.433656719
  0
LINE
  5
501
100
AcDbEntity
  8
0
100
AcDbLine
 62
7
  6
CONTINUOUS
 10
119.1062951423
 20
58.9528548579
 11
119.1073909002
 21
58.9530034601
  0
LINE
  5
502
100
AcDbEntity
  8
0
100
AcDbLine
 62
7
  6
CONTINUOUS
 10
122.0106039964
 20
57.8483269023
 11
122.014212262
 21
57.8484715118
  0
LINE
  5
503
100
AcDbEntity
  8
0
100
AcDbLine
 62
7
  6
CONTINUOUS
 10
118.7184280388
 20
51.2677766879
 11
118.7186776409
 21
51.2675939007
  0
LWPOLYLINE
  5
504
100
AcDbEntity
  8
0
100
AcDbPolyline
 62
7
  6
CONTINUOUS
 90
5
 70
0
 10
121.226399273
 20
49.0079126659
 10
121.2976094098
 20
48.9486257883
 10
121.437129841
 20
48.8599707697
 10
121.5872198195
 20
48.7961009775
 10
121.735182666
 20
48.7590717625
  0
LINE
  5
505
100
AcDbEntity
  8
0
100
AcDbLine
 62
7
  6
CONTINUOUS
 10
121.2263188025
 20
49.0078683507
 11
119.0783509057
 21
50.9736686449
  0
LWPOLYLINE
  5
506
100
AcDbEntity
  8
0
100
AcDbPolyline
 62
7
  6
CONTINUOUS
 90
3
 70
0
 10
120.9990285592
 20
48.4336156939
 10
120.9122607201
 20
48.5405662018
 10
120.8988167712
 20
48.55523965
  0
LWPOLYLINE
  5
507
100
AcDbEntity
  8
0
100
AcDbPolyline
 62
7
  6
CONTINUOUS
 90
4
 70
0
 10
121.5853463339
 20
47.6737323089
 10
121.4248638317
 20
47.8842470791
 10
121.1987525576
 20
48.1776376323
 10
120.9991727696
 20
48.4334936911
  0
LWPOLYLINE
  5
508
100
AcDbEntity
  8
0
100
AcDbPolyline
 62
7
  6
CONTINUOUS
 90
5
 70
0
 10
119.8195777342
 20
46.1206987628
 10
119.7602925931
 20
46.1999472866
 10
119.691373778
 20
46.3027843669
 10
119.6152543792
 20
46.4291934643
 10
119.5907684628
 20
46.472745097
  0
LWPOLYLINE
  5
509
100
AcDbEntity
  8
0
100
AcDbPolyline
 62
7
  6
CONTINUOUS
 90
9
 70
0
 10
117.5182454235
 20
50.2193317918
 10
117.4374176893
 20
50.3584036499
 10
117.2681543955
 20
50.6127689126
 10
117.0786677056
 20
50.8539849285
 10
116.8702746744
 20
51.0807175335
 10
116.6442003762
 20
51.2919208825
 10
116.4019591576
 20
51.4864983713
 10
116.1450922862
 20
51.6635005187
 10
116.0159497433
 20
51.7426380448
  0
LINE
  5
50A
100
AcDbEntity
  8
0
100
AcDbLine
 62
7
  6
CONTINUOUS
 10
119.5907388937
 20
46.47280216
 11
117.518330579
 21
50.2191986473
  0
LWPOLYLINE
  5
50B
100
AcDbEntity
  8
0
100
AcDbPolyline
 62
7
  6
CONTINUOUS
 90
6
 70
0
 10
119.5569032387
 20
20.1112171632
 10
119.5469877911
 20
20.2300170714
 10
119.5284742882
 20
20.4737865062
 10
119.5106567046
 20
20.7389622335
 10
119.493730871
 20
21.0246006028
 10
119.4778782933
 20
21.3296914898
  0
LINE
  5
50C
100
AcDbEntity
  8
0
100
AcDbLine
 62
7
  6
CONTINUOUS
 10
119.5619961142
 20
20.0464224939
 11
119.5569032387
 21
20.1112171632
  0
LINE
  5
50D
100
AcDbEntity
  8
0
100
AcDbLine
 62
7
  6
CONTINUOUS
 10
112.8347823416
 20
70.2349527838
 11
112.8347823416
 21
67.8510987734
  0
LINE
  5
50E
100
AcDbEntity
  8
0
100
AcDbLine
 62
7
  6
CONTINUOUS
 10
113.7347823416
 20
67.8510987734
 11
113.7347823416
 21
70.2349527838
  0
LINE
  5
50F
100
AcDbEntity
  8
0
100
AcDbLine
 62
7
  6
CONTINUOUS
 10
114.6347823416
 20
70.2305646616
 11
114.6347823416
 21
66.5302739883
  0
LINE
  5
510
100
AcDbEntity
  8
0
100
AcDbLine
 62
7
  6
CONTINUOUS
 10
115.5347823416
 20
67.0787892645
 11
115.5347823416
 21
69.2728503693
  0
LINE
  5
511
100
AcDbEntity
  8
0
100
AcDbLine
 62
7
  6
CONTINUOUS
 10
116.7222823416
 20
74.1870583858
 11
116.7222823416
 21
75.611138774
  0
LINE
  5
512
100
AcDbEntity
  8
0
100
AcDbLine
 62
7
  6
CONTINUOUS
 10
116.8638521504
 20
74.6951120982
 11
116.8534430562
 21
73.5562472314
  0
LINE
  5
513
100
AcDbEntity
  8
0
100
AcDbLine
 62
7
  6
CONTINUOUS
 10
116.8534383797
 20
73.556511866
 11
116.8532140851
 21
73.5482008434
  0
LINE
  5
514
100
AcDbEntity
  8
0
100
AcDbLine
 62
7
  6
CONTINUOUS
 10
116.8532140851
 20
73.5482008434
 11
116.8520215451
 21
73.5324031772
  0
LINE
  5
515
100
AcDbEntity
  8
0
100
AcDbLine
 62
7
  6
CONTINUOUS
 10
116.8515699798
 20
73.5278922759
 11
116.8518664677
 21
73.5307428346
  0
LWPOLYLINE
  5
516
100
AcDbEntity
  8
RUNDUNGEN
100
AcDbPolyline
 62
7
  6
CONTINUOUS
 90
4
 70
0
 10
104.1257326784
 20
46.1216352242
 10
104.0782125742
 20
46.0649227383
 10
104.0445332886
 20
46.0292852531
 10
104.0267995863
 20
46.0127344246
  0
LWPOLYLINE
  5
517
100
AcDbEntity
  8
RUNDUNGEN
100
AcDbPolyline
 62
7
  6
CONTINUOUS
 90
3
 70
0
 10
103.0470069559
 20
48.55523965
 10
103.0162366546
 20
48.5212856884
 10
102.945586029
 20
48.4336755903
  0
LINE
  5
518
100
AcDbEntity
  8
0
100
AcDbLine
 62
7
  6
CONTINUOUS
 10
104.8662137774
 20
50.9736686449
 11
102.7185690289
 21
49.0081636364
  0
LINE
  5
519
100
AcDbEntity
  8
0
100
AcDbLine
 62
7
  6
CONTINUOUS
 10
105.2258870421
 20
51.2675939006
 11
105.2261366443
 21
51.2677766879
  0
LWPOLYLINE
  5
51A
100
AcDbEntity
  8
0
100
AcDbPolyline
 62
7
  6
CONTINUOUS
 90
4
 70
0
 10
105.2263430999
 20
51.2680072341
 10
105.3473946109
 20
51.348596467
 10
105.4511881094
 20
51.4048700672
 10
105.5438308957
 20
51.4443576127
  0
LWPOLYLINE
  5
51B
100
AcDbEntity
  8
RUNDUNGEN
100
AcDbPolyline
 62
7
  6
CONTINUOUS
 90
9
 70
0
 10
107.9286178496
 20
51.7426380448
 10
107.7994753067
 20
51.6635005187
 10
107.5426084353
 20
51.4864983713
 10
107.3003672166
 20
51.2919208825
 10
107.0742929184
 20
51.0807175335
 10
106.8658998873
 20
50.8539849285
 10
106.6764131974
 20
50.6127689126
 10
106.5071499036
 20
50.3584036499
 10
106.4263221694
 20
50.2193317918
  0
LWPOLYLINE
  5
51C
100
AcDbEntity
  8
RUNDUNGEN
100
AcDbPolyline
 62
7
  6
CONTINUOUS
 90
3
 70
0
 10
108.1168213728
 20
51.8510928037
 10
107.9782754965
 20
51.7717451525
 10
107.9285055181
 20
51.7425916459
  0
LINE
  5
51D
100
AcDbEntity
  8
0
100
AcDbLine
 62
7
  6
CONTINUOUS
 10
107.7998447826
 20
67.6309613092
 11
108.6687569378
 21
66.5302739883
  0
LINE
  5
51E
100
AcDbEntity
  8
0
100
AcDbLine
 62
7
  6
CONTINUOUS
 10
109.5347823416
 20
66.5302739883
 11
108.3977926541
 21
67.9705463168
  0
LINE
  5
51F
100
AcDbEntity
  8
0
100
AcDbLine
 62
7
  6
CONTINUOUS
 10
109.5347823416
 20
66.9394730043
 11
108.6446424616
 21
68.067050371
  0
LINE
  5
520
100
AcDbEntity
  8
0
100
AcDbLine
 62
7
  6
CONTINUOUS
 10
119.568451555
 20
19.9343349142
 11
119.5619961142
 21
20.0464224939
  0
LWPOLYLINE
  5
521
100
AcDbEntity
  8
0
100
AcDbPolyline
 62
7
  6
CONTINUOUS
 90
13
 70
0
 10
119.4778782933
 20
21.3296914898
 10
119.4582567042
 20
21.7743657922
 10
119.4421435441
 20
22.2222515219
 10
119.4287636409
 20
22.6882293998
 10
119.4182626163
 20
23.1687321053
 10
119.4107021561
 20
23.6601571401
 10
119.4061658178
 20
24.1588941793
 10
119.4046732933
 20
24.661310983
 10
119.4062494235
 20
25.1637130145
 10
119.4108753321
 20
25.6623918687
 10
119.418515594
 20
26.1537226163
 10
119.4291138183
 20
26.6340878069
 10
119.4328370432
 20
26.7629442144
  0
LWPOLYLINE
  5
522
100
AcDbEntity
  8
0
100
AcDbPolyline
 62
7
  6
CONTINUOUS
 90
3
 70
0
 10
119.5722836034
 20
19.7618526305
 10
119.5718066611
 20
19.8223028631
 10
119.568451555
 20
19.9343349142
  0
LINE
  5
523
100
AcDbEntity
  8
0
100
AcDbLine
 62
7
  6
CONTINUOUS
 10
117.4102823416
 20
68.5868405972
 11
117.4102823416
 21
67.7647990366
  0
LINE
  5
524
100
AcDbEntity
  8
0
100
AcDbLine
 62
7
  6
CONTINUOUS
 10
118.3147823416
 20
67.7370075959
 11
118.3147823416
 21
69.0238310539
  0
LINE
  5
525
100
AcDbEntity
  8
0
100
AcDbLine
 62
7
  6
CONTINUOUS
 10
119.5722837964
 20
15.025806357
 11
119.5722837964
 21
27.2962574434
  0
LINE
  5
526
100
AcDbEntity
  8
0
100
AcDbLine
 62
7
  6
CONTINUOUS
 10
118.9380469928
 20
51.8980607466
 11
118.9373401409
 21
51.7949094708
  0
LINE
  5
527
100
AcDbEntity
  8
0
100
AcDbLine
 62
7
  6
CONTINUOUS
 10
119.1667323418
 20
24.8105036324
 11
119.1671466302
 21
24.8225417296
  0
LINE
  5
528
100
AcDbEntity
  8
0
100
AcDbLine
 62
7
  6
CONTINUOUS
 10
105.6303648333
 20
51.4727620567
 11
105.6646129231
 21
51.4850259294
  0
LWPOLYLINE
  5
529
100
AcDbEntity
  8
0
100
AcDbPolyline
 62
7
  6
CONTINUOUS
 90
4
 70
0
 10
105.6646129231
 20
51.4850259294
 10
105.7399480892
 20
51.5108218075
 10
105.8166699942
 20
51.5354861604
 10
105.8509307818
 20
51.5459953909
  0
LINE
  5
52A
100
AcDbEntity
  8
0
100
AcDbLine
 62
7
  6
CONTINUOUS
 10
105.6304555959
 20
51.4723936984
 11
105.5438308957
 21
51.4443576127
  0
LINE
  5
52B
100
AcDbEntity
  8
0
100
AcDbLine
 62
7
  6
CONTINUOUS
 10
105.8509307818
 20
51.5459953909
 11
105.8500378735
 21
51.5457271017
  0
LINE
  5
52C
100
AcDbEntity
  8
0
100
AcDbLine
 62
7
  6
CONTINUOUS
 10
105.6347823416
 20
66.5302739883
 11
106.3847823416
 21
66.5302739883
  0
LINE
  5
52D
100
AcDbEntity
  8
0
100
AcDbLine
 62
7
  6
CONTINUOUS
 10
108.6687569378
 20
66.5302739883
 11
109.5347823416
 21
66.5302739883
  0
LINE
  5
52E
100
AcDbEntity
  8
0
100
AcDbLine
 62
7
  6
CONTINUOUS
 10
114.6347823416
 20
66.5302739883
 11
116.6647823416
 21
66.5302739883
  0
LINE
  5
52F
100
AcDbEntity
  8
0
100
AcDbLine
 62
7
  6
CONTINUOUS
 10
116.4722823416
 20
67.0787892645
 11
115.5347823416
 21
67.0787892645
  0
LINE
  5
530
100
AcDbEntity
  8
0
100
AcDbLine
 62
7
  6
CONTINUOUS
 10
116.4722823416
 20
67.4879882805
 11
115.5347823416
 21
67.4879882805
  0
LINE
  5
531
100
AcDbEntity
  8
0
100
AcDbLine
 62
7
  6
CONTINUOUS
 10
106.3847823416
 20
67.9052189473
 11
107.1503257298
 21
67.9052189473
  0
LINE
  5
532
100
AcDbEntity
  8
0
100
AcDbLine
 62
7
  6
CONTINUOUS
 10
107.6217823416
 20
68.4537342235
 11
106.3847823416
 21
68.4537342235
  0
LINE
  5
533
100
AcDbEntity
  8
0
100
AcDbLine
 62
7
  6
CONTINUOUS
 10
107.6217823416
 20
68.8629332396
 11
106.3847823416
 21
68.8629332396
  0
LWPOLYLINE
  5
534
100
AcDbEntity
  8
0
100
AcDbPolyline
 62
7
  6
CONTINUOUS
 90
10
 70
0
 10
122.9433287183
 20
43.6944496499
 10
122.9320120102
 20
44.0760994378
 10
122.8827209131
 20
44.5752778657
 10
122.7944553603
 20
45.0705208105
 10
122.6673418374
 20
45.5597035811
 10
122.5015686759
 20
46.040568281
 10
122.2973945418
 20
46.5109061906
 10
122.0551190482
 20
46.9684866915
 10
121.7747722132
 20
47.411634269
 10
121.5860238639
 20
47.6728351177
  0
LWPOLYLINE
  5
535
100
AcDbEntity
  8
0
100
AcDbPolyline
 62
7
  6
CONTINUOUS
 90
3
 70
0
 10
124.9443045413
 20
84.9896911478
 10
124.9420408471
 20
85.1014783499
 10
124.9412602176
 20
85.2186881412
  0
LINE
  5
536
100
AcDbEntity
  8
0
100
AcDbLine
 62
7
  6
CONTINUOUS
 10
124.9671557608
 20
92.7437428747
 11
124.9669571746
 21
92.7588045053
  0
LINE
  5
537
100
AcDbEntity
  8
0
100
AcDbLine
 62
7
  6
CONTINUOUS
 10
124.9674365302
 20
92.7044987039
 11
124.9671557608
 21
92.7437428747
  0
LINE
  5
538
100
AcDbEntity
  8
0
100
AcDbLine
 62
7
  6
CONTINUOUS
 10
124.9679539898
 20
84.5823318222
 11
124.9680142841
 21
84.5677250655
  0
LINE
  5
539
100
AcDbEntity
  8
0
100
AcDbLine
 62
7
  6
CONTINUOUS
 10
124.9679631362
 20
92.4730578825
 11
124.9674365302
 21
92.7044987039
  0
LINE
  5
53A
100
AcDbEntity
  8
0
100
AcDbLine
 62
7
  6
CONTINUOUS
 10
121.9722837964
 20
48.7475443977
 11
121.9722837964
 21
47.0994253596
  0
LINE
  5
53B
100
AcDbEntity
  8
0
100
AcDbLine
 62
7
  6
CONTINUOUS
 10
122.9433373459
 20
43.6951382462
 11
122.9433373459
 21
36.9922022392
  0
LINE
  5
53C
100
AcDbEntity
  8
0
100
AcDbLine
 62
7
  6
CONTINUOUS
 10
124.9670906451
 20
83.3968693101
 11
124.9670906451
 21
82.9630013057
  0
LINE
  5
53D
100
AcDbEntity
  8
KONSTRUKTIONSELEMENTE
100
AcDbLine
 62
7
  6
CONTINUOUS
 10
124.9722837964
 20
90.1660795261
 11
124.9722837964
 21
83.3968693101
  0
LINE
  5
53E
100
AcDbEntity
  8
0
100
AcDbLine
 62
7
  6
CONTINUOUS
 10
124.9722837964
 20
78.1655826854
 11
124.9722837964
 21
82.8710124292
  0
LINE
  5
53F
100
AcDbEntity
  8
0
100
AcDbLine
 62
7
  6
CONTINUOUS
 10
124.9672066005
 20
90.1674399567
 11
124.9679631362
 21
92.4730578825
  0
LINE
  5
540
100
AcDbEntity
  8
0
100
AcDbLine
 62
7
  6
CONTINUOUS
 10
124.9670096227
 20
60.6436657321
 11
124.9670906451
 21
78.0816768487
  0
LINE
  5
541
100
AcDbEntity
  8
0
100
AcDbLine
 62
7
  6
CONTINUOUS
 10
124.941260827
 20
85.2184179873
 11
124.9417948273
 21
91.2821820858
  0
LINE
  5
542
100
AcDbEntity
  8
0
100
AcDbLine
 62
7
  6
CONTINUOUS
 10
124.9676779349
 20
84.4899372316
 11
124.9680142841
 21
84.5677250655
  0
LINE
  5
543
100
AcDbEntity
  8
0
100
AcDbLine
 62
7
  6
CONTINUOUS
 10
124.9417948273
 20
91.2821820858
 11
124.9431388979
 21
91.4092707669
  0
LINE
  5
544
100
AcDbEntity
  8
0
100
AcDbLine
 62
7
  6
CONTINUOUS
 10
124.9673962795
 20
84.4616914423
 11
124.9676779349
 21
84.4899372316
  0
LINE
  5
545
100
AcDbEntity
  8
0
100
AcDbLine
 62
7
  6
CONTINUOUS
 10
124.9619033887
 20
60.2501388295
 11
124.9670109835
 21
60.6436710382
  0
LINE
  5
546
100
AcDbEntity
  8
0
100
AcDbLine
 62
7
  6
CONTINUOUS
 10
124.9658249055
 20
92.7097284782
 11
124.9663105801
 21
92.7382753013
  0
LWPOLYLINE
  5
547
100
AcDbEntity
  8
0
100
AcDbPolyline
 62
7
  6
CONTINUOUS
 90
4
 70
0
 10
124.9431388979
 20
91.4092707669
 10
124.9453624772
 20
91.5401797296
 10
124.9485147004
 20
91.6747053478
 10
124.9546461572
 20
91.9169329033
  0
LWPOLYLINE
  5
548
100
AcDbEntity
  8
0
100
AcDbPolyline
 62
7
  6
CONTINUOUS
 90
3
 70
0
 10
124.9546461572
 20
91.9169329033
 10
124.9587404431
 20
92.1390269349
 10
124.9658249055
 20
92.7097284782
  0
LINE
  5
549
100
AcDbEntity
  8
0
100
AcDbLine
 62
7
  6
CONTINUOUS
 10
124.9499840663
 20
91.730786546
 11
124.9499236047
 21
91.7287956458
  0
LINE
  5
54A
100
AcDbEntity
  8
0
100
AcDbLine
 62
7
  6
CONTINUOUS
 10
124.9663105801
 20
92.7382753013
 11
124.9667316621
 21
92.7519870185
  0
LWPOLYLINE
  5
54B
100
AcDbEntity
  8
0
100
AcDbPolyline
 62
7
  6
CONTINUOUS
 90
7
 70
0
 10
119.1671464766
 20
24.8225356582
 10
119.2111042542
 20
25.4675061045
 10
119.3158856211
 20
26.2191346132
 10
119.4766930355
 20
26.966869137
 10
119.6919883224
 20
27.7087373808
 10
119.9602808768
 20
28.4427163849
 10
120.2355090144
 20
29.0729405282
  0
LWPOLYLINE
  5
54C
100
AcDbEntity
  8
0
100
AcDbPolyline
 62
7
  6
CONTINUOUS
 90
5
 70
0
 10
122.9025297858
 20
36.2541102974
 10
122.9114104395
 20
36.3392976174
 10
122.9325306331
 20
36.6123543368
 10
122.9424783595
 20
36.8851748025
 10
122.9433372988
 20
36.9922065964
  0
LINE
  5
54D
100
AcDbEntity
  8
0
100
AcDbLine
 62
7
  6
CONTINUOUS
 10
122.9025297858
 20
36.2541102974
 11
122.9025127659
 21
36.2539565192
  0
LWPOLYLINE
  5
54E
100
AcDbEntity
  8
0
100
AcDbPolyline
 62
7
  6
CONTINUOUS
 90
8
 70
0
 10
124.9613609925
 20
84.3594736522
 10
124.9625949722
 20
84.3702343552
 10
124.9649039928
 20
84.3957449118
 10
124.9661119554
 20
84.4154090978
 10
124.966648947
 20
84.4281549379
 10
124.9669326273
 20
84.4373474214
 10
124.9671305657
 20
84.4457372113
 10
124.9673962795
 20
84.4616914423
  0
LWPOLYLINE
  5
54F
100
AcDbEntity
  8
0
100
AcDbPolyline
 62
7
  6
CONTINUOUS
 90
6
 70
0
 10
124.8329840802
 20
58.49141609
 10
124.8528904208
 20
58.6599804991
 10
124.8934804396
 20
59.0574993129
 10
124.925165786
 20
59.4550677572
 10
124.9479644674
 20
59.8526324998
 10
124.9619033887
 20
60.2501388295
  0
LINE
  5
550
100
AcDbEntity
  8
0
100
AcDbLine
 62
7
  6
CONTINUOUS
 10
124.8605571261
 20
83.5291171251
 11
124.961431985
 21
84.3595717378
  0
LINE
  5
551
100
AcDbEntity
  8
0
100
AcDbLine
 62
7
  6
CONTINUOUS
 10
124.8329903355
 20
58.4884016671
 11
124.3377073394
 21
54.4561331476
  0
LINE
  5
552
100
AcDbEntity
  8
0
100
AcDbLine
 62
7
  6
CONTINUOUS
 10
121.9032030716
 20
49.0619628181
 11
122.0255313848
 21
49.3999748696
  0
LINE
  5
553
100
AcDbEntity
  8
0
100
AcDbLine
 62
7
  6
CONTINUOUS
 10
115.5347823416
 20
68.9437412036
 11
114.6347823416
 21
68.9437412036
  0
LINE
  5
554
100
AcDbEntity
  8
0
100
AcDbLine
 62
7
  6
CONTINUOUS
 10
106.3847823416
 20
68.9481293258
 11
105.6347823416
 21
68.9481293258
  0
LINE
  5
555
100
AcDbEntity
  8
0
100
AcDbLine
 62
7
  6
CONTINUOUS
 10
114.6347823416
 20
69.2728503693
 11
116.4722823416
 21
69.2728503693
  0
LINE
  5
556
100
AcDbEntity
  8
0
100
AcDbLine
 62
7
  6
CONTINUOUS
 10
105.6347823416
 20
69.2772384915
 11
107.6217823416
 21
69.2772384915
  0
LINE
  5
557
100
AcDbEntity
  8
0
100
AcDbLine
 62
7
  6
CONTINUOUS
 10
116.6647823416
 20
69.8213656456
 11
114.6347823416
 21
69.8213656456
  0
LINE
  5
558
100
AcDbEntity
  8
0
100
AcDbLine
 62
7
  6
CONTINUOUS
 10
113.7347823416
 20
69.8257537678
 11
112.8347823416
 21
69.8257537678
  0
LINE
  5
559
100
AcDbEntity
  8
0
100
AcDbLine
 62
7
  6
CONTINUOUS
 10
111.0347823416
 20
69.8257537678
 11
110.1347823416
 21
69.8257537678
  0
LINE
  5
55A
100
AcDbEntity
  8
0
100
AcDbLine
 62
7
  6
CONTINUOUS
 10
107.9217823416
 20
69.8257537678
 11
105.6347823416
 21
69.8257537678
  0
LINE
  5
55B
100
AcDbEntity
  8
0
100
AcDbLine
 62
7
  6
CONTINUOUS
 10
116.6647823416
 20
70.2305646616
 11
114.6347823416
 21
70.2305646616
  0
LINE
  5
55C
100
AcDbEntity
  8
0
100
AcDbLine
 62
7
  6
CONTINUOUS
 10
113.7347823416
 20
70.2349527838
 11
112.8347823416
 21
70.2349527838
  0
LINE
  5
55D
100
AcDbEntity
  8
0
100
AcDbLine
 62
7
  6
CONTINUOUS
 10
111.0347823416
 20
70.2349527838
 11
110.1347823416
 21
70.2349527838
  0
LINE
  5
55E
100
AcDbEntity
  8
0
100
AcDbLine
 62
7
  6
CONTINUOUS
 10
107.9217823416
 20
70.2349527838
 11
105.6347823416
 21
70.2349527838
  0
LINE
  5
55F
100
AcDbEntity
  8
0
100
AcDbLine
 62
7
  6
CONTINUOUS
 10
121.191806578
 20
65.8228566424
 11
121.1813826977
 21
65.8360968063
  0
LINE
  5
560
100
AcDbEntity
  8
0
100
AcDbLine
 62
7
  6
CONTINUOUS
 10
124.9674284387
 20
84.5972080245
 11
124.9641513887
 21
84.6649130513
  0
LINE
  5
561
100
AcDbEntity
  8
0
100
AcDbLine
 62
7
  6
CONTINUOUS
 10
124.9537701748
 20
84.7591865439
 11
124.9481866972
 21
84.8756138911
  0
LINE
  5
562
100
AcDbEntity
  8
0
100
AcDbLine
 62
7
  6
CONTINUOUS
 10
124.9481866972
 20
84.8756138911
 11
124.9443045413
 21
84.9896911478
  0
LWPOLYLINE
  5
563
100
AcDbEntity
  8
0
100
AcDbPolyline
 62
7
  6
CONTINUOUS
 90
6
 70
0
 10
124.9667331969
 20
92.7696387439
 10
124.9665197793
 20
92.7770207951
 10
124.9661509404
 20
92.7866306872
 10
124.9653554179
 20
92.8015105432
 10
124.9634163087
 20
92.8260250789
 10
124.9613330481
 20
92.8452544224
  0
LINE
  5
564
100
AcDbEntity
  8
0
100
AcDbLine
 62
7
  6
CONTINUOUS
 10
124.9669571746
 20
92.7588045053
 11
124.9667331969
 21
92.7696387439
  0
LWPOLYLINE
  5
565
100
AcDbEntity
  8
0
100
AcDbPolyline
 62
7
  6
CONTINUOUS
 90
6
 70
0
 10
123.680107454
 20
51.7010546905
 10
123.8298176514
 20
52.1428869125
 10
123.9962174921
 20
52.708531653
 10
124.1354166791
 20
53.2766644668
 10
124.2477333522
 20
53.8473747949
 10
124.3380357913
 20
54.4589966162
  0
LINE
  5
566
100
AcDbEntity
  8
0
100
AcDbLine
 62
7
  6
CONTINUOUS
 10
123.2092996344
 20
50.3970411918
 11
123.6800851846
 21
51.7009925791
  0
LINE
  5
567
100
AcDbEntity
  8
0
100
AcDbLine
 62
7
  6
CONTINUOUS
 10
122.8473276096
 20
49.4030523825
 11
123.2092996344
 21
50.3970411918
  0
LINE
  5
568
100
AcDbEntity
  8
0
100
AcDbLine
 62
7
  6
CONTINUOUS
 10
108.1134213177
 20
75.4906743425
 11
108.1131091684
 21
75.4905967722
  0
LWPOLYLINE
  5
569
100
AcDbEntity
  8
0
100
AcDbPolyline
 62
7
  6
CONTINUOUS
 90
3
 70
0
 10
108.1134213177
 20
75.4906743425
 10
108.0936257735
 20
75.4858563484
 10
108.005592082
 20
75.4664747935
  0
LINE
  5
56A
100
AcDbEntity
  8
0
100
AcDbLine
 62
7
  6
CONTINUOUS
 10
108.1451221423
 20
75.4975091221
 11
108.1128534881
 21
75.4905026381
  0
LINE
  5
56B
100
AcDbEntity
  8
0
100
AcDbLine
 62
7
  6
CONTINUOUS
 10
108.005592082
 20
75.4664747935
 11
107.9274638009
 21
75.451615128
  0
LWPOLYLINE
  5
56C
100
AcDbEntity
  8
0
100
AcDbPolyline
 62
7
  6
CONTINUOUS
 90
6
 70
0
 10
107.9275039833
 20
75.4516220391
 10
107.9023148419
 20
75.4475926745
 10
107.7872323346
 20
75.4400060971
 10
107.6598448899
 20
75.4502478728
 10
107.5266302245
 20
75.480525109
 10
107.5245953708
 20
75.4812971945
  0
LINE
  5
56D
100
AcDbEntity
  8
0
100
AcDbLine
 62
7
  6
CONTINUOUS
 10
123.1465952819
 20
76.1731933272
 11
111.9722837964
 21
75.1955677495
  0
LWPOLYLINE
  5
56E
100
AcDbEntity
  8
0
100
AcDbPolyline
 62
7
  6
CONTINUOUS
 90
4
 70
0
 10
108.2389675673
 20
75.5061992931
 10
108.229055911
 20
75.5060956853
 10
108.1877891073
 20
75.5036003335
 10
108.1451221423
 20
75.4975091221
  0
LINE
  5
56F
100
AcDbEntity
  8
0
100
AcDbLine
 62
7
  6
CONTINUOUS
 10
108.7222823416
 20
75.1668673916
 11
108.9644781019
 21
75.1668673916
  0
LINE
  5
570
100
AcDbEntity
  8
0
100
AcDbLine
 62
7
  6
CONTINUOUS
 10
114.980089491
 20
75.1668673916
 11
115.2222823416
 21
75.1668673916
  0
LINE
  5
571
100
AcDbEntity
  8
0
100
AcDbLine
 62
7
  6
CONTINUOUS
 10
115.7048785586
 20
75.5062156779
 11
115.5230058664
 21
75.5062156779
  0
LINE
  5
572
100
AcDbEntity
  8
0
100
AcDbLine
 62
7
  6
CONTINUOUS
 10
108.4215617264
 20
75.5062156779
 11
108.2396860815
 21
75.5062156779
  0
LWPOLYLINE
  5
573
100
AcDbEntity
  8
0
100
AcDbPolyline
 62
7
  6
CONTINUOUS
 90
3
 70
0
 10
115.7567757153
 20
75.5036003195
 10
115.7155088277
 20
75.5060956842
 10
115.7055972799
 20
75.506199293
  0
LINE
  5
574
100
AcDbEntity
  8
0
100
AcDbLine
 62
7
  6
CONTINUOUS
 10
100.7979723109
 20
76.1731933272
 11
111.9722837964
 21
75.1955677495
  0
LWPOLYLINE
  5
575
100
AcDbEntity
  8
0
100
AcDbPolyline
 62
7
  6
CONTINUOUS
 90
3
 70
0
 10
116.0171008822
 20
75.451615128
 10
115.9389726011
 20
75.4664747935
 10
115.8509389096
 20
75.4858563484
  0
LWPOLYLINE
  5
576
100
AcDbEntity
  8
0
100
AcDbPolyline
 62
7
  6
CONTINUOUS
 90
3
 70
0
 10
115.8317110972
 20
75.4905026625
 10
115.7994427645
 20
75.4975090807
 10
115.7567757153
 20
75.5036003195
  0
LINE
  5
577
100
AcDbEntity
  8
0
100
AcDbLine
 62
7
  6
CONTINUOUS
 10
115.8509389096
 20
75.4858563484
 11
115.8311432859
 21
75.4906743622
  0
LINE
  5
578
100
AcDbEntity
  8
0
100
AcDbLine
 62
7
  6
CONTINUOUS
 10
115.8314553605
 20
75.4905968105
 11
115.8311432859
 21
75.4906743622
  0
LINE
  5
579
100
AcDbEntity
  8
0
100
AcDbLine
 62
7
  6
CONTINUOUS
 10
124.9563017069
 20
84.7401281545
 11
124.8470097458
 21
85.5376194276
  0
LINE
  5
57A
100
AcDbEntity
  8
0
100
AcDbLine
 62
7
  6
CONTINUOUS
 10
124.8470097458
 20
85.5376194276
 11
124.7487113155
 21
86.2939895442
  0
LINE
  5
57B
100
AcDbEntity
  8
0
100
AcDbLine
 62
7
  6
CONTINUOUS
 10
124.7034932643
 20
86.6590733657
 11
124.7487113155
 21
86.2939895442
  0
LINE
  5
57C
100
AcDbEntity
  8
0
100
AcDbLine
 62
7
  6
CONTINUOUS
 10
124.9613742935
 20
92.8454171854
 11
124.8009123094
 21
94.1662378493
  0
LINE
  5
57D
100
AcDbEntity
  8
0
100
AcDbLine
 62
7
  6
CONTINUOUS
 10
124.9641513887
 20
84.6649130513
 11
124.9543475633
 21
84.7537867316
  0
LWPOLYLINE
  5
57E
100
AcDbEntity
  8
0
100
AcDbPolyline
 62
7
  6
CONTINUOUS
 90
7
 70
0
 10
121.8077267405
 20
32.4162795125
 10
122.0434324066
 20
32.9485483368
 10
122.3035240155
 20
33.629015653
 10
122.5210547417
 20
34.3160402747
 10
122.6958517186
 20
35.0074967721
 10
122.8278762003
 20
35.7012019572
 10
122.9025129019
 20
36.2539565041
  0
LINE
  5
57F
100
AcDbEntity
  8
0
100
AcDbLine
 62
7
  6
CONTINUOUS
 10
121.8077267408
 20
32.4162795123
 11
120.2355012092
 21
29.0729239326
  0
LINE
  5
580
100
AcDbEntity
  8
KONSTRUKTIONSELEMENTE
100
AcDbLine
 62
7
  6
CONTINUOUS
 10
124.9040815549
 20
83.3788722089
 11
124.9722837964
 21
83.3968693101
  0
LINE
  5
581
100
AcDbEntity
  8
KONSTRUKTIONSELEMENTE
100
AcDbLine
 62
7
  6
CONTINUOUS
 10
98.9722837964
 20
83.3968693101
 11
99.0404860379
 21
83.3788722089
  0
LINE
  5
582
100
AcDbEntity
  8
RUNDUNGEN
100
AcDbLine
 62
7
  6
CONTINUOUS
 10
100.0853765631
 20
93.7271060048
 11
92.277991283
 21
97.3677495511
  0
LINE
  5
583
100
AcDbEntity
  8
KONSTRUKTIONSELEMENTE
100
AcDbLine
 62
7
  6
CONTINUOUS
 10
98.9722837964
 20
90.1660795261
 11
99.0033038562
 21
90.1743913261
  0
LINE
  5
584
100
AcDbEntity
  8
KONSTRUKTIONSELEMENTE
100
AcDbLine
 62
7
  6
CONTINUOUS
 10
124.941260827
 20
90.1743921058
 11
124.9722837964
 21
90.1660795261
  0
LINE
  5
585
100
AcDbEntity
  8
0
100
AcDbLine
 62
7
  6
CONTINUOUS
 10
152.6117967439
 20
100.4160370656
 11
138.9259366903
 21
99.4590285034
  0
LINE
  5
586
100
AcDbEntity
  8
RUNDUNGEN
100
AcDbLine
 62
7
  6
CONTINUOUS
 10
85.0186273969
 20
99.4590287485
 11
71.3327708489
 21
100.4160370656
  0
LINE
  5
587
100
AcDbEntity
  8
0
100
AcDbLine
 62
7
  6
CONTINUOUS
 10
154.4722837964
 20
108.6955677495
 11
154.4722837964
 21
102.4111651662
  0
LINE
  5
588
100
AcDbEntity
  8
0
100
AcDbLine
 62
7
  6
CONTINUOUS
 10
69.4722837964
 20
108.6955677495
 11
154.4722837964
 21
108.6955677495
  0
ARC
  5
589
100
AcDbEntity
  8
RUNDUNGEN
100
AcDbCircle
 62
7
  6
CONTINUOUS
 10
109.3722837964
 20
198.6884285403
 40
5.0
100
AcDbArc
 50
175.8129925482
 51
180.0
  0
ARC
  5
58A
100
AcDbEntity
  8
RUNDUNGEN
100
AcDbCircle
 62
7
  6
CONTINUOUS
 10
108.3722837964
 20
138.4177835718
 40
4.0
100
AcDbArc
 50
180.0
 51
265.0
  0
ARC
  5
58B
100
AcDbEntity
  8
RUNDUNGEN
100
AcDbCircle
 62
7
  6
CONTINUOUS
 10
104.8914312291
 20
167.4036796484
 40
2.9210521865
100
AcDbArc
 50
173.3868225795
 51
175.4328447128
  0
ARC
  5
58C
100
AcDbEntity
  8
RUNDUNGEN
100
AcDbCircle
 62
7
  6
CONTINUOUS
 10
104.5363015778
 20
167.4336038928
 40
2.5646678585
100
AcDbArc
 50
175.4674977577
 51
176.4129862615
  0
ARC
  5
58D
100
AcDbEntity
  8
0
100
AcDbCircle
 62
7
  6
CONTINUOUS
 10
85.1614597595
 20
215.5577924888
 40
16.5416573431
100
AcDbArc
 50
21.4024185979
 51
21.5218988446
  0
ARC
  5
58E
100
AcDbEntity
  8
RUNDUNGEN
100
AcDbCircle
 62
7
  6
CONTINUOUS
 10
81.4722837964
 20
264.7533027449
 40
12.0
100
AcDbArc
 50
95.0
 51
180.0
  0
ARC
  5
58F
100
AcDbEntity
  8
KONSTRUKTIONSELEMENTE
100
AcDbCircle
 62
7
  6
CONTINUOUS
 10
110.7388923007
 20
211.0459191728
 40
9.7431047665
100
AcDbArc
 50
191.6317978698
 51
195.806712393
  0
ARC
  5
590
100
AcDbEntity
  8
KONSTRUKTIONSELEMENTE
100
AcDbCircle
 62
7
  6
CONTINUOUS
 10
110.5117525621
 20
210.9978478094
 40
9.5109375472
100
AcDbArc
 50
189.2826470973
 51
191.6240394007
  0
ARC
  5
591
100
AcDbEntity
  8
0
100
AcDbCircle
 62
7
  6
CONTINUOUS
 10
107.1419764218
 20
226.8964666966
 40
8.1760369679
100
AcDbArc
 50
204.5291346455
 51
205.5361204408
  0
ARC
  5
592
100
AcDbEntity
  8
0
100
AcDbCircle
 62
7
  6
CONTINUOUS
 10
107.1147374846
 20
226.8842162507
 40
8.1461704938
100
AcDbArc
 50
201.4105194531
 51
204.5302850305
  0
ARC
  5
593
100
AcDbEntity
  8
0
100
AcDbCircle
 62
7
  6
CONTINUOUS
 10
107.0753195525
 20
226.8685505831
 40
8.1037541263
100
AcDbArc
 50
199.7204673087
 51
201.4091397951
  0
ARC
  5
594
100
AcDbEntity
  8
0
100
AcDbCircle
 62
7
  6
CONTINUOUS
 10
106.993672448
 20
226.8401899296
 40
8.017325885
100
AcDbArc
 50
192.2105583745
 51
199.7265633117
  0
ARC
  5
595
100
AcDbEntity
  8
KONSTRUKTIONSELEMENTE
100
AcDbCircle
 62
7
  6
CONTINUOUS
 10
103.4718350305
 20
208.7337137154
 40
2.1351497752
100
AcDbArc
 50
189.2102629279
 51
195.8191218292
  0
ARC
  5
596
100
AcDbEntity
  8
RUNDUNGEN
100
AcDbCircle
 62
7
  6
CONTINUOUS
 10
100.9722974952
 20
276.4209004079
 40
2.0000161003
100
AcDbArc
 50
96.1238819612
 51
179.9995693102
  0
ARC
  5
597
100
AcDbEntity
  8
KONSTRUKTIONSELEMENTE
100
AcDbCircle
 62
7
  6
CONTINUOUS
 10
100.9722837964
 20
272.2942933983
 40
2.0
100
AcDbArc
 50
180.0
 51
263.0212446906
  0
ARC
  5
598
100
AcDbEntity
  8
0
100
AcDbCircle
 62
7
  6
CONTINUOUS
 10
109.1690688041
 20
259.5277610005
 40
1.9488186099
100
AcDbArc
 50
162.0962103223
 51
167.6178680273
  0
ARC
  5
599
100
AcDbEntity
  8
0
100
AcDbCircle
 62
7
  6
CONTINUOUS
 10
108.6241738798
 20
259.9353211379
 40
1.2636142552
100
AcDbArc
 50
129.2916534165
 51
132.4716858413
  0
ARC
  5
59A
100
AcDbEntity
  8
0
100
AcDbCircle
 62
7
  6
CONTINUOUS
 10
108.4240655885
 20
245.5188322133
 40
1.201745269
100
AcDbArc
 50
180.0260360449
 51
186.027430234
  0
ARC
  5
59B
100
AcDbEntity
  8
KONSTRUKTIONSELEMENTE
100
AcDbCircle
 62
7
  6
CONTINUOUS
 10
102.1770818038
 20
210.2639842276
 40
1.1763860738
100
AcDbArc
 50
166.2698116911
 51
171.174581856
  0
ARC
  5
59C
100
AcDbEntity
  8
0
100
AcDbCircle
 62
7
  6
CONTINUOUS
 10
104.9776353817
 20
236.957393658
 40
1.0078147313
100
AcDbArc
 50
133.9346832441
 51
137.7051984413
  0
ARC
  5
59D
100
AcDbEntity
  8
0
100
AcDbCircle
 62
7
  6
CONTINUOUS
 10
104.9688267483
 20
232.2316170668
 40
1.0073550389
100
AcDbArc
 50
59.0689466768
 51
61.4190634264
  0
ARC
  5
59E
100
AcDbEntity
  8
0
100
AcDbCircle
 62
7
  6
CONTINUOUS
 10
102.7868501952
 20
218.4402377389
 40
1.0066917202
100
AcDbArc
 50
203.3878992588
 51
211.7081852415
  0
ARC
  5
59F
100
AcDbEntity
  8
0
100
AcDbCircle
 62
7
  6
CONTINUOUS
 10
101.9723103179
 20
237.9615653884
 40
1.0000384374
100
AcDbArc
 50
77.2145262567
 51
152.5612358443
  0
ARC
  5
5A0
100
AcDbEntity
  8
0
100
AcDbCircle
 62
7
  6
CONTINUOUS
 10
101.9723038331
 20
230.8740344788
 40
1.0000118664
100
AcDbArc
 50
36.7615423132
 51
168.342699389
  0
ARC
  5
5A1
100
AcDbEntity
  8
0
100
AcDbCircle
 62
7
  6
CONTINUOUS
 10
101.9722767145
 20
232.5052403452
 40
0.9999932617
100
AcDbArc
 50
49.7014273894
 51
158.4634722819
  0
ARC
  5
5A2
100
AcDbEntity
  8
0
100
AcDbCircle
 62
7
  6
CONTINUOUS
 10
104.9722687199
 20
234.4178618087
 40
0.9999737393
100
AcDbArc
 50
59.9496891681
 51
181.7667912964
  0
ARC
  5
5A3
100
AcDbEntity
  8
0
100
AcDbCircle
 62
7
  6
CONTINUOUS
 10
101.9722400808
 20
234.8679090563
 40
0.9998393996
100
AcDbArc
 50
63.0343438998
 51
151.5619480064
  0
ARC
  5
5A4
100
AcDbEntity
  8
0
100
AcDbCircle
 62
7
  6
CONTINUOUS
 10
104.97223341
 20
232.2385138057
 40
0.9996690229
100
AcDbArc
 50
61.401418246
 51
173.1518576398
  0
ARC
  5
5A5
100
AcDbEntity
  8
0
100
AcDbCircle
 62
7
  6
CONTINUOUS
 10
104.972041365
 20
236.9640700088
 40
0.9991257243
100
AcDbArc
 50
89.0677699066
 51
133.9693132342
  0
ARC
  5
5A6
100
AcDbEntity
  8
0
100
AcDbCircle
 62
7
  6
CONTINUOUS
 10
104.9672424181
 20
236.966690531
 40
0.9938708566
100
AcDbArc
 50
137.6984492832
 51
143.2287385706
  0
ARC
  5
5A7
100
AcDbEntity
  8
0
100
AcDbCircle
 62
7
  6
CONTINUOUS
 10
107.7368308955
 20
242.8469488012
 40
0.5022381412
100
AcDbArc
 50
53.4849270486
 51
55.6960933692
  0
ARC
  5
5A8
100
AcDbEntity
  8
KONSTRUKTIONSELEMENTE
100
AcDbCircle
 62
7
  6
CONTINUOUS
 10
101.1302918538
 20
210.4265202796
 40
0.1170527142
100
AcDbArc
 50
171.1788655099
 51
183.3161500748
  0
ARC
  5
5A9
100
AcDbEntity
  8
0
100
AcDbCircle
 62
7
  6
CONTINUOUS
 10
114.5722837964
 20
198.6884285403
 40
5.0
100
AcDbArc
 50
0.0
 51
4.1869949363
  0
ARC
  5
5AA
100
AcDbEntity
  8
0
100
AcDbCircle
 62
7
  6
CONTINUOUS
 10
115.5722837964
 20
138.4177835718
 40
4.0
100
AcDbArc
 50
275.0
 51
360.0
  0
ARC
  5
5AB
100
AcDbEntity
  8
0
100
AcDbCircle
 62
7
  6
CONTINUOUS
 10
119.0531363638
 20
167.4036796484
 40
2.9210521864
100
AcDbArc
 50
4.5671552871
 51
6.6131774205
  0
ARC
  5
5AC
100
AcDbEntity
  8
0
100
AcDbCircle
 62
7
  6
CONTINUOUS
 10
119.4082660156
 20
167.4336038928
 40
2.5646678579
100
AcDbArc
 50
3.5870137384
 51
4.5325022424
  0
ARC
  5
5AD
100
AcDbEntity
  8
0
100
AcDbCircle
 62
7
  6
CONTINUOUS
 10
142.4722837964
 20
264.7533027449
 40
12.0
100
AcDbArc
 50
0.0
 51
85.0
  0
ARC
  5
5AE
100
AcDbEntity
  8
0
100
AcDbCircle
 62
7
  6
CONTINUOUS
 10
116.8025883071
 20
226.8964666738
 40
8.1760369167
100
AcDbArc
 50
334.4638543528
 51
335.4708998349
  0
ARC
  5
5AF
100
AcDbEntity
  8
0
100
AcDbCircle
 62
7
  6
CONTINUOUS
 10
116.8298274478
 20
226.8842161476
 40
8.146170224
100
AcDbArc
 50
335.4697494959
 51
338.5894764496
  0
ARC
  5
5B0
100
AcDbEntity
  8
0
100
AcDbCircle
 62
7
  6
CONTINUOUS
 10
116.8692451263
 20
226.8685505843
 40
8.1037541307
100
AcDbArc
 50
338.5908560544
 51
340.2795366549
  0
ARC
  5
5B1
100
AcDbEntity
  8
0
100
AcDbCircle
 62
7
  6
CONTINUOUS
 10
116.9807050576
 20
226.8316589429
 40
7.9863834329
100
AcDbArc
 50
340.2588596519
 51
347.8040234148
  0
ARC
  5
5B2
100
AcDbEntity
  8
0
100
AcDbCircle
 62
7
  6
CONTINUOUS
 10
122.9722702131
 20
276.4209005117
 40
2.0000161003
100
AcDbArc
 50
0.0004277175
 51
83.876121011
  0
ARC
  5
5B3
100
AcDbEntity
  8
0
100
AcDbCircle
 62
7
  6
CONTINUOUS
 10
122.9722837964
 20
272.2942933983
 40
2.0
100
AcDbArc
 50
276.9787553094
 51
360.0
  0
ARC
  5
5B4
100
AcDbEntity
  8
0
100
AcDbCircle
 62
7
  6
CONTINUOUS
 10
115.1872404752
 20
259.769450605
 40
1.4763079577
100
AcDbArc
 50
50.7850758819
 51
70.050532052
  0
ARC
  5
5B5
100
AcDbEntity
  8
0
100
AcDbCircle
 62
7
  6
CONTINUOUS
 10
115.3203887537
 20
259.9353188733
 40
1.2636173061
100
AcDbArc
 50
47.5282828516
 51
50.7083460058
  0
ARC
  5
5B6
100
AcDbEntity
  8
0
100
AcDbCircle
 62
7
  6
CONTINUOUS
 10
115.5210613514
 20
245.518795195
 40
1.2011817958
100
AcDbArc
 50
353.9644372231
 51
359.9739639549
  0
ARC
  5
5B7
100
AcDbEntity
  8
0
100
AcDbCircle
 62
7
  6
CONTINUOUS
 10
121.1577144879
 20
218.4402377389
 40
1.0066917202
100
AcDbArc
 50
328.3012091444
 51
336.6121007414
  0
ARC
  5
5B8
100
AcDbEntity
  8
0
100
AcDbCircle
 62
7
  6
CONTINUOUS
 10
118.9722845031
 20
236.9631969642
 40
0.9999978007
100
AcDbArc
 50
36.7595817704
 51
90.9051177325
  0
ARC
  5
5B9
100
AcDbEntity
  8
0
100
AcDbCircle
 62
7
  6
CONTINUOUS
 10
121.9722798562
 20
230.8740853078
 40
0.9999938701
100
AcDbArc
 50
11.7267749619
 51
143.2414425716
  0
ARC
  5
5BA
100
AcDbEntity
  8
0
100
AcDbCircle
 62
7
  6
CONTINUOUS
 10
121.9722879678
 20
232.5052403491
 40
0.9999932628
100
AcDbArc
 50
21.5364439211
 51
130.2991808054
  0
ARC
  5
5BB
100
AcDbEntity
  8
0
100
AcDbCircle
 62
7
  6
CONTINUOUS
 10
118.9723008676
 20
234.417869785
 40
0.9999670869
100
AcDbArc
 50
358.2314428233
 51
120.0652920502
  0
ARC
  5
5BC
100
AcDbEntity
  8
0
100
AcDbCircle
 62
7
  6
CONTINUOUS
 10
118.9722584209
 20
232.2382546735
 40
0.9999150455
100
AcDbArc
 50
6.8502242617
 51
120.8961206872
  0
ARC
  5
5BD
100
AcDbEntity
  8
0
100
AcDbCircle
 62
7
  6
CONTINUOUS
 10
121.9723242217
 20
234.8679083753
 40
0.9998401002
100
AcDbArc
 50
28.4414982414
 51
116.9324471142
  0
ARC
  5
5BE
100
AcDbEntity
  8
0
100
AcDbCircle
 62
7
  6
CONTINUOUS
 10
121.9723331962
 20
237.9617773024
 40
0.9998307916
100
AcDbArc
 50
27.7003711797
 51
102.7045635343
  0
ARC
  5
5BF
100
AcDbEntity
  8
0
100
AcDbCircle
 62
7
  6
CONTINUOUS
 10
268.3872696776
 20
181.467545033
 40
98.0
100
AcDbArc
 50
84.8660610074
 51
90.0
  0
ARC
  5
5C0
100
AcDbEntity
  8
0
100
AcDbCircle
 62
7
  6
CONTINUOUS
 10
297.3778817257
 20
181.087545033
 40
47.0
100
AcDbArc
 50
266.4764971673
 51
12.9891912056
  0
ARC
  5
5C1
100
AcDbEntity
  8
KONSTRUKTIONSELEMENTE
100
AcDbCircle
 62
7
  6
CONTINUOUS
 10
294.8778817257
 20
188.087545033
 40
32.0
100
AcDbArc
 50
249.7195765973
 51
329.4622292602
  0
ARC
  5
5C2
100
AcDbEntity
  8
0
100
AcDbCircle
 62
7
  6
CONTINUOUS
 10
294.8778817257
 20
188.087545033
 40
21.0
100
AcDbArc
 50
218.0
 51
38.0
  0
ARC
  5
5C3
100
AcDbEntity
  8
0
100
AcDbCircle
 62
7
  6
CONTINUOUS
 10
296.0152010468
 20
215.2325988868
 40
8.7161355806
100
AcDbArc
 50
46.8741946134
 51
47.1837902519
  0
ARC
  5
5C4
100
AcDbEntity
  8
KONSTRUKTIONSELEMENTE
100
AcDbCircle
 62
7
  6
CONTINUOUS
 10
270.0978817257
 20
179.627545033
 40
6.1501622395
100
AcDbArc
 50
131.7422316977
 51
229.2300238651
  0
ARC
  5
5C5
100
AcDbEntity
  8
0
100
AcDbCircle
 62
7
  6
CONTINUOUS
 10
303.0147756267
 20
226.2255745453
 40
0.6057617498
100
AcDbArc
 50
19.3872887559
 51
27.3801559571
  0
ARC
  5
5C6
100
AcDbEntity
  8
0
100
AcDbCircle
 62
7
  6
CONTINUOUS
 10
256.6224965067
 20
232.2893127107
 40
2.9654670525
100
AcDbArc
 50
35.3693406237
 51
37.2634058355
  0
ARC
  5
5C7
100
AcDbEntity
  8
KONSTRUKTIONSELEMENTE
100
AcDbCircle
 62
7
  6
CONTINUOUS
 10
260.5157956613
 20
235.4512138443
 40
0.55
100
AcDbArc
 50
172.0
 51
352.0
  0
ARC
  5
5C8
100
AcDbEntity
  8
0
100
AcDbCircle
 62
7
  6
CONTINUOUS
 10
265.3778817257
 20
233.087545033
 40
6.0
100
AcDbArc
 50
90.0
 51
131.9972302836
  0
ARC
  5
5C9
100
AcDbEntity
  8
0
100
AcDbCircle
 62
7
  6
CONTINUOUS
 10
265.3778817257
 20
233.087545033
 40
6.0
100
AcDbArc
 50
153.7210236561
 51
180.0
  0
ARC
  5
5CA
100
AcDbEntity
  8
0
100
AcDbCircle
 62
7
  6
CONTINUOUS
 10
268.3178817257
 20
251.087545033
 40
19.5
100
AcDbArc
 50
67.5953577972
 51
81.331398021
  0
ARC
  5
5CB
100
AcDbEntity
  8
0
100
AcDbCircle
 62
7
  6
CONTINUOUS
 10
267.3285352826
 20
251.0529962939
 40
17.0
100
AcDbArc
 50
57.5632927668
 51
73.7436839504
  0
ARC
  5
5CC
100
AcDbEntity
  8
0
100
AcDbCircle
 62
7
  6
CONTINUOUS
 10
268.3178817257
 20
251.087545033
 40
12.0
100
AcDbArc
 50
270.0
 51
272.0346313282
  0
ARC
  5
5CD
100
AcDbEntity
  8
0
100
AcDbCircle
 62
7
  6
CONTINUOUS
 10
268.3178817257
 20
251.087545033
 40
12.0
100
AcDbArc
 50
352.1681933729
 51
39.4379219605
  0
ARC
  5
5CE
100
AcDbEntity
  8
0
100
AcDbCircle
 62
7
  6
CONTINUOUS
 10
268.3178817257
 20
251.087545033
 40
10.0
100
AcDbArc
 50
137.0
 51
238.5369590328
  0
CIRCLE
  5
5CF
100
AcDbEntity
  8
0
100
AcDbCircle
 62
7
  6
CONTINUOUS
 10
268.3178817257
 20
251.087545033
 40
4.0
  0
CIRCLE
  5
5D0
100
AcDbEntity
  8
KONSTRUKTIONSELEMENTE
100
AcDbCircle
 62
7
  6
CONTINUOUS
 10
268.3178817257
 20
251.087545033
 40
2.5
  0
ARC
  5
5D1
100
AcDbEntity
  8
KONSTRUKTIONSELEMENTE
100
AcDbCircle
 62
7
  6
CONTINUOUS
 10
268.3178817257
 20
251.087545033
 40
1.5
100
AcDbArc
 50
190.0
 51
170.0
  0
ARC
  5
5D2
100
AcDbEntity
  8
0
100
AcDbCircle
 62
7
  6
CONTINUOUS
 10
270.8245643816
 20
265.8686369224
 40
3.0066827075
100
AcDbArc
 50
180.0103576282
 51
191.3146796775
  0
ARC
  5
5D3
100
AcDbEntity
  8
0
100
AcDbCircle
 62
7
  6
CONTINUOUS
 10
271.2476231021
 20
264.4932623129
 40
3.0
100
AcDbArc
 50
73.7436839497
 51
136.9999999942
  0
ARC
  5
5D4
100
AcDbEntity
  8
0
100
AcDbCircle
 62
7
  6
CONTINUOUS
 10
274.8376818766
 20
262.8687788506
 40
3.0
100
AcDbArc
 50
351.2281372719
 51
57.5632927668
  0
ARC
  5
5D5
100
AcDbEntity
  8
0
100
AcDbCircle
 62
7
  6
CONTINUOUS
 10
276.8928727171
 20
276.101065736
 40
2.9849780156
100
AcDbArc
 50
359.937266941
 51
84.928794078
  0
ARC
  5
5D6
100
AcDbEntity
  8
0
100
AcDbCircle
 62
7
  6
CONTINUOUS
 10
293.0103755124
 20
232.5052363111
 40
1.0
100
AcDbArc
 50
353.3010893451
 51
113.5639590987
  0
ARC
  5
5D7
100
AcDbEntity
  8
0
100
AcDbCircle
 62
7
  6
CONTINUOUS
 10
292.425632103
 20
234.4178458231
 40
1.0
100
AcDbArc
 50
341.9415059939
 51
111.794755244
  0
ARC
  5
5D8
100
AcDbEntity
  8
0
100
AcDbCircle
 62
7
  6
CONTINUOUS
 10
292.4239491842
 20
233.7731994203
 40
0.3969539056
100
AcDbArc
 50
289.0890272774
 51
294.9769865186
  0
ARC
  5
5D9
100
AcDbEntity
  8
0
100
AcDbCircle
 62
7
  6
CONTINUOUS
 10
290.0571745507
 20
236.9636466612
 40
1.0054315911
100
AcDbArc
 50
346.8504246568
 51
3.7840202718
  0
ARC
  5
5DA
100
AcDbEntity
  8
0
100
AcDbCircle
 62
7
  6
CONTINUOUS
 10
290.0614295388
 20
236.9636889896
 40
1.0013111085
100
AcDbArc
 50
334.7746996872
 51
346.7947009343
  0
ARC
  5
5DB
100
AcDbEntity
  8
0
100
AcDbCircle
 62
7
  6
CONTINUOUS
 10
288.6253690457
 20
237.9615891004
 40
1.0000126761
100
AcDbArc
 50
319.0741445432
 51
93.5068732014
  0
ARC
  5
5DC
100
AcDbEntity
  8
0
100
AcDbCircle
 62
7
  6
CONTINUOUS
 10
290.4768919734
 20
234.8677479318
 40
1.0
100
AcDbArc
 50
340.4352843798
 51
100.6964110292
  0
ARC
  5
5DD
100
AcDbEntity
  8
0
100
AcDbCircle
 62
7
  6
CONTINUOUS
 10
290.0628010075
 20
236.9632373559
 40
0.9998428945
100
AcDbArc
 50
3.8287027034
 51
90.3944132555
  0
ARC
  5
5DE
100
AcDbEntity
  8
0
100
AcDbCircle
 62
7
  6
CONTINUOUS
 10
288.5378433435
 20
239.3679856565
 40
0.40909227
100
AcDbArc
 50
269.597787454
 51
273.6353290845
  0
ARC
  5
5DF
100
AcDbEntity
  8
0
100
AcDbCircle
 62
7
  6
CONTINUOUS
 10
291.9638137998
 20
235.5180458654
 40
0.1930785692
100
AcDbArc
 50
291.4907044135
 51
293.8195714697
  0
ARC
  5
5E0
100
AcDbEntity
  8
0
100
AcDbCircle
 62
7
  6
CONTINUOUS
 10
291.9747293467
 20
235.490223216
 40
0.1631913239
100
AcDbArc
 50
286.8302041334
 51
291.5034034309
  0
ARC
  5
5E1
100
AcDbEntity
  8
0
100
AcDbCircle
 62
7
  6
CONTINUOUS
 10
295.1350302548
 20
232.2274533409
 40
1.0118880245
100
AcDbArc
 50
117.5205597191
 51
119.2715606436
  0
ARC
  5
5E2
100
AcDbEntity
  8
0
100
AcDbCircle
 62
7
  6
CONTINUOUS
 10
295.1326471924
 20
232.2325115843
 40
1.0063010369
100
AcDbArc
 50
107.0766150607
 51
117.5333044713
  0
ARC
  5
5E3
100
AcDbEntity
  8
0
100
AcDbCircle
 62
7
  6
CONTINUOUS
 10
296.2207768407
 20
230.873379077
 40
1.0050687323
100
AcDbArc
 50
0.5142299664
 51
6.3426918111
  0
ARC
  5
5E4
100
AcDbEntity
  8
0
100
AcDbCircle
 62
7
  6
CONTINUOUS
 10
295.1249052161
 20
232.2380348694
 40
1.0046279893
100
AcDbArc
 50
3.5913919515
 51
12.4874412587
  0
ARC
  5
5E5
100
AcDbEntity
  8
0
100
AcDbCircle
 62
7
  6
CONTINUOUS
 10
295.1295768489
 20
232.2381116121
 40
1.000046993
100
AcDbArc
 50
12.5410215316
 51
107.0026765022
  0
ARC
  5
5E6
100
AcDbEntity
  8
0
100
AcDbCircle
 62
7
  6
CONTINUOUS
 10
301.0027229272
 20
230.1797297523
 40
1.0
100
AcDbArc
 50
227.0
 51
248.7748361053
  0
ARC
  5
5E7
100
AcDbEntity
  8
0
100
AcDbCircle
 62
7
  6
CONTINUOUS
 10
296.2258554074
 20
230.8741231241
 40
0.9999602175
100
AcDbArc
 50
6.3324674087
 51
134.941901952
  0
ARC
  5
5E8
100
AcDbEntity
  8
0
100
AcDbCircle
 62
7
  6
CONTINUOUS
 10
297.6349120789
 20
230.884831821
 40
0.4090922698
100
AcDbArc
 50
180.3646709146
 51
184.4022125467
  0
ARC
  5
5E9
100
AcDbEntity
  8
0
100
AcDbCircle
 62
7
  6
CONTINUOUS
 10
297.5686598879
 20
259.3612671041
 40
20.0
100
AcDbArc
 50
171.228137272
 51
227.0
  0
ARC
  5
5EA
100
AcDbEntity
  8
0
100
AcDbCircle
 62
7
  6
CONTINUOUS
 10
304.3778817257
 20
214.9105614187
 40
45.0
100
AcDbArc
 50
180.0
 51
218.0
  0
ARC
  5
5EB
100
AcDbEntity
  8
0
100
AcDbCircle
 62
7
  6
CONTINUOUS
 10
313.0019369085
 20
184.587545033
 40
30.9892059219
100
AcDbArc
 50
13.1765437574
 51
50.0998759836
  0
ARC
  5
5EC
100
AcDbEntity
  8
0
100
AcDbCircle
 62
7
  6
CONTINUOUS
 10
308.5512545956
 20
215.7836923628
 40
10.0
100
AcDbArc
 50
62.137045352
 51
111.001843713
  0
ARC
  5
5ED
100
AcDbEntity
  8
0
100
AcDbCircle
 62
7
  6
CONTINUOUS
 10
310.4221496672
 20
219.3264355472
 40
5.9935960482
100
AcDbArc
 50
50.1164329684
 51
62.1204882518
  0
ARC
  5
5EE
100
AcDbEntity
  8
0
100
AcDbCircle
 62
7
  6
CONTINUOUS
 10
305.0713182284
 20
219.4603122938
 40
4.9851728858
100
AcDbArc
 50
174.8150052206
 51
204.6182534237
  0
ARC
  5
5EF
100
AcDbEntity
  8
0
100
AcDbCircle
 62
7
  6
CONTINUOUS
 10
305.5182098252
 20
219.1323327932
 40
1.0
100
AcDbArc
 50
317.0
 51
47.0
  0
ARC
  5
5F0
100
AcDbEntity
  8
0
100
AcDbCircle
 62
7
  6
CONTINUOUS
 10
304.4327967673
 20
218.4370478015
 40
1.0
100
AcDbArc
 50
238.5369590328
 51
294.0000000011
  0
ARC
  5
5F1
100
AcDbEntity
  8
0
100
AcDbCircle
 62
7
  6
CONTINUOUS
 10
305.3282726
 20
218.5620802596
 40
0.75
100
AcDbArc
 50
294.0
 51
317.0
  0
ARC
  5
5F2
100
AcDbEntity
  8
0
100
AcDbCircle
 62
7
  6
CONTINUOUS
 10
350.5479692239
 20
240.277545033
 40
55.0
100
AcDbArc
 50
204.5982408987
 51
218.0
  0
ARC
  5
5F3
100
AcDbEntity
  8
0
100
AcDbCircle
 62
7
  6
CONTINUOUS
 10
107.731583532
 20
60.5948940087
 40
17.2302791737
100
AcDbArc
 50
352.9875876837
 51
0.0071831121
  0
ARC
  5
5F4
100
AcDbEntity
  8
KONSTRUKTIONSELEMENTE
100
AcDbCircle
 62
7
  6
CONTINUOUS
 10
105.1555320435
 20
43.65681769
 40
4.2360810358
100
AcDbArc
 50
143.3395569996
 51
147.382045236
  0
ARC
  5
5F5
100
AcDbEntity
  8
RUNDUNGEN
100
AcDbCircle
 62
7
  6
CONTINUOUS
 10
108.3722837964
 20
15.0258062884
 40
4.0
100
AcDbArc
 50
180.0
 51
265.0
  0
ARC
  5
5F6
100
AcDbEntity
  8
RUNDUNGEN
100
AcDbCircle
 62
7
  6
CONTINUOUS
 10
108.1885546925
 20
16.1196932284
 40
3.8166545401
100
AcDbArc
 50
193.93824249
 51
196.0900369865
  0
ARC
  5
5F7
100
AcDbEntity
  8
RUNDUNGEN
100
AcDbCircle
 62
7
  6
CONTINUOUS
 10
108.1822238987
 20
16.1175839887
 40
3.8100021215
100
AcDbArc
 50
185.45768659
 51
193.9303895233
  0
ARC
  5
5F8
100
AcDbEntity
  8
RUNDUNGEN
100
AcDbCircle
 62
7
  6
CONTINUOUS
 10
108.1708318965
 20
16.1163891196
 40
3.7985481192
100
AcDbArc
 50
180.0057585389
 51
185.4560884515
  0
ARC
  5
5F9
100
AcDbEntity
  8
KONSTRUKTIONSELEMENTE
100
AcDbCircle
 62
7
  6
CONTINUOUS
 10
105.1252689718
 20
45.662249665
 40
3.4111544791
100
AcDbArc
 50
157.3558300458
 51
160.5682790774
  0
ARC
  5
5FA
100
AcDbEntity
  8
0
100
AcDbCircle
 62
7
  6
CONTINUOUS
 10
104.9743314511
 20
65.0186627816
 40
1.0079958923
100
AcDbArc
 50
245.2382482675
 51
265.2872247206
  0
ARC
  5
5FB
100
AcDbEntity
  8
0
100
AcDbCircle
 62
7
  6
CONTINUOUS
 10
104.972183772
 20
65.0112671433
 40
1.0004499773
100
AcDbArc
 50
265.3750074778
 51
298.6862231702
  0
ARC
  5
5FC
100
AcDbEntity
  8
0
100
AcDbCircle
 62
7
  6
CONTINUOUS
 10
104.9724045677
 20
65.0108420846
 40
1.0001208802
100
AcDbArc
 50
187.1518427068
 51
218.6932884334
  0
ARC
  5
5FD
100
AcDbEntity
  8
0
100
AcDbCircle
 62
7
  6
CONTINUOUS
 10
104.972282848
 20
59.9438359327
 40
1.0000014515
100
AcDbArc
 50
218.6959008848
 51
262.307321373
  0
ARC
  5
5FE
100
AcDbEntity
  8
0
100
AcDbCircle
 62
7
  6
CONTINUOUS
 10
101.972267952
 20
64.596540556
 40
0.9999800779
100
AcDbArc
 50
202.9891731818
 51
307.3296894488
  0
ARC
  5
5FF
100
AcDbEntity
  8
0
100
AcDbCircle
 62
7
  6
CONTINUOUS
 10
104.9722510106
 20
62.6477965712
 40
0.9999647661
100
AcDbArc
 50
178.1104793994
 51
296.6430894281
  0
ARC
  5
600
100
AcDbEntity
  8
0
100
AcDbCircle
 62
7
  6
CONTINUOUS
 10
101.9722974149
 20
62.0630139721
 40
0.9999412522
100
AcDbArc
 50
212.1106796208
 51
290.4821476822
  0
ARC
  5
601
100
AcDbEntity
  8
0
100
AcDbCircle
 62
7
  6
CONTINUOUS
 10
101.9722563051
 20
58.8474197138
 40
0.9998197364
100
AcDbArc
 50
215.7244570227
 51
267.6830880366
  0
ARC
  5
602
100
AcDbEntity
  8
0
100
AcDbCircle
 62
7
  6
CONTINUOUS
 10
102.7618088346
 20
49.5548322262
 40
0.9995696377
100
AcDbArc
 50
233.4030515974
 51
270.008895223
  0
ARC
  5
603
100
AcDbEntity
  8
0
100
AcDbCircle
 62
7
  6
CONTINUOUS
 10
105.5149718185
 20
51.7944472544
 40
0.3421662577
100
AcDbArc
 50
275.4067868183
 51
285.3572396848
  0
ARC
  5
604
100
AcDbEntity
  8
0
100
AcDbCircle
 62
7
  6
CONTINUOUS
 10
102.8972140828
 20
65.7311769773
 40
0.1700678651
100
AcDbArc
 50
138.4602254614
 51
141.8709675322
  0
ARC
  5
605
100
AcDbEntity
  8
RUNDUNGEN
100
AcDbCircle
 62
7
  6
CONTINUOUS
 10
97.7850432447
 20
116.6546671838
 40
20.0
100
AcDbArc
 50
246.7558471774
 51
251.9807338875
  0
ARC
  5
606
100
AcDbEntity
  8
KONSTRUKTIONSELEMENTE
100
AcDbCircle
 62
7
  6
CONTINUOUS
 10
97.7850432447
 20
116.6546671838
 40
20.0
100
AcDbArc
 50
251.0755955988
 51
251.9807263289
  0
ARC
  5
607
100
AcDbEntity
  8
KONSTRUKTIONSELEMENTE
100
AcDbCircle
 62
7
  6
CONTINUOUS
 10
97.7850432447
 20
116.6546671838
 40
20.0
100
AcDbArc
 50
246.7558359183
 51
247.6703566209
  0
ARC
  5
608
100
AcDbEntity
  8
KONSTRUKTIONSELEMENTE
100
AcDbCircle
 62
7
  6
CONTINUOUS
 10
86.4722837964
 20
83.2155677495
 40
15.5
100
AcDbArc
 50
36.2070698243
 51
55.41190031
  0
ARC
  5
609
100
AcDbEntity
  8
RUNDUNGEN
100
AcDbCircle
 62
7
  6
CONTINUOUS
 10
83.9722837964
 20
84.4955677495
 40
15.0
100
AcDbArc
 50
66.7558209061
 51
86.0000134235
  0
ARC
  5
60A
100
AcDbEntity
  8
0
100
AcDbCircle
 62
7
  6
CONTINUOUS
 10
109.7175976076
 20
81.2231405521
 40
9.823874769
100
AcDbArc
 50
304.0791364396
 51
304.9346631756
  0
ARC
  5
60B
100
AcDbEntity
  8
RUNDUNGEN
100
AcDbCircle
 62
7
  6
CONTINUOUS
 10
89.7422837964
 20
91.9299018571
 40
6.0
100
AcDbArc
 50
65.0000219571
 51
71.9807011334
  0
ARC
  5
60C
100
AcDbEntity
  8
RUNDUNGEN
100
AcDbCircle
 62
7
  6
CONTINUOUS
 10
97.9722837964
 20
89.1955677495
 40
5.0
100
AcDbArc
 50
295.3769431824
 51
64.9999815662
  0
ARC
  5
60D
100
AcDbEntity
  8
0
100
AcDbCircle
 62
7
  6
CONTINUOUS
 10
108.526321523
 20
77.6878835402
 40
2.5145978433
100
AcDbArc
 50
262.6875034843
 51
264.5805694733
  0
ARC
  5
60E
100
AcDbEntity
  8
KONSTRUKTIONSELEMENTE
100
AcDbCircle
 62
7
  6
CONTINUOUS
 10
100.9722837964
 20
78.1655912851
 40
2.0
100
AcDbArc
 50
180.0002452748
 51
265.0000213762
  0
ARC
  5
60F
100
AcDbEntity
  8
RUNDUNGEN
100
AcDbCircle
 62
7
  6
CONTINUOUS
 10
100.9722837964
 20
82.8710124292
 40
2.0
100
AcDbArc
 50
115.3769093821
 51
180.0
  0
ARC
  5
610
100
AcDbEntity
  8
RUNDUNGEN
100
AcDbCircle
 62
7
  6
CONTINUOUS
 10
71.4722839617
 20
102.4111651546
 40
2.0
100
AcDbArc
 50
179.9999996688
 51
265.9999952526
  0
ARC
  5
611
100
AcDbEntity
  8
0
100
AcDbCircle
 62
7
  6
CONTINUOUS
 10
101.9722844418
 20
66.4480286546
 40
0.9999868827
100
AcDbArc
 50
192.1198718476
 51
322.2884273036
  0
ARC
  5
612
100
AcDbEntity
  8
0
100
AcDbCircle
 62
7
  6
CONTINUOUS
 10
107.7796252945
 20
69.32962242
 40
0.4203760347
100
AcDbArc
 50
317.5605328469
 51
321.6016142104
  0
ARC
  5
613
100
AcDbEntity
  8
0
100
AcDbCircle
 62
7
  6
CONTINUOUS
 10
116.2129811508
 20
60.5948940087
 40
17.2302791734
100
AcDbArc
 50
179.9928168879
 51
187.0124122747
  0
ARC
  5
614
100
AcDbEntity
  8
0
100
AcDbCircle
 62
7
  6
CONTINUOUS
 10
115.5722837964
 20
15.0258062884
 40
4.0
100
AcDbArc
 50
275.0
 51
360.0
  0
ARC
  5
615
100
AcDbEntity
  8
0
100
AcDbCircle
 62
7
  6
CONTINUOUS
 10
115.7560129004
 20
16.1196932284
 40
3.8166545401
100
AcDbArc
 50
343.9099630135
 51
346.06175751
  0
ARC
  5
616
100
AcDbEntity
  8
0
100
AcDbCircle
 62
7
  6
CONTINUOUS
 10
115.7623436941
 20
16.1175839887
 40
3.8100021215
100
AcDbArc
 50
346.0696104767
 51
354.54231341
  0
ARC
  5
617
100
AcDbEntity
  8
0
100
AcDbCircle
 62
7
  6
CONTINUOUS
 10
115.7737356964
 20
16.1163891196
 40
3.7985481192
100
AcDbArc
 50
354.5439115485
 51
359.9942414611
  0
ARC
  5
618
100
AcDbEntity
  8
0
100
AcDbCircle
 62
7
  6
CONTINUOUS
 10
118.9708024332
 20
65.0162496684
 40
1.0055665643
100
AcDbArc
 50
278.1749880269
 51
295.0471545258
  0
ARC
  5
619
100
AcDbEntity
  8
0
100
AcDbCircle
 62
7
  6
CONTINUOUS
 10
118.9743173428
 20
65.0154976095
 40
1.0050757691
100
AcDbArc
 50
241.2807005805
 51
245.4120904211
  0
ARC
  5
61A
100
AcDbEntity
  8
0
100
AcDbCircle
 62
7
  6
CONTINUOUS
 10
121.972296727
 20
64.5965405669
 40
0.9999800887
100
AcDbArc
 50
232.669835017
 51
337.0109189158
  0
ARC
  5
61B
100
AcDbEntity
  8
0
100
AcDbCircle
 62
7
  6
CONTINUOUS
 10
118.9723143344
 20
62.6477959545
 40
0.9999640289
100
AcDbArc
 50
243.4316886753
 51
1.912646813
  0
ARC
  5
61C
100
AcDbEntity
  8
0
100
AcDbCircle
 62
7
  6
CONTINUOUS
 10
121.9722673887
 20
62.0630137241
 40
0.9999410252
100
AcDbArc
 50
249.4874737837
 51
327.9003791014
  0
ARC
  5
61D
100
AcDbEntity
  8
0
100
AcDbCircle
 62
7
  6
CONTINUOUS
 10
118.9723716677
 20
59.9436785795
 40
0.9998329665
100
AcDbArc
 50
277.7610332763
 51
321.307918408
  0
ARC
  5
61E
100
AcDbEntity
  8
0
100
AcDbCircle
 62
7
  6
CONTINUOUS
 10
118.9726084439
 20
65.0106297608
 40
0.9996382302
100
AcDbArc
 50
295.0999102403
 51
352.8361248955
  0
ARC
  5
61F
100
AcDbEntity
  8
0
100
AcDbCircle
 62
7
  6
CONTINUOUS
 10
121.1827558638
 20
49.5548321992
 40
0.9995696076
100
AcDbArc
 50
269.9911038921
 51
306.5969452837
  0
ARC
  5
620
100
AcDbEntity
  8
0
100
AcDbCircle
 62
7
  6
CONTINUOUS
 10
121.972450769
 20
58.84706721
 40
0.9994667649
100
AcDbArc
 50
272.3947213628
 51
325.1876447648
  0
ARC
  5
621
100
AcDbEntity
  8
0
100
AcDbCircle
 62
7
  6
CONTINUOUS
 10
118.9721357733
 20
65.0097284752
 40
0.9989221173
100
AcDbArc
 50
245.3881883929
 51
278.1524752716
  0
ARC
  5
622
100
AcDbEntity
  8
0
100
AcDbCircle
 62
7
  6
CONTINUOUS
 10
121.0472661842
 20
65.7309067408
 40
0.1702862565
100
AcDbArc
 50
38.1636728371
 51
41.7526294223
  0
ARC
  5
623
100
AcDbEntity
  8
0
100
AcDbCircle
 62
7
  6
CONTINUOUS
 10
126.1595243482
 20
116.6546671838
 40
20.0
100
AcDbArc
 50
288.0192736711
 51
293.2441640817
  0
ARC
  5
624
100
AcDbEntity
  8
0
100
AcDbCircle
 62
7
  6
CONTINUOUS
 10
137.4722837964
 20
83.2155677495
 40
15.5
100
AcDbArc
 50
124.6610988703
 51
143.7774239273
  0
ARC
  5
625
100
AcDbEntity
  8
0
100
AcDbCircle
 62
7
  6
CONTINUOUS
 10
139.9722837964
 20
84.4955677495
 40
15.0
100
AcDbArc
 50
93.9999865765
 51
113.2441790939
  0
ARC
  5
626
100
AcDbEntity
  8
0
100
AcDbCircle
 62
7
  6
CONTINUOUS
 10
114.2269882664
 20
81.2231713464
 40
9.8239121489
100
AcDbArc
 50
235.0653353991
 51
235.9208618315
  0
ARC
  5
627
100
AcDbEntity
  8
0
100
AcDbCircle
 62
7
  6
CONTINUOUS
 10
134.2022837964
 20
91.9299018571
 40
6.0
100
AcDbArc
 50
108.0192988666
 51
114.9999780429
  0
ARC
  5
628
100
AcDbEntity
  8
0
100
AcDbCircle
 62
7
  6
CONTINUOUS
 10
125.9722837964
 20
89.1955677495
 40
5.0
100
AcDbArc
 50
115.0000184338
 51
244.6230568176
  0
ARC
  5
629
100
AcDbEntity
  8
0
100
AcDbCircle
 62
7
  6
CONTINUOUS
 10
115.3976020809
 20
77.8445764335
 40
2.6726435757
100
AcDbArc
 50
275.5359054657
 51
277.3238410083
  0
ARC
  5
62A
100
AcDbEntity
  8
0
100
AcDbCircle
 62
7
  6
CONTINUOUS
 10
122.9722837964
 20
78.1655912851
 40
2.0
100
AcDbArc
 50
274.9999786238
 51
359.9997547252
  0
ARC
  5
62B
100
AcDbEntity
  8
0
100
AcDbCircle
 62
7
  6
CONTINUOUS
 10
122.9722837964
 20
82.8710124292
 40
2.0
100
AcDbArc
 50
0.0
 51
64.6230664748
  0
ARC
  5
62C
100
AcDbEntity
  8
0
100
AcDbCircle
 62
7
  6
CONTINUOUS
 10
152.4722837964
 20
102.4111651662
 40
2.0
100
AcDbArc
 50
274.0
 51
360.0
  0
ARC
  5
62D
100
AcDbEntity
  8
0
100
AcDbCircle
 62
7
  6
CONTINUOUS
 10
121.9722286413
 20
66.4481380272
 40
1.0000729202
100
AcDbArc
 50
243.3293595263
 51
345.1758327762
  0
ARC
  5
62E
100
AcDbEntity
  8
0
100
AcDbCircle
 62
7
  6
CONTINUOUS
 10
121.9768315321
 20
66.4470670887
 40
0.9953526251
100
AcDbArc
 50
345.1676373169
 51
347.937563741
  0
SPLINE
  5
62F
100
AcDbEntity
  8
0
100
AcDbSpline
 62
7
  6
CONTINUOUS
 70
0
 71
3
 72
14
 73
10
 74
0
 42
0.0000001
 43
0.0000001
 44
0.0000000001
 40
0.0
 40
0.0
 40
0.0
 40
0.0
 40
0.412673793
 40
0.5816931958
 40
0.7233175848
 40
0.8362349294
 40
0.9195670205
 40
0.9731565375
 40
1.0
 40
1.0
 40
1.0
 40
1.0
 10
124.34492746
 20
248.3595515927
 30
0.0
 10
124.3734659945
 20
248.179876239
 30
0.0
 10
124.4162286061
 20
247.9269151815
 30
0.0
 10
124.4782926622
 20
247.6142452735
 30
0.0
 10
124.5195824881
 20
247.4318254851
 30
0.0
 10
124.5570040456
 20
247.2883884439
 30
0.0
 10
124.5930076355
 20
247.1821971999
 30
0.0
 10
124.6200940776
 20
247.1192062698
 30
0.0
 10
124.6475734205
 20
247.0875225894
 30
0.0
 10
124.6594073593
 20
247.0875492596
 30
0.0
  0
SPLINE
  5
630
100
AcDbEntity
  8
0
100
AcDbSpline
 62
7
  6
CONTINUOUS
 70
0
 71
3
 72
13
 73
9
 74
0
 42
0.0000001
 43
0.0000001
 44
0.0000000001
 40
0.0
 40
0.0
 40
0.0
 40
0.0
 40
0.1009820193
 40
0.2065427466
 40
0.3193609454
 40
0.4409958158
 40
0.7093329089
 40
1.0
 40
1.0
 40
1.0
 40
1.0
 10
118.3147823416
 20
243.1952100485
 30
0.0
 10
118.3147823416
 20
243.2690022363
 30
0.0
 10
118.2920589643
 20
243.4206623369
 30
0.0
 10
118.194957247
 20
243.6356957965
 30
0.0
 10
118.038399209
 20
243.8315411345
 30
0.0
 10
117.7523843691
 20
244.0656340047
 30
0.0
 10
117.2875497463
 20
244.2674273041
 30
0.0
 10
116.8771861012
 20
244.3205073426
 30
0.0
 10
116.6647823416
 20
244.3205073426
 30
0.0
  0
SPLINE
  5
631
100
AcDbEntity
  8
0
100
AcDbSpline
 62
7
  6
CONTINUOUS
 70
0
 71
3
 72
11
 73
7
 74
0
 42
0.0000001
 43
0.0000001
 44
0.0000000001
 40
0.0
 40
0.0
 40
0.0
 40
0.0
 40
0.2052847303
 40
0.4391010907
 40
0.7084696269
 40
1.0
 40
1.0
 40
1.0
 40
1.0
 10
108.1847323562
 20
243.429135486
 30
0.0
 10
108.1847323562
 20
243.3781197258
 30
0.0
 10
108.1497436757
 20
243.2678269035
 30
0.0
 10
108.0182924421
 20
243.1431942758
 30
0.0
 10
107.8344335331
 20
243.0633957221
 30
0.0
 10
107.6942311963
 20
243.0451704093
 30
0.0
 10
107.6217823416
 20
243.0451704093
 30
0.0
  0
SPLINE
  5
632
100
AcDbEntity
  8
0
100
AcDbSpline
 62
7
  6
CONTINUOUS
 70
0
 71
3
 72
13
 73
9
 74
0
 42
0.0000001
 43
0.0000001
 44
0.0000000001
 40
0.0
 40
0.0
 40
0.0
 40
0.0
 40
0.1011747419
 40
0.2065646278
 40
0.3193076956
 40
0.4410217638
 40
0.7093018755
 40
1.0
 40
1.0
 40
1.0
 40
1.0
 10
109.2347370114
 20
243.42902438
 30
0.0
 10
109.2347408384
 20
243.4878617454
 30
0.0
 10
109.2170443561
 20
243.6086560404
 30
0.0
 10
109.139272406
 20
243.7795520131
 30
0.0
 10
109.014992632
 20
243.9354760824
 30
0.0
 10
108.787259341
 20
244.1216404725
 30
0.0
 10
108.4174332305
 20
244.2824055241
 30
0.0
 10
108.0908355212
 20
244.3245993328
 30
0.0
 10
107.9217823416
 20
244.3245993328
 30
0.0
  0
SPLINE
  5
633
100
AcDbEntity
  8
0
100
AcDbSpline
 62
7
  6
CONTINUOUS
 70
0
 71
3
 72
12
 73
8
 74
0
 42
0.0000001
 43
0.0000001
 44
0.0000000001
 40
0.0
 40
0.0
 40
0.0
 40
0.0
 40
0.2542619373
 40
0.35113225
 40
0.5138826405
 40
0.733944203
 40
1.0
 40
1.0
 40
1.0
 40
1.0
 10
122.9580672428
 20
231.0327896586
 30
0.0
 10
122.9631692257
 20
231.0278217684
 30
0.0
 10
122.9773830352
 20
231.009473759
 30
0.0
 10
122.9672301349
 20
231.0271137866
 30
0.0
 10
122.9632442267
 20
231.0379833743
 30
0.0
 10
122.9568578753
 20
231.0558596913
 30
0.0
 10
122.9535772765
 20
231.0688676946
 30
0.0
 10
122.9519983035
 20
231.0761498963
 30
0.0
  0
SPLINE
  5
634
100
AcDbEntity
  8
0
100
AcDbSpline
 62
7
  6
CONTINUOUS
 70
0
 71
3
 72
9
 73
5
 74
0
 42
0.0000001
 43
0.0000001
 44
0.0000000001
 40
0.0
 40
0.0
 40
0.0
 40
0.0
 40
0.3178582238
 40
1.0
 40
1.0
 40
1.0
 40
1.0
 10
121.1688814695
 20
231.4695459972
 30
0.0
 10
121.1653119754
 20
231.46476629
 30
0.0
 10
121.1535078761
 20
231.4501655435
 30
0.0
 10
121.1399943942
 20
231.4369534822
 30
0.0
 10
121.1299990511
 20
231.4289540667
 30
0.0
  0
SPLINE
  5
635
100
AcDbEntity
  8
0
100
AcDbSpline
 62
7
  6
CONTINUOUS
 70
0
 71
3
 72
8
 73
4
 74
0
 42
0.0000001
 43
0.0000001
 44
0.0000000001
 40
0.0
 40
0.0
 40
0.0
 40
0.0
 40
1.0
 40
1.0
 40
1.0
 40
1.0
 10
107.8239672352
 20
260.9132732389
 30
0.0
 10
107.951757959
 20
261.0178145768
 30
0.0
 10
108.0990209145
 20
261.1024634109
 30
0.0
 10
108.2543436282
 20
261.1584474712
 30
0.0
  0
SPLINE
  5
636
100
AcDbEntity
  8
0
100
AcDbSpline
 62
7
  6
CONTINUOUS
 70
0
 71
3
 72
8
 73
4
 74
0
 42
0.0000001
 43
0.0000001
 44
0.0000000001
 40
0.0
 40
0.0
 40
0.0
 40
0.0
 40
1.0
 40
1.0
 40
1.0
 40
1.0
 10
108.2543436282
 20
261.1584474712
 30
0.0
 10
108.4033384128
 20
261.2121507114
 30
0.0
 10
108.5639046795
 20
261.2408168529
 30
0.0
 10
108.7222823416
 20
261.2408168529
 30
0.0
  0
SPLINE
  5
637
100
AcDbEntity
  8
0
100
AcDbSpline
 62
7
  6
CONTINUOUS
 70
0
 71
3
 72
9
 73
5
 74
0
 42
0.0000001
 43
0.0000001
 44
0.0000000001
 40
0.0
 40
0.0
 40
0.0
 40
0.0
 40
0.2544060161
 40
1.0
 40
1.0
 40
1.0
 40
1.0
 10
107.7709489576
 20
260.8673770471
 30
0.0
 10
107.7161714975
 20
260.8172501107
 30
0.0
 10
107.5177403125
 20
260.601908703
 30
0.0
 10
107.3815255157
 20
260.3339371934
 30
0.0
 10
107.314623543
 20
260.1268659558
 30
0.0
  0
SPLINE
  5
638
100
AcDbEntity
  8
0
100
AcDbSpline
 62
7
  6
CONTINUOUS
 70
0
 71
3
 72
9
 73
5
 74
0
 42
0.0000001
 43
0.0000001
 44
0.0000000001
 40
0.0
 40
0.0
 40
0.0
 40
0.0
 40
0.2484689139
 40
1.0
 40
1.0
 40
1.0
 40
1.0
 10
107.2655812794
 20
259.9456476087
 30
0.0
 10
107.2586494095
 20
259.9140673368
 30
0.0
 10
107.2339160197
 20
259.7863099962
 30
0.0
 10
107.2222823416
 20
259.655886108
 30
0.0
 10
107.2222823416
 20
259.5580928895
 30
0.0
  0
LINE
  5
639
100
AcDbEntity
  8
0
100
AcDbLine
 62
7
  6
CONTINUOUS
 10
118.4501108327
 20
233.091633789
 11
118.4586850354
 21
233.0963975207
  0
SPLINE
  5
63A
100
AcDbEntity
  8
0
100
AcDbSpline
 62
7
  6
CONTINUOUS
 70
0
 71
3
 72
8
 73
4
 74
0
 42
0.0000001
 43
0.0000001
 44
0.0000000001
 40
0.0
 40
0.0
 40
0.0
 40
0.0
 40
1.0
 40
1.0
 40
1.0
 40
1.0
 10
119.7734443567
 20
237.5616433818
 30
0.0
 10
119.8594311404
 20
237.4465299534
 30
0.0
 10
119.9213668029
 20
237.3094347852
 30
0.0
 10
119.9509129509
 20
237.1688223622
 30
0.0
  0
SPLINE
  5
63B
100
AcDbEntity
  8
0
100
AcDbSpline
 62
7
  6
CONTINUOUS
 70
0
 71
3
 72
8
 73
4
 74
0
 42
0.0000001
 43
0.0000001
 44
0.0000000001
 40
0.0
 40
0.0
 40
0.0
 40
0.0
 40
1.0
 40
1.0
 40
1.0
 40
1.0
 10
115.6909438296
 20
261.15717108
 30
0.0
 10
115.5417132513
 20
261.2111384737
 30
0.0
 10
115.3809714876
 20
261.2408168529
 30
0.0
 10
115.2222823416
 20
261.2408168529
 30
0.0
  0
SPLINE
  5
63C
100
AcDbEntity
  8
0
100
AcDbSpline
 62
7
  6
CONTINUOUS
 70
0
 71
3
 72
9
 73
5
 74
0
 42
0.0000001
 43
0.0000001
 44
0.0000000001
 40
0.0
 40
0.0
 40
0.0
 40
0.0
 40
0.5009413507
 40
1.0
 40
1.0
 40
1.0
 40
1.0
 10
116.1736162453
 20
260.8673765668
 30
0.0
 10
116.3058509041
 20
260.7463683226
 30
0.0
 10
116.5213972195
 20
260.4507499732
 30
0.0
 10
116.6439124469
 20
260.1099093851
 30
0.0
 10
116.6812836696
 20
259.9352916795
 30
0.0
  0
SPLINE
  5
63D
100
AcDbEntity
  8
0
100
AcDbSpline
 62
7
  6
CONTINUOUS
 70
0
 71
3
 72
9
 73
5
 74
0
 42
0.0000001
 43
0.0000001
 44
0.0000000001
 40
0.0
 40
0.0
 40
0.0
 40
0.0
 40
0.2485753771
 40
1.0
 40
1.0
 40
1.0
 40
1.0
 10
116.6812836696
 20
259.9352916795
 30
0.0
 10
116.687869608
 20
259.9045187645
 30
0.0
 10
116.7113340928
 20
259.7801060654
 30
0.0
 10
116.7222823416
 20
259.6532236533
 30
0.0
 10
116.7222823416
 20
259.5580928895
 30
0.0
  0
SPLINE
  5
63E
100
AcDbEntity
  8
0
100
AcDbSpline
 62
7
  6
CONTINUOUS
 70
0
 71
3
 72
14
 73
10
 74
0
 42
0.0000001
 43
0.0000001
 44
0.0000000001
 40
0.0
 40
0.0
 40
0.0
 40
0.0
 40
0.412402272
 40
0.5815296895
 40
0.7234658318
 40
0.8365986719
 40
0.9199290891
 40
0.9733213959
 40
1.0
 40
1.0
 40
1.0
 40
1.0
 10
99.5996372231
 20
248.3595515927
 30
0.0
 10
99.5711370503
 20
248.1801177594
 30
0.0
 10
99.5283270673
 20
247.9274174474
 30
0.0
 10
99.4662835497
 20
247.6148984643
 30
0.0
 10
99.4250097259
 20
247.4323249085
 30
0.0
 10
99.3876292278
 20
247.2887307633
 30
0.0
 10
99.3515936537
 20
247.1826507719
 30
0.0
 10
99.3246299746
 20
247.1197677132
 30
0.0
 10
99.2970110229
 20
247.0884690186
 30
0.0
 10
99.2852584438
 20
247.0885912239
 30
0.0
  0
SPLINE
  5
63F
100
AcDbEntity
  8
0
100
AcDbSpline
 62
7
  6
CONTINUOUS
 70
0
 71
3
 72
9
 73
5
 74
0
 42
0.0000001
 43
0.0000001
 44
0.0000000001
 40
0.0
 40
0.0
 40
0.0
 40
0.0
 40
0.2223106701
 40
1.0
 40
1.0
 40
1.0
 40
1.0
 10
99.5996372231
 20
248.3595515927
 30
0.0
 10
99.6207859514
 20
248.4927015706
 30
0.0
 10
99.7111048524
 20
249.0924004119
 30
0.0
 10
99.7864495915
 20
249.6942811202
 30
0.0
 10
99.8398342074
 20
250.1628754205
 30
0.0
  0
SPLINE
  5
640
100
AcDbEntity
  8
0
100
AcDbSpline
 62
7
  6
CONTINUOUS
 70
0
 71
3
 72
19
 73
15
 74
0
 42
0.0000001
 43
0.0000001
 44
0.0000000001
 40
0.0
 40
0.0
 40
0.0
 40
0.0
 40
0.0123591323
 40
0.0206837007
 40
0.030927631
 40
0.0577396466
 40
0.0933305517
 40
0.1376144934
 40
0.1902347388
 40
0.2506517993
 40
0.3181798497
 40
0.471212702
 40
0.6417177327
 40
1.0
 40
1.0
 40
1.0
 40
1.0
 10
99.6994809191
 20
255.0875427999
 30
0.0
 10
99.720113471
 20
255.0875370874
 30
0.0
 10
99.7537139503
 20
255.0688123844
 30
0.0
 10
99.7861800348
 20
255.0290818782
 30
0.0
 10
99.8249919093
 20
254.9635063884
 30
0.0
 10
99.8673670493
 20
254.8492760296
 30
0.0
 10
99.910790386
 20
254.6764009543
 30
0.0
 10
99.9483199119
 20
254.4582381441
 30
0.0
 10
99.9792342294
 20
254.1973539347
 30
0.0
 10
100.0025923947
 20
253.8967507467
 30
0.0
 10
100.0237402032
 20
253.4280972061
 30
0.0
 10
100.0260825298
 20
252.7749629004
 30
0.0
 10
99.9842369918
 20
251.6373128536
 30
0.0
 10
99.9075395202
 20
250.7571543691
 30
0.0
 10
99.8398342521
 20
250.1628760007
 30
0.0
  0
SPLINE
  5
641
100
AcDbEntity
  8
0
100
AcDbSpline
 62
7
  6
CONTINUOUS
 70
0
 71
3
 72
9
 73
5
 74
0
 42
0.0000001
 43
0.0000001
 44
0.0000000001
 40
0.0
 40
0.0
 40
0.0
 40
0.0
 40
0.252051803
 40
1.0
 40
1.0
 40
1.0
 40
1.0
 10
99.1575305141
 20
225.1453777918
 30
0.0
 10
99.1294329163
 20
225.2755384245
 30
0.0
 10
99.0310043183
 20
225.7946599154
 30
0.0
 10
98.9854492234
 20
226.3239108702
 30
0.0
 10
98.9828652336
 20
226.7190429489
 30
0.0
  0
SPLINE
  5
642
100
AcDbEntity
  8
0
100
AcDbSpline
 62
7
  6
CONTINUOUS
 70
0
 71
3
 72
11
 73
7
 74
0
 42
0.0000001
 43
0.0000001
 44
0.0000000001
 40
0.0
 40
0.0
 40
0.0
 40
0.0
 40
0.0727754504
 40
0.202017237
 40
0.5245044974
 40
1.0
 40
1.0
 40
1.0
 40
1.0
 10
102.8173954892
 20
231.4256150051
 30
0.0
 10
102.8189427821
 20
231.4248706591
 30
0.0
 10
102.8257416664
 20
231.4211604599
 30
0.0
 10
102.8067271735
 20
231.4340447227
 30
0.0
 10
102.7972191465
 20
231.4447592817
 30
0.0
 10
102.7824076634
 20
231.4605336897
 30
0.0
 10
102.7756973661
 20
231.4695241419
 30
0.0
  0
SPLINE
  5
643
100
AcDbEntity
  8
0
100
AcDbSpline
 62
7
  6
CONTINUOUS
 70
0
 71
3
 72
9
 73
5
 74
0
 42
0.0000001
 43
0.0000001
 44
0.0000000001
 40
0.0
 40
0.0
 40
0.0
 40
0.0
 40
0.3433429977
 40
1.0
 40
1.0
 40
1.0
 40
1.0
 10
100.9921559227
 20
231.0761597721
 30
0.0
 10
100.9907491003
 20
231.0694597611
 30
0.0
 10
100.9859322825
 20
231.0501388747
 30
0.0
 10
100.9795797755
 20
231.0309963055
 30
0.0
 10
100.973358063
 20
231.0194754928
 30
0.0
  0
SPLINE
  5
644
100
AcDbEntity
  8
0
100
AcDbSpline
 62
7
  6
CONTINUOUS
 70
0
 71
3
 72
9
 73
5
 74
0
 42
0.0000001
 43
0.0000001
 44
0.0000000001
 40
0.0
 40
0.0
 40
0.0
 40
0.0
 40
0.443933492
 40
1.0
 40
1.0
 40
1.0
 40
1.0
 10
103.9808268636
 20
232.3550811204
 30
0.0
 10
103.9797030805
 20
232.3524684564
 30
0.0
 10
103.9757136139
 20
232.3410897717
 30
0.0
 10
103.9789318276
 20
232.3541911693
 30
0.0
 10
103.9793765108
 20
232.3577257964
 30
0.0
  0
SPLINE
  5
645
100
AcDbEntity
  8
0
100
AcDbSpline
 62
7
  6
CONTINUOUS
 70
0
 71
3
 72
8
 73
4
 74
0
 42
0.0000001
 43
0.0000001
 44
0.0000000001
 40
0.0
 40
0.0
 40
0.0
 40
0.0
 40
1.0
 40
1.0
 40
1.0
 40
1.0
 10
104.1711203264
 20
237.5616433818
 30
0.0
 10
104.0851748824
 20
237.4465852962
 30
0.0
 10
104.0232390885
 20
237.3095781408
 30
0.0
 10
103.9936716071
 20
237.1690407918
 30
0.0
  0
SPLINE
  5
646
100
AcDbEntity
  8
0
100
AcDbSpline
 62
7
  6
CONTINUOUS
 70
0
 71
3
 72
12
 73
8
 74
0
 42
0.0000001
 43
0.0000001
 44
0.0000000001
 40
0.0
 40
0.0
 40
0.0
 40
0.0
 40
0.101115327
 40
0.2068154064
 40
0.4402578671
 40
0.7089491955
 40
1.0
 40
1.0
 40
1.0
 40
1.0
 10
117.4102823416
 20
242.4027279541
 30
0.0
 10
117.4102823416
 20
242.3607782134
 30
0.0
 10
117.3973667691
 20
242.2745577357
 30
0.0
 10
117.32135418
 20
242.106286743
 30
0.0
 10
117.1328603897
 20
241.9257886961
 30
0.0
 10
116.8266444961
 20
241.7934883035
 30
0.0
 10
116.5930306606
 20
241.7630134924
 30
0.0
 10
116.4722823416
 20
241.7630134924
 30
0.0
  0
SPLINE
  5
647
100
AcDbEntity
  8
0
100
AcDbSpline
 62
7
  6
CONTINUOUS
 70
0
 71
3
 72
14
 73
10
 74
0
 42
0.0000001
 43
0.0000001
 44
0.0000000001
 40
0.0
 40
0.0
 40
0.0
 40
0.0
 40
0.0988051836
 40
0.2077005133
 40
0.3308226335
 40
0.4664492304
 40
0.6087267749
 40
0.7500308017
 40
1.0
 40
1.0
 40
1.0
 40
1.0
 10
112.8347823416
 20
242.4832037606
 30
0.0
 10
112.8347823416
 20
242.4166276572
 30
0.0
 10
112.7990136076
 20
242.2752273864
 30
0.0
 10
112.6554273433
 20
242.0980668139
 30
0.0
 10
112.4429219519
 20
241.9641679751
 30
0.0
 10
112.1828417127
 20
241.882385274
 30
0.0
 10
111.8985119598
 20
241.8597375334
 30
0.0
 10
111.5419684048
 20
241.907320401
 30
0.0
 10
111.2887311129
 20
242.0316126926
 30
0.0
 10
111.1741728747
 20
242.1550866518
 30
0.0
  0
SPLINE
  5
648
100
AcDbEntity
  8
0
100
AcDbSpline
 62
7
  6
CONTINUOUS
 70
0
 71
3
 72
9
 73
5
 74
0
 42
0.0000001
 43
0.0000001
 44
0.0000000001
 40
0.0
 40
0.0
 40
0.0
 40
0.0
 40
0.5197349288
 40
1.0
 40
1.0
 40
1.0
 40
1.0
 10
111.1741728747
 20
242.1550866518
 30
0.0
 10
111.1314088231
 20
242.2011789
 30
0.0
 10
111.0614012534
 20
242.303150487
 30
0.0
 10
111.0347823416
 20
242.425103677
 30
0.0
 10
111.0347823416
 20
242.4832037606
 30
0.0
  0
SPLINE
  5
649
100
AcDbEntity
  8
0
100
AcDbSpline
 62
7
  6
CONTINUOUS
 70
0
 71
3
 72
9
 73
5
 74
0
 42
0.0000001
 43
0.0000001
 44
0.0000000001
 40
0.0
 40
0.0
 40
0.0
 40
0.0
 40
0.465973313
 40
1.0
 40
1.0
 40
1.0
 40
1.0
 10
124.34492746
 20
248.3595515927
 30
0.0
 10
124.3005983
 20
248.6386429214
 30
0.0
 10
124.215083827
 20
249.2391094167
 30
0.0
 10
124.1413892084
 20
249.8410959534
 30
0.0
 10
124.1047304754
 20
250.1628754216
 30
0.0
  0
SPLINE
  5
64A
100
AcDbEntity
  8
0
100
AcDbSpline
 62
7
  6
CONTINUOUS
 70
0
 71
3
 72
19
 73
15
 74
0
 42
0.0000001
 43
0.0000001
 44
0.0000000001
 40
0.0
 40
0.0
 40
0.0
 40
0.0
 40
0.358282827
 40
0.5287880459
 40
0.6818209807
 40
0.749348917
 40
0.8097658059
 40
0.8623862481
 40
0.9066702095
 40
0.9422611059
 40
0.9690728013
 40
0.9793164829
 40
0.9876409436
 40
1.0
 40
1.0
 40
1.0
 40
1.0
 10
124.104730431
 20
250.1628760007
 30
0.0
 10
124.0370249954
 20
250.757155839
 30
0.0
 10
123.9603273522
 20
251.6373163778
 30
0.0
 10
123.9184820656
 20
252.7749688586
 30
0.0
 10
123.920824583
 20
253.4281040247
 30
0.0
 10
123.9419726841
 20
253.8967576384
 30
0.0
 10
123.9653311173
 20
254.1973609413
 30
0.0
 10
123.9962458609
 20
254.4582453963
 30
0.0
 10
124.0337757056
 20
254.6764087673
 30
0.0
 10
124.0771999292
 20
254.8492831502
 30
0.0
 10
124.1195750253
 20
254.9635128287
 30
0.0
 10
124.1583880872
 20
255.0290863301
 30
0.0
 10
124.1908543585
 20
255.0688159294
 30
0.0
 10
124.2244561564
 20
255.0875383672
 30
0.0
 10
124.2450886008
 20
255.0875426512
 30
0.0
  0
SPLINE
  5
64B
100
AcDbEntity
  8
0
100
AcDbSpline
 62
7
  6
CONTINUOUS
 70
0
 71
3
 72
9
 73
5
 74
0
 42
0.0000001
 43
0.0000001
 44
0.0000000001
 40
0.0
 40
0.0
 40
0.0
 40
0.0
 40
0.2483560894
 40
1.0
 40
1.0
 40
1.0
 40
1.0
 10
124.9616994677
 20
226.719045733
 30
0.0
 10
124.960841494
 20
226.5878407836
 30
0.0
 10
124.9434932054
 20
226.0597130116
 30
0.0
 10
124.8708249294
 20
225.5335340393
 30
0.0
 10
124.7870341613
 20
225.1453777563
 30
0.0
  0
SPLINE
  5
64C
100
AcDbEntity
  8
0
100
AcDbSpline
 62
7
  6
CONTINUOUS
 70
0
 71
3
 72
10
 73
6
 74
0
 42
0.0000001
 43
0.0000001
 44
0.0000000001
 40
0.0
 40
0.0
 40
0.0
 40
0.0
 40
0.5087441613
 40
0.7472030731
 40
1.0
 40
1.0
 40
1.0
 40
1.0
 10
105.0257003618
 20
226.7544604753
 30
0.0
 10
105.0192686352
 20
226.7574102172
 30
0.0
 10
105.0097806405
 20
226.7642585405
 30
0.0
 10
105.0059108099
 20
226.7772654751
 30
0.0
 10
105.00482351
 20
226.7853193312
 30
0.0
 10
105.0071284752
 20
226.7879744427
 30
0.0
  0
SPLINE
  5
64D
100
AcDbEntity
  8
0
100
AcDbSpline
 62
7
  6
CONTINUOUS
 70
0
 71
3
 72
12
 73
8
 74
0
 42
0.0000001
 43
0.0000001
 44
0.0000000001
 40
0.0
 40
0.0
 40
0.0
 40
0.0
 40
0.1003048291
 40
0.2185442384
 40
0.4884775092
 40
0.7647043175
 40
1.0
 40
1.0
 40
1.0
 40
1.0
 10
105.9069406693
 20
225.5193093244
 30
0.0
 10
105.8913538514
 20
225.5680719464
 30
0.0
 10
105.8492860447
 20
225.6717026263
 30
0.0
 10
105.7354714058
 20
225.8936822711
 30
0.0
 10
105.5503421725
 20
226.1789445921
 30
0.0
 10
105.3006911876
 20
226.4903739597
 30
0.0
 10
105.1157998785
 20
226.6764959918
 30
0.0
 10
105.0224363188
 20
226.7520253407
 30
0.0
  0
SPLINE
  5
64E
100
AcDbEntity
  8
0
100
AcDbSpline
 62
7
  6
CONTINUOUS
 70
0
 71
3
 72
8
 73
4
 74
0
 42
0.0000001
 43
0.0000001
 44
0.0000000001
 40
0.0
 40
0.0
 40
0.0
 40
0.0
 40
1.0
 40
1.0
 40
1.0
 40
1.0
 10
108.082212457
 20
243.2112301556
 30
0.0
 10
108.0676269292
 20
243.2253740987
 30
0.0
 10
108.0520072205
 20
243.2385063031
 30
0.0
 10
108.0356797856
 20
243.2505977717
 30
0.0
  0
SPLINE
  5
64F
100
AcDbEntity
  8
0
100
AcDbSpline
 62
7
  6
CONTINUOUS
 70
0
 71
3
 72
9
 73
5
 74
0
 42
0.0000001
 43
0.0000001
 44
0.0000000001
 40
0.0
 40
0.0
 40
0.0
 40
0.0
 40
0.2342539572
 40
1.0
 40
1.0
 40
1.0
 40
1.0
 10
108.0198834594
 20
243.2618275745
 30
0.0
 10
107.992976682
 20
243.2801895999
 30
0.0
 10
107.8707673341
 20
243.3476577779
 30
0.0
 10
107.7282662274
 20
243.3742883417
 30
0.0
 10
107.6217823416
 20
243.3742883417
 30
0.0
  0
SPLINE
  5
650
100
AcDbEntity
  8
0
100
AcDbSpline
 62
7
  6
CONTINUOUS
 70
0
 71
3
 72
12
 73
8
 74
0
 42
0.0000001
 43
0.0000001
 44
0.0000000001
 40
0.0
 40
0.0
 40
0.0
 40
0.0
 40
0.3837370171
 40
0.673181782
 40
0.7834108625
 40
0.8722707691
 40
1.0
 40
1.0
 40
1.0
 40
1.0
 10
99.4618839735
 20
254.6301691791
 30
0.0
 10
99.4775793693
 20
254.6968883769
 30
0.0
 10
99.5088826681
 20
254.8130978021
 30
0.0
 10
99.5589481133
 20
254.944288997
 30
0.0
 10
99.6035207563
 20
255.0199404488
 30
0.0
 10
99.6395873478
 20
255.0651150502
 30
0.0
 10
99.6766668003
 20
255.0875491165
 30
0.0
 10
99.6994809191
 20
255.0875427999
 30
0.0
  0
SPLINE
  5
651
100
AcDbEntity
  8
0
100
AcDbSpline
 62
7
  6
CONTINUOUS
 70
0
 71
3
 72
9
 73
5
 74
0
 42
0.0000001
 43
0.0000001
 44
0.0000000001
 40
0.0
 40
0.0
 40
0.0
 40
0.0
 40
0.2032644607
 40
1.0
 40
1.0
 40
1.0
 40
1.0
 10
99.2262278306
 20
247.2679289441
 30
0.0
 10
99.2237106414
 20
247.2909694546
 30
0.0
 10
99.2131296566
 20
247.4045174009
 30
0.0
 10
99.2073356942
 20
247.5184488127
 30
0.0
 10
99.2034918974
 20
247.6092167001
 30
0.0
  0
SPLINE
  5
652
100
AcDbEntity
  8
0
100
AcDbSpline
 62
7
  6
CONTINUOUS
 70
0
 71
3
 72
12
 73
8
 74
0
 42
0.0000001
 43
0.0000001
 44
0.0000000001
 40
0.0
 40
0.0
 40
0.0
 40
0.0
 40
0.1102561222
 40
0.1937887089
 40
0.3016933463
 40
0.5962398616
 40
1.0
 40
1.0
 40
1.0
 40
1.0
 10
99.2852584438
 20
247.0885912239
 30
0.0
 10
99.278068111
 20
247.0886659902
 30
0.0
 10
99.2667101335
 20
247.098214964
 30
0.0
 10
99.2576667204
 20
247.1152563038
 30
0.0
 10
99.2462431203
 20
247.1451000246
 30
0.0
 10
99.235180772
 20
247.1965771238
 30
0.0
 10
99.2290884014
 20
247.2417489358
 30
0.0
 10
99.2262280499
 20
247.2679256902
 30
0.0
  0
SPLINE
  5
653
100
AcDbEntity
  8
0
100
AcDbSpline
 62
7
  6
CONTINUOUS
 70
0
 71
3
 72
11
 73
7
 74
0
 42
0.0000001
 43
0.0000001
 44
0.0000000001
 40
0.0
 40
0.0
 40
0.0
 40
0.0
 40
0.2497813771
 40
0.4992149204
 40
0.7491764978
 40
1.0
 40
1.0
 40
1.0
 40
1.0
 10
116.7222823416
 20
260.086620138
 30
0.0
 10
116.7222823416
 20
260.2909390354
 30
0.0
 10
116.6505015434
 20
260.7027637241
 30
0.0
 10
116.3371848048
 20
261.2444751824
 30
0.0
 10
115.8424791657
 20
261.6347546732
 30
0.0
 10
115.4274536879
 20
261.7326963926
 30
0.0
 10
115.2222823416
 20
261.7326963926
 30
0.0
  0
SPLINE
  5
654
100
AcDbEntity
  8
0
100
AcDbSpline
 62
7
  6
CONTINUOUS
 70
0
 71
3
 72
11
 73
7
 74
0
 42
0.0000001
 43
0.0000001
 44
0.0000000001
 40
0.0
 40
0.0
 40
0.0
 40
0.0
 40
0.2498165677
 40
0.4992120502
 40
0.7491462656
 40
1.0
 40
1.0
 40
1.0
 40
1.0
 10
107.2222823416
 20
260.086620138
 30
0.0
 10
107.2222823416
 20
260.2909501129
 30
0.0
 10
107.2946591922
 20
260.7025028634
 30
0.0
 10
107.6068382998
 20
261.2449193263
 30
0.0
 10
108.1024795131
 20
261.6338439918
 30
0.0
 10
108.5171040472
 20
261.7326963927
 30
0.0
 10
108.7222823416
 20
261.7326963927
 30
0.0
  0
SPLINE
  5
655
100
AcDbEntity
  8
0
100
AcDbSpline
 62
7
  6
CONTINUOUS
 70
0
 71
3
 72
12
 73
8
 74
0
 42
0.0000001
 43
0.0000001
 44
0.0000000001
 40
0.0
 40
0.0
 40
0.0
 40
0.0
 40
0.1277288181
 40
0.2165898656
 40
0.3268200558
 40
0.6162659104
 40
1.0
 40
1.0
 40
1.0
 40
1.0
 10
124.2450886008
 20
255.0875426512
 30
0.0
 10
124.2679044513
 20
255.0875473884
 30
0.0
 10
124.3049849441
 20
255.0651082435
 30
0.0
 10
124.3410523744
 20
255.0199282728
 30
0.0
 10
124.3856260585
 20
254.9442686444
 30
0.0
 10
124.4356922746
 20
254.8130661544
 30
0.0
 10
124.466996026
 20
254.6968473166
 30
0.0
 10
124.482691586
 20
254.6301231236
 30
0.0
  0
SPLINE
  5
656
100
AcDbEntity
  8
0
100
AcDbSpline
 62
7
  6
CONTINUOUS
 70
0
 71
3
 72
12
 73
8
 74
0
 42
0.0000001
 43
0.0000001
 44
0.0000000001
 40
0.0
 40
0.0
 40
0.0
 40
0.0
 40
0.109710473
 40
0.1934026853
 40
0.3017244054
 40
0.5970400452
 40
1.0
 40
1.0
 40
1.0
 40
1.0
 10
124.6594073593
 20
247.0875492596
 30
0.0
 10
124.6665979465
 20
247.0875654651
 30
0.0
 10
124.6780170784
 20
247.0971973315
 30
0.0
 10
124.6869864031
 20
247.114373454
 30
0.0
 10
124.6983727682
 20
247.1444992284
 30
0.0
 10
124.7093639757
 20
247.1962751661
 30
0.0
 10
124.715467799
 20
247.2416713066
 30
0.0
 10
124.7183366327
 20
247.2679256926
 30
0.0
  0
SPLINE
  5
657
100
AcDbEntity
  8
0
100
AcDbSpline
 62
7
  6
CONTINUOUS
 70
0
 71
3
 72
13
 73
9
 74
0
 42
0.0000001
 43
0.0000001
 44
0.0000000001
 40
0.0
 40
0.0
 40
0.0
 40
0.0
 40
0.2906670911
 40
0.5590041842
 40
0.6806390546
 40
0.7934572534
 40
0.8990179807
 40
1.0
 40
1.0
 40
1.0
 40
1.0
 10
116.6647823416
 20
241.2515147223
 30
0.0
 10
116.8771861012
 20
241.2515147223
 30
0.0
 10
117.2875497463
 20
241.3045947609
 30
0.0
 10
117.7523843691
 20
241.5063880602
 30
0.0
 10
118.038399209
 20
241.7404809304
 30
0.0
 10
118.194957247
 20
241.9363262684
 30
0.0
 10
118.2920589643
 20
242.151359728
 30
0.0
 10
118.3147823416
 20
242.3030198287
 30
0.0
 10
118.3147823416
 20
242.3768120164
 30
0.0
  0
SPLINE
  5
658
100
AcDbEntity
  8
0
100
AcDbSpline
 62
7
  6
CONTINUOUS
 70
0
 71
3
 72
12
 73
8
 74
0
 42
0.0000001
 43
0.0000001
 44
0.0000000001
 40
0.0
 40
0.0
 40
0.0
 40
0.0
 40
0.2910508045
 40
0.5597421329
 40
0.7931845936
 40
0.898884673
 40
1.0
 40
1.0
 40
1.0
 40
1.0
 10
116.4722823416
 20
243.8090085726
 30
0.0
 10
116.5930306606
 20
243.8090085726
 30
0.0
 10
116.8266444961
 20
243.7785337615
 30
0.0
 10
117.1328603897
 20
243.6462333689
 30
0.0
 10
117.32135418
 20
243.4657353219
 30
0.0
 10
117.3973667691
 20
243.2974643292
 30
0.0
 10
117.4102823416
 20
243.2112438515
 30
0.0
 10
117.4102823416
 20
243.1692941108
 30
0.0
  0
SPLINE
  5
659
100
AcDbEntity
  8
0
100
AcDbSpline
 62
7
  6
CONTINUOUS
 70
0
 71
3
 72
9
 73
5
 74
0
 42
0.0000001
 43
0.0000001
 44
0.0000000001
 40
0.0
 40
0.0
 40
0.0
 40
0.0
 40
0.2243316209
 40
1.0
 40
1.0
 40
1.0
 40
1.0
 10
107.7998447826
 20
241.8391100332
 30
0.0
 10
107.7655156554
 20
241.8796615142
 30
0.0
 10
107.5841519575
 20
242.0362128385
 30
0.0
 10
107.3340363363
 20
242.0948594183
 30
0.0
 10
107.1503257298
 20
242.0948594183
 30
0.0
  0
SPLINE
  5
65A
100
AcDbEntity
  8
0
100
AcDbSpline
 62
7
  6
CONTINUOUS
 70
0
 71
3
 72
11
 73
7
 74
0
 42
0.0000001
 43
0.0000001
 44
0.0000000001
 40
0.0
 40
0.0
 40
0.0
 40
0.0
 40
0.282660767
 40
0.5407563999
 40
0.7770227345
 40
1.0
 40
1.0
 40
1.0
 40
1.0
 10
108.6814517143
 20
242.2599891208
 30
0.0
 10
108.7631723133
 20
242.2994833661
 30
0.0
 10
108.9130101985
 20
242.3902029999
 30
0.0
 10
109.0928877708
 20
242.5668932318
 30
0.0
 10
109.2079932227
 20
242.7704645332
 30
0.0
 10
109.2348004516
 20
242.919042902
 30
0.0
 10
109.2347791652
 20
242.990641957
 30
0.0
  0
SPLINE
  5
65B
100
AcDbEntity
  8
0
100
AcDbSpline
 62
7
  6
CONTINUOUS
 70
0
 71
3
 72
9
 73
5
 74
0
 42
0.0000001
 43
0.0000001
 44
0.0000000001
 40
0.0
 40
0.0
 40
0.0
 40
0.0
 40
0.2747919694
 40
1.0
 40
1.0
 40
1.0
 40
1.0
 10
107.1503257298
 20
242.5336716392
 30
0.0
 10
107.2152564023
 20
242.5336716392
 30
0.0
 10
107.4493380225
 20
242.5135699153
 30
0.0
 10
107.6891256709
 20
242.4087098483
 30
0.0
 10
107.7998447826
 20
242.2779222542
 30
0.0
  0
SPLINE
  5
65C
100
AcDbEntity
  8
0
100
AcDbSpline
 62
7
  6
CONTINUOUS
 70
0
 71
3
 72
9
 73
5
 74
0
 42
0.0000001
 43
0.0000001
 44
0.0000000001
 40
0.0
 40
0.0
 40
0.0
 40
0.0
 40
0.2459427713
 40
1.0
 40
1.0
 40
1.0
 40
1.0
 10
110.1347823416
 20
242.4832037606
 30
0.0
 10
110.1347823416
 20
242.4511258106
 30
0.0
 10
110.1423369445
 20
242.3207425389
 30
0.0
 10
110.1806189061
 20
242.1926629635
 30
0.0
 10
110.2228806122
 20
242.1038554105
 30
0.0
  0
SPLINE
  5
65D
100
AcDbEntity
  8
0
100
AcDbSpline
 62
7
  6
CONTINUOUS
 70
0
 71
3
 72
16
 73
12
 74
0
 42
0.0000001
 43
0.0000001
 44
0.0000000001
 40
0.0
 40
0.0
 40
0.0
 40
0.0
 40
0.1102085353
 40
0.2362681027
 40
0.3752680457
 40
0.5194703517
 40
0.6594861127
 40
0.7872450974
 40
0.8991223332
 40
0.9504587308
 40
1.0
 40
1.0
 40
1.0
 40
1.0
 10
110.2228806122
 20
242.1038554105
 30
0.0
 10
110.2921515188
 20
241.958291488
 30
0.0
 10
110.5200661526
 20
241.6829908267
 30
0.0
 10
111.0020854152
 20
241.4045873444
 30
0.0
 10
111.5880515964
 20
241.2533986265
 30
0.0
 10
112.2127446746
 20
241.2453358207
 30
0.0
 10
112.8063898212
 20
241.3810582806
 30
0.0
 10
113.3028011705
 20
241.6464261932
 30
0.0
 10
113.5975181884
 20
241.9713332772
 30
0.0
 10
113.71502688
 20
242.2625540031
 30
0.0
 10
113.7347823416
 20
242.4107380433
 30
0.0
 10
113.7347823416
 20
242.4832037606
 30
0.0
  0
SPLINE
  5
65E
100
AcDbEntity
  8
0
100
AcDbSpline
 62
7
  6
CONTINUOUS
 70
0
 71
3
 72
11
 73
7
 74
0
 42
0.0000001
 43
0.0000001
 44
0.0000000001
 40
0.0
 40
0.0
 40
0.0
 40
0.0
 40
0.2892453422
 40
0.55174459
 40
0.7854480129
 40
1.0
 40
1.0
 40
1.0
 40
1.0
 10
108.3977926541
 20
242.5945903968
 30
0.0
 10
108.5154934387
 20
242.625816125
 30
0.0
 10
108.7348507393
 20
242.7092905522
 30
0.0
 10
109.0082511614
 20
242.9027355014
 30
0.0
 10
109.1902721441
 20
243.148130446
 30
0.0
 10
109.2347311362
 20
243.338697901
 30
0.0
 10
109.2347370114
 20
243.42902438
 30
0.0
  0
SPLINE
  5
65F
100
AcDbEntity
  8
0
100
AcDbSpline
 62
7
  6
CONTINUOUS
 70
0
 71
3
 72
11
 73
7
 74
0
 42
0.0000001
 43
0.0000001
 44
0.0000000001
 40
0.0
 40
0.0
 40
0.0
 40
0.0
 40
0.2915303731
 40
0.5608989093
 40
0.7947152697
 40
1.0
 40
1.0
 40
1.0
 40
1.0
 10
107.6217823416
 20
243.8131005627
 30
0.0
 10
107.6942311963
 20
243.8131005627
 30
0.0
 10
107.8344335331
 20
243.7948752499
 30
0.0
 10
108.0182924421
 20
243.7150766962
 30
0.0
 10
108.1497436757
 20
243.5904440685
 30
0.0
 10
108.1847323562
 20
243.4801512462
 30
0.0
 10
108.1847323562
 20
243.429135486
 30
0.0
  0
SPLINE
  5
660
100
AcDbEntity
  8
0
100
AcDbSpline
 62
7
  6
CONTINUOUS
 70
0
 71
3
 72
19
 73
15
 74
0
 42
0.0000001
 43
0.0000001
 44
0.0000000001
 40
0.0
 40
0.0
 40
0.0
 40
0.0
 40
0.0505637348
 40
0.1032902565
 40
0.1596539487
 40
0.2205059944
 40
0.3546699333
 40
0.5
 40
0.6453300667
 40
0.7794940056
 40
0.8403460513
 40
0.8967097435
 40
0.9494362652
 40
1.0
 40
1.0
 40
1.0
 40
1.0
 10
110.1347823416
 20
242.0443915396
 30
0.0
 10
110.1347823416
 20
241.9637733892
 30
0.0
 10
110.1592871429
 20
241.798222249
 30
0.0
 10
110.2656521508
 20
241.5638601796
 30
0.0
 10
110.4361892915
 20
241.3501789793
 30
0.0
 10
110.7482973917
 20
241.0949325919
 30
0.0
 10
111.2556457706
 20
240.8746702643
 30
0.0
 10
111.9347823416
 20
240.7867327102
 30
0.0
 10
112.6139189125
 20
240.8746702643
 30
0.0
 10
113.1212672915
 20
241.0949325919
 30
0.0
 10
113.4333753916
 20
241.3501789793
 30
0.0
 10
113.6039125323
 20
241.5638601796
 30
0.0
 10
113.7102775403
 20
241.798222249
 30
0.0
 10
113.7347823416
 20
241.9637733892
 30
0.0
 10
113.7347823416
 20
242.0443915396
 30
0.0
  0
SPLINE
  5
661
100
AcDbEntity
  8
0
100
AcDbSpline
 62
7
  6
CONTINUOUS
 70
0
 71
3
 72
9
 73
5
 74
0
 42
0.0000001
 43
0.0000001
 44
0.0000000001
 40
0.0
 40
0.0
 40
0.0
 40
0.0
 40
0.485599904
 40
1.0
 40
1.0
 40
1.0
 40
1.0
 10
117.4102823416
 20
242.7304818898
 30
0.0
 10
117.4102823416
 20
242.7809783963
 30
0.0
 10
117.3915290688
 20
242.8856366907
 30
0.0
 10
117.3400650677
 20
242.978055375
 30
0.0
 10
117.3080480801
 20
243.0209067457
 30
0.0
  0
SPLINE
  5
662
100
AcDbEntity
  8
0
100
AcDbSpline
 62
7
  6
CONTINUOUS
 70
0
 71
3
 72
10
 73
6
 74
0
 42
0.0000001
 43
0.0000001
 44
0.0000000001
 40
0.0
 40
0.0
 40
0.0
 40
0.0
 40
0.2203403193
 40
0.5930152334
 40
1.0
 40
1.0
 40
1.0
 40
1.0
 10
117.3080480801
 20
243.0209067457
 30
0.0
 10
117.2670268744
 20
243.0758093153
 30
0.0
 10
117.130905679
 20
243.2047872533
 30
0.0
 10
116.8427452003
 20
243.3371262462
 30
0.0
 10
116.5988713257
 20
243.3701963516
 30
0.0
 10
116.4722823416
 20
243.3701963516
 30
0.0
  0
SPLINE
  5
663
100
AcDbEntity
  8
0
100
AcDbSpline
 62
7
  6
CONTINUOUS
 70
0
 71
3
 72
13
 73
9
 74
0
 42
0.0000001
 43
0.0000001
 44
0.0000000001
 40
0.0
 40
0.0
 40
0.0
 40
0.0
 40
0.2906962982
 40
0.5589810456
 40
0.680686119
 40
0.7934205273
 40
0.8989019998
 40
1.0
 40
1.0
 40
1.0
 40
1.0
 10
116.6647823416
 20
240.8127025014
 30
0.0
 10
116.8772107968
 20
240.8127025014
 30
0.0
 10
117.2876127855
 20
240.8657126743
 30
0.0
 10
117.7523213835
 20
241.0677495118
 30
0.0
 10
118.0385015608
 20
241.3016102461
 30
0.0
 10
118.1948520852
 20
241.4975112653
 30
0.0
 10
118.2922599224
 20
241.7123818049
 30
0.0
 10
118.3147823416
 20
241.8641216892
 30
0.0
 10
118.3147823416
 20
241.9379997955
 30
0.0
  0
SPLINE
  5
664
100
AcDbEntity
  8
0
100
AcDbSpline
 62
7
  6
CONTINUOUS
 70
0
 71
3
 72
13
 73
9
 74
0
 42
0.0000001
 43
0.0000001
 44
0.0000000001
 40
0.0
 40
0.0
 40
0.0
 40
0.0
 40
0.101146868
 40
0.2065769125
 40
0.3193071034
 40
0.4410102163
 40
0.7093196132
 40
1.0
 40
1.0
 40
1.0
 40
1.0
 10
105.0065176904
 20
226.8839190555
 30
0.0
 10
105.0065176904
 20
227.0391738416
 30
0.0
 10
105.0536227685
 20
227.3579432503
 30
0.0
 10
105.2585361838
 20
227.8091507981
 30
0.0
 10
105.5868620006
 20
228.2205349324
 30
0.0
 10
106.1877691263
 20
228.7120892174
 30
0.0
 10
107.1641162828
 20
229.1360839002
 30
0.0
 10
108.0261042027
 20
229.2475648897
 30
0.0
 10
108.4722823416
 20
229.2475648639
 30
0.0
  0
LINE
  5
665
100
AcDbEntity
  8
0
100
AcDbLine
 62
7
  6
CONTINUOUS
 10
122.8741821125
 20
223.2551430504
 11
122.9964955005
 21
223.5664615105
  0
SPLINE
  5
666
100
AcDbEntity
  8
0
100
AcDbSpline
 62
7
  6
CONTINUOUS
 70
0
 71
3
 72
10
 73
6
 74
0
 42
0.0000001
 43
0.0000001
 44
0.0000000001
 40
0.0
 40
0.0
 40
0.0
 40
0.0
 40
0.2519766681
 40
0.4913789366
 40
1.0
 40
1.0
 40
1.0
 40
1.0
 10
118.9373401409
 20
226.7879879069
 30
0.0
 10
118.9393063668
 20
226.7850813333
 30
0.0
 10
118.9387772929
 20
226.7773996877
 30
0.0
 10
118.9348132784
 20
226.7641648904
 30
0.0
 10
118.9254047852
 20
226.7571800101
 30
0.0
 10
118.9188643213
 20
226.7544604753
 30
0.0
  0
SPLINE
  5
667
100
AcDbEntity
  8
0
100
AcDbSpline
 62
7
  6
CONTINUOUS
 70
0
 71
3
 72
12
 73
8
 74
0
 42
0.0000001
 43
0.0000001
 44
0.0000000001
 40
0.0
 40
0.0
 40
0.0
 40
0.0
 40
0.2352975977
 40
0.5115260911
 40
0.7814587152
 40
0.8996963385
 40
1.0
 40
1.0
 40
1.0
 40
1.0
 10
118.9221283642
 20
226.7520253406
 30
0.0
 10
118.8287641206
 20
226.6764952874
 30
0.0
 10
118.643871456
 20
226.4903720228
 30
0.0
 10
118.3942199378
 20
226.1789411054
 30
0.0
 10
118.2090915557
 20
225.8936787373
 30
0.0
 10
118.0952778906
 20
225.6717006402
 30
0.0
 10
118.0532109064
 20
225.5680712955
 30
0.0
 10
118.0376240138
 20
225.5193093244
 30
0.0
  0
SPLINE
  5
668
100
AcDbEntity
  8
0
100
AcDbSpline
 62
7
  6
CONTINUOUS
 70
0
 71
3
 72
13
 73
9
 74
0
 42
0.0000001
 43
0.0000001
 44
0.0000000001
 40
0.0
 40
0.0
 40
0.0
 40
0.0
 40
0.2906803868
 40
0.5589897837
 40
0.6806928966
 40
0.7934230875
 40
0.898853132
 40
1.0
 40
1.0
 40
1.0
 40
1.0
 10
115.4722823416
 20
229.2475648639
 30
0.0
 10
115.9184604804
 20
229.2475648897
 30
0.0
 10
116.7804484004
 20
229.1360839002
 30
0.0
 10
117.7567955568
 20
228.7120892174
 30
0.0
 10
118.3577026825
 20
228.2205349324
 30
0.0
 10
118.6860284993
 20
227.8091507981
 30
0.0
 10
118.8909419146
 20
227.3579432503
 30
0.0
 10
118.9380469927
 20
227.0391738416
 30
0.0
 10
118.9380469927
 20
226.8839190555
 30
0.0
  0
LINE
  5
669
100
AcDbEntity
  8
0
100
AcDbLine
 62
7
  6
CONTINUOUS
 10
124.1272997838
 20
223.3551975534
 11
123.7057920912
 21
225.3770732655
  0
SPLINE
  5
66A
100
AcDbEntity
  8
0
100
AcDbSpline
 62
7
  6
CONTINUOUS
 70
0
 71
3
 72
9
 73
5
 74
0
 42
0.0000001
 43
0.0000001
 44
0.0000000001
 40
0.0
 40
0.0
 40
0.0
 40
0.0
 40
0.2960800538
 40
1.0
 40
1.0
 40
1.0
 40
1.0
 10
124.7411325372
 20
247.6105884877
 30
0.0
 10
124.7397023259
 20
247.5767230459
 30
0.0
 10
124.7343001015
 20
247.4623815116
 30
0.0
 10
124.7270888164
 20
247.348037994
 30
0.0
 10
124.7183368587
 20
247.2679289853
 30
0.0
  0
LINE
  5
66B
100
AcDbEntity
  8
0
100
AcDbLine
 62
7
  6
CONTINUOUS
 10
100.2387725919
 20
225.3770732655
 11
99.8172652911
 21
223.3551994367
  0
LINE
  5
66C
100
AcDbEntity
  8
0
100
AcDbLine
 62
7
  6
CONTINUOUS
 10
100.9480692146
 20
223.5664616737
 11
101.0703825776
 21
223.2551432769
  0
SPLINE
  5
66D
100
AcDbEntity
  8
RUNDUNGEN
100
AcDbSpline
 62
7
  6
CONTINUOUS
 70
0
 71
3
 72
10
 73
6
 74
0
 42
0.0000001
 43
0.0000001
 44
0.0000000001
 40
0.0
 40
0.0
 40
0.0
 40
0.0
 40
0.6041076109
 40
0.8322056966
 40
1.0
 40
1.0
 40
1.0
 40
1.0
 10
100.7979718024
 20
278.4116984884
 30
0.0
 10
101.507316019
 20
278.4876130328
 30
0.0
 10
102.4837821724
 20
278.5988226296
 30
0.0
 10
103.6571760504
 20
278.7316307944
 30
0.0
 10
104.1221595914
 20
278.780557304
 30
0.0
 10
104.3195389126
 20
278.7980104011
 30
0.0
  0
SPLINE
  5
66E
100
AcDbEntity
  8
RUNDUNGEN
100
AcDbSpline
 62
7
  6
CONTINUOUS
 70
0
 71
3
 72
9
 73
5
 74
0
 42
0.0000001
 43
0.0000001
 44
0.0000000001
 40
0.0
 40
0.0
 40
0.0
 40
0.0
 40
0.5376573902
 40
1.0
 40
1.0
 40
1.0
 40
1.0
 10
101.9722838093
 20
170.7973427018
 30
0.0
 10
101.9722919182
 20
170.9139515198
 30
0.0
 10
101.981221114
 20
171.130999204
 30
0.0
 10
102.0171539841
 20
171.3459341693
 30
0.0
 10
102.0432458769
 20
171.4427543684
 30
0.0
  0
SPLINE
  5
66F
100
AcDbEntity
  8
RUNDUNGEN
100
AcDbSpline
 62
7
  6
CONTINUOUS
 70
0
 71
3
 72
9
 73
5
 74
0
 42
0.0000001
 43
0.0000001
 44
0.0000000001
 40
0.0
 40
0.0
 40
0.0
 40
0.0
 40
0.2699270725
 40
1.0
 40
1.0
 40
1.0
 40
1.0
 10
102.0432458769
 20
171.4427543684
 30
0.0
 10
102.0489378884
 20
171.4638759363
 30
0.0
 10
102.0717621196
 20
171.541614128
 30
0.0
 10
102.1018124335
 20
171.6174719564
 30
0.0
 10
102.1293263815
 20
171.6698509349
 30
0.0
  0
SPLINE
  5
670
100
AcDbEntity
  8
RUNDUNGEN
100
AcDbSpline
 62
7
  6
CONTINUOUS
 70
0
 71
3
 72
9
 73
5
 74
0
 42
0.0000001
 43
0.0000001
 44
0.0000000001
 40
0.0
 40
0.0
 40
0.0
 40
0.0
 40
0.5622750529
 40
1.0
 40
1.0
 40
1.0
 40
1.0
 10
102.1293263815
 20
171.6698509349
 30
0.0
 10
102.1613565182
 20
171.7308274928
 30
0.0
 10
102.2311487032
 20
171.8347035244
 30
0.0
 10
102.345026616
 20
171.8979616773
 30
0.0
 10
102.3980481747
 20
171.9059513591
 30
0.0
  0
SPLINE
  5
671
100
AcDbEntity
  8
KONSTRUKTIONSELEMENTE
100
AcDbSpline
 62
7
  6
CONTINUOUS
 70
0
 71
3
 72
9
 73
5
 74
0
 42
0.0000001
 43
0.0000001
 44
0.0000000001
 40
0.0
 40
0.0
 40
0.0
 40
0.0
 40
0.2684481478
 40
1.0
 40
1.0
 40
1.0
 40
1.0
 10
108.2171634354
 20
256.9267509644
 30
0.0
 10
108.2172891843
 20
257.0304772682
 30
0.0
 10
108.218278191
 20
257.4168691127
 30
0.0
 10
108.2222725001
 20
257.8032507005
 30
0.0
 10
108.2222837964
 20
258.0859169286
 30
0.0
  0
SPLINE
  5
672
100
AcDbEntity
  8
0
100
AcDbSpline
 62
7
  6
CONTINUOUS
 70
0
 71
3
 72
10
 73
6
 74
0
 42
0.0000001
 43
0.0000001
 44
0.0000000001
 40
0.0
 40
0.0
 40
0.0
 40
0.0
 40
0.6041076109
 40
0.8322056966
 40
1.0
 40
1.0
 40
1.0
 40
1.0
 10
123.1465957905
 20
278.4116984884
 30
0.0
 10
122.4372515739
 20
278.4876130328
 30
0.0
 10
121.4607854205
 20
278.5988226296
 30
0.0
 10
120.2873915424
 20
278.7316307944
 30
0.0
 10
119.8224080015
 20
278.780557304
 30
0.0
 10
119.6250286802
 20
278.7980104011
 30
0.0
  0
SPLINE
  5
673
100
AcDbEntity
  8
0
100
AcDbSpline
 62
7
  6
CONTINUOUS
 70
0
 71
3
 72
9
 73
5
 74
0
 42
0.0000001
 43
0.0000001
 44
0.0000000001
 40
0.0
 40
0.0
 40
0.0
 40
0.0
 40
0.5376640593
 40
1.0
 40
1.0
 40
1.0
 40
1.0
 10
121.9722837922
 20
170.7971576942
 30
0.0
 10
121.9722809497
 20
170.9138010638
 30
0.0
 10
121.9633584246
 20
171.1309107729
 30
0.0
 10
121.9274206397
 20
171.3459080796
 30
0.0
 10
121.901321716
 20
171.4427543684
 30
0.0
  0
SPLINE
  5
674
100
AcDbEntity
  8
0
100
AcDbSpline
 62
7
  6
CONTINUOUS
 70
0
 71
3
 72
9
 73
5
 74
0
 42
0.0000001
 43
0.0000001
 44
0.0000000001
 40
0.0
 40
0.0
 40
0.0
 40
0.0
 40
0.2699270725
 40
1.0
 40
1.0
 40
1.0
 40
1.0
 10
121.901321716
 20
171.4427543684
 30
0.0
 10
121.8956297045
 20
171.4638759363
 30
0.0
 10
121.8728054732
 20
171.541614128
 30
0.0
 10
121.8427551594
 20
171.6174719564
 30
0.0
 10
121.8152412114
 20
171.6698509349
 30
0.0
  0
SPLINE
  5
675
100
AcDbEntity
  8
0
100
AcDbSpline
 62
7
  6
CONTINUOUS
 70
0
 71
3
 72
9
 73
5
 74
0
 42
0.0000001
 43
0.0000001
 44
0.0000000001
 40
0.0
 40
0.0
 40
0.0
 40
0.0
 40
0.5622750529
 40
1.0
 40
1.0
 40
1.0
 40
1.0
 10
121.8152412114
 20
171.6698509349
 30
0.0
 10
121.7832110746
 20
171.7308274928
 30
0.0
 10
121.7134188897
 20
171.8347035244
 30
0.0
 10
121.5995409768
 20
171.8979616773
 30
0.0
 10
121.5465194182
 20
171.9059513591
 30
0.0
  0
SPLINE
  5
676
100
AcDbEntity
  8
0
100
AcDbSpline
 62
7
  6
CONTINUOUS
 70
0
 71
3
 72
9
 73
5
 74
0
 42
0.0000001
 43
0.0000001
 44
0.0000000001
 40
0.0
 40
0.0
 40
0.0
 40
0.0
 40
0.2684499961
 40
1.0
 40
1.0
 40
1.0
 40
1.0
 10
115.7274043488
 20
256.9265930181
 30
0.0
 10
115.7272787542
 20
257.0303341699
 30
0.0
 10
115.726290205
 20
257.4167786653
 30
0.0
 10
115.7222950943
 20
257.8032128995
 30
0.0
 10
115.7222837964
 20
258.0859169286
 30
0.0
  0
SPLINE
  5
677
100
AcDbEntity
  8
RUNDUNGEN
100
AcDbSpline
 62
7
  6
CONTINUOUS
 70
0
 71
3
 72
9
 73
5
 74
0
 42
0.0000001
 43
0.0000001
 44
0.0000000001
 40
0.0
 40
0.0
 40
0.0
 40
0.0
 40
0.2750883827
 40
1.0
 40
1.0
 40
1.0
 40
1.0
 10
102.1483647148
 20
168.5025131528
 30
0.0
 10
102.1293150635
 20
168.4336570069
 30
0.0
 10
102.0633415697
 20
168.1825431763
 30
0.0
 10
102.0114554152
 20
167.9271019588
 30
0.0
 10
101.9898148329
 20
167.740084413
 30
0.0
  0
SPLINE
  5
678
100
AcDbEntity
  8
RUNDUNGEN
100
AcDbSpline
 62
7
  6
CONTINUOUS
 70
0
 71
3
 72
9
 73
5
 74
0
 42
0.0000001
 43
0.0000001
 44
0.0000000001
 40
0.0
 40
0.0
 40
0.0
 40
0.0
 40
0.2603764014
 40
1.0
 40
1.0
 40
1.0
 40
1.0
 10
101.9766580718
 20
167.5940605732
 30
0.0
 10
101.9759803012
 20
167.583230624
 30
0.0
 10
101.9736521822
 20
167.5416209279
 30
0.0
 10
101.9724398415
 20
167.499945047
 30
0.0
 10
101.9723022081
 20
167.4691216816
 30
0.0
  0
SPLINE
  5
679
100
AcDbEntity
  8
0
100
AcDbSpline
 62
7
  6
CONTINUOUS
 70
0
 71
3
 72
9
 73
5
 74
0
 42
0.0000001
 43
0.0000001
 44
0.0000000001
 40
0.0
 40
0.0
 40
0.0
 40
0.0
 40
0.2750883827
 40
1.0
 40
1.0
 40
1.0
 40
1.0
 10
121.7962028781
 20
168.5025131528
 30
0.0
 10
121.8152525294
 20
168.4336570069
 30
0.0
 10
121.8812260232
 20
168.1825431763
 30
0.0
 10
121.9331121777
 20
167.9271019588
 30
0.0
 10
121.9547527599
 20
167.740084413
 30
0.0
  0
SPLINE
  5
67A
100
AcDbEntity
  8
0
100
AcDbSpline
 62
7
  6
CONTINUOUS
 70
0
 71
3
 72
9
 73
5
 74
0
 42
0.0000001
 43
0.0000001
 44
0.0000000001
 40
0.0
 40
0.0
 40
0.0
 40
0.0
 40
0.260394064
 40
1.0
 40
1.0
 40
1.0
 40
1.0
 10
121.9679095211
 20
167.5940605732
 30
0.0
 10
121.968588342
 20
167.5832138409
 30
0.0
 10
121.9709194815
 20
167.5415424662
 30
0.0
 10
121.9721314439
 20
167.4998047027
 30
0.0
 10
121.9722662029
 20
167.468936388
 30
0.0
  0
LINE
  5
67B
100
AcDbEntity
  8
0
100
AcDbLine
 62
7
  6
CONTINUOUS
 10
111.9722837964
 20
224.62437228
 11
111.9722837964
 21
223.9256160449
  0
SPLINE
  5
67C
100
AcDbEntity
  8
RUNDUNGEN
100
AcDbSpline
 62
7
  6
CONTINUOUS
 70
0
 71
3
 72
17
 73
13
 74
0
 42
0.0000001
 43
0.0000001
 44
0.0000000001
 40
0.0
 40
0.0
 40
0.0
 40
0.0
 40
0.1872599761
 40
0.3655442674
 40
0.5291460769
 40
0.6729862997
 40
0.7929240886
 40
0.886242113
 40
0.9227930824
 40
0.953056651
 40
0.9781012702
 40
1.0
 40
1.0
 40
1.0
 40
1.0
 10
108.0236608254
 20
191.57340622
 30
0.0
 10
107.780586039
 20
191.5683296248
 30
0.0
 10
107.306225507
 20
191.5486702835
 30
0.0
 10
106.6214686865
 20
191.4900019028
 30
0.0
 10
105.9963523802
 20
191.404676641
 30
0.0
 10
105.4516240444
 20
191.2960062604
 30
0.0
 10
105.0056557116
 20
191.1678927505
 30
0.0
 10
104.7050259186
 20
191.0410687558
 30
0.0
 10
104.5303273054
 20
190.9271962947
 30
0.0
 10
104.4419680451
 20
190.8459504878
 30
0.0
 10
104.3859600851
 20
190.7610967834
 30
0.0
 10
104.3722837964
 20
190.6997498367
 30
0.0
 10
104.3722837964
 20
190.6713177609
 30
0.0
  0
SPLINE
  5
67D
100
AcDbEntity
  8
KONSTRUKTIONSELEMENTE
100
AcDbSpline
 62
7
  6
CONTINUOUS
 70
0
 71
3
 72
8
 73
4
 74
0
 42
0.0000001
 43
0.0000001
 44
0.0000000001
 40
0.0
 40
0.0
 40
0.0
 40
0.0
 40
1.0
 40
1.0
 40
1.0
 40
1.0
 10
102.4722837964
 20
179.6779061495
 30
0.0
 10
102.4722922859
 20
178.9316760381
 30
0.0
 10
102.4894402353
 20
178.1855107911
 30
0.0
 10
102.5067087315
 20
177.4394805113
 30
0.0
  0
SPLINE
  5
67E
100
AcDbEntity
  8
KONSTRUKTIONSELEMENTE
100
AcDbSpline
 62
7
  6
CONTINUOUS
 70
0
 71
3
 72
9
 73
5
 74
0
 42
0.0000001
 43
0.0000001
 44
0.0000000001
 40
0.0
 40
0.0
 40
0.0
 40
0.0
 40
0.2543515811
 40
1.0
 40
1.0
 40
1.0
 40
1.0
 10
102.5067087315
 20
177.4394805113
 30
0.0
 10
102.5010414294
 20
177.423421168
 30
0.0
 10
102.4812794471
 20
177.3594279069
 30
0.0
 10
102.4722848312
 20
177.2920621992
 30
0.0
 10
102.4722837964
 20
177.2421376387
 30
0.0
  0
SPLINE
  5
67F
100
AcDbEntity
  8
0
100
AcDbSpline
 62
7
  6
CONTINUOUS
 70
0
 71
3
 72
17
 73
13
 74
0
 42
0.0000001
 43
0.0000001
 44
0.0000000001
 40
0.0
 40
0.0
 40
0.0
 40
0.0
 40
0.1872599761
 40
0.3655442674
 40
0.5291460769
 40
0.6729862997
 40
0.7929240886
 40
0.886242113
 40
0.9227930824
 40
0.953056651
 40
0.9781012702
 40
1.0
 40
1.0
 40
1.0
 40
1.0
 10
115.9209067674
 20
191.57340622
 30
0.0
 10
116.1639815539
 20
191.5683296248
 30
0.0
 10
116.6383420859
 20
191.5486702835
 30
0.0
 10
117.3230989064
 20
191.4900019028
 30
0.0
 10
117.9482152127
 20
191.404676641
 30
0.0
 10
118.4929435484
 20
191.2960062604
 30
0.0
 10
118.9389118813
 20
191.1678927505
 30
0.0
 10
119.2395416743
 20
191.0410687558
 30
0.0
 10
119.4142402875
 20
190.9271962947
 30
0.0
 10
119.5025995478
 20
190.8459504878
 30
0.0
 10
119.5586075078
 20
190.7610967834
 30
0.0
 10
119.5722837964
 20
190.6997498367
 30
0.0
 10
119.5722837964
 20
190.6713177609
 30
0.0
  0
SPLINE
  5
680
100
AcDbEntity
  8
0
100
AcDbSpline
 62
7
  6
CONTINUOUS
 70
0
 71
3
 72
9
 73
5
 74
0
 42
0.0000001
 43
0.0000001
 44
0.0000000001
 40
0.0
 40
0.0
 40
0.0
 40
0.0
 40
0.2655364475
 40
1.0
 40
1.0
 40
1.0
 40
1.0
 10
290.279478247
 20
235.8484100964
 30
0.0
 10
290.2722815043
 20
235.8469742145
 30
0.0
 10
290.2450545165
 20
235.8422309164
 30
0.0
 10
290.2173647713
 20
235.8399729852
 30
0.0
 10
290.1970666912
 20
235.8400557498
 30
0.0
  0
SPLINE
  5
681
100
AcDbEntity
  8
0
100
AcDbSpline
 62
7
  6
CONTINUOUS
 70
0
 71
3
 72
9
 73
5
 74
0
 42
0.0000001
 43
0.0000001
 44
0.0000000001
 40
0.0
 40
0.0
 40
0.0
 40
0.0
 40
0.3634507937
 40
1.0
 40
1.0
 40
1.0
 40
1.0
 10
290.1970666912
 20
235.8400557498
 30
0.0
 10
290.1844841623
 20
235.8401070546
 30
0.0
 10
290.1499254565
 20
235.8422920598
 30
0.0
 10
290.1155203688
 20
235.8488128386
 30
0.0
 10
290.0947539562
 20
235.8561883134
 30
0.0
  0
SPLINE
  5
682
100
AcDbEntity
  8
0
100
AcDbSpline
 62
7
  6
CONTINUOUS
 70
0
 71
3
 72
14
 73
10
 74
0
 42
0.0000001
 43
0.0000001
 44
0.0000000001
 40
0.0
 40
0.0
 40
0.0
 40
0.0
 40
0.0610734799
 40
0.1003707269
 40
0.1943133969
 40
0.339459542
 40
0.5281079636
 40
0.7519229259
 40
1.0
 40
1.0
 40
1.0
 40
1.0
 10
291.3867286857
 20
234.3381082689
 30
0.0
 10
291.3881305211
 20
234.334223637
 30
0.0
 10
291.3918417899
 20
234.3203449635
 30
0.0
 10
291.3876361386
 20
234.3403416185
 30
0.0
 10
291.3866844435
 20
234.3550514618
 30
0.0
 10
291.3852382027
 20
234.3860594756
 30
0.0
 10
291.3883797784
 20
234.4229144898
 30
0.0
 10
291.396690326
 20
234.4671615625
 30
0.0
 10
291.4061102666
 20
234.4976732929
 30
0.0
 10
291.4120145601
 20
234.5133750384
 30
0.0
  0
SPLINE
  5
683
100
AcDbEntity
  8
0
100
AcDbSpline
 62
7
  6
CONTINUOUS
 70
0
 71
3
 72
9
 73
5
 74
0
 42
0.0000001
 43
0.0000001
 44
0.0000000001
 40
0.0
 40
0.0
 40
0.0
 40
0.0
 40
0.6093072182
 40
1.0
 40
1.0
 40
1.0
 40
1.0
 10
292.5537677691
 20
233.3980733906
 30
0.0
 10
292.5280202129
 20
233.3891988081
 30
0.0
 10
292.4840891708
 20
233.3793386119
 30
0.0
 10
292.4392655135
 20
233.3763099715
 30
0.0
 10
292.4218259091
 20
233.3772080359
 30
0.0
  0
SPLINE
  5
684
100
AcDbEntity
  8
0
100
AcDbSpline
 62
7
  6
CONTINUOUS
 70
0
 71
3
 72
13
 73
9
 74
0
 42
0.0000001
 43
0.0000001
 44
0.0000000001
 40
0.0
 40
0.0
 40
0.0
 40
0.0
 40
0.0512469909
 40
0.1321653276
 40
0.2491873797
 40
0.401173132
 40
0.5817318837
 40
1.0
 40
1.0
 40
1.0
 40
1.0
 10
294.0247105185
 20
232.1899222351
 30
0.0
 10
294.0263916262
 20
232.1871327753
 30
0.0
 10
294.0176202502
 20
232.2047701771
 30
0.0
 10
294.0154569754
 20
232.2134107272
 30
0.0
 10
294.0079349778
 20
232.2376538874
 30
0.0
 10
294.003065107
 20
232.2646332906
 30
0.0
 10
293.9974096713
 20
232.312577622
 30
0.0
 10
293.9987153654
 20
232.3507438728
 30
0.0
 10
294.002171886
 20
232.3771001421
 30
0.0
  0
SPLINE
  5
685
100
AcDbEntity
  8
0
100
AcDbSpline
 62
7
  6
CONTINUOUS
 70
0
 71
3
 72
9
 73
5
 74
0
 42
0.0000001
 43
0.0000001
 44
0.0000000001
 40
0.0
 40
0.0
 40
0.0
 40
0.0
 40
0.3371315075
 40
1.0
 40
1.0
 40
1.0
 40
1.0
 10
295.37588342
 20
231.4890001591
 30
0.0
 10
295.3706180769
 20
231.4870973639
 30
0.0
 10
295.3548602969
 20
231.4818531936
 30
0.0
 10
295.3386570897
 20
231.4779134389
 30
0.0
 10
295.3277822568
 20
231.4762063629
 30
0.0
  0
SPLINE
  5
686
100
AcDbEntity
  8
0
100
AcDbSpline
 62
7
  6
CONTINUOUS
 70
0
 71
3
 72
9
 73
5
 74
0
 42
0.0000001
 43
0.0000001
 44
0.0000000001
 40
0.0
 40
0.0
 40
0.0
 40
0.0
 40
0.2812750482
 40
1.0
 40
1.0
 40
1.0
 40
1.0
 10
295.5193764093
 20
231.5819697204
 30
0.0
 10
295.5080403192
 20
231.5705269076
 30
0.0
 10
295.4653938363
 20
231.5322439523
 30
0.0
 10
295.4145913828
 20
231.5029884833
 30
0.0
 10
295.3758834201
 20
231.4890001591
 30
0.0
  0
SPLINE
  5
687
100
AcDbEntity
  8
0
100
AcDbSpline
 62
7
  6
CONTINUOUS
 70
0
 71
3
 72
8
 73
4
 74
0
 42
0.0000001
 43
0.0000001
 44
0.0000000001
 40
0.0
 40
0.0
 40
0.0
 40
0.0
 40
1.0
 40
1.0
 40
1.0
 40
1.0
 10
305.636422566
 20
217.878909194
 30
0.0
 10
305.7264024154
 20
217.9191659891
 30
0.0
 10
305.8098026345
 20
217.9787483807
 30
0.0
 10
305.8770304986
 20
218.0508413564
 30
0.0
  0
SPLINE
  5
688
100
AcDbEntity
  8
0
100
AcDbSpline
 62
7
  6
CONTINUOUS
 70
0
 71
3
 72
14
 73
10
 74
0
 42
0.0000001
 43
0.0000001
 44
0.0000000001
 40
0.0
 40
0.0
 40
0.0
 40
0.0
 40
0.0582671112
 40
0.0990992018
 40
0.194332591
 40
0.3396866217
 40
0.5287304935
 40
0.7526296928
 40
1.0
 40
1.0
 40
1.0
 40
1.0
 10
297.2831306834
 20
230.6761960037
 30
0.0
 10
297.2861157903
 20
230.6733652152
 30
0.0
 10
297.2957484809
 20
230.6625038
 30
0.0
 10
297.2823051733
 20
230.6795688094
 30
0.0
 10
297.2745745969
 20
230.6928587109
 30
0.0
 10
297.2589085116
 20
230.7214934315
 30
0.0
 10
297.2452399095
 20
230.7576402914
 30
0.0
 10
297.2330860319
 20
230.8030429678
 30
0.0
 10
297.2283743875
 20
230.8360175824
 30
0.0
 10
297.2270267177
 20
230.8534309086
 30
0.0
  0
SPLINE
  5
689
100
AcDbEntity
  8
0
100
AcDbSpline
 62
7
  6
CONTINUOUS
 70
0
 71
3
 72
9
 73
5
 74
0
 42
0.0000001
 43
0.0000001
 44
0.0000000001
 40
0.0
 40
0.0
 40
0.0
 40
0.0
 40
0.3371315075
 40
1.0
 40
1.0
 40
1.0
 40
1.0
 10
289.2981218313
 20
237.1566045305
 30
0.0
 10
289.296590963
 20
237.1512192813
 30
0.0
 10
289.2924587744
 20
237.1351340716
 30
0.0
 10
289.2896588953
 20
237.1186955112
 30
0.0
 10
289.2887145677
 20
237.1077280892
 30
0.0
  0
SPLINE
  5
68A
100
AcDbEntity
  8
0
100
AcDbSpline
 62
7
  6
CONTINUOUS
 70
0
 71
3
 72
9
 73
5
 74
0
 42
0.0000001
 43
0.0000001
 44
0.0000000001
 40
0.0
 40
0.0
 40
0.0
 40
0.0
 40
0.2812750482
 40
1.0
 40
1.0
 40
1.0
 40
1.0
 10
289.3808553585
 20
237.3062332069
 30
0.0
 10
289.3702311855
 20
237.2941265206
 30
0.0
 10
289.3350163538
 20
237.2489134385
 30
0.0
 10
289.3093759496
 20
237.1961939788
 30
0.0
 10
289.2981218313
 20
237.1566045306
 30
0.0
  0
SPLINE
  5
68B
100
AcDbEntity
  8
0
100
AcDbSpline
 62
7
  6
CONTINUOUS
 70
0
 71
3
 72
14
 73
10
 74
0
 42
0.0000001
 43
0.0000001
 44
0.0000000001
 40
0.0
 40
0.0
 40
0.0
 40
0.0
 40
0.0582671112
 40
0.0990992018
 40
0.194332591
 40
0.3396866217
 40
0.5287304935
 40
0.7526296928
 40
1.0
 40
1.0
 40
1.0
 40
1.0
 10
288.3542547824
 20
239.0025074837
 30
0.0
 10
288.351222659
 20
239.0052878532
 30
0.0
 10
288.3397157591
 20
239.0141394251
 30
0.0
 10
288.3576769567
 20
239.0019192596
 30
0.0
 10
288.3714737424
 20
238.9951345711
 30
0.0
 10
288.4011315212
 20
238.9815041048
 30
0.0
 10
288.4381438026
 20
238.9703902762
 30
0.0
 10
288.484283692
 20
238.9614331354
 30
0.0
 10
288.5175066498
 20
238.9590331611
 30
0.0
 10
288.5349715667
 20
238.9589034665
 30
0.0
  0
SPLINE
  5
68C
100
AcDbEntity
  8
0
100
AcDbSpline
 62
7
  6
CONTINUOUS
 70
0
 71
3
 72
11
 73
7
 74
0
 42
0.0000001
 43
0.0000001
 44
0.0000000001
 40
0.0
 40
0.0
 40
0.0
 40
0.0
 40
0.116074583
 40
0.2173075947
 40
0.5166715706
 40
1.0
 40
1.0
 40
1.0
 40
1.0
 10
293.363821909
 20
234.059801988
 30
0.0
 10
293.3641321876
 20
234.0577827936
 30
0.0
 10
293.364685116
 20
234.050310298
 30
0.0
 10
293.3644930016
 20
234.0651752025
 30
0.0
 10
293.3673161201
 20
234.0762561966
 30
0.0
 10
293.3710636307
 20
234.0912251324
 30
0.0
 10
293.3738482116
 20
234.0992629645
 30
0.0
  0
SPLINE
  5
68D
100
AcDbEntity
  8
0
100
AcDbSpline
 62
7
  6
CONTINUOUS
 70
0
 71
3
 72
9
 73
5
 74
0
 42
0.0000001
 43
0.0000001
 44
0.0000000001
 40
0.0
 40
0.0
 40
0.0
 40
0.0
 40
0.3472532855
 40
1.0
 40
1.0
 40
1.0
 40
1.0
 10
296.1279724646
 20
232.2998937215
 30
0.0
 10
296.1281066311
 20
232.2969895824
 30
0.0
 10
296.1286655254
 20
232.288641112
 30
0.0
 10
296.1297149042
 20
232.2802918237
 30
0.0
 10
296.131001497
 20
232.2749805783
 30
0.0
  0
SPLINE
  5
68E
100
AcDbEntity
  8
0
100
AcDbSpline
 62
7
  6
CONTINUOUS
 70
0
 71
3
 72
10
 73
6
 74
0
 42
0.0000001
 43
0.0000001
 44
0.0000000001
 40
0.0
 40
0.0
 40
0.0
 40
0.0
 40
0.786390353
 40
0.8470527929
 40
1.0
 40
1.0
 40
1.0
 40
1.0
 10
294.6343889723
 20
233.1018294654
 30
0.0
 10
294.6285790965
 20
233.1013257387
 30
0.0
 10
294.6241385209
 20
233.1015975143
 30
0.0
 10
294.6143719719
 20
233.0989235089
 30
0.0
 10
294.6179251779
 20
233.0998631874
 30
0.0
 10
294.6190016667
 20
233.1002204293
 30
0.0
  0
SPLINE
  5
68F
100
AcDbEntity
  8
0
100
AcDbSpline
 62
7
  6
CONTINUOUS
 70
0
 71
3
 72
9
 73
5
 74
0
 42
0.0000001
 43
0.0000001
 44
0.0000000001
 40
0.0
 40
0.0
 40
0.0
 40
0.0
 40
0.1627054378
 40
1.0
 40
1.0
 40
1.0
 40
1.0
 10
294.6190016667
 20
233.1002204293
 30
0.0
 10
294.6202639539
 20
233.1006393299
 30
0.0
 10
294.6279343451
 20
233.1034750926
 30
0.0
 10
294.6352250919
 20
233.107286809
 30
0.0
 10
294.6411060998
 20
233.1107877399
 30
0.0
  0
SPLINE
  5
690
100
AcDbEntity
  8
0
100
AcDbSpline
 62
7
  6
CONTINUOUS
 70
0
 71
3
 72
9
 73
5
 74
0
 42
0.0000001
 43
0.0000001
 44
0.0000000001
 40
0.0
 40
0.0
 40
0.0
 40
0.0
 40
0.3472531118
 40
1.0
 40
1.0
 40
1.0
 40
1.0
 10
290.0545770179
 20
237.963426599
 30
0.0
 10
290.0516705974
 20
237.9633578561
 30
0.0
 10
290.043303482
 20
237.9633330284
 30
0.0
 10
290.0349013363
 20
237.9637974338
 30
0.0
 10
290.0295132823
 20
237.9647103977
 30
0.0
  0
SPLINE
  5
691
100
AcDbEntity
  8
0
100
AcDbSpline
 62
7
  6
CONTINUOUS
 70
0
 71
3
 72
11
 73
7
 74
0
 42
0.0000001
 43
0.0000001
 44
0.0000000001
 40
0.0
 40
0.0
 40
0.0
 40
0.0
 40
0.3321815761
 40
0.4020656595
 40
0.5839322711
 40
1.0
 40
1.0
 40
1.0
 40
1.0
 10
290.9587464045
 20
236.5294216112
 30
0.0
 10
290.9586608397
 20
236.5242899525
 30
0.0
 10
290.9589418072
 20
236.5194835997
 30
0.0
 10
290.956974313
 20
236.5075970005
 30
0.0
 10
290.9612964719
 20
236.5270549451
 30
0.0
 10
290.9643193435
 20
236.5310075614
 30
0.0
 10
290.9672142939
 20
236.5367472737
 30
0.0
  0
SPLINE
  5
692
100
AcDbEntity
  8
0
100
AcDbSpline
 62
7
  6
CONTINUOUS
 70
0
 71
3
 72
9
 73
5
 74
0
 42
0.0000001
 43
0.0000001
 44
0.0000000001
 40
0.0
 40
0.0
 40
0.0
 40
0.0
 40
0.2456031512
 40
1.0
 40
1.0
 40
1.0
 40
1.0
 10
303.5526767465
 20
226.5041596901
 30
0.0
 10
303.5398628834
 20
226.5288965973
 30
0.0
 10
303.480766491
 20
226.6259895207
 30
0.0
 10
303.3947660699
 20
226.7057587127
 30
0.0
 10
303.3227811793
 20
226.7520253407
 30
0.0
  0
SPLINE
  5
693
100
AcDbEntity
  8
0
100
AcDbSpline
 62
7
  6
CONTINUOUS
 70
0
 71
3
 72
13
 73
9
 74
0
 42
0.0000001
 43
0.0000001
 44
0.0000000001
 40
0.0
 40
0.0
 40
0.0
 40
0.0
 40
0.371390134
 40
0.5342459179
 40
0.6763159974
 40
0.7946083785
 40
0.8874324155
 40
1.0
 40
1.0
 40
1.0
 40
1.0
 10
304.4913098073
 20
218.1266044012
 30
0.0
 10
304.433991319
 20
218.0432051253
 30
0.0
 10
304.3474584142
 20
217.9259320022
 30
0.0
 10
304.2271351636
 20
217.7860304186
 30
0.0
 10
304.1471708539
 20
217.7033754412
 30
0.0
 10
304.0735121711
 20
217.6393753514
 30
0.0
 10
304.0037912747
 20
217.5911001636
 30
0.0
 10
303.9404705732
 20
217.5676022053
 30
0.0
 10
303.9131837239
 20
217.581610696
 30
0.0
  0
LINE
  5
694
100
AcDbEntity
  8
0
100
AcDbLine
 62
7
  6
CONTINUOUS
 10
303.240384119
 20
225.3770732655
 11
299.8120170891
 21
223.3551994367
  0
SPLINE
  5
695
100
AcDbEntity
  8
0
100
AcDbSpline
 62
7
  6
CONTINUOUS
 70
0
 71
3
 72
8
 73
4
 74
0
 42
0.0000001
 43
0.0000001
 44
0.0000000001
 40
0.0
 40
0.0
 40
0.0
 40
0.0
 40
1.0
 40
1.0
 40
1.0
 40
1.0
 10
305.199201915
 20
223.5664616737
 30
0.0
 10
305.3108161664
 20
223.46304556
 30
0.0
 10
305.4214357721
 20
223.3585593916
 30
0.0
 10
305.5330500225
 20
223.2551432769
 30
0.0
  0
SPLINE
  5
696
100
AcDbEntity
  8
0
100
AcDbSpline
 62
7
  6
CONTINUOUS
 70
0
 71
3
 72
10
 73
6
 74
0
 42
0.0000001
 43
0.0000001
 44
0.0000000001
 40
0.0
 40
0.0
 40
0.0
 40
0.0
 40
0.4557549293
 40
0.7244583395
 40
1.0
 40
1.0
 40
1.0
 40
1.0
 10
303.3217527068
 20
226.7544604753
 30
0.0
 10
303.3143496382
 20
226.7582981771
 30
0.0
 10
303.3031659907
 20
226.7656520574
 30
0.0
 10
303.2894097336
 20
226.7776015208
 30
0.0
 10
303.2814926081
 20
226.7839050636
 30
0.0
 10
303.2785166994
 20
226.7879744427
 30
0.0
  0
SPLINE
  5
697
100
AcDbEntity
  8
0
100
AcDbSpline
 62
7
  6
CONTINUOUS
 70
0
 71
3
 72
15
 73
11
 74
0
 42
0.0000001
 43
0.0000001
 44
0.0000000001
 40
0.0
 40
0.0
 40
0.0
 40
0.0
 40
0.1250057675
 40
0.2500019971
 40
0.3750015071
 40
0.5000003082
 40
0.624999212
 40
0.7499985771
 40
0.8749945379
 40
1.0
 40
1.0
 40
1.0
 40
1.0
 10
271.2569024853
 20
270.3647895913
 30
0.0
 10
271.0451895788
 20
270.3970674919
 30
0.0
 10
270.6134577336
 20
270.4164446694
 30
0.0
 10
269.9755765382
 20
270.3070529309
 30
0.0
 10
269.3755049378
 20
270.0637859061
 30
0.0
 10
268.8416802402
 20
269.6973838014
 30
0.0
 10
268.3990058041
 20
269.2248815473
 30
0.0
 10
268.0680759064
 20
268.6683300152
 30
0.0
 10
267.8637950132
 20
268.0542235223
 30
0.0
 10
267.8178817257
 20
267.6245039817
 30
0.0
 10
267.8178817257
 20
267.4103451774
 30
0.0
  0
SPLINE
  5
698
100
AcDbEntity
  8
0
100
AcDbSpline
 62
7
  6
CONTINUOUS
 70
0
 71
3
 72
15
 73
11
 74
0
 42
0.0000001
 43
0.0000001
 44
0.0000000001
 40
0.0
 40
0.0
 40
0.0
 40
0.0
 40
0.1250089887
 40
0.2500044744
 40
0.37500299
 40
0.500000441
 40
0.6249980011
 40
0.7499964319
 40
0.8749917126
 40
1.0
 40
1.0
 40
1.0
 40
1.0
 10
279.877881727
 20
271.8785828475
 30
0.0
 10
279.8778817443
 20
271.6345761363
 30
0.0
 10
279.8185480412
 20
271.1445049094
 30
0.0
 10
279.5551530429
 20
270.4540538971
 30
0.0
 10
279.1316514085
 20
269.847855967
 30
0.0
 10
278.5726538633
 20
269.3637877598
 30
0.0
 10
277.9120673873
 20
269.0314840718
 30
0.0
 10
277.1902124785
 20
268.8710002103
 30
0.0
 10
276.4514901365
 20
268.8906545614
 30
0.0
 10
275.9757997908
 20
269.0225897664
 30
0.0
 10
275.7502131462
 20
269.1155912331
 30
0.0
  0
SPLINE
  5
699
100
AcDbEntity
  8
KONSTRUKTIONSELEMENTE
100
AcDbSpline
 62
7
  6
CONTINUOUS
 70
0
 71
3
 72
11
 73
7
 74
0
 42
0.0000001
 43
0.0000001
 44
0.0000000001
 40
0.0
 40
0.0
 40
0.0
 40
0.0
 40
0.2500223838
 40
0.500021156
 40
0.7500088061
 40
1.0
 40
1.0
 40
1.0
 40
1.0
 10
322.4392857043
 20
171.8281618792
 30
0.0
 10
323.4176017509
 20
173.4865185503
 30
0.0
 10
325.0737228076
 20
176.9911335154
 30
0.0
 10
326.5508904519
 20
182.6076281919
 30
0.0
 10
326.9731007851
 20
188.3996795094
 30
0.0
 10
326.5375766091
 20
192.2514797779
 30
0.0
 10
326.1454613983
 20
194.1363060051
 30
0.0
  0
SPLINE
  5
69A
100
AcDbEntity
  8
0
100
AcDbSpline
 62
7
  6
CONTINUOUS
 70
0
 71
3
 72
14
 73
10
 74
0
 42
0.0000001
 43
0.0000001
 44
0.0000000001
 40
0.0
 40
0.0
 40
0.0
 40
0.0
 40
0.2793477544
 40
0.4546592707
 40
0.5620070592
 40
0.6648608105
 40
0.7570088244
 40
0.8420290723
 40
1.0
 40
1.0
 40
1.0
 40
1.0
 10
259.3778817257
 20
233.087545033
 30
0.0
 10
259.3675208664
 20
233.1794485298
 30
0.0
 10
259.3493469593
 20
233.3284091989
 30
0.0
 10
259.3133745198
 20
233.5127157635
 30
0.0
 10
259.2568152637
 20
233.627675185
 30
0.0
 10
259.2167673522
 20
233.7193724143
 30
0.0
 10
259.1724659045
 20
233.8009358459
 30
0.0
 10
259.1153952226
 20
233.8960851576
 30
0.0
 10
259.0709191308
 20
233.9632069513
 30
0.0
 10
259.0406500103
 20
234.0058582162
 30
0.0
  0
SPLINE
  5
69B
100
AcDbEntity
  8
KONSTRUKTIONSELEMENTE
100
AcDbSpline
 62
7
  6
CONTINUOUS
 70
0
 71
3
 72
9
 73
5
 74
0
 42
0.0000001
 43
0.0000001
 44
0.0000000001
 40
0.0
 40
0.0
 40
0.0
 40
0.0
 40
0.2234428135
 40
1.0
 40
1.0
 40
1.0
 40
1.0
 10
258.9703328805
 20
234.1318401915
 30
0.0
 10
258.9645531349
 20
234.1749138333
 30
0.0
 10
258.9185828363
 20
234.3651361577
 30
0.0
 10
258.8038026103
 20
234.5324487935
 30
0.0
 10
258.7019349997
 20
234.643966698
 30
0.0
  0
LINE
  5
69C
100
AcDbEntity
  8
KONSTRUKTIONSELEMENTE
100
AcDbLine
 62
7
  6
CONTINUOUS
 10
259.1613010972
 20
233.9669992948
 11
259.1508189643
 21
233.9670403279
  0
LINE
  5
69D
100
AcDbEntity
  8
KONSTRUKTIONSELEMENTE
100
AcDbLine
 62
7
  6
CONTINUOUS
 10
259.1508189643
 20
233.9670403279
 11
259.1412418174
 21
233.9670398273
  0
LINE
  5
69E
100
AcDbEntity
  8
RUNDUNGEN
100
AcDbLine
 62
7
  6
CONTINUOUS
 10
342.8387752655
 20
191.57340622
 11
338.9574421304
 21
190.6713177609
  0
SPLINE
  5
69F
100
AcDbEntity
  8
0
100
AcDbSpline
 62
7
  6
CONTINUOUS
 70
0
 71
3
 72
17
 73
13
 74
0
 42
0.0000001
 43
0.0000001
 44
0.0000000001
 40
0.0
 40
0.0
 40
0.0
 40
0.0
 40
0.0528223987
 40
0.1074131797
 40
0.2254110205
 40
0.3580018678
 40
0.5
 40
0.6419981322
 40
0.7745889795
 40
0.8925868203
 40
0.9471776013
 40
1.0
 40
1.0
 40
1.0
 40
1.0
 10
110.1347823416
 20
67.8510987734
 30
0.0
 10
110.1347823416
 20
67.7647877245
 30
0.0
 10
110.1590812242
 20
67.5884600645
 30
0.0
 10
110.3031710584
 20
67.2455763245
 30
0.0
 10
110.6605397835
 20
66.8738572473
 30
0.0
 10
111.2514860289
 20
66.5980932549
 30
0.0
 10
111.9347823416
 20
66.5018599782
 30
0.0
 10
112.6180786542
 20
66.5980932549
 30
0.0
 10
113.2090248996
 20
66.8738572473
 30
0.0
 10
113.5663936247
 20
67.2455763245
 30
0.0
 10
113.7104834589
 20
67.5884600645
 30
0.0
 10
113.7347823416
 20
67.7647877245
 30
0.0
 10
113.7347823416
 20
67.8510987734
 30
0.0
  0
SPLINE
  5
6A0
100
AcDbEntity
  8
0
100
AcDbSpline
 62
7
  6
CONTINUOUS
 70
0
 71
3
 72
8
 73
4
 74
0
 42
0.0000001
 43
0.0000001
 44
0.0000000001
 40
0.0
 40
0.0
 40
0.0
 40
0.0
 40
1.0
 40
1.0
 40
1.0
 40
1.0
 10
121.5233386476
 20
65.5544791091
 30
0.0
 10
121.3962882755
 20
65.6183051226
 30
0.0
 10
121.2806964186
 20
65.7118874877
 30
0.0
 10
121.191806578
 20
65.8228566424
 30
0.0
  0
SPLINE
  5
6A1
100
AcDbEntity
  8
0
100
AcDbSpline
 62
7
  6
CONTINUOUS
 70
0
 71
3
 72
9
 73
5
 74
0
 42
0.0000001
 43
0.0000001
 44
0.0000000001
 40
0.0
 40
0.0
 40
0.0
 40
0.0
 40
0.3094275448
 40
1.0
 40
1.0
 40
1.0
 40
1.0
 10
121.1743042978
 20
65.8443030671
 30
0.0
 10
121.1733867529
 20
65.8453303419
 30
0.0
 10
121.1703799408
 20
65.8486130292
 30
0.0
 10
121.1672342961
 20
65.8517680225
 30
0.0
 10
121.1649929255
 20
65.8538717751
 30
0.0
  0
SPLINE
  5
6A2
100
AcDbEntity
  8
0
100
AcDbSpline
 62
7
  6
CONTINUOUS
 70
0
 71
3
 72
9
 73
5
 74
0
 42
0.0000001
 43
0.0000001
 44
0.0000000001
 40
0.0
 40
0.0
 40
0.0
 40
0.0
 40
0.1029351748
 40
1.0
 40
1.0
 40
1.0
 40
1.0
 10
122.9581794204
 20
66.2649082044
 30
0.0
 10
122.957803739
 20
66.2640593763
 30
0.0
 10
122.9544476302
 20
66.2556851908
 30
0.0
 10
122.9522442285
 20
66.2468777241
 30
0.0
 10
122.9505821814
 20
66.2389607535
 30
0.0
  0
SPLINE
  5
6A3
100
AcDbEntity
  8
0
100
AcDbSpline
 62
7
  6
CONTINUOUS
 70
0
 71
3
 72
8
 73
4
 74
0
 42
0.0000001
 43
0.0000001
 44
0.0000000001
 40
0.0
 40
0.0
 40
0.0
 40
0.0
 40
1.0
 40
1.0
 40
1.0
 40
1.0
 10
119.7527581051
 20
59.3186482049
 30
0.0
 10
119.8424653477
 20
59.4306377958
 30
0.0
 10
119.9089571349
 20
59.5653317065
 30
0.0
 10
119.9432885446
 20
59.7046529618
 30
0.0
  0
SPLINE
  5
6A4
100
AcDbEntity
  8
0
100
AcDbSpline
 62
7
  6
CONTINUOUS
 70
0
 71
3
 72
9
 73
5
 74
0
 42
0.0000001
 43
0.0000001
 44
0.0000000001
 40
0.0
 40
0.0
 40
0.0
 40
0.0
 40
0.2551848171
 40
1.0
 40
1.0
 40
1.0
 40
1.0
 10
118.7186664211
 20
51.2676021062
 30
0.0
 10
118.7505676073
 20
51.2442700542
 30
0.0
 10
118.8743721093
 20
51.1512028786
 30
0.0
 10
118.9932524832
 20
51.0515499498
 30
0.0
 10
119.0783509057
 20
50.9736686449
 30
0.0
  0
SPLINE
  5
6A5
100
AcDbEntity
  8
0
100
AcDbSpline
 62
7
  6
CONTINUOUS
 70
0
 71
3
 72
10
 73
6
 74
0
 42
0.0000001
 43
0.0000001
 44
0.0000000001
 40
0.0
 40
0.0
 40
0.0
 40
0.0
 40
0.3666026833
 40
0.5677541959
 40
1.0
 40
1.0
 40
1.0
 40
1.0
 10
102.7734596554
 20
65.8512405584
 30
0.0
 10
102.7764005328
 20
65.8528532887
 30
0.0
 10
102.7858580066
 20
65.8592213859
 30
0.0
 10
102.7752743729
 20
65.8501970341
 30
0.0
 10
102.7725424432
 20
65.846914937
 30
0.0
 10
102.7699190423
 20
65.8439557492
 30
0.0
  0
SPLINE
  5
6A6
100
AcDbEntity
  8
0
100
AcDbSpline
 62
7
  6
CONTINUOUS
 70
0
 71
3
 72
8
 73
4
 74
0
 42
0.0000001
 43
0.0000001
 44
0.0000000001
 40
0.0
 40
0.0
 40
0.0
 40
0.0
 40
1.0
 40
1.0
 40
1.0
 40
1.0
 10
104.191806578
 20
59.3186482049
 30
0.0
 10
104.1019171989
 20
59.4308651732
 30
0.0
 10
104.0353527469
 20
59.5658977853
 30
0.0
 10
104.0010910029
 20
59.7055361802
 30
0.0
  0
SPLINE
  5
6A7
100
AcDbEntity
  8
0
100
AcDbSpline
 62
7
  6
CONTINUOUS
 70
0
 71
3
 72
8
 73
4
 74
0
 42
0.0000001
 43
0.0000001
 44
0.0000000001
 40
0.0
 40
0.0
 40
0.0
 40
0.0
 40
1.0
 40
1.0
 40
1.0
 40
1.0
 10
104.5521364089
 20
64.1033447684
 30
0.0
 10
104.4136741384
 20
64.1674350063
 30
0.0
 10
104.2871948056
 20
64.2665336094
 30
0.0
 10
104.191806578
 20
64.3856152829
 30
0.0
  0
SPLINE
  5
6A8
100
AcDbEntity
  8
0
100
AcDbSpline
 62
7
  6
CONTINUOUS
 70
0
 71
3
 72
9
 73
5
 74
0
 42
0.0000001
 43
0.0000001
 44
0.0000000001
 40
0.0
 40
0.0
 40
0.0
 40
0.0
 40
0.2448632241
 40
1.0
 40
1.0
 40
1.0
 40
1.0
 10
104.8662137774
 20
50.9736686449
 30
0.0
 10
104.894190602
 20
50.9992727811
 30
0.0
 10
105.0099388752
 20
51.1021981952
 30
0.0
 10
105.1314966328
 20
51.1985581621
 30
0.0
 10
105.225898262
 20
51.2676021062
 30
0.0
  0
SPLINE
  5
6A9
100
AcDbEntity
  8
0
100
AcDbSpline
 62
7
  6
CONTINUOUS
 70
0
 71
3
 72
12
 73
8
 74
0
 42
0.0000001
 43
0.0000001
 44
0.0000000001
 40
0.0
 40
0.0
 40
0.0
 40
0.0
 40
0.2840029615
 40
0.549187939
 40
0.7852127828
 40
0.8944781554
 40
1.0
 40
1.0
 40
1.0
 40
1.0
 10
116.6647823416
 20
66.5302739883
 30
0.0
 10
116.8774737262
 20
66.5302739883
 30
0.0
 10
117.2915072812
 20
66.5884114186
 30
0.0
 10
117.8327739361
 20
66.8411635622
 30
0.0
 10
118.160625114
 20
67.1819843167
 30
0.0
 10
118.2923108605
 20
67.4964204626
 30
0.0
 10
118.3147823416
 20
67.6579817044
 30
0.0
 10
118.3147823416
 20
67.7370075959
 30
0.0
  0
SPLINE
  5
6AA
100
AcDbEntity
  8
0
100
AcDbSpline
 62
7
  6
CONTINUOUS
 70
0
 71
3
 72
10
 73
6
 74
0
 42
0.0000001
 43
0.0000001
 44
0.0000000001
 40
0.0
 40
0.0
 40
0.0
 40
0.0
 40
0.2737120754
 40
0.5372975286
 40
1.0
 40
1.0
 40
1.0
 40
1.0
 10
116.4722823416
 20
69.2728503693
 30
0.0
 10
116.5635122337
 20
69.2728503693
 30
0.0
 10
116.7435870823
 20
69.2533322641
 30
0.0
 10
117.0600177123
 20
69.1476234191
 30
0.0
 10
117.2629665634
 20
68.9836083399
 30
0.0
 10
117.3388813431
 20
68.8493651714
 30
0.0
  0
SPLINE
  5
6AB
100
AcDbEntity
  8
0
100
AcDbSpline
 62
7
  6
CONTINUOUS
 70
0
 71
3
 72
9
 73
5
 74
0
 42
0.0000001
 43
0.0000001
 44
0.0000000001
 40
0.0
 40
0.0
 40
0.0
 40
0.0
 40
0.2582142133
 40
1.0
 40
1.0
 40
1.0
 40
1.0
 10
117.3388813431
 20
68.8493651714
 30
0.0
 10
117.3504792158
 20
68.8288561851
 30
0.0
 10
117.390672259
 20
68.7468909845
 30
0.0
 10
117.4102823416
 20
68.6545260578
 30
0.0
 10
117.4102823416
 20
68.5868405972
 30
0.0
  0
SPLINE
  5
6AC
100
AcDbEntity
  8
0
100
AcDbSpline
 62
7
  6
CONTINUOUS
 70
0
 71
3
 72
9
 73
5
 74
0
 42
0.0000001
 43
0.0000001
 44
0.0000000001
 40
0.0
 40
0.0
 40
0.0
 40
0.0
 40
0.5291039046
 40
1.0
 40
1.0
 40
1.0
 40
1.0
 10
107.1503257298
 20
67.9052189473
 30
0.0
 10
107.2777062888
 20
67.9052189473
 30
0.0
 10
107.5207770657
 20
67.8618650632
 30
0.0
 10
107.7296000342
 20
67.7199432661
 30
0.0
 10
107.7998447826
 20
67.6309613092
 30
0.0
  0
SPLINE
  5
6AD
100
AcDbEntity
  8
0
100
AcDbSpline
 62
7
  6
CONTINUOUS
 70
0
 71
3
 72
11
 73
7
 74
0
 42
0.0000001
 43
0.0000001
 44
0.0000000001
 40
0.0
 40
0.0
 40
0.0
 40
0.0
 40
0.2819985845
 40
0.5419546019
 40
0.7785674783
 40
1.0
 40
1.0
 40
1.0
 40
1.0
 10
108.3977926541
 20
67.9705463168
 30
0.0
 10
108.5160783533
 20
68.0041982169
 30
0.0
 10
108.7373213258
 20
68.0948398202
 30
0.0
 10
109.0109070559
 20
68.3036192065
 30
0.0
 10
109.1914082214
 20
68.5671544404
 30
0.0
 10
109.2347311542
 20
68.7688005547
 30
0.0
 10
109.2347370114
 20
68.865367211
 30
0.0
  0
SPLINE
  5
6AE
100
AcDbEntity
  8
0
100
AcDbSpline
 62
7
  6
CONTINUOUS
 70
0
 71
3
 72
11
 73
7
 74
0
 42
0.0000001
 43
0.0000001
 44
0.0000000001
 40
0.0
 40
0.0
 40
0.0
 40
0.0
 40
0.2844285931
 40
0.5502394281
 40
0.7866130766
 40
1.0
 40
1.0
 40
1.0
 40
1.0
 10
107.6217823416
 20
69.2772384915
 30
0.0
 10
107.6943294338
 20
69.2772384915
 30
0.0
 10
107.8355834238
 20
69.257444338
 30
0.0
 10
108.020347288
 20
69.170890962
 30
0.0
 10
108.1510435085
 20
69.0360293866
 30
0.0
 10
108.1847323562
 20
68.9199133778
 30
0.0
 10
108.1847323562
 20
68.8654863575
 30
0.0
  0
SPLINE
  5
6AF
100
AcDbEntity
  8
0
100
AcDbSpline
 62
7
  6
CONTINUOUS
 70
0
 71
3
 72
9
 73
5
 74
0
 42
0.0000001
 43
0.0000001
 44
0.0000000001
 40
0.0
 40
0.0
 40
0.0
 40
0.0
 40
0.5405218656
 40
1.0
 40
1.0
 40
1.0
 40
1.0
 10
108.206261138
 20
75.1937376616
 30
0.0
 10
108.0436781929
 20
75.2147055129
 30
0.0
 10
107.7485694567
 20
75.307661316
 30
0.0
 10
107.4958502656
 20
75.4889264814
 30
0.0
 10
107.4040782196
 20
75.5937904719
 30
0.0
  0
SPLINE
  5
6B0
100
AcDbEntity
  8
0
100
AcDbSpline
 62
7
  6
CONTINUOUS
 70
0
 71
3
 72
9
 73
5
 74
0
 42
0.0000001
 43
0.0000001
 44
0.0000000001
 40
0.0
 40
0.0
 40
0.0
 40
0.0
 40
0.2458052294
 40
1.0
 40
1.0
 40
1.0
 40
1.0
 10
108.2888279923
 20
75.1845259675
 30
0.0
 10
108.3242196745
 20
75.1811462851
 30
0.0
 10
108.4684623625
 20
75.1701345493
 30
0.0
 10
108.6131973995
 20
75.1668673916
 30
0.0
 10
108.7222823416
 20
75.1668673916
 30
0.0
  0
SPLINE
  5
6B1
100
AcDbEntity
  8
0
100
AcDbSpline
 62
7
  6
CONTINUOUS
 70
0
 71
3
 72
9
 73
5
 74
0
 42
0.0000001
 43
0.0000001
 44
0.0000000001
 40
0.0
 40
0.0
 40
0.0
 40
0.0
 40
0.5405827638
 40
1.0
 40
1.0
 40
1.0
 40
1.0
 10
115.7383035451
 20
75.1937376616
 30
0.0
 10
115.9009362366
 20
75.2147119286
 30
0.0
 10
116.195974717
 20
75.3078820815
 30
0.0
 10
116.4490191905
 20
75.4888715399
 30
0.0
 10
116.5406957379
 20
75.5938302652
 30
0.0
  0
SPLINE
  5
6B2
100
AcDbEntity
  8
0
100
AcDbSpline
 62
7
  6
CONTINUOUS
 70
0
 71
3
 72
9
 73
5
 74
0
 42
0.0000001
 43
0.0000001
 44
0.0000000001
 40
0.0
 40
0.0
 40
0.0
 40
0.0
 40
0.2458232407
 40
1.0
 40
1.0
 40
1.0
 40
1.0
 10
115.6554307163
 20
75.1843982295
 30
0.0
 10
115.6200671793
 20
75.1809557311
 30
0.0
 10
115.4759467262
 20
75.169600351
 30
0.0
 10
115.3312892323
 20
75.1668673916
 30
0.0
 10
115.2222823416
 20
75.1668673916
 30
0.0
  0
SPLINE
  5
6B3
100
AcDbEntity
  8
0
100
AcDbSpline
 62
7
  6
CONTINUOUS
 70
0
 71
3
 72
12
 73
8
 74
0
 42
0.0000001
 43
0.0000001
 44
0.0000000001
 40
0.0
 40
0.0
 40
0.0
 40
0.0
 40
0.1056447387
 40
0.2148253368
 40
0.4508288492
 40
0.7159661536
 40
1.0
 40
1.0
 40
1.0
 40
1.0
 10
118.3147823416
 20
69.0238310539
 30
0.0
 10
118.3147823416
 20
69.102949581
 30
0.0
 10
118.2925028531
 20
69.2645812828
 30
0.0
 10
118.1604421028
 20
69.5789042472
 30
0.0
 10
117.8327463625
 20
69.9195888532
 30
0.0
 10
117.2915309327
 20
70.1724643276
 30
0.0
 10
116.8774984679
 20
70.2305646616
 30
0.0
 10
116.6647823416
 20
70.2305646616
 30
0.0
  0
SPLINE
  5
6B4
100
AcDbEntity
  8
0
100
AcDbSpline
 62
7
  6
CONTINUOUS
 70
0
 71
3
 72
9
 73
5
 74
0
 42
0.0000001
 43
0.0000001
 44
0.0000000001
 40
0.0
 40
0.0
 40
0.0
 40
0.0
 40
0.2481550684
 40
1.0
 40
1.0
 40
1.0
 40
1.0
 10
118.3147823416
 20
68.6146320379
 30
0.0
 10
118.3147823416
 20
68.6346897945
 30
0.0
 10
118.311966755
 20
68.7155003552
 30
0.0
 10
118.2978948474
 20
68.7958576208
 30
0.0
 10
118.2816519558
 20
68.854416408
 30
0.0
  0
SPLINE
  5
6B5
100
AcDbEntity
  8
0
100
AcDbSpline
 62
7
  6
CONTINUOUS
 70
0
 71
3
 72
12
 73
8
 74
0
 42
0.0000001
 43
0.0000001
 44
0.0000000001
 40
0.0
 40
0.0
 40
0.0
 40
0.0
 40
0.1065072636
 40
0.2177946704
 40
0.4577702939
 40
0.7218264446
 40
1.0
 40
1.0
 40
1.0
 40
1.0
 10
118.2816519558
 20
68.854416408
 30
0.0
 10
118.2625986442
 20
68.9231073067
 30
0.0
 10
118.2074254016
 20
69.0595580454
 30
0.0
 10
118.0338493099
 20
69.314293293
 30
0.0
 10
117.7074269575
 20
69.5799837133
 30
0.0
 10
117.2156740768
 20
69.7763997813
 30
0.0
 10
116.8509615684
 20
69.8213656456
 30
0.0
 10
116.6647823416
 20
69.8213656456
 30
0.0
  0
SPLINE
  5
6B6
100
AcDbEntity
  8
0
100
AcDbSpline
 62
7
  6
CONTINUOUS
 70
0
 71
3
 72
9
 73
5
 74
0
 42
0.0000001
 43
0.0000001
 44
0.0000000001
 40
0.0
 40
0.0
 40
0.0
 40
0.0
 40
0.2461484772
 40
1.0
 40
1.0
 40
1.0
 40
1.0
 10
111.0347823416
 20
68.2602977894
 30
0.0
 10
111.0347823416
 20
68.2412005955
 30
0.0
 10
111.0394519108
 20
68.1636481273
 30
0.0
 10
111.063030329
 20
68.0875496252
 30
0.0
 10
111.0890589829
 20
68.0351738614
 30
0.0
  0
SPLINE
  5
6B7
100
AcDbEntity
  8
0
100
AcDbSpline
 62
7
  6
CONTINUOUS
 70
0
 71
3
 72
15
 73
11
 74
0
 42
0.0000001
 43
0.0000001
 44
0.0000000001
 40
0.0
 40
0.0
 40
0.0
 40
0.0
 40
0.1103723376
 40
0.2317836291
 40
0.3630591974
 40
0.5
 40
0.6369408026
 40
0.7682163709
 40
0.8896276624
 40
1.0
 40
1.0
 40
1.0
 40
1.0
 10
111.0890589829
 20
68.0351738614
 30
0.0
 10
111.1216199581
 20
67.969653533
 30
0.0
 10
111.2180534222
 20
67.8452764075
 30
0.0
 10
111.4196057332
 20
67.7084062207
 30
0.0
 10
111.665620388
 20
67.6216940493
 30
0.0
 10
111.9347823416
 20
67.5921074661
 30
0.0
 10
112.2039442951
 20
67.6216940493
 30
0.0
 10
112.4499589499
 20
67.7084062207
 30
0.0
 10
112.6515112609
 20
67.8452764075
 30
0.0
 10
112.747944725
 20
67.969653533
 30
0.0
 10
112.7805057003
 20
68.0351738614
 30
0.0
  0
SPLINE
  5
6B8
100
AcDbEntity
  8
0
100
AcDbSpline
 62
7
  6
CONTINUOUS
 70
0
 71
3
 72
9
 73
5
 74
0
 42
0.0000001
 43
0.0000001
 44
0.0000000001
 40
0.0
 40
0.0
 40
0.0
 40
0.0
 40
0.2566085761
 40
1.0
 40
1.0
 40
1.0
 40
1.0
 10
112.7805057003
 20
68.0351738614
 30
0.0
 10
112.7893646889
 20
68.0530002268
 30
0.0
 10
112.820135714
 20
68.1242499628
 30
0.0
 10
112.8347823416
 20
68.2026295045
 30
0.0
 10
112.8347823416
 20
68.2602977894
 30
0.0
  0
SPLINE
  5
6B9
100
AcDbEntity
  8
0
100
AcDbSpline
 62
7
  6
CONTINUOUS
 70
0
 71
3
 72
9
 73
5
 74
0
 42
0.0000001
 43
0.0000001
 44
0.0000000001
 40
0.0
 40
0.0
 40
0.0
 40
0.0
 40
0.2619023318
 40
1.0
 40
1.0
 40
1.0
 40
1.0
 10
107.6217823416
 20
68.8629332396
 30
0.0
 10
107.6584142853
 20
68.8629332396
 30
0.0
 10
107.7978207208
 20
68.8728847046
 30
0.0
 10
107.9365726417
 20
68.9225642993
 30
0.0
 10
108.0198834594
 20
68.9835326474
 30
0.0
  0
SPLINE
  5
6BA
100
AcDbEntity
  8
0
100
AcDbSpline
 62
7
  6
CONTINUOUS
 70
0
 71
3
 72
9
 73
5
 74
0
 42
0.0000001
 43
0.0000001
 44
0.0000000001
 40
0.0
 40
0.0
 40
0.0
 40
0.0
 40
0.2558960941
 40
1.0
 40
1.0
 40
1.0
 40
1.0
 10
108.0198834594
 20
68.9835326474
 30
0.0
 10
108.0263438006
 20
68.9882604409
 30
0.0
 10
108.0511515654
 20
69.0073233678
 30
0.0
 10
108.0741563808
 20
69.0287629726
 30
0.0
 10
108.0898588921
 20
69.04594809
 30
0.0
  0
SPLINE
  5
6BB
100
AcDbEntity
  8
0
100
AcDbSpline
 62
7
  6
CONTINUOUS
 70
0
 71
3
 72
11
 73
7
 74
0
 42
0.0000001
 43
0.0000001
 44
0.0000000001
 40
0.0
 40
0.0
 40
0.0
 40
0.0
 40
0.2133869234
 40
0.4497605719
 40
0.7155714069
 40
1.0
 40
1.0
 40
1.0
 40
1.0
 10
108.1847323562
 20
68.8654863575
 30
0.0
 10
108.1847323562
 20
68.8110593372
 30
0.0
 10
108.1510435085
 20
68.6949433285
 30
0.0
 10
108.020347288
 20
68.5600817531
 30
0.0
 10
107.8355834238
 20
68.4735283771
 30
0.0
 10
107.6943294338
 20
68.4537342235
 30
0.0
 10
107.6217823416
 20
68.4537342235
 30
0.0
  0
SPLINE
  5
6BC
100
AcDbEntity
  8
0
100
AcDbSpline
 62
7
  6
CONTINUOUS
 70
0
 71
3
 72
11
 73
7
 74
0
 42
0.0000001
 43
0.0000001
 44
0.0000000001
 40
0.0
 40
0.0
 40
0.0
 40
0.0
 40
0.2750172731
 40
0.5380213159
 40
0.7803293175
 40
1.0
 40
1.0
 40
1.0
 40
1.0
 10
116.4722823416
 20
67.4879882805
 30
0.0
 10
116.5695477025
 20
67.4879882805
 30
0.0
 10
116.7605937539
 20
67.5095476619
 30
0.0
 10
117.0225868977
 20
67.6048451226
 30
0.0
 10
117.2346939027
 20
67.7549878314
 30
0.0
 10
117.3328620293
 20
67.8909958738
 30
0.0
 10
117.3643733538
 20
67.9620093747
 30
0.0
  0
SPLINE
  5
6BD
100
AcDbEntity
  8
0
100
AcDbSpline
 62
7
  6
CONTINUOUS
 70
0
 71
3
 72
9
 73
5
 74
0
 42
0.0000001
 43
0.0000001
 44
0.0000000001
 40
0.0
 40
0.0
 40
0.0
 40
0.0
 40
0.2554258565
 40
1.0
 40
1.0
 40
1.0
 40
1.0
 10
117.3643733538
 20
67.9620093747
 30
0.0
 10
117.3718942712
 20
67.9789584139
 30
0.0
 10
117.3980581098
 20
68.04670883
 30
0.0
 10
117.4102823416
 20
68.119945329
 30
0.0
 10
117.4102823416
 20
68.1739980526
 30
0.0
  0
SPLINE
  5
6BE
100
AcDbEntity
  8
0
100
AcDbSpline
 62
7
  6
CONTINUOUS
 70
0
 71
3
 72
11
 73
7
 74
0
 42
0.0000001
 43
0.0000001
 44
0.0000000001
 40
0.0
 40
0.0
 40
0.0
 40
0.0
 40
0.2090681543
 40
0.4422090961
 40
0.706252349
 40
1.0
 40
1.0
 40
1.0
 40
1.0
 10
105.5472128582
 20
51.4538033593
 30
0.0
 10
105.5037985269
 20
51.4496693009
 30
0.0
 10
105.409868497
 20
51.458534292
 30
0.0
 10
105.2728437529
 20
51.5171159645
 30
0.0
 10
105.1397635672
 20
51.6166300128
 30
0.0
 10
105.0605527725
 20
51.7026922637
 30
0.0
 10
105.0224363188
 20
51.750668296
 30
0.0
  0
SPLINE
  5
6BF
100
AcDbEntity
  8
0
100
AcDbSpline
 62
7
  6
CONTINUOUS
 70
0
 71
3
 72
13
 73
9
 74
0
 42
0.0000001
 43
0.0000001
 44
0.0000000001
 40
0.0
 40
0.0
 40
0.0
 40
0.0
 40
0.105555774
 40
0.2145362522
 40
0.3293768122
 40
0.4515512971
 40
0.7163589641
 40
1.0
 40
1.0
 40
1.0
 40
1.0
 10
105.0065176904
 20
51.8980607466
 30
0.0
 10
105.0065176904
 20
52.0643288799
 30
0.0
 10
105.0530561418
 20
52.4038668556
 30
0.0
 10
105.2565614922
 20
52.8867881484
 30
0.0
 10
105.5840137273
 20
53.3283475274
 30
0.0
 10
106.1811024846
 20
53.8537325678
 30
0.0
 10
107.1568095037
 20
54.3117726524
 30
0.0
 10
108.0254999081
 20
54.4327606016
 30
0.0
 10
108.4722823416
 20
54.4327605531
 30
0.0
  0
SPLINE
  5
6C0
100
AcDbEntity
  8
0
100
AcDbSpline
 62
7
  6
CONTINUOUS
 70
0
 71
3
 72
12
 73
8
 74
0
 42
0.0000001
 43
0.0000001
 44
0.0000000001
 40
0.0
 40
0.0
 40
0.0
 40
0.0
 40
0.105726059
 40
0.214808484
 40
0.4508327811
 40
0.7159650633
 40
1.0
 40
1.0
 40
1.0
 40
1.0
 10
109.2347370114
 20
68.865367211
 30
0.0
 10
109.2347408334
 20
68.928378939
 30
0.0
 10
109.2172341022
 20
69.0570402534
 30
0.0
 10
109.1118178209
 20
69.3070672273
 30
0.0
 10
108.8513365358
 20
69.5783034764
 30
0.0
 10
108.420529932
 20
69.7795033832
 30
0.0
 10
108.0910644692
 20
69.8257537678
 30
0.0
 10
107.9217823416
 20
69.8257537678
 30
0.0
  0
SPLINE
  5
6C1
100
AcDbEntity
  8
0
100
AcDbSpline
 62
7
  6
CONTINUOUS
 70
0
 71
3
 72
10
 73
6
 74
0
 42
0.0000001
 43
0.0000001
 44
0.0000000001
 40
0.0
 40
0.0
 40
0.0
 40
0.0
 40
0.5388478461
 40
0.7784614303
 40
1.0
 40
1.0
 40
1.0
 40
1.0
 10
105.0257003618
 20
51.7516967684
 30
0.0
 10
105.0190660861
 20
51.7575661252
 30
0.0
 10
105.0098550446
 20
51.7681016256
 30
0.0
 10
105.0063127983
 20
51.783076957
 30
0.0
 10
105.0043432069
 20
51.7925865118
 30
0.0
 10
105.0071284752
 20
51.7949327758
 30
0.0
  0
SPLINE
  5
6C2
100
AcDbEntity
  8
0
100
AcDbSpline
 62
7
  6
CONTINUOUS
 70
0
 71
3
 72
11
 73
7
 74
0
 42
0.0000001
 43
0.0000001
 44
0.0000000001
 40
0.0
 40
0.0
 40
0.0
 40
0.0
 40
0.2133889744
 40
0.449834112
 40
0.7154913092
 40
1.0
 40
1.0
 40
1.0
 40
1.0
 10
117.4102823416
 20
67.7647990366
 30
0.0
 10
117.4102823416
 20
67.6741119956
 30
0.0
 10
117.3542256411
 20
67.4805644015
 30
0.0
 10
117.1362977774
 20
67.2560475116
 30
0.0
 10
116.8285563247
 20
67.1116710411
 30
0.0
 10
116.5931941711
 20
67.0787892645
 30
0.0
 10
116.4722823416
 20
67.0787892645
 30
0.0
  0
SPLINE
  5
6C3
100
AcDbEntity
  8
0
100
AcDbSpline
 62
7
  6
CONTINUOUS
 70
0
 71
3
 72
12
 73
8
 74
0
 42
0.0000001
 43
0.0000001
 44
0.0000000001
 40
0.0
 40
0.0
 40
0.0
 40
0.0
 40
0.1057275742
 40
0.2148048144
 40
0.4508421124
 40
0.7159767529
 40
1.0
 40
1.0
 40
1.0
 40
1.0
 10
109.2347791652
 20
69.2750271289
 30
0.0
 10
109.2347617001
 20
69.3380241171
 30
0.0
 10
109.2170225917
 20
69.4666159643
 30
0.0
 10
109.1117102488
 20
69.7165941171
 30
0.0
 10
108.8510812565
 20
69.987625793
 30
0.0
 10
108.4204018826
 20
70.1887218006
 30
0.0
 10
108.0910154863
 20
70.2349527838
 30
0.0
 10
107.9217823416
 20
70.2349527838
 30
0.0
  0
SPLINE
  5
6C4
100
AcDbEntity
  8
0
100
AcDbSpline
 62
7
  6
CONTINUOUS
 70
0
 71
3
 72
15
 73
11
 74
0
 42
0.0000001
 43
0.0000001
 44
0.0000000001
 40
0.0
 40
0.0
 40
0.0
 40
0.0
 40
0.1066944872
 40
0.224917056
 40
0.3577456546
 40
0.5
 40
0.6422543454
 40
0.775082944
 40
0.8933055128
 40
1.0
 40
1.0
 40
1.0
 40
1.0
 10
112.8347823416
 20
67.8510987734
 30
0.0
 10
112.8347823416
 20
67.764085621
 30
0.0
 10
112.7809858533
 20
67.5783789743
 30
0.0
 10
112.5719415711
 20
67.3629576514
 30
0.0
 10
112.276431215
 20
67.224430121
 30
0.0
 10
111.9347823416
 20
67.1765650758
 30
0.0
 10
111.5931334681
 20
67.224430121
 30
0.0
 10
111.297623112
 20
67.3629576514
 30
0.0
 10
111.0885788298
 20
67.5783789743
 30
0.0
 10
111.0347823416
 20
67.764085621
 30
0.0
 10
111.0347823416
 20
67.8510987734
 30
0.0
  0
SPLINE
  5
6C5
100
AcDbEntity
  8
0
100
AcDbSpline
 62
7
  6
CONTINUOUS
 70
0
 71
3
 72
16
 73
12
 74
0
 42
0.0000001
 43
0.0000001
 44
0.0000000001
 40
0.0
 40
0.0
 40
0.0
 40
0.0
 40
0.1703433919
 40
0.2780074899
 40
0.4007459501
 40
0.5370302946
 40
0.6846337897
 40
0.761591025
 40
0.8402114078
 40
0.9203455132
 40
1.0
 40
1.0
 40
1.0
 40
1.0
 10
107.2250625262
 20
74.1404439348
 30
0.0
 10
107.2376976993
 20
74.0424343599
 30
0.0
 10
107.3248143308
 20
73.8935878356
 30
0.0
 10
107.4912812689
 20
73.7327669355
 30
0.0
 10
107.6647235299
 20
73.6077173742
 30
0.0
 10
107.8708072005
 20
73.4923825424
 30
0.0
 10
108.0622418186
 20
73.4071961017
 30
0.0
 10
108.2244714404
 20
73.3393466054
 30
0.0
 10
108.350848679
 20
73.2869687148
 30
0.0
 10
108.479833147
 20
73.2375148044
 30
0.0
 10
108.5635035141
 20
73.1959100798
 30
0.0
 10
108.6014038608
 20
73.1694734377
 30
0.0
  0
SPLINE
  5
6C6
100
AcDbEntity
  8
0
100
AcDbSpline
 62
7
  6
CONTINUOUS
 70
0
 71
3
 72
9
 73
5
 74
0
 42
0.0000001
 43
0.0000001
 44
0.0000000001
 40
0.0
 40
0.0
 40
0.0
 40
0.0
 40
0.2618907436
 40
1.0
 40
1.0
 40
1.0
 40
1.0
 10
107.2222823416
 20
74.1870583858
 30
0.0
 10
107.2222823416
 20
74.1829803561
 30
0.0
 10
107.2224934384
 20
74.167410963
 30
0.0
 10
107.2235930086
 20
74.1518430664
 30
0.0
 10
107.2250625262
 20
74.1404439348
 30
0.0
  0
SPLINE
  5
6C7
100
AcDbEntity
  8
0
100
AcDbSpline
 62
7
  6
CONTINUOUS
 70
0
 71
3
 72
16
 73
12
 74
0
 42
0.0000001
 43
0.0000001
 44
0.0000000001
 40
0.0
 40
0.0
 40
0.0
 40
0.0
 40
0.1703658877
 40
0.2780494001
 40
0.4007879041
 40
0.5370565279
 40
0.6846560572
 40
0.7616147129
 40
0.8402218368
 40
0.9203443207
 40
1.0
 40
1.0
 40
1.0
 40
1.0
 10
116.7195021569
 20
74.1404439348
 30
0.0
 10
116.7068652057
 20
74.0424205668
 30
0.0
 10
116.619721084
 20
73.8935634722
 30
0.0
 10
116.4532797115
 20
73.7326820046
 30
0.0
 10
116.2798300135
 20
73.6076253386
 30
0.0
 10
116.0737018363
 20
73.4923952062
 30
0.0
 10
115.8823107694
 20
73.4071363906
 30
0.0
 10
115.7200565966
 20
73.339363862
 30
0.0
 10
115.5936911093
 20
73.286990127
 30
0.0
 10
115.4647446227
 20
73.2374788668
 30
0.0
 10
115.3810620662
 20
73.195910706
 30
0.0
 10
115.3431608237
 20
73.1694734386
 30
0.0
  0
SPLINE
  5
6C8
100
AcDbEntity
  8
0
100
AcDbSpline
 62
7
  6
CONTINUOUS
 70
0
 71
3
 72
9
 73
5
 74
0
 42
0.0000001
 43
0.0000001
 44
0.0000000001
 40
0.0
 40
0.0
 40
0.0
 40
0.0
 40
0.2619113377
 40
1.0
 40
1.0
 40
1.0
 40
1.0
 10
116.7222823416
 20
74.1870583858
 30
0.0
 10
116.7222823416
 20
74.1829800351
 30
0.0
 10
116.7220713142
 20
74.1674106393
 30
0.0
 10
116.7209716336
 20
74.1518427491
 30
0.0
 10
116.7195021569
 20
74.1404439348
 30
0.0
  0
SPLINE
  5
6C9
100
AcDbEntity
  8
0
100
AcDbSpline
 62
7
  6
CONTINUOUS
 70
0
 71
3
 72
10
 73
6
 74
0
 42
0.0000001
 43
0.0000001
 44
0.0000000001
 40
0.0
 40
0.0
 40
0.0
 40
0.0
 40
0.2204242832
 40
0.4607044919
 40
1.0
 40
1.0
 40
1.0
 40
1.0
 10
118.9373401409
 20
51.7949094708
 30
0.0
 10
118.9396687432
 20
51.7921329832
 30
0.0
 10
118.9384655098
 20
51.7833109395
 30
0.0
 10
118.9346525067
 20
51.7679363404
 30
0.0
 10
118.9256570285
 20
51.7573943611
 30
0.0
 10
118.9188643213
 20
51.7516967684
 30
0.0
  0
SPLINE
  5
6CA
100
AcDbEntity
  8
0
100
AcDbSpline
 62
7
  6
CONTINUOUS
 70
0
 71
3
 72
11
 73
7
 74
0
 42
0.0000001
 43
0.0000001
 44
0.0000000001
 40
0.0
 40
0.0
 40
0.0
 40
0.0
 40
0.2986206658
 40
0.5627280299
 40
0.7926995656
 40
1.0
 40
1.0
 40
1.0
 40
1.0
 10
118.9221283642
 20
51.7506682958
 30
0.0
 10
118.8797510681
 20
51.6973292033
 30
0.0
 10
118.7915242043
 20
51.6028850123
 30
0.0
 10
118.6415833514
 20
51.4987120308
 30
0.0
 10
118.4873920388
 20
51.4466210043
 30
0.0
 10
118.3845661789
 20
51.4519332452
 30
0.0
 10
118.3389748463
 20
51.4644989398
 30
0.0
  0
SPLINE
  5
6CB
100
AcDbEntity
  8
0
100
AcDbSpline
 62
7
  6
CONTINUOUS
 70
0
 71
3
 72
13
 73
9
 74
0
 42
0.0000001
 43
0.0000001
 44
0.0000000001
 40
0.0
 40
0.0
 40
0.0
 40
0.0
 40
0.2836410359
 40
0.5484487029
 40
0.6706231878
 40
0.7854637478
 40
0.894444226
 40
1.0
 40
1.0
 40
1.0
 40
1.0
 10
115.4722823416
 20
54.4327605531
 30
0.0
 10
115.9190647751
 20
54.4327606016
 30
0.0
 10
116.7877551794
 20
54.3117726524
 30
0.0
 10
117.7634621985
 20
53.8537325678
 30
0.0
 10
118.3605509558
 20
53.3283475274
 30
0.0
 10
118.6880031909
 20
52.8867881484
 30
0.0
 10
118.8915085413
 20
52.4038668556
 30
0.0
 10
118.9380469927
 20
52.0643288799
 30
0.0
 10
118.9380469927
 20
51.8980607466
 30
0.0
  0
LINE
  5
6CC
100
AcDbEntity
  8
0
100
AcDbLine
 62
7
  6
CONTINUOUS
 10
111.9722837964
 20
41.8486118189
 11
111.9722837964
 21
40.8080287613
  0
SPLINE
  5
6CD
100
AcDbEntity
  8
RUNDUNGEN
100
AcDbSpline
 62
7
  6
CONTINUOUS
 70
0
 71
3
 72
11
 73
7
 74
0
 42
0.0000001
 43
0.0000001
 44
0.0000000001
 40
0.0
 40
0.0
 40
0.0
 40
0.0
 40
0.2524244125
 40
0.5034751772
 40
0.7526299537
 40
1.0
 40
1.0
 40
1.0
 40
1.0
 10
108.0236608254
 20
12.2346742097
 30
0.0
 10
107.6240082511
 20
12.2686321174
 30
0.0
 10
106.8319183213
 20
12.4552114452
 30
0.0
 10
105.7843470149
 20
13.0671284105
 30
0.0
 10
104.9694005623
 20
13.9555357353
 30
0.0
 10
104.6303424918
 20
14.68425183
 30
0.0
 10
104.5214085823
 20
15.0619166523
 30
0.0
  0
SPLINE
  5
6CE
100
AcDbEntity
  8
KONSTRUKTIONSELEMENTE
100
AcDbSpline
 62
7
  6
CONTINUOUS
 70
0
 71
3
 72
9
 73
5
 74
0
 42
0.0000001
 43
0.0000001
 44
0.0000000001
 40
0.0
 40
0.0
 40
0.0
 40
0.0
 40
0.2534965842
 40
1.0
 40
1.0
 40
1.0
 40
1.0
 10
101.0967154107
 20
44.3525734881
 30
0.0
 10
101.0905053814
 20
44.376810478
 30
0.0
 10
101.0699257932
 20
44.4733798216
 30
0.0
 10
101.0662790488
 20
44.5735776508
 30
0.0
 10
101.0734507938
 20
44.6469070853
 30
0.0
  0
SPLINE
  5
6CF
100
AcDbEntity
  8
KONSTRUKTIONSELEMENTE
100
AcDbSpline
 62
7
  6
CONTINUOUS
 70
0
 71
3
 72
9
 73
5
 74
0
 42
0.0000001
 43
0.0000001
 44
0.0000000001
 40
0.0
 40
0.0
 40
0.0
 40
0.0
 40
0.4883874726
 40
1.0
 40
1.0
 40
1.0
 40
1.0
 10
101.0734507938
 20
44.6469070853
 30
0.0
 10
101.1118086531
 20
44.8713676449
 30
0.0
 10
101.2414127026
 20
45.3233682268
 30
0.0
 10
101.4590118103
 20
45.7392632603
 30
0.0
 10
101.5875507926
 20
45.9402126045
 30
0.0
  0
SPLINE
  5
6D0
100
AcDbEntity
  8
KONSTRUKTIONSELEMENTE
100
AcDbSpline
 62
7
  6
CONTINUOUS
 70
0
 71
3
 72
9
 73
5
 74
0
 42
0.0000001
 43
0.0000001
 44
0.0000000001
 40
0.0
 40
0.0
 40
0.0
 40
0.0
 40
0.2485792144
 40
1.0
 40
1.0
 40
1.0
 40
1.0
 10
101.7573984431
 20
46.1860607736
 30
0.0
 10
101.7648748551
 20
46.237722243
 30
0.0
 10
101.8001079312
 20
46.444776968
 30
0.0
 10
101.855946487
 20
46.6482713746
 30
0.0
 10
101.9084185677
 20
46.7970837311
 30
0.0
  0
SPLINE
  5
6D1
100
AcDbEntity
  8
KONSTRUKTIONSELEMENTE
100
AcDbSpline
 62
7
  6
CONTINUOUS
 70
0
 71
3
 72
9
 73
5
 74
0
 42
0.0000001
 43
0.0000001
 44
0.0000000001
 40
0.0
 40
0.0
 40
0.0
 40
0.0
 40
0.4811247429
 40
1.0
 40
1.0
 40
1.0
 40
1.0
 10
101.0967154107
 20
44.3525734881
 30
0.0
 10
101.1508362857
 20
44.141346313
 30
0.0
 10
101.3096701668
 20
43.7132736837
 30
0.0
 10
101.5466031759
 20
43.3237138741
 30
0.0
 10
101.6848682847
 20
43.1334964479
 30
0.0
  0
SPLINE
  5
6D2
100
AcDbEntity
  8
0
100
AcDbSpline
 62
7
  6
CONTINUOUS
 70
0
 71
3
 72
11
 73
7
 74
0
 42
0.0000001
 43
0.0000001
 44
0.0000000001
 40
0.0
 40
0.0
 40
0.0
 40
0.0
 40
0.2524244125
 40
0.5034751772
 40
0.7526299537
 40
1.0
 40
1.0
 40
1.0
 40
1.0
 10
115.9209067674
 20
12.2346742097
 30
0.0
 10
116.3205593417
 20
12.2686321174
 30
0.0
 10
117.1126492716
 20
12.4552114452
 30
0.0
 10
118.160220578
 20
13.0671284105
 30
0.0
 10
118.9751670306
 20
13.9555357353
 30
0.0
 10
119.3142251011
 20
14.68425183
 30
0.0
 10
119.4231590106
 20
15.0619166523
 30
0.0
  0
ELLIPSE
  5
6D3
100
AcDbEntity
  8
KONSTRUKTIONSELEMENTE
100
AcDbEllipse
 62
7
  6
CONTINUOUS
 10
109.001230247
 20
212.3230641043
 30
0.0
 11
8.0
 21
0.0
 31
0.0
 40
0.7954374101
 41
3.1415014947
 42
3.2325658404
  0
ELLIPSE
  5
6D4
100
AcDbEntity
  8
KONSTRUKTIONSELEMENTE
100
AcDbEllipse
 62
7
  6
CONTINUOUS
 10
115.9722837964
 20
212.8289100225
 30
0.0
 11
15.0
 21
-0.0
 31
0.0
 40
0.7954374101
 41
-3.0506194668
 42
-2.9815381921
  0
ELLIPSE
  5
6D5
100
AcDbEntity
  8
KONSTRUKTIONSELEMENTE
100
AcDbEllipse
 62
7
  6
CONTINUOUS
 10
115.9722837964
 20
210.033897211
 30
0.0
 11
15.0
 21
-0.0
 31
0.0
 40
0.3737404873
 41
2.9815381921
 42
3.0506194668
  0
ELLIPSE
  5
6D6
100
AcDbEntity
  8
KONSTRUKTIONSELEMENTE
100
AcDbEllipse
 62
7
  6
CONTINUOUS
 10
109.001230247
 20
41.1199382125
 30
0.0
 11
8.0
 21
0.0
 31
0.0
 40
0.6222619915
 41
2.72517853
 42
3.1415014947
  0
ENDSEC
  0
SECTION
  2
OBJECTS
  0
DICTIONARY
  5
C
100
AcDbDictionary
280
0
281
1
  3
ACAD_GROUP
350
D
  3
ACAD_MLINESTYLE
350
17
  3
ACAD_LAYOUT
350
1A
  3
ACAD_PLOTSETTINGS
350
19
  3
ACAD_PLOTSTYLENAME
350
E
  0
DICTIONARY
  5
D
102
{ACAD_REACTORS
330
C
102
}
100
AcDbDictionary
280
0
281
1
  0
ACDBDICTIONARYWDFLT
  5
E
102
{ACAD_REACTORS
330
C
102
}
100
AcDbDictionary
281
1
  3
Normal
350
F
100
AcDbDictionaryWithDefault
340
F
  0
DICTIONARY
  5
17
102
{ACAD_REACTORS
330
C
102
}
100
AcDbDictionary
280
0
281
1
  3
Standard
350
18
  0
DICTIONARY
  5
19
102
{ACAD_REACTORS
330
C
102
}
100
AcDbDictionary
281
1
  0
DICTIONARY
  5
1A
102
{ACAD_REACTORS
330
C
102
}
100
AcDbDictionary
281
1
  3
Model
350
6D7
  3
Layout1
350
6D8
  0
ACDBPLACEHOLDER
  5
F
102
{ACAD_REACTORS
330
E
102
}
  0
MLINESTYLE
  5
18
102
{ACAD_REACTORS
330
17
102
}
100
AcDbMlineStyle
  2
STANDARD
 70
0
  3

 62
256
 51
90.0
 52
90.0
 71
2
 49
0.5
 62
256
  6
BYLAYER
 49
-0.5
 62
256
  6
BYLAYER
  0
LAYOUT
  5
6D7
102
{ACAD_REACTORS
330
1A
102
}
100
AcDbPlotSettings
  1

  2
none_device
  4
ISO_A3_(420.00_x_297.00_MM)
  6

 40
0.0
 41
0.0
 42
0.0
 43
0.0
 44
420.0
 45
297.0
 46
0.0
 47
0.0
 48
0.0
 49
0.0
140
0.0
141
0.0
142
1.0
143
1.0
 70
1024
 72
1
 73
0
 74
0
  7

 75
0
147
1.0
148
0.0
149
0.0
100
AcDbLayout
  1
Model
 70
0
 71
0
 10
0.0
 20
0.0
 11
420.0
 21
297.0
 12
0.0
 22
0.0
 32
0.0
 14
0.0
 24
0.0
 34
0.0
 15
0.0
 25
0.0
 35
0.0
146
0.0
 13
0.0
 23
0.0
 33
0.0
 16
1.0
 26
0.0
 36
0.0
 17
0.0
 27
1.0
 37
0.0
 76
0
330
20C
345
0
346
0
  0
LAYOUT
  5
6D8
102
{ACAD_REACTORS
330
1A
102
}
100
AcDbPlotSettings
  1

  2
none_device
  4
ISO_A3_(420.00_x_297.00_MM)
  6

 40
0.0
 41
0.0
 42
0.0
 43
0.0
 44
420.0
 45
297.0
 46
0.0
 47
0.0
 48
0.0
 49
0.0
140
0.0
141
0.0
142
1.0
143
1.0
 70
0
 72
1
 73
0
 74
0
  7

 75
0
147
1.0
148
0.0
149
0.0
100
AcDbLayout
  1
Layout1
 70
0
 71
1
 10
0.0
 20
0.0
 11
420.0
 21
297.0
 12
0.0
 22
0.0
 32
0.0
 14
0.0
 24
0.0
 34
0.0
 15
0.0
 25
0.0
 35
0.0
146
0.0
 13
0.0
 23
0.0
 33
0.0
 16
1.0
 26
0.0
 36
0.0
 17
0.0
 27
1.0
 37
0.0
 76
0
330
20D
345
0
346
0
  0
ENDSEC
  0
EOF
