999
DXF file: vabh-w-1-5.dxf
999
Pro/ENGINEER 2010140 by Parametric Technology Corporation
  0
SECTION
  2
HEADER
  9
$ACADVER
  1
AC1015
  9
$DWGCODEPAGE
  3
ANSI_1252
  9
$EXTMAX
 10
420.0
 20
297.0
 30
0.0
  9
$EXTMIN
 10
0.0
 20
0.0
 30
0.0
  9
$LIMMIN
 10
0.0
 20
0.0
  9
$LIMMAX
 10
420.0
 20
297.0
  9
$VIEWCTR
 10
210.0
 20
148.5
  9
$VIEWSIZE
 40
297.0
  9
$CLAYER
  8
0
  9
$LTSCALE
 40
23.1
  9
$CELTYPE
  6
BYLAYER
  9
$DIMSCALE
 40
1.0
  9
$DIMASZ
 40
3.5
  9
$DIMEXO
 40
2.625
  9
$DIMDLI
 40
15.96
  9
$DIMEXE
 40
7.56
  9
$DIMCEN
 40
3.78
  9
$DIMLFAC
 40
1.0
  9
$DIMBLK
  1
_FILLED
  9
$DIMTXT
 40
3.5
  9
$DIMTOL
 70
1
  9
$DIMLIM
 70
0
  9
$DIMTFAC
 40
1.0
  9
$DIMTP
 40
0.005
  9
$DIMTM
 40
0.005
  9
$PDMODE
 70
3
  9
$PDSIZE
 40
0.3125
  9
$HANDSEED
  5
6A0
  9
$TILEMODE
 70
1
  9
$MEASUREMENT
 70
1
  9
$INSUNITS
 70
4
  0
ENDSEC
  0
SECTION
  2
CLASSES
  0
CLASS
  1
ACDBDICTIONARYWDFLT
  2
AcDbDictionaryWithDefault
  3
AutoCAD 2000
 90
0
280
0
281
0
  0
CLASS
  1
ACDBPLACEHOLDER
  2
AcDbPlaceHolder
  3
AutoCAD 2000
 90
0
280
0
281
0
  0
CLASS
  1
LAYOUT
  2
AcDbLayout
  3
AutoCAD 2000
 90
0
280
0
281
0
  0
ENDSEC
  0
SECTION
  2
TABLES
  0
TABLE
  2
VPORT
  5
8
100
AcDbSymbolTable
 70
2
  0
VPORT
  5
1F4
100
AcDbSymbolTableRecord
100
AcDbViewportTableRecord
  2
*ACTIVE
 70
0
 10
0.0
 20
0.0
 11
1.0
 21
1.0
 12
210.0
 22
148.5
 13
0.0
 23
0.0
 14
1.0
 24
1.0
 15
0.0
 25
0.0
 16
0.0
 26
0.0
 36
1.0
 17
0.0
 27
0.0
 37
0.0
 40
297.0
 41
1.4141414141
 42
50.0
 43
0.0
 44
0.0
 50
0.0
 51
0.0
 71
0
 72
100
 73
1
 74
1
 75
0
 76
0
 77
0
 78
0
  0
ENDTAB
  0
TABLE
  2
LTYPE
  5
5
100
AcDbSymbolTable
 70
6
  0
LTYPE
  5
14
100
AcDbSymbolTableRecord
100
AcDbLinetypeTableRecord
  2
BYBLOCK
 70
0
  3

 72
65
 73
0
 40
0.0
  0
LTYPE
  5
15
100
AcDbSymbolTableRecord
100
AcDbLinetypeTableRecord
  2
BYLAYER
 70
0
  3

 72
65
 73
0
 40
0.0
  0
LTYPE
  5
16
100
AcDbSymbolTableRecord
100
AcDbLinetypeTableRecord
  2
CONTINUOUS
 70
64
  3
Solid line
 72
65
 73
0
 40
0.0
  0
LTYPE
  5
1F5
100
AcDbSymbolTableRecord
100
AcDbLinetypeTableRecord
  2
CENTER
 70
64
  3
____ _ ____ _ ____ _ ____ _ ____ _ ____ _ ____
 72
65
 73
4
 40
0.6
 49
0.375
 74
0
 49
-0.075
 74
0
 49
0.075
 74
0
 49
-0.075
 74
0
  0
LTYPE
  5
1F6
100
AcDbSymbolTableRecord
100
AcDbLinetypeTableRecord
  2
HIDDEN
 70
64
  3
- - - - - - - - - - - - - - - - - - - -
 72
65
 73
2
 40
0.2
 49
0.1
 74
0
 49
-0.1
 74
0
  0
LTYPE
  5
1F7
100
AcDbSymbolTableRecord
100
AcDbLinetypeTableRecord
  2
PHANTOM
 70
64
  3
_____ _ _ _____ _ _ _____ _ _ _____
 72
65
 73
6
 40
0.8
 49
0.45
 74
0
 49
-0.05
 74
0
 49
0.1
 74
0
 49
-0.05
 74
0
 49
0.1
 74
0
 49
-0.05
 74
0
  0
LTYPE
  5
1F8
100
AcDbSymbolTableRecord
100
AcDbLinetypeTableRecord
  2
DOT
 70
64
  3
. . . . . . . . . . . . . . . . . . . .
 72
65
 73
2
 40
0.2
 49
0.1
 74
0
 49
-0.1
 74
0
  0
LTYPE
  5
1F9
100
AcDbSymbolTableRecord
100
AcDbLinetypeTableRecord
  2
DASHED
 70
64
  3
- - - - - - - - - - - - - - - - - - - -
 72
65
 73
2
 40
0.2
 49
0.1
 74
0
 49
-0.1
 74
0
  0
ENDTAB
  0
TABLE
  2
LAYER
  5
2
100
AcDbSymbolTable
 70
36
  0
LAYER
  5
10
100
AcDbSymbolTableRecord
100
AcDbLayerTableRecord
  2
0
 70
0
 62
7
  6
CONTINUOUS
370
-3
390
F
  0
LAYER
  5
1FA
100
AcDbSymbolTableRecord
100
AcDbLayerTableRecord
  2
DEFAULT_1
 70
0
 62
7
  6
CENTER
370
-3
390
F
  0
LAYER
  5
1FB
100
AcDbSymbolTableRecord
100
AcDbLayerTableRecord
  2
DEFAULT_2
 70
0
 62
8
  6
HIDDEN
370
-3
390
F
  0
LAYER
  5
1FC
100
AcDbSymbolTableRecord
100
AcDbLayerTableRecord
  2
DEFAULT_3
 70
0
 62
7
  6
PHANTOM
370
-3
390
F
  0
LAYER
  5
1FD
100
AcDbSymbolTableRecord
100
AcDbLayerTableRecord
  2
AUSFORMSCHRAEGEN
 70
0
 62
7
  6
CONTINUOUS
370
-3
390
F
  0
LAYER
  5
1FE
100
AcDbSymbolTableRecord
100
AcDbLayerTableRecord
  2
BEZUGSACHSEN
 70
0
 62
7
  6
CONTINUOUS
370
-3
390
F
  0
LAYER
  5
1FF
100
AcDbSymbolTableRecord
100
AcDbLayerTableRecord
  2
BEZUGSEBENEN
 70
0
 62
7
  6
CONTINUOUS
370
-3
390
F
  0
LAYER
  5
200
100
AcDbSymbolTableRecord
100
AcDbLayerTableRecord
  2
BG_STARTBEZUEGE
 70
0
 62
7
  6
CONTINUOUS
370
-3
390
F
  0
LAYER
  5
201
100
AcDbSymbolTableRecord
100
AcDbLayerTableRecord
  2
BOHRUNGEN
 70
0
 62
7
  6
CONTINUOUS
370
-3
390
F
  0
LAYER
  5
202
100
AcDbSymbolTableRecord
100
AcDbLayerTableRecord
  2
FASEN
 70
0
 62
7
  6
CONTINUOUS
370
-3
390
F
  0
LAYER
  5
203
100
AcDbSymbolTableRecord
100
AcDbLayerTableRecord
  2
HILFEN
 70
0
 62
7
  6
CONTINUOUS
370
-3
390
F
  0
LAYER
  5
204
100
AcDbSymbolTableRecord
100
AcDbLayerTableRecord
  2
KONSTRUKTIONSELEMENTE
 70
0
 62
7
  6
CONTINUOUS
370
-3
390
F
  0
LAYER
  5
205
100
AcDbSymbolTableRecord
100
AcDbLayerTableRecord
  2
KURVEN
 70
0
 62
7
  6
CONTINUOUS
370
-3
390
F
  0
LAYER
  5
206
100
AcDbSymbolTableRecord
100
AcDbLayerTableRecord
  2
PLATZIERUNG
 70
0
 62
7
  6
CONTINUOUS
370
-3
390
F
  0
LAYER
  5
207
100
AcDbSymbolTableRecord
100
AcDbLayerTableRecord
  2
PLAZIERUNG
 70
0
 62
7
  6
CONTINUOUS
370
-3
390
F
  0
LAYER
  5
208
100
AcDbSymbolTableRecord
100
AcDbLayerTableRecord
  2
RUNDUNGEN
 70
0
 62
7
  6
CONTINUOUS
370
-3
390
F
  0
LAYER
  5
209
100
AcDbSymbolTableRecord
100
AcDbLayerTableRecord
  2
TEIL_STARTBEZUEGE
 70
0
 62
7
  6
CONTINUOUS
370
-3
390
F
  0
LAYER
  5
20A
100
AcDbSymbolTableRecord
100
AcDbLayerTableRecord
  2
XSEC_DATUMS
 70
0
 62
7
  6
CONTINUOUS
370
-3
390
F
  0
ENDTAB
  0
TABLE
  2
STYLE
  5
3
100
AcDbSymbolTable
 70
1
  0
STYLE
  5
11
100
AcDbSymbolTableRecord
100
AcDbTextStyleTableRecord
  2
STANDARD
 70
0
 40
0.0
 41
0.7
 50
0.0
 71
0
 42
0.2
  3
txt
  4

  0
STYLE
  5
20B
100
AcDbSymbolTableRecord
100
AcDbTextStyleTableRecord
  2
TEXTSTYLE_1
 70
0
 40
0.0
 41
0.8
 50
0.0
 71
0
 42
0.2
  3
gdt
  4

  0
ENDTAB
  0
TABLE
  2
VIEW
  5
6
100
AcDbSymbolTable
 70
0
  0
ENDTAB
  0
TABLE
  2
UCS
  5
7
100
AcDbSymbolTable
 70
0
  0
ENDTAB
  0
TABLE
  2
APPID
  5
9
100
AcDbSymbolTable
 70
1
  0
APPID
  5
20C
100
AcDbSymbolTableRecord
100
AcDbRegAppTableRecord
  2
ACAD
 70
0
  0
ENDTAB
  0
TABLE
  2
BLOCK_RECORD
  5
1
100
AcDbSymbolTable
 70
0
  0
BLOCK_RECORD
  5
20D
100
AcDbSymbolTableRecord
100
AcDbBlockTableRecord
  2
*Model_Space
  0
BLOCK_RECORD
  5
20E
100
AcDbSymbolTableRecord
100
AcDbBlockTableRecord
  2
*Paper_Space
  0
ENDTAB
  0
TABLE
  2
DIMSTYLE
  5
A
100
AcDbSymbolTable
 70
1
100
AcDbDimStyleTable
 71
0
  0
DIMSTYLE
105
20F
100
AcDbSymbolTableRecord
100
AcDbDimStyleTableRecord
  2
STANDARD
 70
0
  3

  4

 40
1.0
 41
3.5
 42
0.0625
 43
0.38
 44
0.18
 45
0.0
 46
0.0
 47
0.005
 48
0.005
140
3.5
141
0.09
142
0.0
143
25.4
144
1.0
145
0.0
146
1.0
147
0.09
 71
1.0
 72
0.0
 73
0
 74
0
 75
0
 76
0
 77
1
 78
8
170
0
171
2
172
0
173
0
174
0
175
0
176
0
177
0
178
5
270
2
271
3
272
3
273
2
274
2
275
0
280
0
281
0
282
0
283
1
284
8
285
0
286
0
287
3
288
0
340
11
  0
ENDTAB
  0
ENDSEC
  0
SECTION
  2
BLOCKS
  0
BLOCK
  5
20
100
AcDbEntity
  8
0
100
AcDbBlockBegin
  2
*Model_Space
 70
0
 10
0.0
 20
0.0
 30
0.0
  3
*Model_Space
  1

  0
ENDBLK
  5
21
100
AcDbEntity
  8
0
100
AcDbBlockEnd
  0
BLOCK
  5
1C
100
AcDbEntity
  8
0
100
AcDbBlockBegin
  2
*Paper_Space
 70
0
 10
0.0
 20
0.0
 30
0.0
  3
*Paper_Space
  1

  0
ENDBLK
  5
1D
100
AcDbEntity
  8
0
100
AcDbBlockEnd
  0
ENDSEC
  0
SECTION
  2
ENTITIES
  0
LINE
  5
210
100
AcDbEntity
  8
0
100
AcDbLine
 62
7
  6
CONTINUOUS
 10
0.0
 20
0.0
 11
0.0
 21
297.0
  0
LINE
  5
211
100
AcDbEntity
  8
0
100
AcDbLine
 62
7
  6
CONTINUOUS
 10
0.0
 20
0.0
 11
420.0
 21
0.0
  0
LINE
  5
212
100
AcDbEntity
  8
0
100
AcDbLine
 62
7
  6
CONTINUOUS
 10
0.0
 20
297.0
 11
420.0
 21
297.0
  0
LINE
  5
213
100
AcDbEntity
  8
0
100
AcDbLine
 62
7
  6
CONTINUOUS
 10
420.0
 20
0.0
 11
420.0
 21
297.0
  0
LWPOLYLINE
  5
214
100
AcDbEntity
  8
0
100
AcDbPolyline
 62
7
  6
CONTINUOUS
 90
13
 70
0
 10
118.2154622912
 20
158.371385358
 10
118.3330713601
 20
158.4027534758
 10
118.4800879122
 20
158.4405526754
 10
118.6381396789
 20
158.4797953911
 10
118.8072072598
 20
158.5203982904
 10
118.9872081919
 20
158.5622710195
 10
119.1781472069
 20
158.6053505695
 10
119.3799852742
 20
158.6495689801
 10
119.5927394404
 20
158.694875041
 10
119.8163944661
 20
158.7412138099
 10
120.0509709377
 20
158.7885405438
 10
120.2964669541
 20
158.8368080762
 10
120.5528911329
 20
158.8859731742
  0
LINE
  5
215
100
AcDbEntity
  8
0
100
AcDbLine
 62
7
  6
CONTINUOUS
 10
120.5528911329
 20
158.8859731742
 11
121.0984892429
 21
158.9868171559
  0
LINE
  5
216
100
AcDbEntity
  8
0
100
AcDbLine
 62
7
  6
CONTINUOUS
 10
121.0984892429
 20
158.9868171559
 11
121.6874481904
 21
159.0906843073
  0
LINE
  5
217
100
AcDbEntity
  8
0
100
AcDbLine
 62
7
  6
CONTINUOUS
 10
121.6874481904
 20
159.0906843073
 11
122.3193656884
 21
159.1971927464
  0
LINE
  5
218
100
AcDbEntity
  8
0
100
AcDbLine
 62
7
  6
CONTINUOUS
 10
122.3193656884
 20
159.1971927464
 11
122.9936576706
 21
159.3059457645
  0
LINE
  5
219
100
AcDbEntity
  8
0
100
AcDbLine
 62
7
  6
CONTINUOUS
 10
122.9936576706
 20
159.3059457645
 11
123.7095081097
 21
159.4165219596
  0
LINE
  5
21A
100
AcDbEntity
  8
0
100
AcDbLine
 62
7
  6
CONTINUOUS
 10
123.7095081097
 20
159.4165219596
 11
124.465836125
 21
159.5284702831
  0
LINE
  5
21B
100
AcDbEntity
  8
0
100
AcDbLine
 62
7
  6
CONTINUOUS
 10
125.6447218829
 20
159.6960134772
 11
126.6902247592
 21
159.8486497943
  0
LWPOLYLINE
  5
21C
100
AcDbEntity
  8
0
100
AcDbPolyline
 62
7
  6
CONTINUOUS
 90
6
 70
0
 10
126.6902247592
 20
159.8486497943
 10
127.3732041469
 20
159.9449399592
 10
128.0727155168
 20
160.0399632511
 10
128.7866346977
 20
160.1334197132
 10
129.5127899489
 20
160.2250140462
 10
130.248961718
 20
160.3144559155
  0
LWPOLYLINE
  5
21D
100
AcDbEntity
  8
0
100
AcDbPolyline
 62
7
  6
CONTINUOUS
 90
23
 70
0
 10
135.2878156557
 20
160.8796020132
 10
135.9714782334
 20
160.9755302896
 10
136.7648564729
 20
161.137952412
 10
137.5461215018
 20
161.3536703763
 10
138.3116174334
 20
161.6217470135
 10
139.0577985251
 20
161.9409998188
 10
139.7812106382
 20
162.3100028771
 10
140.478513317
 20
162.7270983273
 10
141.1464713106
 20
163.1903899229
 10
141.7819962237
 20
163.6977674027
 10
142.3821470777
 20
164.2469070055
 10
142.9441526342
 20
164.835289017
 10
143.4654237397
 20
165.4602115919
 10
143.9435636818
 20
166.1188016991
 10
144.3763763055
 20
166.8080252169
 10
144.7618795478
 20
167.5247047049
 10
145.0983146204
 20
168.265532441
 10
145.3841524224
 20
169.027080936
 10
145.6181110863
 20
169.8058458261
 10
145.799150229
 20
170.5982354385
 10
145.9264792965
 20
171.4005948898
 10
145.9995607217
 20
172.209184548
 10
146.0188217129
 20
172.8906371247
  0
LINE
  5
21E
100
AcDbEntity
  8
0
100
AcDbLine
 62
7
  6
CONTINUOUS
 10
124.465836125
 20
159.5284702831
 11
125.6447218829
 21
159.6960134772
  0
LWPOLYLINE
  5
21F
100
AcDbEntity
  8
0
100
AcDbPolyline
 62
7
  6
CONTINUOUS
 90
17
 70
0
 10
114.5588734811
 20
155.9200934072
 10
114.6684473508
 20
155.934066845
 10
114.9004954647
 20
155.9802255701
 10
115.1271335896
 20
156.0481397997
 10
115.3463266148
 20
156.1371998271
 10
115.5561063327
 20
156.2466060028
 10
115.7545892662
 20
156.3753760433
 10
115.9399932875
 20
156.5223537288
 10
116.1106538486
 20
156.6862194528
 10
116.265038731
 20
156.8655019515
 10
116.4017618666
 20
157.058591567
 10
116.5195957476
 20
157.2637546618
 10
116.6174824849
 20
157.4791492495
 10
116.6945432606
 20
157.7028414673
 10
116.7500862413
 20
157.9328229983
 10
116.7836127665
 20
158.1670290727
 10
116.7948218214
 20
158.4033569115
  0
LINE
  5
220
100
AcDbEntity
  8
0
100
AcDbLine
 62
7
  6
CONTINUOUS
 10
130.248961718
 20
160.3144559155
 11
131.6051800315
 21
160.4705791832
  0
LINE
  5
221
100
AcDbEntity
  8
0
100
AcDbLine
 62
7
  6
CONTINUOUS
 10
131.6051796456
 20
160.4705791257
 11
135.2878150317
 21
160.8796017833
  0
LINE
  5
222
100
AcDbEntity
  8
0
100
AcDbLine
 62
7
  6
CONTINUOUS
 10
114.5588864111
 20
155.9200946555
 11
111.0188218214
 21
155.548018874
  0
LINE
  5
223
100
AcDbEntity
  8
0
100
AcDbLine
 62
7
  6
CONTINUOUS
 10
111.0188218214
 20
155.548018874
 11
107.4787572317
 21
155.9200946555
  0
LWPOLYLINE
  5
224
100
AcDbEntity
  8
RUNDUNGEN
100
AcDbPolyline
 62
7
  6
CONTINUOUS
 90
8
 70
0
 10
86.7498286111
 20
160.8796017833
 10
91.0447274006
 20
160.40146384
 10
91.7886819248
 20
160.3144559155
 10
92.5248536939
 20
160.2250140462
 10
93.2510089451
 20
160.1334197132
 10
93.964928126
 20
160.0399632511
 10
94.6644394959
 20
159.9449399592
 10
95.3474188836
 20
159.8486497943
  0
LINE
  5
225
100
AcDbEntity
  8
RUNDUNGEN
100
AcDbLine
 62
7
  6
CONTINUOUS
 10
96.3929217599
 20
159.6960134772
 11
97.5710781097
 21
159.5285759853
  0
LINE
  5
226
100
AcDbEntity
  8
RUNDUNGEN
100
AcDbLine
 62
7
  6
CONTINUOUS
 10
95.3474188836
 20
159.8486497943
 11
96.3929217599
 21
159.6960134772
  0
LINE
  5
227
100
AcDbEntity
  8
RUNDUNGEN
100
AcDbLine
 62
7
  6
CONTINUOUS
 10
97.5710781097
 20
159.5285759853
 11
98.3266488978
 21
159.4167467545
  0
LINE
  5
228
100
AcDbEntity
  8
RUNDUNGEN
100
AcDbLine
 62
7
  6
CONTINUOUS
 10
98.3266488978
 20
159.4167467545
 11
99.0417471161
 21
159.3062991287
  0
LINE
  5
229
100
AcDbEntity
  8
RUNDUNGEN
100
AcDbLine
 62
7
  6
CONTINUOUS
 10
99.0417471161
 20
159.3062991287
 11
99.7153224609
 21
159.1976799801
  0
LINE
  5
22A
100
AcDbEntity
  8
RUNDUNGEN
100
AcDbLine
 62
7
  6
CONTINUOUS
 10
99.7153224609
 20
159.1976799801
 11
100.346586716
 21
159.0913063638
  0
LINE
  5
22B
100
AcDbEntity
  8
RUNDUNGEN
100
AcDbLine
 62
7
  6
CONTINUOUS
 10
100.346586716
 20
159.0913063638
 11
100.9349803381
 21
158.9875705537
  0
LWPOLYLINE
  5
22C
100
AcDbEntity
  8
RUNDUNGEN
100
AcDbPolyline
 62
7
  6
CONTINUOUS
 90
14
 70
0
 10
100.9349803381
 20
158.9875705537
 10
101.4801226504
 20
158.8868498374
 10
101.7363654652
 20
158.8377419454
 10
101.9817133355
 20
158.7895279718
 10
102.2161760981
 20
158.7422506519
 10
102.4397533356
 20
158.6959565563
 10
102.6524666333
 20
158.6506898769
 10
102.8543017769
 20
158.6065049262
 10
103.0452763308
 20
158.5634523388
 10
103.2253519916
 20
158.5215993648
 10
103.3945336511
 20
158.4810083448
 10
103.5527393896
 20
158.4417687573
 10
103.6999496157
 20
158.4039631258
 10
103.822106488
 20
158.3714226239
  0
LINE
  5
22D
100
AcDbEntity
  8
0
100
AcDbLine
 62
7
  6
CONTINUOUS
 10
117.0988218214
 20
173.135886335
 11
116.9988218214
 21
173.135886335
  0
LINE
  5
22E
100
AcDbEntity
  8
KONSTRUKTIONSELEMENTE
100
AcDbLine
 62
7
  6
CONTINUOUS
 10
105.0388218214
 20
173.135886335
 11
104.9388218214
 21
173.135886335
  0
LWPOLYLINE
  5
22F
100
AcDbEntity
  8
RUNDUNGEN
100
AcDbPolyline
 62
7
  6
CONTINUOUS
 90
23
 70
0
 10
76.0188219299
 20
172.8906371247
 10
76.0380829211
 20
172.209184548
 10
76.1111643464
 20
171.4005948898
 10
76.2384934138
 20
170.5982354385
 10
76.4195325565
 20
169.8058458261
 10
76.6534912204
 20
169.027080936
 10
76.9393290224
 20
168.265532441
 10
77.275764095
 20
167.5247047049
 10
77.6612673373
 20
166.8080252169
 10
78.094079961
 20
166.1188016991
 10
78.5722199031
 20
165.4602115919
 10
79.0934910086
 20
164.835289017
 10
79.6554965651
 20
164.2469070055
 10
80.2556474191
 20
163.6977674027
 10
80.8911723322
 20
163.1903899229
 10
81.5591303258
 20
162.7270983273
 10
82.2564330046
 20
162.3100028771
 10
82.9798451177
 20
161.9409998188
 10
83.7260262095
 20
161.6217470135
 10
84.491522141
 20
161.3536703763
 10
85.2727871699
 20
161.137952412
 10
86.0661654094
 20
160.9755302896
 10
86.7498279871
 20
160.8796020132
  0
LINE
  5
230
100
AcDbEntity
  8
RUNDUNGEN
100
AcDbLine
 62
7
  6
CONTINUOUS
 10
76.0188218214
 20
256.397806709
 11
76.0188218214
 21
172.8906371285
  0
LWPOLYLINE
  5
231
100
AcDbEntity
  8
0
100
AcDbPolyline
 62
7
  6
CONTINUOUS
 90
14
 70
0
 10
107.0188218214
 20
253.1231056166
 10
106.9468847008
 20
253.0708020554
 10
106.8716364965
 20
252.9907675565
 10
106.8189747909
 20
252.9116892906
 10
106.7872262999
 20
252.8456515737
 10
106.7670481041
 20
252.7890084681
 10
106.7537589984
 20
252.74054705
 10
106.7436887282
 20
252.6951197389
 10
106.7348901329
 20
252.647722111
 10
106.7268810091
 20
252.5974867148
 10
106.7191386173
 20
252.5420238801
 10
106.7115661718
 20
252.4809599725
 10
106.7040196157
 20
252.4132700352
 10
106.6964590237
 20
252.3385735299
  0
LWPOLYLINE
  5
232
100
AcDbEntity
  8
KONSTRUKTIONSELEMENTE
100
AcDbPolyline
 62
7
  6
CONTINUOUS
 90
10
 70
0
 10
106.3839728551
 20
258.428047754
 10
106.4213614747
 20
258.4945067258
 10
106.4654822623
 20
258.5596114387
 10
106.5129981074
 20
258.6183875274
 10
106.5620632257
 20
258.6693531046
 10
106.6145979795
 20
258.7144062732
 10
106.6711328571
 20
258.7524110133
 10
106.7287388183
 20
258.7791978091
 10
106.7835558718
 20
258.7908709805
 10
106.7947110461
 20
258.7912322857
  0
LINE
  5
233
100
AcDbEntity
  8
KONSTRUKTIONSELEMENTE
100
AcDbLine
 62
7
  6
CONTINUOUS
 10
108.2354885675
 20
240.8546430412
 11
108.5688218214
 21
240.9781110045
  0
LINE
  5
234
100
AcDbEntity
  8
KONSTRUKTIONSELEMENTE
100
AcDbLine
 62
7
  6
CONTINUOUS
 10
108.3875385687
 20
240.5667856787
 11
108.5688218214
 21
240.6339337167
  0
LINE
  5
235
100
AcDbEntity
  8
KONSTRUKTIONSELEMENTE
100
AcDbLine
 62
7
  6
CONTINUOUS
 10
108.3188218214
 20
241.2867809128
 11
108.1521550753
 21
241.1633129495
  0
LINE
  5
236
100
AcDbEntity
  8
KONSTRUKTIONSELEMENTE
100
AcDbLine
 62
7
  6
CONTINUOUS
 10
111.9021553137
 20
239.9903672114
 11
111.6521553137
 21
239.8668992049
  0
LINE
  5
237
100
AcDbEntity
  8
KONSTRUKTIONSELEMENTE
100
AcDbLine
 62
7
  6
CONTINUOUS
 10
115.9021548368
 20
239.9903672114
 11
115.6521548368
 21
239.8668992049
  0
LINE
  5
238
100
AcDbEntity
  8
KONSTRUKTIONSELEMENTE
100
AcDbLine
 62
7
  6
CONTINUOUS
 10
111.7354883291
 20
239.4964952771
 11
112.0688218214
 21
239.6199632566
  0
LINE
  5
239
100
AcDbEntity
  8
KONSTRUKTIONSELEMENTE
100
AcDbLine
 62
7
  6
CONTINUOUS
 10
111.7354883291
 20
239.1523179892
 11
112.0688218214
 21
239.2757859688
  0
LINE
  5
23A
100
AcDbEntity
  8
KONSTRUKTIONSELEMENTE
100
AcDbLine
 62
7
  6
CONTINUOUS
 10
115.735488806
 20
239.4964952771
 11
116.0688218214
 21
239.6199632566
  0
LINE
  5
23B
100
AcDbEntity
  8
KONSTRUKTIONSELEMENTE
100
AcDbLine
 62
7
  6
CONTINUOUS
 10
115.735488806
 20
239.1523179892
 11
116.0688218214
 21
239.2757859688
  0
LINE
  5
23C
100
AcDbEntity
  8
KONSTRUKTIONSELEMENTE
100
AcDbLine
 62
7
  6
CONTINUOUS
 10
103.7988218214
 20
187.5448266177
 11
102.9188218214
 21
187.5448266177
  0
LINE
  5
23D
100
AcDbEntity
  8
KONSTRUKTIONSELEMENTE
100
AcDbLine
 62
7
  6
CONTINUOUS
 10
112.0688218214
 20
240.1755691564
 11
111.9021553137
 21
239.9903672114
  0
LINE
  5
23E
100
AcDbEntity
  8
KONSTRUKTIONSELEMENTE
100
AcDbLine
 62
7
  6
CONTINUOUS
 10
108.5688218214
 20
240.9781110045
 11
108.8188218214
 21
241.2250469312
  0
LINE
  5
23F
100
AcDbEntity
  8
KONSTRUKTIONSELEMENTE
100
AcDbLine
 62
7
  6
CONTINUOUS
 10
108.5688218214
 20
240.6339337167
 11
108.8188218214
 21
240.8808696433
  0
LINE
  5
240
100
AcDbEntity
  8
KONSTRUKTIONSELEMENTE
100
AcDbLine
 62
7
  6
CONTINUOUS
 10
112.0688218214
 20
239.6199632566
 11
112.4021553137
 21
239.8668992049
  0
LINE
  5
241
100
AcDbEntity
  8
KONSTRUKTIONSELEMENTE
100
AcDbLine
 62
7
  6
CONTINUOUS
 10
112.0688218214
 20
239.2757859688
 11
112.4021553137
 21
239.522721917
  0
LINE
  5
242
100
AcDbEntity
  8
KONSTRUKTIONSELEMENTE
100
AcDbLine
 62
7
  6
CONTINUOUS
 10
116.0688218214
 20
239.6199632566
 11
116.4021548368
 21
239.8668992049
  0
LINE
  5
243
100
AcDbEntity
  8
KONSTRUKTIONSELEMENTE
100
AcDbLine
 62
7
  6
CONTINUOUS
 10
116.0688218214
 20
239.2757859688
 11
116.4021548368
 21
239.522721917
  0
LINE
  5
244
100
AcDbEntity
  8
KONSTRUKTIONSELEMENTE
100
AcDbLine
 62
7
  6
CONTINUOUS
 10
103.7988218214
 20
192.956686335
 11
102.9188218214
 21
192.956686335
  0
LINE
  5
245
100
AcDbEntity
  8
KONSTRUKTIONSELEMENTE
100
AcDbLine
 62
7
  6
CONTINUOUS
 10
108.4021550753
 20
241.4719828578
 11
108.3188218214
 21
241.2867809128
  0
LINE
  5
246
100
AcDbEntity
  8
KONSTRUKTIONSELEMENTE
100
AcDbLine
 62
7
  6
CONTINUOUS
 10
108.8188218214
 20
241.2250469312
 11
108.9021550753
 21
241.4102488762
  0
LINE
  5
247
100
AcDbEntity
  8
KONSTRUKTIONSELEMENTE
100
AcDbLine
 62
7
  6
CONTINUOUS
 10
108.8188218214
 20
240.8808696433
 11
108.9021550753
 21
241.0660715883
  0
LINE
  5
248
100
AcDbEntity
  8
KONSTRUKTIONSELEMENTE
100
AcDbLine
 62
7
  6
CONTINUOUS
 10
112.4021553137
 20
239.8668992049
 11
112.5688218214
 21
240.1138351748
  0
LINE
  5
249
100
AcDbEntity
  8
KONSTRUKTIONSELEMENTE
100
AcDbLine
 62
7
  6
CONTINUOUS
 10
112.4021553137
 20
239.522721917
 11
112.5688218214
 21
239.7696578869
  0
LINE
  5
24A
100
AcDbEntity
  8
KONSTRUKTIONSELEMENTE
100
AcDbLine
 62
7
  6
CONTINUOUS
 10
116.0688218214
 20
240.1755691564
 11
115.9021548368
 21
239.9903672114
  0
LWPOLYLINE
  5
24B
100
AcDbEntity
  8
RUNDUNGEN
100
AcDbPolyline
 62
7
  6
CONTINUOUS
 90
20
 70
0
 10
103.4188219045
 20
159.7604676978
 10
103.4293003452
 20
159.5280111866
 10
103.4654474195
 20
159.271723757
 10
103.5246495099
 20
159.0281395146
 10
103.6044399035
 20
158.7977900984
 10
103.7027967871
 20
158.5808036183
 10
103.8172203547
 20
158.3785471717
 10
103.9458957078
 20
158.1909236187
 10
104.0853796259
 20
158.0198481849
 10
104.2325307903
 20
157.8658268395
 10
104.3842296978
 20
157.7287778912
 10
104.5371440548
 20
157.6083466509
 10
104.6902095119
 20
157.5022971092
 10
104.8421986259
 20
157.4088638104
 10
104.9933908951
 20
157.325692561
 10
105.1435337685
 20
157.251140027
 10
105.2948481843
 20
157.1827490242
 10
105.4493163416
 20
157.1187189075
 10
105.6086300002
 20
157.0577365677
 10
105.6461123754
 20
157.0444063367
  0
LWPOLYLINE
  5
24C
100
AcDbEntity
  8
KONSTRUKTIONSELEMENTE
100
AcDbPolyline
 62
7
  6
CONTINUOUS
 90
6
 70
0
 10
100.0188220936
 20
225.7461977278
 10
100.0256790294
 20
225.5014612781
 10
100.0574864421
 20
225.1655030087
 10
100.1155512291
 20
224.829393348
 10
100.2000315265
 20
224.4946919695
 10
100.3108702834
 20
224.1628900345
  0
LINE
  5
24D
100
AcDbEntity
  8
KONSTRUKTIONSELEMENTE
100
AcDbLine
 62
7
  6
CONTINUOUS
 10
100.0188218214
 20
268.3445726366
 11
100.0188218214
 21
264.6849126712
  0
LINE
  5
24E
100
AcDbEntity
  8
KONSTRUKTIONSELEMENTE
100
AcDbLine
 62
7
  6
CONTINUOUS
 10
100.0188218214
 20
225.7463455347
 11
100.0188218214
 21
260.0308660615
  0
LINE
  5
24F
100
AcDbEntity
  8
KONSTRUKTIONSELEMENTE
100
AcDbLine
 62
7
  6
CONTINUOUS
 10
101.0188218214
 20
212.4193434777
 11
101.0188218214
 21
217.8310685331
  0
LINE
  5
250
100
AcDbEntity
  8
KONSTRUKTIONSELEMENTE
100
AcDbLine
 62
7
  6
CONTINUOUS
 10
102.0188218214
 20
219.4747921503
 11
102.0188218214
 21
216.6171377191
  0
LINE
  5
251
100
AcDbEntity
  8
RUNDUNGEN
100
AcDbLine
 62
7
  6
CONTINUOUS
 10
102.0188218214
 20
219.4747921503
 11
102.0188218214
 21
219.6918199962
  0
LINE
  5
252
100
AcDbEntity
  8
BEZUGSACHSEN
100
AcDbLine
 62
7
  6
CONTINUOUS
 10
101.7185507039
 20
228.890144956
 11
101.7184771116
 21
228.8793826147
  0
LINE
  5
253
100
AcDbEntity
  8
BEZUGSACHSEN
100
AcDbLine
 62
7
  6
CONTINUOUS
 10
101.7202896664
 20
237.6239558919
 11
101.7184771116
 21
237.5838750668
  0
LINE
  5
254
100
AcDbEntity
  8
BEZUGSACHSEN
100
AcDbLine
 62
7
  6
CONTINUOUS
 10
101.7231032726
 20
231.2523554731
 11
101.7212996636
 21
231.2131910334
  0
LINE
  5
255
100
AcDbEntity
  8
BEZUGSACHSEN
100
AcDbLine
 62
7
  6
CONTINUOUS
 10
101.7261982162
 20
234.1739345088
 11
101.7212996636
 21
234.1146885175
  0
LWPOLYLINE
  5
256
100
AcDbEntity
  8
KONSTRUKTIONSELEMENTE
100
AcDbPolyline
 62
7
  6
CONTINUOUS
 90
6
 70
0
 10
106.3105160572
 20
258.1551762296
 10
106.3133730361
 20
258.1862261025
 10
106.3255475325
 20
258.2613604858
 10
106.3442767918
 20
258.3314902847
 10
106.3688674899
 20
258.3961743535
 10
106.3839842251
 20
258.4280400051
  0
LWPOLYLINE
  5
257
100
AcDbEntity
  8
0
100
AcDbPolyline
 62
7
  6
CONTINUOUS
 90
3
 70
0
 10
106.17812399
 20
244.406183417
 10
106.1855980432
 20
244.4705371224
 10
106.1930540092
 20
244.5414344731
  0
LWPOLYLINE
  5
258
100
AcDbEntity
  8
RUNDUNGEN
100
AcDbPolyline
 62
7
  6
CONTINUOUS
 90
9
 70
0
 10
102.6351045252
 20
221.9099670942
 10
102.5280738012
 20
221.7168817172
 10
102.3850472242
 20
221.4187739832
 10
102.2652907567
 20
221.1149482224
 10
102.169113566
 20
220.8069163189
 10
102.0966684131
 20
220.4962361248
 10
102.0479403822
 20
220.1844540899
 10
102.0227655798
 20
219.8732615223
 10
102.0188218447
 20
219.6922458844
  0
LINE
  5
259
100
AcDbEntity
  8
RUNDUNGEN
100
AcDbLine
 62
7
  6
CONTINUOUS
 10
103.7871661117
 20
223.875642086
 11
102.6351877808
 21
221.9101094159
  0
LINE
  5
25A
100
AcDbEntity
  8
RUNDUNGEN
100
AcDbLine
 62
7
  6
CONTINUOUS
 10
103.7871739959
 20
223.8756537408
 11
103.8245116005
 21
223.9348523216
  0
LINE
  5
25B
100
AcDbEntity
  8
KONSTRUKTIONSELEMENTE
100
AcDbLine
 62
7
  6
CONTINUOUS
 10
116.4021548368
 20
239.8668992049
 11
116.5688218214
 21
240.1138351748
  0
LINE
  5
25C
100
AcDbEntity
  8
KONSTRUKTIONSELEMENTE
100
AcDbLine
 62
7
  6
CONTINUOUS
 10
116.4021548368
 20
239.522721917
 11
116.5688218214
 21
239.7696578869
  0
LWPOLYLINE
  5
25D
100
AcDbEntity
  8
KONSTRUKTIONSELEMENTE
100
AcDbPolyline
 62
7
  6
CONTINUOUS
 90
3
 70
0
 10
102.0884674647
 20
214.4109361489
 10
102.1031520581
 20
214.2990824533
 10
102.1720195069
 20
213.8741658784
  0
LINE
  5
25E
100
AcDbEntity
  8
KONSTRUKTIONSELEMENTE
100
AcDbLine
 62
7
  6
CONTINUOUS
 10
105.1584974248
 20
205.9517543202
 11
105.1854940639
 21
205.4474978613
  0
LWPOLYLINE
  5
25F
100
AcDbEntity
  8
RUNDUNGEN
100
AcDbPolyline
 62
7
  6
CONTINUOUS
 90
17
 70
0
 10
105.2428218214
 20
158.4033569115
 10
105.2539692663
 20
158.1676779925
 10
105.2873120649
 20
157.9341033812
 10
105.3425524974
 20
157.7047186607
 10
105.4191973458
 20
157.4815719227
 10
105.5165622934
 20
157.2666555744
 10
105.6337780116
 20
157.0618885799
 10
105.7697979449
 20
156.8690992649
 10
105.9234076116
 20
156.6900090565
 10
106.0932354837
 20
156.5262170482
 10
106.2777652
 20
156.3791857587
 10
106.4753491677
 20
156.25022802
 10
106.684223083
 20
156.1404953728
 10
106.9025219086
 20
156.0509676172
 10
107.1282962438
 20
155.9824441844
 10
107.3595298813
 20
155.9355368718
 10
107.4787701612
 20
155.9200934073
  0
LINE
  5
260
100
AcDbEntity
  8
KONSTRUKTIONSELEMENTE
100
AcDbLine
 62
7
  6
CONTINUOUS
 10
102.9534485748
 20
263.4298301893
 11
102.9556304231
 21
263.2626911617
  0
LINE
  5
261
100
AcDbEntity
  8
RUNDUNGEN
100
AcDbLine
 62
7
  6
CONTINUOUS
 10
103.8408707287
 20
220.9189017876
 11
103.8383010897
 21
221.1341025027
  0
LINE
  5
262
100
AcDbEntity
  8
KONSTRUKTIONSELEMENTE
100
AcDbLine
 62
7
  6
CONTINUOUS
 10
102.9556304231
 20
263.2626911617
 11
102.9578231254
 21
262.8770814766
  0
LINE
  5
263
100
AcDbEntity
  8
KONSTRUKTIONSELEMENTE
100
AcDbLine
 62
7
  6
CONTINUOUS
 10
102.9188218214
 20
187.5448266177
 11
102.9188218214
 21
192.956686335
  0
LINE
  5
264
100
AcDbEntity
  8
KONSTRUKTIONSELEMENTE
100
AcDbLine
 62
7
  6
CONTINUOUS
 10
103.4188218214
 20
186.0008573392
 11
103.4188218214
 21
184.862421177
  0
LINE
  5
265
100
AcDbEntity
  8
RUNDUNGEN
100
AcDbLine
 62
7
  6
CONTINUOUS
 10
103.4188218214
 20
159.760440221
 11
103.4188218214
 21
161.3039940259
  0
LINE
  5
266
100
AcDbEntity
  8
KONSTRUKTIONSELEMENTE
100
AcDbLine
 62
7
  6
CONTINUOUS
 10
103.4188218214
 20
161.3039940259
 11
103.4188218214
 21
180.735886335
  0
LINE
  5
267
100
AcDbEntity
  8
RUNDUNGEN
100
AcDbLine
 62
7
  6
CONTINUOUS
 10
103.4188218214
 20
180.735886335
 11
103.4188218214
 21
184.862421177
  0
LINE
  5
268
100
AcDbEntity
  8
KONSTRUKTIONSELEMENTE
100
AcDbLine
 62
7
  6
CONTINUOUS
 10
103.7988218214
 20
187.3752406645
 11
103.7988218214
 21
187.4720406068
  0
LINE
  5
269
100
AcDbEntity
  8
KONSTRUKTIONSELEMENTE
100
AcDbLine
 62
7
  6
CONTINUOUS
 10
103.7988218214
 20
187.479788324
 11
103.7988218214
 21
189.2137531276
  0
LINE
  5
26A
100
AcDbEntity
  8
KONSTRUKTIONSELEMENTE
100
AcDbLine
 62
7
  6
CONTINUOUS
 10
103.7988218214
 20
191.0588427711
 11
103.7988218214
 21
194.8957837419
  0
LINE
  5
26B
100
AcDbEntity
  8
BEZUGSACHSEN
100
AcDbLine
 62
7
  6
CONTINUOUS
 10
104.2188323113
 20
232.8744117892
 11
104.2188323773
 21
232.871267889
  0
LINE
  5
26C
100
AcDbEntity
  8
KONSTRUKTIONSELEMENTE
100
AcDbLine
 62
7
  6
CONTINUOUS
 10
105.2428218214
 20
160.2236753007
 11
105.2428218214
 21
205.5124977285
  0
LINE
  5
26D
100
AcDbEntity
  8
RUNDUNGEN
100
AcDbLine
 62
7
  6
CONTINUOUS
 10
105.2428218214
 20
158.4033575744
 11
105.2428218214
 21
205.5124977285
  0
LINE
  5
26E
100
AcDbEntity
  8
KONSTRUKTIONSELEMENTE
100
AcDbLine
 62
7
  6
CONTINUOUS
 10
105.8188218214
 20
239.0905840022
 11
105.8188218214
 21
242.336258774
  0
LINE
  5
26F
100
AcDbEntity
  8
KONSTRUKTIONSELEMENTE
100
AcDbLine
 62
7
  6
CONTINUOUS
 10
106.3188218214
 20
239.0905840022
 11
106.3188218214
 21
240.7311750779
  0
LINE
  5
270
100
AcDbEntity
  8
KONSTRUKTIONSELEMENTE
100
AcDbLine
 62
7
  6
CONTINUOUS
 10
106.3188218214
 20
241.1015789678
 11
106.3188218214
 21
242.0275888657
  0
LINE
  5
271
100
AcDbEntity
  8
KONSTRUKTIONSELEMENTE
100
AcDbLine
 62
7
  6
CONTINUOUS
 10
107.0188218214
 20
257.5114399273
 11
107.0188218214
 21
243.2657216897
  0
LINE
  5
272
100
AcDbEntity
  8
KONSTRUKTIONSELEMENTE
100
AcDbLine
 62
7
  6
CONTINUOUS
 10
102.9578231254
 20
262.8770814766
 11
102.9583232879
 21
261.3960421465
  0
LWPOLYLINE
  5
273
100
AcDbEntity
  8
KONSTRUKTIONSELEMENTE
100
AcDbPolyline
 62
7
  6
CONTINUOUS
 90
3
 70
0
 10
105.1854940639
 20
205.4474978613
 10
105.18312609
 20
204.9438835101
 10
105.162821246
 20
204.5586587277
  0
LINE
  5
274
100
AcDbEntity
  8
KONSTRUKTIONSELEMENTE
100
AcDbLine
 62
7
  6
CONTINUOUS
 10
105.6514127697
 20
243.6029759624
 11
105.6514192333
 21
243.603717458
  0
LWPOLYLINE
  5
275
100
AcDbEntity
  8
KONSTRUKTIONSELEMENTE
100
AcDbPolyline
 62
7
  6
CONTINUOUS
 90
11
 70
0
 10
105.6513975983
 20
243.6029759798
 10
105.66858568
 20
244.777936225
 10
105.698274928
 20
246.1119217436
 10
105.7393964759
 20
247.5081166583
 10
105.7917226017
 20
248.9580431216
 10
105.8549552757
 20
250.4529636417
 10
105.9287247643
 20
251.9838063168
 10
106.0125833348
 20
253.5411148784
 10
106.1060427782
 20
255.1156784331
 10
106.208571608
 20
256.698354643
 10
106.3105148941
 20
258.1551828553
  0
LINE
  5
276
100
AcDbEntity
  8
RUNDUNGEN
100
AcDbLine
 62
7
  6
CONTINUOUS
 10
103.4196624067
 20
181.8163689077
 11
103.4188584625
 21
181.7661419689
  0
LINE
  5
277
100
AcDbEntity
  8
0
100
AcDbLine
 62
7
  6
CONTINUOUS
 10
106.3197400205
 20
246.6539832782
 11
106.4601855121
 21
249.971024821
  0
LINE
  5
278
100
AcDbEntity
  8
0
100
AcDbLine
 62
7
  6
CONTINUOUS
 10
106.5766887357
 20
250.3407591919
 11
106.4393815684
 21
247.0986847457
  0
LINE
  5
279
100
AcDbEntity
  8
0
100
AcDbLine
 62
7
  6
CONTINUOUS
 10
106.4393815684
 20
247.0986847457
 11
106.4016350548
 21
246.2701161508
  0
LINE
  5
27A
100
AcDbEntity
  8
0
100
AcDbLine
 62
7
  6
CONTINUOUS
 10
106.4601855121
 20
249.971024821
 11
106.4978938701
 21
250.7828267106
  0
LINE
  5
27B
100
AcDbEntity
  8
0
100
AcDbLine
 62
7
  6
CONTINUOUS
 10
106.2864075077
 20
245.9561832003
 11
106.3197400205
 21
246.6539832782
  0
LINE
  5
27C
100
AcDbEntity
  8
0
100
AcDbLine
 62
7
  6
CONTINUOUS
 10
106.6082542674
 20
250.9952064434
 11
106.5766887357
 21
250.3407591919
  0
LINE
  5
27D
100
AcDbEntity
  8
0
100
AcDbLine
 62
7
  6
CONTINUOUS
 10
106.4016350548
 20
246.2701161508
 11
106.3770430512
 21
245.7831400523
  0
LINE
  5
27E
100
AcDbEntity
  8
0
100
AcDbLine
 62
7
  6
CONTINUOUS
 10
106.4978938701
 20
250.7828267106
 11
106.5196249812
 21
251.2034935611
  0
LINE
  5
27F
100
AcDbEntity
  8
0
100
AcDbLine
 62
7
  6
CONTINUOUS
 10
106.2620543714
 20
245.5015044816
 11
106.2864075077
 21
245.9561832003
  0
LINE
  5
280
100
AcDbEntity
  8
0
100
AcDbLine
 62
7
  6
CONTINUOUS
 10
106.6328321166
 20
251.449433901
 11
106.6082542674
 21
250.9952064434
  0
LINE
  5
281
100
AcDbEntity
  8
0
100
AcDbLine
 62
7
  6
CONTINUOUS
 10
106.5196249812
 20
251.2034935611
 11
106.533758382
 21
251.4544833627
  0
LINE
  5
282
100
AcDbEntity
  8
0
100
AcDbLine
 62
7
  6
CONTINUOUS
 10
106.3770430512
 20
245.7831400523
 11
106.3589144098
 21
245.4577871115
  0
LINE
  5
283
100
AcDbEntity
  8
0
100
AcDbLine
 62
7
  6
CONTINUOUS
 10
106.2462147875
 20
245.2354877556
 11
106.2620543714
 21
245.5015044816
  0
LINE
  5
284
100
AcDbEntity
  8
0
100
AcDbLine
 62
7
  6
CONTINUOUS
 10
106.3589144098
 20
245.4577871115
 11
106.3469891749
 21
245.2613349413
  0
LINE
  5
285
100
AcDbEntity
  8
0
100
AcDbLine
 62
7
  6
CONTINUOUS
 10
106.6492396623
 20
251.7208411242
 11
106.6328321166
 21
251.449433901
  0
LINE
  5
286
100
AcDbEntity
  8
0
100
AcDbLine
 62
7
  6
CONTINUOUS
 10
106.533758382
 20
251.4544833627
 11
106.5476133356
 21
251.6812901921
  0
LINE
  5
287
100
AcDbEntity
  8
RUNDUNGEN
100
AcDbLine
 62
7
  6
CONTINUOUS
 10
103.4303121271
 20
181.9849391077
 11
103.4196624067
 21
181.8163689077
  0
LINE
  5
288
100
AcDbEntity
  8
0
100
AcDbLine
 62
7
  6
CONTINUOUS
 10
106.3469891749
 20
245.2613349413
 11
106.3352039796
 21
245.0820047821
  0
LWPOLYLINE
  5
289
100
AcDbEntity
  8
0
100
AcDbPolyline
 62
7
  6
CONTINUOUS
 90
13
 70
0
 10
106.5476133356
 20
251.6812901921
 10
106.5611867667
 20
251.8835543028
 10
106.5678641221
 20
251.9753998189
 10
106.574463273
 20
252.0610020187
 10
106.580980982
 20
252.1403577276
 10
106.5874027054
 20
252.2133564624
 10
106.5937210448
 20
252.2800101772
 10
106.5998927639
 20
252.3400188134
 10
106.6058840916
 20
252.3932953167
 10
106.6116144674
 20
252.4394839552
 10
106.6170141245
 20
252.4785253801
 10
106.6218893279
 20
252.5097648639
 10
106.6231258107
 20
252.5170331945
  0
LINE
  5
28A
100
AcDbEntity
  8
RUNDUNGEN
100
AcDbLine
 62
7
  6
CONTINUOUS
 10
103.6801012792
 20
184.3049178269
 11
103.4263868277
 21
180.8392229926
  0
LINE
  5
28B
100
AcDbEntity
  8
KONSTRUKTIONSELEMENTE
100
AcDbLine
 62
7
  6
CONTINUOUS
 10
103.4188218214
 20
180.735886335
 11
105.3742575804
 21
207.4467952701
  0
LINE
  5
28C
100
AcDbEntity
  8
RUNDUNGEN
100
AcDbLine
 62
7
  6
CONTINUOUS
 10
104.9651622823
 20
201.8586253677
 11
105.5251747237
 21
209.5082969335
  0
LWPOLYLINE
  5
28D
100
AcDbEntity
  8
0
100
AcDbPolyline
 62
7
  6
CONTINUOUS
 90
15
 70
0
 10
106.3352039796
 20
245.0820047821
 10
106.32357575
 20
244.9203703669
 10
106.3178278074
 20
244.8463447851
 10
106.3121331445
 20
244.7769673852
 10
106.3064949308
 20
244.7122594286
 10
106.3009385027
 20
244.6524626732
 10
106.2954832115
 20
244.5976891581
 10
106.2901647187
 20
244.5481451942
 10
106.2850160572
 20
244.5039214181
 10
106.280096404
 20
244.4652264654
 10
106.2754608234
 20
244.4321008556
 10
106.2712339979
 20
244.4049017782
 10
106.2675199433
 20
244.3836082178
 10
106.2646679292
 20
244.3692047511
 10
106.2642175127
 20
244.3671211538
  0
LWPOLYLINE
  5
28E
100
AcDbEntity
  8
0
100
AcDbPolyline
 62
7
  6
CONTINUOUS
 90
6
 70
0
 10
106.6964590237
 20
252.3385735299
 10
106.6888340313
 20
252.2562896206
 10
106.6811270364
 20
252.1661003964
 10
106.6733147674
 20
252.0675905361
 10
106.6653975276
 20
251.9606270613
 10
106.6492396623
 20
251.7208411242
  0
LWPOLYLINE
  5
28F
100
AcDbEntity
  8
0
100
AcDbPolyline
 62
7
  6
CONTINUOUS
 90
7
 70
0
 10
106.1930540092
 20
244.5414344731
 10
106.2005103907
 20
244.619026913
 10
106.2079733161
 20
244.703337581
 10
106.2154776439
 20
244.7947361497
 10
106.2230511592
 20
244.8935873269
 10
106.2306950726
 20
244.9999411427
 10
106.2462147875
 20
245.2354877556
  0
LINE
  5
290
100
AcDbEntity
  8
KONSTRUKTIONSELEMENTE
100
AcDbLine
 62
7
  6
CONTINUOUS
 10
103.7989224501
 20
187.479788324
 11
103.7988218214
 21
187.478801938
  0
LWPOLYLINE
  5
291
100
AcDbEntity
  8
KONSTRUKTIONSELEMENTE
100
AcDbPolyline
 62
7
  6
CONTINUOUS
 90
3
 70
0
 10
103.7988218214
 20
187.478801938
 10
103.7977974401
 20
187.470591395
 10
103.7955997703
 20
187.4566725211
  0
LINE
  5
292
100
AcDbEntity
  8
KONSTRUKTIONSELEMENTE
100
AcDbLine
 62
7
  6
CONTINUOUS
 10
112.5688218214
 20
240.1138351748
 11
112.6521553137
 21
240.4225050831
  0
LINE
  5
293
100
AcDbEntity
  8
KONSTRUKTIONSELEMENTE
100
AcDbLine
 62
7
  6
CONTINUOUS
 10
112.5688218214
 20
239.7696578869
 11
112.6521553137
 21
240.0783277952
  0
LINE
  5
294
100
AcDbEntity
  8
KONSTRUKTIONSELEMENTE
100
AcDbLine
 62
7
  6
CONTINUOUS
 10
112.1521553137
 20
240.4225050831
 11
112.0688218214
 21
240.1755691564
  0
LINE
  5
295
100
AcDbEntity
  8
KONSTRUKTIONSELEMENTE
100
AcDbLine
 62
7
  6
CONTINUOUS
 10
116.1521548368
 20
240.4225050831
 11
116.0688218214
 21
240.1755691564
  0
LWPOLYLINE
  5
296
100
AcDbEntity
  8
KONSTRUKTIONSELEMENTE
100
AcDbPolyline
 62
7
  6
CONTINUOUS
 90
5
 70
0
 10
102.9880365523
 20
211.4487730039
 10
104.4947259278
 20
208.4144223728
 10
104.5219146322
 20
208.3583311903
 10
104.5486288651
 20
208.3020763401
 10
104.5703556623
 20
208.2554426851
  0
LWPOLYLINE
  5
297
100
AcDbEntity
  8
KONSTRUKTIONSELEMENTE
100
AcDbPolyline
 62
7
  6
CONTINUOUS
 90
3
 70
0
 10
102.7557101615
 20
211.9526018282
 10
102.8931710934
 20
211.6453586198
 10
102.9880264602
 20
211.4487939919
  0
LINE
  5
298
100
AcDbEntity
  8
KONSTRUKTIONSELEMENTE
100
AcDbLine
 62
7
  6
CONTINUOUS
 10
102.050687269
 20
220.2020298048
 11
100.4136599589
 21
223.9110970573
  0
LWPOLYLINE
  5
299
100
AcDbEntity
  8
KONSTRUKTIONSELEMENTE
100
AcDbPolyline
 62
7
  6
CONTINUOUS
 90
6
 70
0
 10
104.5702563361
 20
208.2556503166
 10
104.7261047188
 20
207.8870935251
 10
104.8847036594
 20
207.4227083109
 10
105.0092139542
 20
206.9434292056
 10
105.1001849721
 20
206.4518797326
 10
105.1584974248
 20
205.9517543202
  0
LINE
  5
29A
100
AcDbEntity
  8
KONSTRUKTIONSELEMENTE
100
AcDbLine
 62
7
  6
CONTINUOUS
 10
100.3108702834
 20
224.1628900345
 11
100.4135595047
 21
223.9113183554
  0
LWPOLYLINE
  5
29B
100
AcDbEntity
  8
KONSTRUKTIONSELEMENTE
100
AcDbPolyline
 62
7
  6
CONTINUOUS
 90
4
 70
0
 10
102.4853203683
 20
212.6653221572
 10
102.5157843387
 20
212.5754928522
 10
102.6298916215
 20
212.2627698321
 10
102.7557101615
 20
211.9526018282
  0
LINE
  5
29C
100
AcDbEntity
  8
KONSTRUKTIONSELEMENTE
100
AcDbLine
 62
7
  6
CONTINUOUS
 10
107.7354884483
 20
240.38699779
 11
107.7354884483
 21
240.7311750779
  0
LINE
  5
29D
100
AcDbEntity
  8
KONSTRUKTIONSELEMENTE
100
AcDbLine
 62
7
  6
CONTINUOUS
 10
107.9021550753
 20
241.6834115779
 11
107.9021550753
 21
242.0275888657
  0
LINE
  5
29E
100
AcDbEntity
  8
KONSTRUKTIONSELEMENTE
100
AcDbLine
 62
7
  6
CONTINUOUS
 10
108.1521550753
 20
241.6216775962
 11
108.1521550753
 21
241.9658548841
  0
LINE
  5
29F
100
AcDbEntity
  8
KONSTRUKTIONSELEMENTE
100
AcDbLine
 62
7
  6
CONTINUOUS
 10
108.3188218214
 20
241.4982096329
 11
108.3188218214
 21
241.8423869207
  0
LINE
  5
2A0
100
AcDbEntity
  8
KONSTRUKTIONSELEMENTE
100
AcDbLine
 62
7
  6
CONTINUOUS
 10
108.4021550753
 20
241.6571849758
 11
108.4021550753
 21
241.4719828578
  0
LINE
  5
2A1
100
AcDbEntity
  8
KONSTRUKTIONSELEMENTE
100
AcDbLine
 62
7
  6
CONTINUOUS
 10
108.4021550753
 20
239.0905840022
 11
108.4021550753
 21
239.43476129
  0
LINE
  5
2A2
100
AcDbEntity
  8
KONSTRUKTIONSELEMENTE
100
AcDbLine
 62
7
  6
CONTINUOUS
 10
108.5688218214
 20
240.6339337167
 11
108.5688218214
 21
240.9781110045
  0
LINE
  5
2A3
100
AcDbEntity
  8
KONSTRUKTIONSELEMENTE
100
AcDbLine
 62
7
  6
CONTINUOUS
 10
108.8188218214
 20
240.8808696433
 11
108.8188218214
 21
241.2250469312
  0
LINE
  5
2A4
100
AcDbEntity
  8
KONSTRUKTIONSELEMENTE
100
AcDbLine
 62
7
  6
CONTINUOUS
 10
108.9021550753
 20
241.0660715883
 11
108.9021550753
 21
241.6571849758
  0
LINE
  5
2A5
100
AcDbEntity
  8
KONSTRUKTIONSELEMENTE
100
AcDbLine
 62
7
  6
CONTINUOUS
 10
108.9854885675
 20
239.0905840022
 11
108.9854885675
 21
239.43476129
  0
LINE
  5
2A6
100
AcDbEntity
  8
KONSTRUKTIONSELEMENTE
100
AcDbLine
 62
7
  6
CONTINUOUS
 10
109.6521550753
 20
240.0783277952
 11
109.6521550753
 21
242.336258774
  0
LINE
  5
2A7
100
AcDbEntity
  8
KONSTRUKTIONSELEMENTE
100
AcDbLine
 62
7
  6
CONTINUOUS
 10
109.7354885675
 20
239.7696578869
 11
109.7354885675
 21
240.1138351748
  0
LINE
  5
2A8
100
AcDbEntity
  8
KONSTRUKTIONSELEMENTE
100
AcDbLine
 62
7
  6
CONTINUOUS
 10
109.9021553137
 20
239.522721917
 11
109.9021553137
 21
239.8668992049
  0
LINE
  5
2A9
100
AcDbEntity
  8
KONSTRUKTIONSELEMENTE
100
AcDbLine
 62
7
  6
CONTINUOUS
 10
110.1521553137
 20
240.4225050831
 11
110.1521553137
 21
242.336258774
  0
LINE
  5
2AA
100
AcDbEntity
  8
KONSTRUKTIONSELEMENTE
100
AcDbLine
 62
7
  6
CONTINUOUS
 10
110.2354883291
 20
239.2757859688
 11
110.2354883291
 21
239.6199632566
  0
LINE
  5
2AB
100
AcDbEntity
  8
KONSTRUKTIONSELEMENTE
100
AcDbLine
 62
7
  6
CONTINUOUS
 10
110.5688218214
 20
239.1523179892
 11
110.5688218214
 21
239.4964952771
  0
LINE
  5
2AC
100
AcDbEntity
  8
KONSTRUKTIONSELEMENTE
100
AcDbLine
 62
7
  6
CONTINUOUS
 10
110.9854883291
 20
239.0905840022
 11
110.9854883291
 21
239.43476129
  0
LINE
  5
2AD
100
AcDbEntity
  8
0
100
AcDbLine
 62
7
  6
CONTINUOUS
 10
111.0188218214
 20
155.548018874
 11
111.0188218214
 21
224.3194973147
  0
LINE
  5
2AE
100
AcDbEntity
  8
0
100
AcDbLine
 62
7
  6
CONTINUOUS
 10
111.0188218214
 20
261.3960421465
 11
111.0188218214
 21
261.7224805598
  0
LINE
  5
2AF
100
AcDbEntity
  8
TEIL_STARTBEZUEGE
100
AcDbLine
 62
2
  6
CENTER
 10
111.0188218214
 20
154.8085720544
 11
111.0188218214
 21
273.3926512494
  0
LINE
  5
2B0
100
AcDbEntity
  8
KONSTRUKTIONSELEMENTE
100
AcDbLine
 62
7
  6
CONTINUOUS
 10
111.3188218214
 20
239.0905840022
 11
111.3188218214
 21
239.43476129
  0
LWPOLYLINE
  5
2B1
100
AcDbEntity
  8
KONSTRUKTIONSELEMENTE
100
AcDbPolyline
 62
7
  6
CONTINUOUS
 90
3
 70
0
 10
103.7955997703
 20
187.4566725211
 10
103.7920482728
 20
187.4378407426
 10
103.78710423
 20
187.4149770652
  0
LWPOLYLINE
  5
2B2
100
AcDbEntity
  8
KONSTRUKTIONSELEMENTE
100
AcDbPolyline
 62
7
  6
CONTINUOUS
 90
4
 70
0
 10
103.78710423
 20
187.4149770652
 10
103.7808642371
 20
187.3890558743
 10
103.7735186468
 20
187.361027271
 10
103.7653596737
 20
187.3319303185
  0
LWPOLYLINE
  5
2B3
100
AcDbEntity
  8
RUNDUNGEN
100
AcDbPolyline
 62
7
  6
CONTINUOUS
 90
6
 70
0
 10
103.562615922
 20
182.7000884876
 10
103.5509499749
 20
182.6527662806
 10
103.5127968912
 20
182.486022609
 10
103.4788056647
 20
182.3186186388
 10
103.4507638976
 20
182.1516775799
 10
103.4303121271
 20
181.9849391077
  0
LINE
  5
2B4
100
AcDbEntity
  8
KONSTRUKTIONSELEMENTE
100
AcDbLine
 62
7
  6
CONTINUOUS
 10
116.5688218214
 20
240.1138351748
 11
116.6521548368
 21
240.4225050831
  0
LINE
  5
2B5
100
AcDbEntity
  8
KONSTRUKTIONSELEMENTE
100
AcDbLine
 62
7
  6
CONTINUOUS
 10
116.5688218214
 20
239.7696578869
 11
116.6521548368
 21
240.0783277952
  0
LWPOLYLINE
  5
2B6
100
AcDbEntity
  8
KONSTRUKTIONSELEMENTE
100
AcDbPolyline
 62
7
  6
CONTINUOUS
 90
7
 70
0
 10
103.7653596737
 20
187.3319303185
 10
103.7565410289
 20
187.3021386143
 10
103.7472382422
 20
187.2720556933
 10
103.7375618036
 20
187.24185555
 10
103.7276044428
 20
187.2116649365
 10
103.7174510936
 20
187.1815922156
 10
103.707165467
 20
187.1516943084
  0
LINE
  5
2B7
100
AcDbEntity
  8
KONSTRUKTIONSELEMENTE
100
AcDbLine
 62
7
  6
CONTINUOUS
 10
102.5727605755
 20
212.4193434777
 11
101.0188218214
 21
212.4193434777
  0
LWPOLYLINE
  5
2B8
100
AcDbEntity
  8
0
100
AcDbPolyline
 62
7
  6
CONTINUOUS
 90
12
 70
0
 10
106.1782123187
 20
244.3054426371
 10
106.1862708087
 20
244.2560919405
 10
106.1951027483
 20
244.2097397179
 10
106.2049457797
 20
244.1664152746
 10
106.2177942381
 20
244.1203558391
 10
106.2368500869
 20
244.0670413038
 10
106.2670028619
 20
244.0036463719
 10
106.3183888917
 20
243.9251800901
 10
106.3930049958
 20
243.844450771
 10
106.4888059572
 20
243.7737591733
 10
106.6044429958
 20
243.7231533011
 10
106.7213600594
 20
243.7058864483
  0
LINE
  5
2B9
100
AcDbEntity
  8
0
100
AcDbLine
 62
7
  6
CONTINUOUS
 10
106.1713211806
 20
244.3537008239
 11
106.1782123187
 21
244.3054426371
  0
LINE
  5
2BA
100
AcDbEntity
  8
KONSTRUKTIONSELEMENTE
100
AcDbLine
 62
7
  6
CONTINUOUS
 10
111.7354883291
 20
239.1523179892
 11
111.7354883291
 21
239.4964952771
  0
LINE
  5
2BB
100
AcDbEntity
  8
KONSTRUKTIONSELEMENTE
100
AcDbLine
 62
7
  6
CONTINUOUS
 10
112.0688218214
 20
239.2757859688
 11
112.0688218214
 21
239.6199632566
  0
LINE
  5
2BC
100
AcDbEntity
  8
KONSTRUKTIONSELEMENTE
100
AcDbLine
 62
7
  6
CONTINUOUS
 10
112.1521553137
 20
242.336258774
 11
112.1521553137
 21
240.4225050831
  0
LINE
  5
2BD
100
AcDbEntity
  8
KONSTRUKTIONSELEMENTE
100
AcDbLine
 62
7
  6
CONTINUOUS
 10
112.4021553137
 20
239.522721917
 11
112.4021553137
 21
239.8668992049
  0
LINE
  5
2BE
100
AcDbEntity
  8
KONSTRUKTIONSELEMENTE
100
AcDbLine
 62
7
  6
CONTINUOUS
 10
112.5688218214
 20
239.7696578869
 11
112.5688218214
 21
240.1138351748
  0
LINE
  5
2BF
100
AcDbEntity
  8
KONSTRUKTIONSELEMENTE
100
AcDbLine
 62
7
  6
CONTINUOUS
 10
112.6521553137
 20
240.0783277952
 11
112.6521553137
 21
242.336258774
  0
LINE
  5
2C0
100
AcDbEntity
  8
KONSTRUKTIONSELEMENTE
100
AcDbLine
 62
7
  6
CONTINUOUS
 10
113.3188218214
 20
239.0905840022
 11
113.3188218214
 21
242.336258774
  0
LINE
  5
2C1
100
AcDbEntity
  8
KONSTRUKTIONSELEMENTE
100
AcDbLine
 62
7
  6
CONTINUOUS
 10
113.8188218214
 20
239.8051652232
 11
113.8188218214
 21
241.9658548841
  0
LINE
  5
2C2
100
AcDbEntity
  8
0
100
AcDbLine
 62
7
  6
CONTINUOUS
 10
115.0188218214
 20
257.5114399273
 11
115.0188218214
 21
243.2657216897
  0
LINE
  5
2C3
100
AcDbEntity
  8
KONSTRUKTIONSELEMENTE
100
AcDbLine
 62
7
  6
CONTINUOUS
 10
115.3188218214
 20
239.0905840022
 11
115.3188218214
 21
239.43476129
  0
LINE
  5
2C4
100
AcDbEntity
  8
KONSTRUKTIONSELEMENTE
100
AcDbLine
 62
7
  6
CONTINUOUS
 10
115.3188218214
 20
241.6216775962
 11
115.3188218214
 21
241.9658548841
  0
LINE
  5
2C5
100
AcDbEntity
  8
KONSTRUKTIONSELEMENTE
100
AcDbLine
 62
7
  6
CONTINUOUS
 10
115.6521548368
 20
241.5599436146
 11
115.6521548368
 21
241.9041209024
  0
LINE
  5
2C6
100
AcDbEntity
  8
KONSTRUKTIONSELEMENTE
100
AcDbLine
 62
7
  6
CONTINUOUS
 10
115.735488806
 20
239.1523179892
 11
115.735488806
 21
239.4964952771
  0
LINE
  5
2C7
100
AcDbEntity
  8
KONSTRUKTIONSELEMENTE
100
AcDbLine
 62
7
  6
CONTINUOUS
 10
115.9021548368
 20
241.4364756512
 11
115.9021548368
 21
241.7806529391
  0
LINE
  5
2C8
100
AcDbEntity
  8
KONSTRUKTIONSELEMENTE
100
AcDbLine
 62
7
  6
CONTINUOUS
 10
116.0688218214
 20
239.2757859688
 11
116.0688218214
 21
239.6199632566
  0
LINE
  5
2C9
100
AcDbEntity
  8
KONSTRUKTIONSELEMENTE
100
AcDbLine
 62
7
  6
CONTINUOUS
 10
116.0688218214
 20
241.2512735333
 11
116.0688218214
 21
241.5954508211
  0
LWPOLYLINE
  5
2CA
100
AcDbEntity
  8
KONSTRUKTIONSELEMENTE
100
AcDbPolyline
 62
7
  6
CONTINUOUS
 90
23
 70
0
 10
103.5795588552
 20
186.7919575217
 10
103.5687170514
 20
186.7600362459
 10
103.5579250372
 20
186.7276711147
 10
103.5472252465
 20
186.694888891
 10
103.536654788
 20
186.6616898312
 10
103.5262586783
 20
186.6280969571
 10
103.5160838676
 20
186.5941412674
 10
103.506157948
 20
186.5597890458
 10
103.4965147526
 20
186.5250131606
 10
103.4871949633
 20
186.4897946757
 10
103.4782384609
 20
186.4541033524
 10
103.4696918912
 20
186.4179274066
 10
103.4616040914
 20
186.3812583122
 10
103.4540180198
 20
186.3440422431
 10
103.4469826408
 20
186.3062115717
 10
103.4405657088
 20
186.2677727864
 10
103.4348334322
 20
186.2287121587
 10
103.429855231
 20
186.1890194081
 10
103.4257043654
 20
186.1486975231
 10
103.422453153
 20
186.1076989699
 10
103.4201832698
 20
186.0659696079
 10
103.4189869047
 20
186.0235456343
 10
103.4188194913
 20
186.0008358971
  0
LINE
  5
2CB
100
AcDbEntity
  8
KONSTRUKTIONSELEMENTE
100
AcDbLine
 62
7
  6
CONTINUOUS
 10
103.6012867908
 20
186.8545262059
 11
103.5795588552
 21
186.7919575217
  0
LINE
  5
2CC
100
AcDbEntity
  8
KONSTRUKTIONSELEMENTE
100
AcDbLine
 62
7
  6
CONTINUOUS
 10
103.707165467
 20
187.1516943084
 11
103.6863640585
 21
187.0924681856
  0
LINE
  5
2CD
100
AcDbEntity
  8
KONSTRUKTIONSELEMENTE
100
AcDbLine
 62
7
  6
CONTINUOUS
 10
103.6336662395
 20
186.9455380321
 11
103.6012867908
 21
186.8545262059
  0
LINE
  5
2CE
100
AcDbEntity
  8
KONSTRUKTIONSELEMENTE
100
AcDbLine
 62
7
  6
CONTINUOUS
 10
103.6863640585
 20
187.0924681856
 11
103.6336662395
 21
186.9455380321
  0
LINE
  5
2CF
100
AcDbEntity
  8
KONSTRUKTIONSELEMENTE
100
AcDbLine
 62
7
  6
CONTINUOUS
 10
102.0188218214
 20
217.8310685331
 11
101.0188218214
 21
217.8310685331
  0
LWPOLYLINE
  5
2D0
100
AcDbEntity
  8
0
100
AcDbPolyline
 62
7
  6
CONTINUOUS
 90
13
 70
0
 10
106.7197482936
 20
252.5698031303
 10
106.7120604902
 20
252.6215860356
 10
106.7039229691
 20
252.6693145659
 10
106.6951676508
 20
252.7132253485
 10
106.6845361015
 20
252.7576751288
 10
106.6706162919
 20
252.8045548327
 10
106.6487611376
 20
252.8613144181
 10
106.608334075
 20
252.9376216294
 10
106.5453343814
 20
253.0213797475
 10
106.4566995919
 20
253.1027281711
 10
106.345407689
 20
253.1678605275
 10
106.2217319665
 20
253.2026166568
 10
106.1712107651
 20
253.2058853793
  0
LINE
  5
2D1
100
AcDbEntity
  8
0
100
AcDbLine
 62
7
  6
CONTINUOUS
 10
106.7213323271
 20
252.5577385797
 11
106.7197482936
 21
252.5698031303
  0
LWPOLYLINE
  5
2D2
100
AcDbEntity
  8
0
100
AcDbPolyline
 62
7
  6
CONTINUOUS
 90
6
 70
0
 10
118.6064061312
 20
181.9944321365
 10
118.5844588445
 20
182.1678936946
 10
118.5542279621
 20
182.3429092095
 10
118.5175061691
 20
182.519429315
 10
118.4762087881
 20
182.6962070576
 10
118.4749407231
 20
182.7012768609
  0
LWPOLYLINE
  5
2D3
100
AcDbEntity
  8
KONSTRUKTIONSELEMENTE
100
AcDbPolyline
 62
7
  6
CONTINUOUS
 90
5
 70
0
 10
115.8465754917
 20
244.5218966142
 10
115.8539094294
 20
244.4538610062
 10
115.8612627149
 20
244.392136572
 10
115.8687095811
 20
244.3361655017
 10
115.8763000222
 20
244.2856963587
  0
LWPOLYLINE
  5
2D4
100
AcDbEntity
  8
KONSTRUKTIONSELEMENTE
100
AcDbPolyline
 62
7
  6
CONTINUOUS
 90
5
 70
0
 10
115.8171053818
 20
244.8600608867
 10
115.8245394776
 20
244.765117368
 10
115.83191053
 20
244.6773351751
 10
115.839244709
 20
244.5963777094
 10
115.8465754917
 20
244.5218966142
  0
LWPOLYLINE
  5
2D5
100
AcDbEntity
  8
KONSTRUKTIONSELEMENTE
100
AcDbPolyline
 62
7
  6
CONTINUOUS
 90
6
 70
0
 10
115.3722461152
 20
251.9606270613
 10
115.3643288754
 20
252.0675905361
 10
115.3565166064
 20
252.1661003964
 10
115.3488096115
 20
252.2562896206
 10
115.3411846191
 20
252.3385735299
 10
115.3336240271
 20
252.4132700352
  0
LINE
  5
2D6
100
AcDbEntity
  8
KONSTRUKTIONSELEMENTE
100
AcDbLine
 62
7
  6
CONTINUOUS
 10
115.7198158354
 20
244.8463447851
 11
115.7082749522
 21
244.9989399655
  0
LINE
  5
2D7
100
AcDbEntity
  8
KONSTRUKTIONSELEMENTE
100
AcDbLine
 62
7
  6
CONTINUOUS
 10
115.4623337295
 20
252.0716048137
 11
115.4752622916
 21
251.900364955
  0
LINE
  5
2D8
100
AcDbEntity
  8
0
100
AcDbLine
 62
7
  6
CONTINUOUS
 10
118.6188218214
 20
180.735886335
 11
116.5124689192
 21
209.5082969335
  0
LWPOLYLINE
  5
2D9
100
AcDbEntity
  8
0
100
AcDbPolyline
 62
7
  6
CONTINUOUS
 90
11
 70
0
 10
115.7271287487
 20
258.1551828553
 10
115.8290720348
 20
256.698354643
 10
115.9316008646
 20
255.1156784331
 10
116.025060308
 20
253.5411148784
 10
116.1089188785
 20
251.9838063168
 10
116.1826883671
 20
250.4529636417
 10
116.2459210411
 20
248.9580431216
 10
116.2982471669
 20
247.5081166583
 10
116.3393687148
 20
246.1119217436
 10
116.3690579629
 20
244.777936225
 10
116.3862460445
 20
243.6029759798
  0
LINE
  5
2DA
100
AcDbEntity
  8
KONSTRUKTIONSELEMENTE
100
AcDbLine
 62
7
  6
CONTINUOUS
 10
115.8020401337
 20
245.0716427262
 11
115.8171053818
 21
244.8600608867
  0
LINE
  5
2DB
100
AcDbEntity
  8
KONSTRUKTIONSELEMENTE
100
AcDbLine
 62
7
  6
CONTINUOUS
 10
115.7082749522
 20
244.9989399655
 11
115.6965654978
 21
245.1694914228
  0
LINE
  5
2DC
100
AcDbEntity
  8
KONSTRUKTIONSELEMENTE
100
AcDbLine
 62
7
  6
CONTINUOUS
 10
115.4752622916
 20
251.900364955
 11
115.4884225009
 21
251.7063062815
  0
LINE
  5
2DD
100
AcDbEntity
  8
0
100
AcDbLine
 62
7
  6
CONTINUOUS
 10
118.6178630674
 20
181.8204720835
 11
118.6064061312
 21
181.9944321365
  0
LINE
  5
2DE
100
AcDbEntity
  8
KONSTRUKTIONSELEMENTE
100
AcDbLine
 62
7
  6
CONTINUOUS
 10
115.3884039805
 20
251.7208411242
 11
115.3722461152
 21
251.9606270613
  0
LINE
  5
2DF
100
AcDbEntity
  8
KONSTRUKTIONSELEMENTE
100
AcDbLine
 62
7
  6
CONTINUOUS
 10
115.7866987387
 20
245.3123047031
 11
115.8020401337
 21
245.0716427262
  0
LINE
  5
2E0
100
AcDbEntity
  8
KONSTRUKTIONSELEMENTE
100
AcDbLine
 62
7
  6
CONTINUOUS
 10
115.6965654978
 20
245.1694914228
 11
115.6847086263
 21
245.3574584702
  0
LINE
  5
2E1
100
AcDbEntity
  8
KONSTRUKTIONSELEMENTE
100
AcDbLine
 62
7
  6
CONTINUOUS
 10
115.4884225009
 20
251.7063062815
 11
115.5018032837
 21
251.4898201282
  0
LINE
  5
2E2
100
AcDbEntity
  8
KONSTRUKTIONSELEMENTE
100
AcDbLine
 62
7
  6
CONTINUOUS
 10
115.4048115262
 20
251.449433901
 11
115.3884039805
 21
251.7208411242
  0
LINE
  5
2E3
100
AcDbEntity
  8
KONSTRUKTIONSELEMENTE
100
AcDbLine
 62
7
  6
CONTINUOUS
 10
115.7710891522
 20
245.5815234917
 11
115.7866987387
 21
245.3123047031
  0
LINE
  5
2E4
100
AcDbEntity
  8
KONSTRUKTIONSELEMENTE
100
AcDbLine
 62
7
  6
CONTINUOUS
 10
115.6847086263
 20
245.3574584702
 11
115.6666744056
 21
245.6707188133
  0
LINE
  5
2E5
100
AcDbEntity
  8
KONSTRUKTIONSELEMENTE
100
AcDbLine
 62
7
  6
CONTINUOUS
 10
115.5018032837
 20
251.4898201282
 11
115.5222926079
 21
251.1239428943
  0
LWPOLYLINE
  5
2E6
100
AcDbEntity
  8
0
100
AcDbPolyline
 62
7
  6
CONTINUOUS
 90
3
 70
0
 10
116.8748223969
 20
204.5586587277
 10
116.8545175528
 20
204.9438835101
 10
116.8521495789
 20
205.4474978613
  0
LINE
  5
2E7
100
AcDbEntity
  8
KONSTRUKTIONSELEMENTE
100
AcDbLine
 62
7
  6
CONTINUOUS
 10
115.4293893754
 20
250.9952064434
 11
115.4048115262
 21
251.449433901
  0
LINE
  5
2E8
100
AcDbEntity
  8
KONSTRUKTIONSELEMENTE
100
AcDbLine
 62
7
  6
CONTINUOUS
 10
115.7472257011
 20
246.0358793625
 11
115.7710891522
 21
245.5815234917
  0
LINE
  5
2E9
100
AcDbEntity
  8
KONSTRUKTIONSELEMENTE
100
AcDbLine
 62
7
  6
CONTINUOUS
 10
115.6666744056
 20
245.6707188133
 11
115.6422002971
 21
246.143005164
  0
LINE
  5
2EA
100
AcDbEntity
  8
KONSTRUKTIONSELEMENTE
100
AcDbLine
 62
7
  6
CONTINUOUS
 10
115.5222926079
 20
251.1239428943
 11
115.5504431706
 21
250.5620951802
  0
LINE
  5
2EB
100
AcDbEntity
  8
KONSTRUKTIONSELEMENTE
100
AcDbLine
 62
7
  6
CONTINUOUS
 10
115.4609549071
 20
250.3407591919
 11
115.4293893754
 21
250.9952064434
  0
LINE
  5
2EC
100
AcDbEntity
  8
KONSTRUKTIONSELEMENTE
100
AcDbLine
 62
7
  6
CONTINUOUS
 10
115.7148149384
 20
246.7223059243
 11
115.7472257011
 21
246.0358793625
  0
LINE
  5
2ED
100
AcDbEntity
  8
KONSTRUKTIONSELEMENTE
100
AcDbLine
 62
7
  6
CONTINUOUS
 10
115.6422002971
 20
246.143005164
 11
115.604623486
 21
246.9534825777
  0
LINE
  5
2EE
100
AcDbEntity
  8
KONSTRUKTIONSELEMENTE
100
AcDbLine
 62
7
  6
CONTINUOUS
 10
115.5504431706
 20
250.5620951802
 11
115.5946836561
 21
249.5741714446
  0
LINE
  5
2EF
100
AcDbEntity
  8
KONSTRUKTIONSELEMENTE
100
AcDbLine
 62
7
  6
CONTINUOUS
 10
115.604623486
 20
246.9534825777
 11
115.5327784443
 21
248.6632209686
  0
LINE
  5
2F0
100
AcDbEntity
  8
KONSTRUKTIONSELEMENTE
100
AcDbLine
 62
7
  6
CONTINUOUS
 10
115.5327784443
 20
248.6632209686
 11
115.4609549071
 21
250.3407591919
  0
LINE
  5
2F1
100
AcDbEntity
  8
KONSTRUKTIONSELEMENTE
100
AcDbLine
 62
7
  6
CONTINUOUS
 10
115.5946836561
 20
249.5741714446
 11
115.7148149384
 21
246.7223059243
  0
LWPOLYLINE
  5
2F2
100
AcDbEntity
  8
0
100
AcDbPolyline
 62
7
  6
CONTINUOUS
 90
9
 70
0
 10
120.0188217982
 20
219.6922458844
 10
120.014878063
 20
219.8732615223
 10
119.9897032607
 20
220.1844540899
 10
119.9409752297
 20
220.4962361248
 10
119.8685300768
 20
220.8069163189
 10
119.7723528861
 20
221.1149482224
 10
119.6525964186
 20
221.4187739832
 10
119.5095698416
 20
221.7168817172
 10
119.4025391176
 20
221.9099670942
  0
LINE
  5
2F3
100
AcDbEntity
  8
0
100
AcDbLine
 62
7
  6
CONTINUOUS
 10
118.6187843219
 20
181.7663172936
 11
118.6178630674
 21
181.8204720835
  0
LINE
  5
2F4
100
AcDbEntity
  8
0
100
AcDbLine
 62
7
  6
CONTINUOUS
 10
116.3862308732
 20
243.6029759624
 11
116.3862244095
 21
243.603717458
  0
LINE
  5
2F5
100
AcDbEntity
  8
0
100
AcDbLine
 62
7
  6
CONTINUOUS
 10
120.3190929389
 20
228.890144956
 11
120.3191665312
 21
228.8793826147
  0
LINE
  5
2F6
100
AcDbEntity
  8
KONSTRUKTIONSELEMENTE
100
AcDbLine
 62
7
  6
CONTINUOUS
 10
116.1521548368
 20
241.3485148945
 11
116.1521548368
 21
240.4225050831
  0
LINE
  5
2F7
100
AcDbEntity
  8
KONSTRUKTIONSELEMENTE
100
AcDbLine
 62
7
  6
CONTINUOUS
 10
116.4021548368
 20
239.522721917
 11
116.4021548368
 21
239.8668992049
  0
LINE
  5
2F8
100
AcDbEntity
  8
KONSTRUKTIONSELEMENTE
100
AcDbLine
 62
7
  6
CONTINUOUS
 10
116.5688218214
 20
239.7696578869
 11
116.5688218214
 21
240.1138351748
  0
LINE
  5
2F9
100
AcDbEntity
  8
KONSTRUKTIONSELEMENTE
100
AcDbLine
 62
7
  6
CONTINUOUS
 10
116.6521548368
 20
240.0783277952
 11
116.6521548368
 21
241.3485148945
  0
LINE
  5
2FA
100
AcDbEntity
  8
0
100
AcDbLine
 62
7
  6
CONTINUOUS
 10
116.7948218214
 20
158.4033575744
 11
116.7948218214
 21
205.5124977285
  0
LINE
  5
2FB
100
AcDbEntity
  8
0
100
AcDbLine
 62
7
  6
CONTINUOUS
 10
117.8188113315
 20
232.8744117892
 11
117.8188112656
 21
232.871267889
  0
LINE
  5
2FC
100
AcDbEntity
  8
0
100
AcDbLine
 62
7
  6
CONTINUOUS
 10
118.6188218214
 20
159.760440221
 11
118.6188218214
 21
186.6240043983
  0
LINE
  5
2FD
100
AcDbEntity
  8
0
100
AcDbLine
 62
7
  6
CONTINUOUS
 10
120.0188218214
 20
215.5315790833
 11
120.0188218214
 21
219.6918199962
  0
LWPOLYLINE
  5
2FE
100
AcDbEntity
  8
0
100
AcDbPolyline
 62
7
  6
CONTINUOUS
 90
12
 70
0
 10
116.3862244095
 20
243.603717458
 10
116.3862047295
 20
243.5971878409
 10
116.3809112451
 20
243.5583810898
 10
116.3662575198
 20
243.517986368
 10
116.3405339027
 20
243.4749572132
 10
116.3015401903
 20
243.429773046
 10
116.2491066294
 20
243.3855828152
 10
116.1840522953
 20
243.3452252035
 10
116.1083744504
 20
243.3113605208
 10
116.0249312104
 20
243.2860678048
 10
115.9369131531
 20
243.2706640109
 10
115.8503088019
 20
243.2657274614
  0
LWPOLYLINE
  5
2FF
100
AcDbEntity
  8
0
100
AcDbPolyline
 62
7
  6
CONTINUOUS
 90
4
 70
0
 10
119.079320355
 20
261.3960421465
 10
119.0805687891
 20
263.0656053242
 10
119.0819316263
 20
263.2543032491
 10
119.0841616069
 20
263.4298258708
  0
LINE
  5
300
100
AcDbEntity
  8
0
100
AcDbLine
 62
7
  6
CONTINUOUS
 10
118.1967729141
 20
220.9189017876
 11
118.1993425531
 21
221.1341025027
  0
LWPOLYLINE
  5
301
100
AcDbEntity
  8
0
100
AcDbPolyline
 62
7
  6
CONTINUOUS
 90
7
 70
0
 10
116.8521495789
 20
205.4474978613
 10
116.8791462181
 20
205.9517543202
 10
116.9374586707
 20
206.4518797326
 10
117.0284296887
 20
206.9434292056
 10
117.1529399834
 20
207.4227083109
 10
117.311538924
 20
207.8870935251
 10
117.4673873067
 20
208.2556503166
  0
LWPOLYLINE
  5
302
100
AcDbEntity
  8
0
100
AcDbPolyline
 62
7
  6
CONTINUOUS
 90
7
 70
0
 10
119.6797624749
 20
213.0795856758
 10
119.7654778016
 20
213.4067436328
 10
119.8612359519
 20
213.8508300318
 10
119.934491638
 20
214.2990828411
 10
119.9850768516
 20
214.7504589787
 10
120.0128964186
 20
215.2038934159
 10
120.0188213452
 20
215.5315080682
  0
LINE
  5
303
100
AcDbEntity
  8
0
100
AcDbLine
 62
7
  6
CONTINUOUS
 10
119.6797630562
 20
213.0795855117
 11
119.6797272798
 21
213.0794586762
  0
LWPOLYLINE
  5
304
100
AcDbEntity
  8
0
100
AcDbPolyline
 62
7
  6
CONTINUOUS
 90
6
 70
0
 10
121.7267733595
 20
224.1628900345
 10
121.8376121163
 20
224.4946919695
 10
121.9220924137
 20
224.829393348
 10
121.9801572007
 20
225.1655030087
 10
122.0119646134
 20
225.5014612781
 10
122.0188215492
 20
225.7461977278
  0
LWPOLYLINE
  5
305
100
AcDbEntity
  8
0
100
AcDbPolyline
 62
7
  6
CONTINUOUS
 90
5
 70
0
 10
119.2819334813
 20
211.9526018282
 10
119.4077520213
 20
212.2627698321
 10
119.5218593041
 20
212.5754928522
 10
119.6242018854
 20
212.8903986677
 10
119.6797272798
 20
213.0794586762
  0
LINE
  5
306
100
AcDbEntity
  8
0
100
AcDbLine
 62
7
  6
CONTINUOUS
 10
121.6240841381
 20
223.9113183554
 11
121.7267733595
 21
224.1628900345
  0
LINE
  5
307
100
AcDbEntity
  8
0
100
AcDbLine
 62
7
  6
CONTINUOUS
 10
121.6240818064
 20
223.9113194912
 11
119.9869563738
 21
220.2020298048
  0
LINE
  5
308
100
AcDbEntity
  8
0
100
AcDbLine
 62
7
  6
CONTINUOUS
 10
119.1444725494
 20
211.6453586198
 11
119.2819334813
 21
211.9526018282
  0
LWPOLYLINE
  5
309
100
AcDbEntity
  8
0
100
AcDbPolyline
 62
7
  6
CONTINUOUS
 90
4
 70
0
 10
117.4672908285
 20
208.2554413706
 10
117.4890147777
 20
208.3020763401
 10
117.5157290106
 20
208.3583311903
 10
117.542917715
 20
208.4144223728
  0
LINE
  5
30A
100
AcDbEntity
  8
0
100
AcDbLine
 62
7
  6
CONTINUOUS
 10
119.0496171827
 20
211.4487939919
 11
119.1444725494
 21
211.6453586198
  0
LINE
  5
30B
100
AcDbEntity
  8
0
100
AcDbLine
 62
7
  6
CONTINUOUS
 10
117.542917715
 20
208.4144223728
 11
119.0496070906
 21
211.4487730039
  0
LINE
  5
30C
100
AcDbEntity
  8
KONSTRUKTIONSELEMENTE
100
AcDbLine
 62
7
  6
CONTINUOUS
 10
108.3188218214
 20
241.4982096329
 11
108.3663889331
 21
241.3924952729
  0
LINE
  5
30D
100
AcDbEntity
  8
KONSTRUKTIONSELEMENTE
100
AcDbLine
 62
7
  6
CONTINUOUS
 10
108.3188218214
 20
241.8423869207
 11
108.4021550753
 21
241.6571849758
  0
LINE
  5
30E
100
AcDbEntity
  8
KONSTRUKTIONSELEMENTE
100
AcDbLine
 62
7
  6
CONTINUOUS
 10
110.2354883291
 20
240.1755691564
 11
110.1521553137
 21
240.4225050831
  0
LINE
  5
30F
100
AcDbEntity
  8
KONSTRUKTIONSELEMENTE
100
AcDbLine
 62
7
  6
CONTINUOUS
 10
109.6521550753
 20
240.0783277952
 11
109.7354885675
 21
239.7696578869
  0
LINE
  5
310
100
AcDbEntity
  8
KONSTRUKTIONSELEMENTE
100
AcDbLine
 62
7
  6
CONTINUOUS
 10
109.6521550753
 20
240.4225050831
 11
109.7354885675
 21
240.1138351748
  0
LWPOLYLINE
  5
311
100
AcDbEntity
  8
KONSTRUKTIONSELEMENTE
100
AcDbPolyline
 62
7
  6
CONTINUOUS
 90
13
 70
0
 10
115.3336240271
 20
252.4132700352
 10
115.326077471
 20
252.4809599725
 10
115.3185050255
 20
252.5420238801
 10
115.3107626337
 20
252.5974867148
 10
115.3027535099
 20
252.647722111
 10
115.2939549146
 20
252.6951197389
 10
115.2838846444
 20
252.74054705
 10
115.2705955387
 20
252.7890084681
 10
115.2504173429
 20
252.8456515737
 10
115.2186688519
 20
252.9116892906
 10
115.1660071463
 20
252.9907675565
 10
115.090758942
 20
253.0708020554
 10
115.0188218214
 20
253.1231056166
  0
LINE
  5
312
100
AcDbEntity
  8
0
100
AcDbLine
 62
7
  6
CONTINUOUS
 10
120.3114454266
 20
234.1739345088
 11
120.3163439792
 21
234.1146885175
  0
LINE
  5
313
100
AcDbEntity
  8
0
100
AcDbLine
 62
7
  6
CONTINUOUS
 10
120.3145403702
 20
231.2523554731
 11
120.3163439792
 21
231.2131910334
  0
LINE
  5
314
100
AcDbEntity
  8
0
100
AcDbLine
 62
7
  6
CONTINUOUS
 10
120.3173539764
 20
237.6239558919
 11
120.3191665312
 21
237.5838750668
  0
LINE
  5
315
100
AcDbEntity
  8
0
100
AcDbLine
 62
7
  6
CONTINUOUS
 10
122.0188218214
 20
268.3445726366
 11
122.0188218214
 21
264.6849126712
  0
LINE
  5
316
100
AcDbEntity
  8
0
100
AcDbLine
 62
7
  6
CONTINUOUS
 10
122.0188218214
 20
225.7463455347
 11
122.0188218214
 21
260.0308660615
  0
LWPOLYLINE
  5
317
100
AcDbEntity
  8
RUNDUNGEN
100
AcDbPolyline
 62
7
  6
CONTINUOUS
 90
17
 70
0
 10
107.0769173699
 20
226.428234893
 10
106.9938893365
 20
226.4197232316
 10
106.7249314327
 20
226.3749163166
 10
106.4631261502
 20
226.3054394297
 10
106.2112466936
 20
226.2135120657
 10
105.971285049
 20
226.1018685179
 10
105.7429967088
 20
225.9726657649
 10
105.5261604934
 20
225.8281453383
 10
105.3181471896
 20
225.6687719783
 10
105.1170067096
 20
225.494919606
 10
104.9192828011
 20
225.3050140871
 10
104.7224002276
 20
225.0974390116
 10
104.52310231
 20
224.8690706778
 10
104.3187059053
 20
224.6165577816
 10
104.1068379758
 20
224.3361982819
 10
103.8848793843
 20
224.0232375099
 10
103.8245122726
 20
223.9348533131
  0
LINE
  5
318
100
AcDbEntity
  8
AUSFORMSCHRAEGEN
100
AcDbLine
 62
7
  6
CONTINUOUS
 10
111.0188218214
 20
226.7731069472
 11
107.076509465
 21
226.4281993079
  0
LINE
  5
319
100
AcDbEntity
  8
KONSTRUKTIONSELEMENTE
100
AcDbLine
 62
7
  6
CONTINUOUS
 10
107.0770320401
 20
226.4282450266
 11
107.0769156226
 21
226.4282348312
  0
LINE
  5
31A
100
AcDbEntity
  8
0
100
AcDbLine
 62
7
  6
CONTINUOUS
 10
111.0188218214
 20
223.8839621881
 11
104.7942424762
 21
223.4221026268
  0
LINE
  5
31B
100
AcDbEntity
  8
0
100
AcDbLine
 62
7
  6
CONTINUOUS
 10
116.6110467087
 20
224.3652941264
 11
111.0188218214
 21
224.3194973147
  0
LINE
  5
31C
100
AcDbEntity
  8
0
100
AcDbLine
 62
7
  6
CONTINUOUS
 10
105.4265969341
 20
224.3652941264
 11
111.0188218214
 21
224.3194973147
  0
LINE
  5
31D
100
AcDbEntity
  8
0
100
AcDbLine
 62
7
  6
CONTINUOUS
 10
111.0188218214
 20
223.8839621881
 11
117.2434011666
 21
223.4221026268
  0
LINE
  5
31E
100
AcDbEntity
  8
0
100
AcDbLine
 62
7
  6
CONTINUOUS
 10
114.9611341778
 20
226.4281993079
 11
111.0188218214
 21
226.7731069472
  0
LWPOLYLINE
  5
31F
100
AcDbEntity
  8
0
100
AcDbPolyline
 62
7
  6
CONTINUOUS
 90
17
 70
0
 10
118.2131278351
 20
223.9348585317
 10
118.1535441794
 20
224.0221043665
 10
117.9323629231
 20
224.3340699112
 10
117.7212955629
 20
224.6135401852
 10
117.5176855781
 20
224.8653244544
 10
117.3191434803
 20
225.093144058
 10
117.1229869886
 20
225.3003466638
 10
116.9259458675
 20
225.4900663692
 10
116.7254804221
 20
225.6638813227
 10
116.5181459524
 20
225.8233586334
 10
116.3020094762
 20
225.968112457
 10
116.0744371566
 20
226.0976860581
 10
115.8352069858
 20
226.2098362441
 10
115.5840580765
 20
226.3024131348
 10
115.32296955
 20
226.3726802636
 10
115.054706412
 20
226.4184142974
 10
114.9607380781
 20
226.4282338572
  0
LINE
  5
320
100
AcDbEntity
  8
KONSTRUKTIONSELEMENTE
100
AcDbLine
 62
7
  6
CONTINUOUS
 10
109.7354885675
 20
239.7696578869
 11
109.9021553137
 21
239.522721917
  0
LINE
  5
321
100
AcDbEntity
  8
0
100
AcDbLine
 62
7
  6
CONTINUOUS
 10
118.2504696469
 20
223.8756537408
 11
118.2131285081
 21
223.9348575388
  0
LINE
  5
322
100
AcDbEntity
  8
0
100
AcDbLine
 62
7
  6
CONTINUOUS
 10
119.402455862
 20
221.9101094159
 11
118.2504775311
 21
223.875642086
  0
LINE
  5
323
100
AcDbEntity
  8
KONSTRUKTIONSELEMENTE
100
AcDbLine
 62
7
  6
CONTINUOUS
 10
108.9854885675
 20
239.43476129
 11
108.2354885675
 21
240.8546430412
  0
LINE
  5
324
100
AcDbEntity
  8
KONSTRUKTIONSELEMENTE
100
AcDbLine
 62
7
  6
CONTINUOUS
 10
107.7354884483
 20
240.38699779
 11
108.4021550753
 21
239.0905840022
  0
LINE
  5
325
100
AcDbEntity
  8
KONSTRUKTIONSELEMENTE
100
AcDbLine
 62
7
  6
CONTINUOUS
 10
107.7354884483
 20
240.7311750779
 11
108.4021550753
 21
239.43476129
  0
LINE
  5
326
100
AcDbEntity
  8
KONSTRUKTIONSELEMENTE
100
AcDbLine
 62
7
  6
CONTINUOUS
 10
108.9021550753
 20
241.6571849758
 11
108.8188218214
 21
241.8423869207
  0
LINE
  5
327
100
AcDbEntity
  8
KONSTRUKTIONSELEMENTE
100
AcDbLine
 62
7
  6
CONTINUOUS
 10
116.0688218214
 20
241.2512735333
 11
116.1521548368
 21
241.0043376066
  0
LINE
  5
328
100
AcDbEntity
  8
KONSTRUKTIONSELEMENTE
100
AcDbLine
 62
7
  6
CONTINUOUS
 10
116.0688218214
 20
241.5954508211
 11
116.1521548368
 21
241.3485148945
  0
LWPOLYLINE
  5
329
100
AcDbEntity
  8
KONSTRUKTIONSELEMENTE
100
AcDbPolyline
 62
7
  6
CONTINUOUS
 90
15
 70
0
 10
115.7735652028
 20
244.3655081638
 10
115.7740775817
 20
244.3638177321
 10
115.7747287328
 20
244.3615217564
 10
115.7729757136
 20
244.3692047511
 10
115.7701236995
 20
244.3836082178
 10
115.766409645
 20
244.4049017782
 10
115.7621828194
 20
244.4321008556
 10
115.7575472388
 20
244.4652264654
 10
115.7526275856
 20
244.5039214181
 10
115.7474789241
 20
244.5481451942
 10
115.7421604313
 20
244.5976891581
 10
115.7367051401
 20
244.6524626732
 10
115.731148712
 20
244.7122594286
 10
115.7255104984
 20
244.7769673852
 10
115.7198158354
 20
244.8463447851
  0
LINE
  5
32A
100
AcDbEntity
  8
KONSTRUKTIONSELEMENTE
100
AcDbLine
 62
7
  6
CONTINUOUS
 10
116.6521548368
 20
241.3485148945
 11
116.5688218214
 21
241.6571849758
  0
LWPOLYLINE
  5
32B
100
AcDbEntity
  8
KONSTRUKTIONSELEMENTE
100
AcDbPolyline
 62
7
  6
CONTINUOUS
 90
12
 70
0
 10
115.408350276
 20
252.5484677648
 10
115.4086760796
 20
252.5470676738
 10
115.4114541338
 20
252.5337703574
 10
115.4156312603
 20
252.5105006528
 10
115.4204611161
 20
252.4796699286
 10
115.4258104394
 20
252.4411517417
 10
115.4314760211
 20
252.395691941
 10
115.4373886352
 20
252.3433810106
 10
115.4434658202
 20
252.2846260629
 10
115.4496727349
 20
252.2195626005
 10
115.455964118
 20
252.1485506158
 10
115.4623337295
 20
252.0716048137
  0
LWPOLYLINE
  5
32C
100
AcDbEntity
  8
KONSTRUKTIONSELEMENTE
100
AcDbPolyline
 62
7
  6
CONTINUOUS
 90
12
 70
0
 10
115.8763000222
 20
244.2856963587
 10
115.8843360481
 20
244.2391297415
 10
115.8929978298
 20
244.1961527604
 10
115.903562182
 20
244.1523838332
 10
115.9174593891
 20
244.1059244805
 10
115.939352061
 20
244.0493972284
 10
115.9799237729
 20
243.9731710468
 10
116.043114527
 20
243.8894952719
 10
116.1319460709
 20
243.8082951253
 10
116.2432660266
 20
243.7434659855
 10
116.3665837702
 20
243.7090701158
 10
116.3847109624
 20
243.707912675
  0
LWPOLYLINE
  5
32D
100
AcDbEntity
  8
0
100
AcDbPolyline
 62
7
  6
CONTINUOUS
 90
13
 70
0
 10
122.0188218214
 20
260.0308667707
 10
122.0057703728
 20
260.2191814278
 10
121.966865337
 20
260.4038970001
 10
121.9028505245
 20
260.5814807848
 10
121.8149494029
 20
260.7485379107
 10
121.7048419247
 20
260.9018743598
 10
121.5746325805
 20
261.0385580913
 10
121.4268100322
 20
261.1559753614
 10
121.2641998236
 20
261.2518804608
 10
121.0899101188
 20
261.3244388932
 10
120.907272815
 20
261.3722622632
 10
120.7197790852
 20
261.3944351676
 10
120.6535528036
 20
261.3960421357
  0
LINE
  5
32E
100
AcDbEntity
  8
KONSTRUKTIONSELEMENTE
100
AcDbLine
 62
7
  6
CONTINUOUS
 10
110.4021553137
 20
239.9903672114
 11
110.2354883291
 21
240.1755691564
  0
LINE
  5
32F
100
AcDbEntity
  8
KONSTRUKTIONSELEMENTE
100
AcDbLine
 62
7
  6
CONTINUOUS
 10
109.7354885675
 20
240.1138351748
 11
109.9021553137
 21
239.8668992049
  0
LINE
  5
330
100
AcDbEntity
  8
KONSTRUKTIONSELEMENTE
100
AcDbLine
 62
7
  6
CONTINUOUS
 10
109.9021553137
 20
239.522721917
 11
110.2354883291
 21
239.2757859688
  0
LINE
  5
331
100
AcDbEntity
  8
KONSTRUKTIONSELEMENTE
100
AcDbLine
 62
7
  6
CONTINUOUS
 10
109.9021553137
 20
239.8668992049
 11
110.2354883291
 21
239.6199632566
  0
LINE
  5
332
100
AcDbEntity
  8
KONSTRUKTIONSELEMENTE
100
AcDbLine
 62
7
  6
CONTINUOUS
 10
108.1521550753
 20
241.6216775962
 11
108.3188218214
 21
241.4982096329
  0
LINE
  5
333
100
AcDbEntity
  8
KONSTRUKTIONSELEMENTE
100
AcDbLine
 62
7
  6
CONTINUOUS
 10
108.1521550753
 20
241.9658548841
 11
108.3188218214
 21
241.8423869207
  0
LINE
  5
334
100
AcDbEntity
  8
KONSTRUKTIONSELEMENTE
100
AcDbLine
 62
7
  6
CONTINUOUS
 10
108.8188218214
 20
241.8423869207
 11
108.5688218214
 21
242.0893228474
  0
LINE
  5
335
100
AcDbEntity
  8
KONSTRUKTIONSELEMENTE
100
AcDbLine
 62
7
  6
CONTINUOUS
 10
115.9021548368
 20
241.4364756512
 11
116.0688218214
 21
241.2512735333
  0
LINE
  5
336
100
AcDbEntity
  8
KONSTRUKTIONSELEMENTE
100
AcDbLine
 62
7
  6
CONTINUOUS
 10
115.9021548368
 20
241.7806529391
 11
116.0688218214
 21
241.5954508211
  0
LINE
  5
337
100
AcDbEntity
  8
KONSTRUKTIONSELEMENTE
100
AcDbLine
 62
7
  6
CONTINUOUS
 10
116.5688218214
 20
241.6571849758
 11
116.4021548368
 21
241.9041209024
  0
LINE
  5
338
100
AcDbEntity
  8
KONSTRUKTIONSELEMENTE
100
AcDbLine
 62
7
  6
CONTINUOUS
 10
115.6521548368
 20
239.8668992049
 11
115.3188218214
 21
239.8051652232
  0
LINE
  5
339
100
AcDbEntity
  8
KONSTRUKTIONSELEMENTE
100
AcDbLine
 62
7
  6
CONTINUOUS
 10
111.6521553137
 20
239.8668992049
 11
111.3188218214
 21
239.8051652232
  0
LINE
  5
33A
100
AcDbEntity
  8
KONSTRUKTIONSELEMENTE
100
AcDbLine
 62
7
  6
CONTINUOUS
 10
115.3188218214
 20
239.0905840022
 11
115.735488806
 21
239.1523179892
  0
LINE
  5
33B
100
AcDbEntity
  8
KONSTRUKTIONSELEMENTE
100
AcDbLine
 62
7
  6
CONTINUOUS
 10
115.3188218214
 20
239.43476129
 11
115.735488806
 21
239.4964952771
  0
LINE
  5
33C
100
AcDbEntity
  8
KONSTRUKTIONSELEMENTE
100
AcDbLine
 62
7
  6
CONTINUOUS
 10
111.3188218214
 20
239.0905840022
 11
111.7354883291
 21
239.1523179892
  0
LINE
  5
33D
100
AcDbEntity
  8
KONSTRUKTIONSELEMENTE
100
AcDbLine
 62
7
  6
CONTINUOUS
 10
111.3188218214
 20
239.43476129
 11
111.7354883291
 21
239.4964952771
  0
LINE
  5
33E
100
AcDbEntity
  8
KONSTRUKTIONSELEMENTE
100
AcDbLine
 62
7
  6
CONTINUOUS
 10
105.8188218214
 20
239.0905840022
 11
106.3188218214
 21
239.0905840022
  0
LINE
  5
33F
100
AcDbEntity
  8
KONSTRUKTIONSELEMENTE
100
AcDbLine
 62
7
  6
CONTINUOUS
 10
108.4021550753
 20
239.0905840022
 11
108.9854885675
 21
239.0905840022
  0
LINE
  5
340
100
AcDbEntity
  8
KONSTRUKTIONSELEMENTE
100
AcDbLine
 62
7
  6
CONTINUOUS
 10
110.9854883291
 20
239.0905840022
 11
111.3188218214
 21
239.0905840022
  0
LINE
  5
341
100
AcDbEntity
  8
KONSTRUKTIONSELEMENTE
100
AcDbLine
 62
7
  6
CONTINUOUS
 10
113.3188218214
 20
239.0905840022
 11
115.3188218214
 21
239.0905840022
  0
LINE
  5
342
100
AcDbEntity
  8
KONSTRUKTIONSELEMENTE
100
AcDbLine
 62
7
  6
CONTINUOUS
 10
105.8188218214
 20
239.43476129
 11
106.3188218214
 21
239.43476129
  0
LINE
  5
343
100
AcDbEntity
  8
KONSTRUKTIONSELEMENTE
100
AcDbLine
 62
7
  6
CONTINUOUS
 10
108.4021550753
 20
239.43476129
 11
108.9854885675
 21
239.43476129
  0
LINE
  5
344
100
AcDbEntity
  8
KONSTRUKTIONSELEMENTE
100
AcDbLine
 62
7
  6
CONTINUOUS
 10
110.9854883291
 20
239.43476129
 11
111.3188218214
 21
239.43476129
  0
LINE
  5
345
100
AcDbEntity
  8
KONSTRUKTIONSELEMENTE
100
AcDbLine
 62
7
  6
CONTINUOUS
 10
113.3188218214
 20
239.43476129
 11
115.3188218214
 21
239.43476129
  0
LINE
  5
346
100
AcDbEntity
  8
KONSTRUKTIONSELEMENTE
100
AcDbLine
 62
7
  6
CONTINUOUS
 10
115.3188218214
 20
239.8051652232
 11
113.8188218214
 21
239.8051652232
  0
LINE
  5
347
100
AcDbEntity
  8
KONSTRUKTIONSELEMENTE
100
AcDbLine
 62
7
  6
CONTINUOUS
 10
111.3188218214
 20
239.8051652232
 11
110.9854883291
 21
239.8051652232
  0
LINE
  5
348
100
AcDbEntity
  8
KONSTRUKTIONSELEMENTE
100
AcDbLine
 62
7
  6
CONTINUOUS
 10
106.3188218214
 20
240.38699779
 11
107.7354884483
 21
240.38699779
  0
LINE
  5
349
100
AcDbEntity
  8
KONSTRUKTIONSELEMENTE
100
AcDbLine
 62
7
  6
CONTINUOUS
 10
110.5688218214
 20
239.1523179892
 11
110.9854883291
 21
239.0905840022
  0
LINE
  5
34A
100
AcDbEntity
  8
KONSTRUKTIONSELEMENTE
100
AcDbLine
 62
7
  6
CONTINUOUS
 10
110.5688218214
 20
239.4964952771
 11
110.9854883291
 21
239.43476129
  0
LINE
  5
34B
100
AcDbEntity
  8
KONSTRUKTIONSELEMENTE
100
AcDbLine
 62
7
  6
CONTINUOUS
 10
110.9854883291
 20
239.8051652232
 11
110.6521553137
 21
239.8668992049
  0
LINE
  5
34C
100
AcDbEntity
  8
KONSTRUKTIONSELEMENTE
100
AcDbLine
 62
7
  6
CONTINUOUS
 10
107.9021550753
 20
241.6834115779
 11
108.1521550753
 21
241.6216775962
  0
LINE
  5
34D
100
AcDbEntity
  8
KONSTRUKTIONSELEMENTE
100
AcDbLine
 62
7
  6
CONTINUOUS
 10
107.9021550753
 20
242.0275888657
 11
108.1521550753
 21
241.9658548841
  0
LINE
  5
34E
100
AcDbEntity
  8
KONSTRUKTIONSELEMENTE
100
AcDbLine
 62
7
  6
CONTINUOUS
 10
110.2354883291
 20
239.2757859688
 11
110.5688218214
 21
239.1523179892
  0
LINE
  5
34F
100
AcDbEntity
  8
KONSTRUKTIONSELEMENTE
100
AcDbLine
 62
7
  6
CONTINUOUS
 10
110.2354883291
 20
239.6199632566
 11
110.5688218214
 21
239.4964952771
  0
LINE
  5
350
100
AcDbEntity
  8
KONSTRUKTIONSELEMENTE
100
AcDbLine
 62
7
  6
CONTINUOUS
 10
110.6521553137
 20
239.8668992049
 11
110.4021553137
 21
239.9903672114
  0
LINE
  5
351
100
AcDbEntity
  8
KONSTRUKTIONSELEMENTE
100
AcDbLine
 62
7
  6
CONTINUOUS
 10
108.5688218214
 20
242.0893228474
 11
108.2354885675
 21
242.2745247924
  0
LINE
  5
352
100
AcDbEntity
  8
KONSTRUKTIONSELEMENTE
100
AcDbLine
 62
7
  6
CONTINUOUS
 10
116.4021548368
 20
241.9041209024
 11
116.0688218214
 21
242.1510568291
  0
LWPOLYLINE
  5
353
100
AcDbEntity
  8
KONSTRUKTIONSELEMENTE
100
AcDbPolyline
 62
7
  6
CONTINUOUS
 90
5
 70
0
 10
115.0188218214
 20
243.819524047
 10
115.0252563208
 20
243.8133610491
 10
115.1467467781
 20
243.7419782927
 10
115.2716696082
 20
243.7084576955
 10
115.316459776
 20
243.7058878098
  0
LWPOLYLINE
  5
354
100
AcDbEntity
  8
0
100
AcDbPolyline
 62
7
  6
CONTINUOUS
 90
6
 70
0
 10
115.6536594177
 20
258.4280400051
 10
115.6687761529
 20
258.3961743535
 10
115.693366851
 20
258.3314902847
 10
115.7120961103
 20
258.2613604858
 10
115.7242706068
 20
258.1862261025
 10
115.7271275856
 20
258.1551762296
  0
LINE
  5
355
100
AcDbEntity
  8
KONSTRUKTIONSELEMENTE
100
AcDbLine
 62
7
  6
CONTINUOUS
 10
108.1521550753
 20
241.1633129495
 11
107.9021550753
 21
241.1015789678
  0
LWPOLYLINE
  5
356
100
AcDbEntity
  8
KONSTRUKTIONSELEMENTE
100
AcDbPolyline
 62
7
  6
CONTINUOUS
 90
13
 70
0
 10
115.3162835834
 20
243.7058864483
 10
115.433200647
 20
243.7231533011
 10
115.5488376856
 20
243.7737591733
 10
115.6446386471
 20
243.844450771
 10
115.7192547512
 20
243.9251800901
 10
115.7706407809
 20
244.0036463719
 10
115.8007935559
 20
244.0670413038
 10
115.8198494047
 20
244.1203558391
 10
115.8326978632
 20
244.1664152746
 10
115.8425408945
 20
244.2097397179
 10
115.8513728341
 20
244.2560919405
 10
115.8594313241
 20
244.3054426371
 10
115.8663504531
 20
244.3538968423
  0
LWPOLYLINE
  5
357
100
AcDbEntity
  8
0
100
AcDbPolyline
 62
7
  6
CONTINUOUS
 90
14
 70
0
 10
105.6212027799
 20
243.7058874331
 10
105.6734410201
 20
243.709379657
 10
105.7986333782
 20
243.7453267654
 10
105.911236077
 20
243.8124786526
 10
106.0001133986
 20
243.8957937313
 10
106.0619981375
 20
243.9800864113
 10
106.1012233023
 20
244.0561127233
 10
106.1222968749
 20
244.112331056
 10
106.1357435325
 20
244.1587174394
 10
106.1461555119
 20
244.2031457612
 10
106.1548030875
 20
244.2472850545
 10
106.1628874802
 20
244.2954371729
 10
106.1705682927
 20
244.347892413
 10
106.17812399
 20
244.406183417
  0
LWPOLYLINE
  5
358
100
AcDbEntity
  8
0
100
AcDbPolyline
 62
7
  6
CONTINUOUS
 90
5
 70
0
 10
106.7211854477
 20
243.7058877761
 10
106.765582144
 20
243.7084130798
 10
106.8902183402
 20
243.7416918633
 10
107.0115544666
 20
243.8127222196
 10
107.0188218214
 20
243.8196571264
  0
LINE
  5
359
100
AcDbEntity
  8
KONSTRUKTIONSELEMENTE
100
AcDbLine
 62
7
  6
CONTINUOUS
 10
106.3188218214
 20
240.7311750779
 11
107.7354884483
 21
240.7311750779
  0
LINE
  5
35A
100
AcDbEntity
  8
KONSTRUKTIONSELEMENTE
100
AcDbLine
 62
7
  6
CONTINUOUS
 10
107.9021550753
 20
241.1015789678
 11
106.3188218214
 21
241.1015789678
  0
LINE
  5
35B
100
AcDbEntity
  8
KONSTRUKTIONSELEMENTE
100
AcDbLine
 62
7
  6
CONTINUOUS
 10
113.8188218214
 20
241.6216775962
 11
115.3188218214
 21
241.6216775962
  0
LINE
  5
35C
100
AcDbEntity
  8
KONSTRUKTIONSELEMENTE
100
AcDbLine
 62
7
  6
CONTINUOUS
 10
106.3188218214
 20
241.6834115779
 11
107.9021550753
 21
241.6834115779
  0
LINE
  5
35D
100
AcDbEntity
  8
KONSTRUKTIONSELEMENTE
100
AcDbLine
 62
7
  6
CONTINUOUS
 10
113.8188218214
 20
241.9658548841
 11
115.3188218214
 21
241.9658548841
  0
LINE
  5
35E
100
AcDbEntity
  8
KONSTRUKTIONSELEMENTE
100
AcDbLine
 62
7
  6
CONTINUOUS
 10
106.3188218214
 20
242.0275888657
 11
107.9021550753
 21
242.0275888657
  0
LINE
  5
35F
100
AcDbEntity
  8
KONSTRUKTIONSELEMENTE
100
AcDbLine
 62
7
  6
CONTINUOUS
 10
115.3188218214
 20
242.336258774
 11
113.3188218214
 21
242.336258774
  0
LINE
  5
360
100
AcDbEntity
  8
KONSTRUKTIONSELEMENTE
100
AcDbLine
 62
7
  6
CONTINUOUS
 10
112.6521553137
 20
242.336258774
 11
112.1521553137
 21
242.336258774
  0
LINE
  5
361
100
AcDbEntity
  8
KONSTRUKTIONSELEMENTE
100
AcDbLine
 62
7
  6
CONTINUOUS
 10
110.1521553137
 20
242.336258774
 11
109.6521550753
 21
242.336258774
  0
LINE
  5
362
100
AcDbEntity
  8
KONSTRUKTIONSELEMENTE
100
AcDbLine
 62
7
  6
CONTINUOUS
 10
107.8188218214
 20
242.336258774
 11
105.8188218214
 21
242.336258774
  0
LINE
  5
363
100
AcDbEntity
  8
KONSTRUKTIONSELEMENTE
100
AcDbLine
 62
7
  6
CONTINUOUS
 10
106.1873348447
 20
243.2657216897
 11
115.8503087981
 21
243.2657216897
  0
LWPOLYLINE
  5
364
100
AcDbEntity
  8
KONSTRUKTIONSELEMENTE
100
AcDbPolyline
 62
7
  6
CONTINUOUS
 90
12
 70
0
 10
106.1873348409
 20
243.2657274614
 10
106.1007304897
 20
243.2706640109
 10
106.0127124325
 20
243.2860678048
 10
105.9292691924
 20
243.3113605208
 10
105.8535913475
 20
243.3452252035
 10
105.7885370134
 20
243.3855828152
 10
105.7361034525
 20
243.429773046
 10
105.6971097401
 20
243.4749572132
 10
105.671386123
 20
243.517986368
 10
105.6567323977
 20
243.5583810898
 10
105.6514389133
 20
243.5971878409
 10
105.6514192333
 20
243.603717458
  0
LINE
  5
365
100
AcDbEntity
  8
KONSTRUKTIONSELEMENTE
100
AcDbLine
 62
7
  6
CONTINUOUS
 10
108.2354885675
 20
242.2745247924
 11
107.8188218214
 21
242.336258774
  0
LINE
  5
366
100
AcDbEntity
  8
KONSTRUKTIONSELEMENTE
100
AcDbLine
 62
7
  6
CONTINUOUS
 10
115.735488806
 20
242.2745247924
 11
115.3188218214
 21
242.336258774
  0
LINE
  5
367
100
AcDbEntity
  8
KONSTRUKTIONSELEMENTE
100
AcDbLine
 62
7
  6
CONTINUOUS
 10
115.3188218214
 20
241.6216775962
 11
115.6521548368
 21
241.5599436146
  0
LINE
  5
368
100
AcDbEntity
  8
KONSTRUKTIONSELEMENTE
100
AcDbLine
 62
7
  6
CONTINUOUS
 10
115.3188218214
 20
241.9658548841
 11
115.6521548368
 21
241.9041209024
  0
LINE
  5
369
100
AcDbEntity
  8
KONSTRUKTIONSELEMENTE
100
AcDbLine
 62
7
  6
CONTINUOUS
 10
116.0688218214
 20
242.1510568291
 11
115.735488806
 21
242.2745247924
  0
LINE
  5
36A
100
AcDbEntity
  8
KONSTRUKTIONSELEMENTE
100
AcDbLine
 62
7
  6
CONTINUOUS
 10
115.6521548368
 20
241.5599436146
 11
115.9021548368
 21
241.4364756512
  0
LINE
  5
36B
100
AcDbEntity
  8
KONSTRUKTIONSELEMENTE
100
AcDbLine
 62
7
  6
CONTINUOUS
 10
115.6521548368
 20
241.9041209024
 11
115.9021548368
 21
241.7806529391
  0
LINE
  5
36C
100
AcDbEntity
  8
0
100
AcDbLine
 62
7
  6
CONTINUOUS
 10
146.0188218214
 20
256.397806709
 11
146.0188218214
 21
172.8906371285
  0
LINE
  5
36D
100
AcDbEntity
  8
KONSTRUKTIONSELEMENTE
100
AcDbLine
 62
7
  6
CONTINUOUS
 10
106.2593999227
 20
245.455886335
 11
106.3588011272
 21
245.455886335
  0
LINE
  5
36E
100
AcDbEntity
  8
KONSTRUKTIONSELEMENTE
100
AcDbLine
 62
7
  6
CONTINUOUS
 10
115.6788425156
 20
245.455886335
 11
115.7782181896
 21
245.455886335
  0
LINE
  5
36F
100
AcDbEntity
  8
KONSTRUKTIONSELEMENTE
100
AcDbLine
 62
7
  6
CONTINUOUS
 10
106.3748071832
 20
247.934941802
 11
106.4747996784
 21
247.934941802
  0
LINE
  5
370
100
AcDbEntity
  8
KONSTRUKTIONSELEMENTE
100
AcDbLine
 62
7
  6
CONTINUOUS
 10
115.5628439645
 20
247.934941802
 11
115.6628354326
 21
247.934941802
  0
LINE
  5
371
100
AcDbEntity
  8
KONSTRUKTIONSELEMENTE
100
AcDbLine
 62
7
  6
CONTINUOUS
 10
106.381998335
 20
248.1085899797
 11
106.4819948609
 21
248.1085899797
  0
LINE
  5
372
100
AcDbEntity
  8
KONSTRUKTIONSELEMENTE
100
AcDbLine
 62
7
  6
CONTINUOUS
 10
115.555648782
 20
248.1085899797
 11
115.6556443718
 21
248.1085899797
  0
LINE
  5
373
100
AcDbEntity
  8
KONSTRUKTIONSELEMENTE
100
AcDbLine
 62
7
  6
CONTINUOUS
 10
106.4106484635
 20
248.8031826904
 11
106.5106430375
 21
248.8031826904
  0
LINE
  5
374
100
AcDbEntity
  8
KONSTRUKTIONSELEMENTE
100
AcDbLine
 62
7
  6
CONTINUOUS
 10
115.5270006053
 20
248.8031826904
 11
115.6269956549
 21
248.8031826904
  0
LINE
  5
375
100
AcDbEntity
  8
KONSTRUKTIONSELEMENTE
100
AcDbLine
 62
7
  6
CONTINUOUS
 10
106.4178451408
 20
248.976830868
 11
106.5178317853
 21
248.976830868
  0
LINE
  5
376
100
AcDbEntity
  8
KONSTRUKTIONSELEMENTE
100
AcDbLine
 62
7
  6
CONTINUOUS
 10
115.5198118575
 20
248.976830868
 11
115.6197995879
 21
248.976830868
  0
LWPOLYLINE
  5
377
100
AcDbEntity
  8
0
100
AcDbPolyline
 62
7
  6
CONTINUOUS
 90
3
 70
0
 10
106.1713581976
 20
253.2058862325
 10
106.0562611448
 20
253.1891465237
 10
105.9921345146
 20
253.1613668986
  0
LWPOLYLINE
  5
378
100
AcDbEntity
  8
KONSTRUKTIONSELEMENTE
100
AcDbPolyline
 62
7
  6
CONTINUOUS
 90
14
 70
0
 10
115.8664329894
 20
253.2058853774
 10
115.8158570855
 20
253.2026096298
 10
115.6921501432
 20
253.1678232385
 10
115.5808556319
 20
253.1026618875
 10
115.4922341037
 20
253.0212957873
 10
115.429251928
 20
252.9375294447
 10
115.3888395311
 20
252.8612170407
 10
115.3669898737
 20
252.8044422414
 10
115.3530705562
 20
252.7575351029
 10
115.3424361813
 20
252.7130416937
 10
115.3336764724
 20
252.6690740239
 10
115.325534684
 20
252.6212803971
 10
115.3178437423
 20
252.5694326759
 10
115.3163104215
 20
252.5577449857
  0
LINE
  5
379
100
AcDbEntity
  8
KONSTRUKTIONSELEMENTE
100
AcDbLine
 62
7
  6
CONTINUOUS
 10
106.5338422613
 20
251.455886335
 11
106.6332127177
 21
251.455886335
  0
LINE
  5
37A
100
AcDbEntity
  8
KONSTRUKTIONSELEMENTE
100
AcDbLine
 62
7
  6
CONTINUOUS
 10
115.4044309251
 20
251.455886335
 11
115.5037756679
 21
251.455886335
  0
LWPOLYLINE
  5
37B
100
AcDbEntity
  8
KONSTRUKTIONSELEMENTE
100
AcDbPolyline
 62
7
  6
CONTINUOUS
 90
3
 70
0
 10
116.0455091282
 20
253.1613668986
 10
115.981382498
 20
253.1891465237
 10
115.8662854452
 20
253.2058862325
  0
LWPOLYLINE
  5
37C
100
AcDbEntity
  8
0
100
AcDbPolyline
 62
7
  6
CONTINUOUS
 90
7
 70
0
 10
111.0188218214
 20
262.3584289483
 10
112.5064270452
 20
262.5616482154
 10
114.1916155954
 20
262.7886965384
 10
115.9139296352
 20
263.0174200973
 10
117.6733733401
 20
263.2477488747
 10
119.4699511942
 20
263.4796160561
 10
121.1443386182
 20
263.6928134476
  0
LWPOLYLINE
  5
37D
100
AcDbEntity
  8
KONSTRUKTIONSELEMENTE
100
AcDbPolyline
 62
7
  6
CONTINUOUS
 90
13
 70
0
 10
101.3840908209
 20
261.3960421358
 10
101.3085768052
 20
261.3939524564
 10
101.1220684963
 20
261.3706655426
 10
100.9405305774
 20
261.3219871515
 10
100.7674022753
 20
261.2488407083
 10
100.605963779
 20
261.1526133552
 10
100.4592733559
 20
261.0351293278
 10
100.3301099192
 20
260.8986155714
 10
100.2209201399
 20
260.7456593068
 10
100.133772367
 20
260.579159236
 10
100.0703173067
 20
260.4022703549
 10
100.0317569121
 20
260.2183441177
 10
100.0188218214
 20
260.0308667707
  0
LINE
  5
37E
100
AcDbEntity
  8
KONSTRUKTIONSELEMENTE
100
AcDbLine
 62
7
  6
CONTINUOUS
 10
115.2429326819
 20
258.7912789948
 11
106.794710961
 21
258.7912789948
  0
LINE
  5
37F
100
AcDbEntity
  8
KONSTRUKTIONSELEMENTE
100
AcDbLine
 62
7
  6
CONTINUOUS
 10
101.38408991
 20
261.3960421465
 11
120.6535537329
 21
261.3960421465
  0
LWPOLYLINE
  5
380
100
AcDbEntity
  8
0
100
AcDbPolyline
 62
7
  6
CONTINUOUS
 90
10
 70
0
 10
115.2429325967
 20
258.7912322857
 10
115.2540877711
 20
258.7908709805
 10
115.3089048245
 20
258.7791978091
 10
115.3665107857
 20
258.7524110133
 10
115.4230456633
 20
258.7144062732
 10
115.4755804171
 20
258.6693531046
 10
115.5246455354
 20
258.6183875274
 10
115.5721613805
 20
258.5596114387
 10
115.6162821681
 20
258.4945067258
 10
115.6536707877
 20
258.428047754
  0
LWPOLYLINE
  5
381
100
AcDbEntity
  8
KONSTRUKTIONSELEMENTE
100
AcDbPolyline
 62
7
  6
CONTINUOUS
 90
7
 70
0
 10
100.8933050246
 20
263.6928134476
 10
102.5676924486
 20
263.4796160561
 10
104.3642703028
 20
263.2477488747
 10
106.1237140076
 20
263.0174200973
 10
107.8460280474
 20
262.7886965384
 10
109.5312165976
 20
262.5616482154
 10
111.0188218214
 20
262.3584289483
  0
LWPOLYLINE
  5
382
100
AcDbEntity
  8
0
100
AcDbPolyline
 62
7
  6
CONTINUOUS
 90
20
 70
0
 10
116.3917853637
 20
157.0445020781
 10
116.4296455292
 20
157.0579695329
 10
116.5891566687
 20
157.1190489629
 10
116.7437616739
 20
157.1831667943
 10
116.8951678874
 20
157.2516406013
 10
117.0453533241
 20
157.3262668396
 10
117.1965296989
 20
157.4094935901
 10
117.3484658827
 20
157.5029693024
 10
117.501436385
 20
157.6090374723
 10
117.6542585459
 20
157.7294889436
 10
117.805916154
 20
157.8666065416
 10
117.9530176331
 20
158.0207003317
 10
118.0924109669
 20
158.1918081335
 10
118.2209763922
 20
158.3794324632
 10
118.3352804587
 20
158.5816557013
 10
118.4335162054
 20
158.7985724424
 10
118.513196046
 20
159.0288247884
 10
118.5722988665
 20
159.2722574562
 10
118.6083704839
 20
159.5283123576
 10
118.6188217383
 20
159.7604676889
  0
LWPOLYLINE
  5
383
100
AcDbEntity
  8
RUNDUNGEN
100
AcDbPolyline
 62
7
  6
CONTINUOUS
 90
7
 70
0
 10
104.4659309187
 20
269.825517327
 10
104.4701728976
 20
269.8265224683
 10
104.4702926209
 20
269.826553566
 10
104.4651564124
 20
269.8254378755
 10
104.4555893677
 20
269.8234291079
 10
104.4417181988
 20
269.820605964
 10
104.4239347367
 20
269.8170873267
  0
LINE
  5
384
100
AcDbEntity
  8
RUNDUNGEN
100
AcDbLine
 62
7
  6
CONTINUOUS
 10
104.4239347367
 20
269.8170873267
 11
104.3770491073
 21
269.8081591405
  0
LINE
  5
385
100
AcDbEntity
  8
RUNDUNGEN
100
AcDbLine
 62
7
  6
CONTINUOUS
 10
104.3770491073
 20
269.8081591405
 11
104.3158145579
 21
269.7969907722
  0
LINE
  5
386
100
AcDbEntity
  8
RUNDUNGEN
100
AcDbLine
 62
7
  6
CONTINUOUS
 10
104.3158145579
 20
269.7969907722
 11
104.2406094369
 21
269.7837775502
  0
LINE
  5
387
100
AcDbEntity
  8
RUNDUNGEN
100
AcDbLine
 62
7
  6
CONTINUOUS
 10
104.2406094369
 20
269.7837775502
 11
104.1512578955
 21
269.7685911857
  0
LINE
  5
388
100
AcDbEntity
  8
RUNDUNGEN
100
AcDbLine
 62
7
  6
CONTINUOUS
 10
104.1512578955
 20
269.7685911857
 11
104.0470618948
 21
269.7514089414
  0
LINE
  5
389
100
AcDbEntity
  8
RUNDUNGEN
100
AcDbLine
 62
7
  6
CONTINUOUS
 10
104.0470618948
 20
269.7514089414
 11
103.8606834115
 21
269.7217412461
  0
LINE
  5
38A
100
AcDbEntity
  8
RUNDUNGEN
100
AcDbLine
 62
7
  6
CONTINUOUS
 10
103.8606834115
 20
269.7217412461
 11
103.6347574118
 21
269.687181919
  0
LINE
  5
38B
100
AcDbEntity
  8
RUNDUNGEN
100
AcDbLine
 62
7
  6
CONTINUOUS
 10
103.6347574118
 20
269.687181919
 11
103.3663941049
 21
269.6476993616
  0
LINE
  5
38C
100
AcDbEntity
  8
RUNDUNGEN
100
AcDbLine
 62
7
  6
CONTINUOUS
 10
103.3663941049
 20
269.6476993616
 11
103.0531840157
 21
269.6033960498
  0
LINE
  5
38D
100
AcDbEntity
  8
RUNDUNGEN
100
AcDbLine
 62
7
  6
CONTINUOUS
 10
103.0531840157
 20
269.6033960498
 11
102.6926692983
 21
269.5544407304
  0
LINE
  5
38E
100
AcDbEntity
  8
RUNDUNGEN
100
AcDbLine
 62
7
  6
CONTINUOUS
 10
102.6926692983
 20
269.5544407304
 11
102.2825890792
 21
269.5011157382
  0
LINE
  5
38F
100
AcDbEntity
  8
RUNDUNGEN
100
AcDbLine
 62
7
  6
CONTINUOUS
 10
102.2825890792
 20
269.5011157382
 11
101.821308219
 21
269.4438784273
  0
LINE
  5
390
100
AcDbEntity
  8
RUNDUNGEN
100
AcDbLine
 62
7
  6
CONTINUOUS
 10
101.821308219
 20
269.4438784273
 11
101.3081534644
 21
269.3833953909
  0
LINE
  5
391
100
AcDbEntity
  8
RUNDUNGEN
100
AcDbLine
 62
7
  6
CONTINUOUS
 10
101.3081534644
 20
269.3833953909
 11
100.9095536815
 21
269.3386260609
  0
LINE
  5
392
100
AcDbEntity
  8
0
100
AcDbLine
 62
7
  6
CONTINUOUS
 10
111.0188218214
 20
270.455886335
 11
104.4901311324
 21
269.8846999121
  0
LINE
  5
393
100
AcDbEntity
  8
RUNDUNGEN
100
AcDbLine
 62
7
  6
CONTINUOUS
 10
104.4901311324
 20
269.8846999121
 11
86.9729604946
 21
268.3521460642
  0
LINE
  5
394
100
AcDbEntity
  8
0
100
AcDbLine
 62
7
  6
CONTINUOUS
 10
111.0188218214
 20
270.455886335
 11
135.0646831482
 21
268.3521460642
  0
LINE
  5
395
100
AcDbEntity
  8
0
100
AcDbLine
 62
7
  6
CONTINUOUS
 10
121.1280899465
 20
269.3386260625
 11
120.73532612
 21
269.3827262259
  0
LINE
  5
396
100
AcDbEntity
  8
0
100
AcDbLine
 62
7
  6
CONTINUOUS
 10
120.73532612
 20
269.3827262259
 11
120.2269059815
 21
269.4425992817
  0
LINE
  5
397
100
AcDbEntity
  8
0
100
AcDbLine
 62
7
  6
CONTINUOUS
 10
120.2269059815
 20
269.4425992817
 11
119.7692505255
 21
269.4993119941
  0
LINE
  5
398
100
AcDbEntity
  8
0
100
AcDbLine
 62
7
  6
CONTINUOUS
 10
119.7692505255
 20
269.4993119941
 11
119.3617285395
 21
269.5522144857
  0
LINE
  5
399
100
AcDbEntity
  8
0
100
AcDbLine
 62
7
  6
CONTINUOUS
 10
119.3617285395
 20
269.5522144857
 11
119.0027799775
 21
269.60085793
  0
LINE
  5
39A
100
AcDbEntity
  8
0
100
AcDbLine
 62
7
  6
CONTINUOUS
 10
119.0027799775
 20
269.60085793
 11
118.6902344362
 21
269.6449625036
  0
LINE
  5
39B
100
AcDbEntity
  8
0
100
AcDbLine
 62
7
  6
CONTINUOUS
 10
118.6902344362
 20
269.6449625036
 11
118.4217160504
 21
269.6843599809
  0
LINE
  5
39C
100
AcDbEntity
  8
0
100
AcDbLine
 62
7
  6
CONTINUOUS
 10
118.4217160504
 20
269.6843599809
 11
118.1949378412
 21
269.7189399576
  0
LINE
  5
39D
100
AcDbEntity
  8
0
100
AcDbLine
 62
7
  6
CONTINUOUS
 10
118.1949378412
 20
269.7189399576
 11
118.007182118
 21
269.7487153223
  0
LINE
  5
39E
100
AcDbEntity
  8
0
100
AcDbLine
 62
7
  6
CONTINUOUS
 10
118.007182118
 20
269.7487153223
 11
117.9018262525
 21
269.7660125562
  0
LINE
  5
39F
100
AcDbEntity
  8
0
100
AcDbLine
 62
7
  6
CONTINUOUS
 10
117.9018262525
 20
269.7660125562
 11
117.8110949012
 21
269.7813549886
  0
LINE
  5
3A0
100
AcDbEntity
  8
0
100
AcDbLine
 62
7
  6
CONTINUOUS
 10
117.8110949012
 20
269.7813549886
 11
117.7342471705
 21
269.7947757878
  0
LINE
  5
3A1
100
AcDbEntity
  8
0
100
AcDbLine
 62
7
  6
CONTINUOUS
 10
117.7342471705
 20
269.7947757878
 11
117.6710409663
 21
269.8062206733
  0
LWPOLYLINE
  5
3A2
100
AcDbEntity
  8
0
100
AcDbPolyline
 62
7
  6
CONTINUOUS
 90
6
 70
0
 10
117.6710409663
 20
269.8062206733
 10
117.621810536
 20
269.8155128066
 10
117.6026821637
 20
269.8192577994
 10
117.5873281467
 20
269.8223456318
 10
117.5760662407
 20
269.8246785026
 10
117.5697130642
 20
269.8260354108
  0
LINE
  5
3A3
100
AcDbEntity
  8
0
100
AcDbLine
 62
7
  6
CONTINUOUS
 10
265.212914321
 20
158.6914437513
 11
302.872914321
 21
155.6624202333
  0
LINE
  5
3A4
100
AcDbEntity
  8
RUNDUNGEN
100
AcDbLine
 62
7
  6
CONTINUOUS
 10
285.1783825792
 20
157.6509226707
 11
289.7634795368
 21
157.2821397043
  0
LINE
  5
3A5
100
AcDbEntity
  8
RUNDUNGEN
100
AcDbLine
 62
7
  6
CONTINUOUS
 10
285.3777109838
 20
160.1292243973
 11
289.9628230418
 21
159.760440221
  0
LINE
  5
3A6
100
AcDbEntity
  8
KONSTRUKTIONSELEMENTE
100
AcDbLine
 62
7
  6
CONTINUOUS
 10
306.4377455001
 20
164.619237787
 11
306.692914321
 21
164.6303739583
  0
LINE
  5
3A7
100
AcDbEntity
  8
KONSTRUKTIONSELEMENTE
100
AcDbLine
 62
7
  6
CONTINUOUS
 10
302.5617455001
 20
164.619237787
 11
302.816914321
 21
164.6303739583
  0
LINE
  5
3A8
100
AcDbEntity
  8
KONSTRUKTIONSELEMENTE
100
AcDbLine
 62
7
  6
CONTINUOUS
 10
304.9059877673
 20
166.5569453149
 11
306.236914321
 21
166.5569453149
  0
LINE
  5
3A9
100
AcDbEntity
  8
KONSTRUKTIONSELEMENTE
100
AcDbLine
 62
7
  6
CONTINUOUS
 10
306.236914321
 20
167.245886335
 11
304.9070799497
 21
167.245886335
  0
LINE
  5
3AA
100
AcDbEntity
  8
KONSTRUKTIONSELEMENTE
100
AcDbLine
 62
7
  6
CONTINUOUS
 10
286.181025575
 20
260.8467908885
 11
278.4744322912
 21
253.5335069321
  0
LINE
  5
3AB
100
AcDbEntity
  8
KONSTRUKTIONSELEMENTE
100
AcDbLine
 62
7
  6
CONTINUOUS
 10
323.5603304303
 20
176.1513115056
 11
323.7809864146
 21
176.2038866867
  0
LINE
  5
3AC
100
AcDbEntity
  8
KONSTRUKTIONSELEMENTE
100
AcDbLine
 62
7
  6
CONTINUOUS
 10
329.9576106913
 20
186.0411256497
 11
330.2531064957
 21
186.1162775403
  0
LINE
  5
3AD
100
AcDbEntity
  8
KONSTRUKTIONSELEMENTE
100
AcDbLine
 62
7
  6
CONTINUOUS
 10
324.028532439
 20
176.5702207175
 11
323.6714269149
 21
176.557452784
  0
LINE
  5
3AE
100
AcDbEntity
  8
0
100
AcDbLine
 62
7
  6
CONTINUOUS
 10
265.212914321
 20
158.6914437513
 11
265.212914321
 21
270.455886335
  0
LINE
  5
3AF
100
AcDbEntity
  8
KONSTRUKTIONSELEMENTE
100
AcDbLine
 62
7
  6
CONTINUOUS
 10
331.6937878757
 20
187.9785734818
 11
332.0613357803
 21
188.0711790867
  0
LINE
  5
3B0
100
AcDbEntity
  8
KONSTRUKTIONSELEMENTE
100
AcDbLine
 62
7
  6
CONTINUOUS
 10
330.0084399137
 20
183.5579479982
 11
330.384469912
 21
183.6055799242
  0
LINE
  5
3B1
100
AcDbEntity
  8
KONSTRUKTIONSELEMENTE
100
AcDbLine
 62
7
  6
CONTINUOUS
 10
330.5461509356
 20
184.0787175856
 11
330.1701209372
 21
184.0310856596
  0
LINE
  5
3B2
100
AcDbEntity
  8
KONSTRUKTIONSELEMENTE
100
AcDbLine
 62
7
  6
CONTINUOUS
 10
323.7809864146
 20
176.2038866867
 11
324.0067128172
 21
176.1672719511
  0
LINE
  5
3B3
100
AcDbEntity
  8
KONSTRUKTIONSELEMENTE
100
AcDbLine
 62
7
  6
CONTINUOUS
 10
316.8769429055
 20
171.0528004279
 11
318.5740044417
 21
170.4170636349
  0
LINE
  5
3B4
100
AcDbEntity
  8
KONSTRUKTIONSELEMENTE
100
AcDbLine
 62
7
  6
CONTINUOUS
 10
318.9067039834
 20
170.2548191153
 11
320.3063607429
 21
169.7281430067
  0
LINE
  5
3B5
100
AcDbEntity
  8
KONSTRUKTIONSELEMENTE
100
AcDbLine
 62
7
  6
CONTINUOUS
 10
318.5890564618
 20
170.7334771917
 11
317.1894002982
 21
171.2601536959
  0
LINE
  5
3B6
100
AcDbEntity
  8
KONSTRUKTIONSELEMENTE
100
AcDbLine
 62
7
  6
CONTINUOUS
 10
320.6188181356
 20
169.9354962747
 11
318.8864618344
 21
170.6244169029
  0
LINE
  5
3B7
100
AcDbEntity
  8
KONSTRUKTIONSELEMENTE
100
AcDbLine
 62
7
  6
CONTINUOUS
 10
331.8805289904
 20
188.450135115
 11
331.613491179
 21
188.4214457187
  0
LINE
  5
3B8
100
AcDbEntity
  8
KONSTRUKTIONSELEMENTE
100
AcDbLine
 62
7
  6
CONTINUOUS
 10
330.5758557528
 20
186.5343748212
 11
330.1192917148
 21
186.5142633111
  0
LINE
  5
3B9
100
AcDbEntity
  8
KONSTRUKTIONSELEMENTE
100
AcDbLine
 62
7
  6
CONTINUOUS
 10
330.2531064957
 20
186.1162775403
 11
330.5216556784
 21
186.1125734162
  0
LINE
  5
3BA
100
AcDbEntity
  8
KONSTRUKTIONSELEMENTE
100
AcDbLine
 62
7
  6
CONTINUOUS
 10
280.249634152
 20
190.5640925247
 11
282.6085432077
 21
187.5448266177
  0
LINE
  5
3BB
100
AcDbEntity
  8
0
100
AcDbLine
 62
7
  6
CONTINUOUS
 10
275.892914321
 20
235.275886335
 11
275.892914321
 21
217.8413787882
  0
LINE
  5
3BC
100
AcDbEntity
  8
0
100
AcDbLine
 62
7
  6
CONTINUOUS
 10
276.6515368607
 20
236.8880321377
 11
277.7974278608
 21
244.1229031754
  0
LINE
  5
3BD
100
AcDbEntity
  8
0
100
AcDbLine
 62
7
  6
CONTINUOUS
 10
277.6392252013
 20
236.7315976726
 11
278.6644467279
 21
243.2045916388
  0
LINE
  5
3BE
100
AcDbEntity
  8
KONSTRUKTIONSELEMENTE
100
AcDbLine
 62
7
  6
CONTINUOUS
 10
276.2649614964
 20
237.9512446768
 11
276.5032684098
 21
239.3037161432
  0
LINE
  5
3BF
100
AcDbEntity
  8
KONSTRUKTIONSELEMENTE
100
AcDbLine
 62
7
  6
CONTINUOUS
 10
296.6087598296
 20
241.9920814862
 11
296.9714470151
 21
242.336258774
  0
LINE
  5
3C0
100
AcDbEntity
  8
KONSTRUKTIONSELEMENTE
100
AcDbLine
 62
7
  6
CONTINUOUS
 10
283.2912459238
 20
190.9915631819
 11
280.249634152
 21
190.5640925247
  0
LINE
  5
3C1
100
AcDbEntity
  8
KONSTRUKTIONSELEMENTE
100
AcDbLine
 62
7
  6
CONTINUOUS
 10
328.842114321
 20
193.1417180779
 11
333.402114321
 21
193.1417180779
  0
LINE
  5
3C2
100
AcDbEntity
  8
KONSTRUKTIONSELEMENTE
100
AcDbLine
 62
7
  6
CONTINUOUS
 10
282.1214891207
 20
192.4887836138
 11
283.2912459238
 21
190.9915631819
  0
LINE
  5
3C3
100
AcDbEntity
  8
KONSTRUKTIONSELEMENTE
100
AcDbLine
 62
7
  6
CONTINUOUS
 10
283.759148645
 20
190.3926750092
 11
284.9289054481
 21
188.8954545773
  0
LINE
  5
3C4
100
AcDbEntity
  8
KONSTRUKTIONSELEMENTE
100
AcDbLine
 62
7
  6
CONTINUOUS
 10
285.5277936209
 20
189.3633572986
 11
282.7203772934
 21
192.956686335
  0
LINE
  5
3C5
100
AcDbEntity
  8
0
100
AcDbLine
 62
7
  6
CONTINUOUS
 10
283.1429465477
 20
196.7857563321
 11
290.2962626935
 21
187.6299291888
  0
LINE
  5
3C6
100
AcDbEntity
  8
KONSTRUKTIONSELEMENTE
100
AcDbLine
 62
7
  6
CONTINUOUS
 10
299.3621781324
 20
239.0905840022
 11
299.7248653179
 21
239.43476129
  0
LINE
  5
3C7
100
AcDbEntity
  8
KONSTRUKTIONSELEMENTE
100
AcDbLine
 62
7
  6
CONTINUOUS
 10
328.842114321
 20
196.695886335
 11
330.894114321
 21
196.695886335
  0
LINE
  5
3C8
100
AcDbEntity
  8
KONSTRUKTIONSELEMENTE
100
AcDbLine
 62
7
  6
CONTINUOUS
 10
331.350114321
 20
196.695886335
 11
333.402114321
 21
196.695886335
  0
LINE
  5
3C9
100
AcDbEntity
  8
KONSTRUKTIONSELEMENTE
100
AcDbLine
 62
7
  6
CONTINUOUS
 10
333.402114321
 20
197.455886335
 11
328.842114321
 21
197.455886335
  0
LINE
  5
3CA
100
AcDbEntity
  8
BEZUGSACHSEN
100
AcDbLine
 62
2
  6
CENTER
 10
302.872914321
 20
197.455886335
 11
299.872814321
 21
197.455886335
  0
LINE
  5
3CB
100
AcDbEntity
  8
BEZUGSACHSEN
100
AcDbLine
 62
2
  6
CENTER
 10
302.872914321
 20
197.455886335
 11
305.873014321
 21
197.455886335
  0
LINE
  5
3CC
100
AcDbEntity
  8
KONSTRUKTIONSELEMENTE
100
AcDbLine
 62
7
  6
CONTINUOUS
 10
329.5574850841
 20
187.7490554507
 11
329.8905405428
 21
187.6786027961
  0
LINE
  5
3CD
100
AcDbEntity
  8
KONSTRUKTIONSELEMENTE
100
AcDbLine
 62
7
  6
CONTINUOUS
 10
329.0293437974
 20
188.5421948046
 11
329.6954549482
 21
188.4012894462
  0
LINE
  5
3CE
100
AcDbEntity
  8
KONSTRUKTIONSELEMENTE
100
AcDbLine
 62
7
  6
CONTINUOUS
 10
330.0285104069
 20
188.3308367916
 11
331.6937878757
 21
187.9785734818
  0
LINE
  5
3CF
100
AcDbEntity
  8
KONSTRUKTIONSELEMENTE
100
AcDbLine
 62
7
  6
CONTINUOUS
 10
331.613491179
 20
188.4214457187
 11
330.114741498
 21
188.7384826889
  0
LINE
  5
3D0
100
AcDbEntity
  8
KONSTRUKTIONSELEMENTE
100
AcDbLine
 62
7
  6
CONTINUOUS
 10
329.7816860392
 20
188.8089353435
 11
329.1155748884
 21
188.949840702
  0
LINE
  5
3D1
100
AcDbEntity
  8
KONSTRUKTIONSELEMENTE
100
AcDbLine
 62
7
  6
CONTINUOUS
 10
332.6013459657
 20
188.9790769527
 11
332.2682904778
 21
189.0495296134
  0
LINE
  5
3D2
100
AcDbEntity
  8
KONSTRUKTIONSELEMENTE
100
AcDbLine
 62
7
  6
CONTINUOUS
 10
330.3044500364
 20
189.6353043161
 11
329.9713945777
 21
189.7057569707
  0
LINE
  5
3D3
100
AcDbEntity
  8
KONSTRUKTIONSELEMENTE
100
AcDbLine
 62
7
  6
CONTINUOUS
 10
327.1897474605
 20
184.5211540967
 11
329.2836332571
 21
183.8056295752
  0
LINE
  5
3D4
100
AcDbEntity
  8
KONSTRUKTIONSELEMENTE
100
AcDbLine
 62
7
  6
CONTINUOUS
 10
329.015697167
 20
184.3375118896
 11
327.7271519746
 21
184.7778347017
  0
LINE
  5
3D5
100
AcDbEntity
  8
KONSTRUKTIONSELEMENTE
100
AcDbLine
 62
7
  6
CONTINUOUS
 10
330.5216556784
 20
186.1125734162
 11
330.6827237992
 21
186.0575330743
  0
LINE
  5
3D6
100
AcDbEntity
  8
KONSTRUKTIONSELEMENTE
100
AcDbLine
 62
7
  6
CONTINUOUS
 10
324.2593302235
 20
176.4444171225
 11
324.028532439
 21
176.5702207175
  0
LINE
  5
3D7
100
AcDbEntity
  8
KONSTRUKTIONSELEMENTE
100
AcDbLine
 62
7
  6
CONTINUOUS
 10
317.8174832056
 20
168.131547633
 11
315.5547663494
 21
170.3406453373
  0
LINE
  5
3D8
100
AcDbEntity
  8
KONSTRUKTIONSELEMENTE
100
AcDbLine
 62
7
  6
CONTINUOUS
 10
316.9111215383
 20
168.5262937342
 11
317.4841078296
 21
167.9598331646
  0
LINE
  5
3D9
100
AcDbEntity
  8
KONSTRUKTIONSELEMENTE
100
AcDbLine
 62
7
  6
CONTINUOUS
 10
315.4494282752
 20
169.9991901818
 11
316.738647223
 21
168.7246537177
  0
LINE
  5
3DA
100
AcDbEntity
  8
KONSTRUKTIONSELEMENTE
100
AcDbLine
 62
7
  6
CONTINUOUS
 10
311.5295556334
 20
167.9233236742
 11
313.1731849265
 21
166.0149880135
  0
LINE
  5
3DB
100
AcDbEntity
  8
KONSTRUKTIONSELEMENTE
100
AcDbLine
 62
7
  6
CONTINUOUS
 10
313.2962015258
 20
166.4012819157
 11
311.4827044105
 21
168.5869389917
  0
LINE
  5
3DC
100
AcDbEntity
  8
0
100
AcDbLine
 62
7
  6
CONTINUOUS
 10
283.192914321
 20
259.7851591618
 11
283.192914321
 21
261.7224805598
  0
LINE
  5
3DD
100
AcDbEntity
  8
KONSTRUKTIONSELEMENTE
100
AcDbLine
 62
7
  6
CONTINUOUS
 10
328.5086102807
 20
187.064666807
 11
328.1059399786
 21
187.2022676617
  0
LINE
  5
3DE
100
AcDbEntity
  8
KONSTRUKTIONSELEMENTE
100
AcDbLine
 62
7
  6
CONTINUOUS
 10
330.8979919945
 20
186.4242941375
 11
330.5758557528
 21
186.5343748212
  0
LINE
  5
3DF
100
AcDbEntity
  8
KONSTRUKTIONSELEMENTE
100
AcDbLine
 62
7
  6
CONTINUOUS
 10
326.2704679856
 20
181.3257210725
 11
326.8707458858
 21
181.0044348639
  0
LINE
  5
3E0
100
AcDbEntity
  8
KONSTRUKTIONSELEMENTE
100
AcDbLine
 62
7
  6
CONTINUOUS
 10
326.5814472017
 20
181.7263892916
 11
329.5078013608
 21
180.1601193483
  0
LINE
  5
3E1
100
AcDbEntity
  8
KONSTRUKTIONSELEMENTE
100
AcDbLine
 62
7
  6
CONTINUOUS
 10
329.7437458657
 20
180.6009483295
 11
326.2171140167
 21
182.4885043688
  0
LINE
  5
3E2
100
AcDbEntity
  8
KONSTRUKTIONSELEMENTE
100
AcDbLine
 62
7
  6
CONTINUOUS
 10
324.2060088748
 20
173.448586111
 11
324.4418771107
 21
173.2335925693
  0
LINE
  5
3E3
100
AcDbEntity
  8
KONSTRUKTIONSELEMENTE
100
AcDbLine
 62
7
  6
CONTINUOUS
 10
324.0067128172
 20
176.1672719511
 11
324.1010602305
 21
176.081274426
  0
LINE
  5
3E4
100
AcDbEntity
  8
KONSTRUKTIONSELEMENTE
100
AcDbLine
 62
7
  6
CONTINUOUS
 10
325.9575815485
 20
174.8964635977
 11
325.7217133126
 21
175.1114571395
  0
LINE
  5
3E5
100
AcDbEntity
  8
KONSTRUKTIONSELEMENTE
100
AcDbLine
 62
7
  6
CONTINUOUS
 10
324.3536776368
 20
176.3584195974
 11
324.2593302235
 21
176.4444171225
  0
LINE
  5
3E6
100
AcDbEntity
  8
KONSTRUKTIONSELEMENTE
100
AcDbLine
 62
7
  6
CONTINUOUS
 10
321.1466442273
 20
171.9486841022
 11
321.4008989831
 21
171.6622800952
  0
LINE
  5
3E7
100
AcDbEntity
  8
KONSTRUKTIONSELEMENTE
100
AcDbLine
 62
7
  6
CONTINUOUS
 10
321.4632531356
 20
173.8514610597
 11
322.2683931265
 21
172.9445151155
  0
LINE
  5
3E8
100
AcDbEntity
  8
KONSTRUKTIONSELEMENTE
100
AcDbLine
 62
7
  6
CONTINUOUS
 10
322.5226478824
 20
172.6581111085
 11
323.1159089002
 21
171.9898351813
  0
LINE
  5
3E9
100
AcDbEntity
  8
KONSTRUKTIONSELEMENTE
100
AcDbLine
 62
7
  6
CONTINUOUS
 10
323.396346125
 20
172.2387929347
 11
322.8030851072
 21
172.9070688618
  0
LINE
  5
3EA
100
AcDbEntity
  8
KONSTRUKTIONSELEMENTE
100
AcDbLine
 62
7
  6
CONTINUOUS
 10
322.5488303513
 20
173.1934728688
 11
321.4046840984
 21
174.4822907332
  0
LINE
  5
3EB
100
AcDbEntity
  8
KONSTRUKTIONSELEMENTE
100
AcDbLine
 62
7
  6
CONTINUOUS
 10
323.2704808385
 20
173.3219987673
 11
323.0162260826
 21
173.6084027743
  0
LINE
  5
3EC
100
AcDbEntity
  8
KONSTRUKTIONSELEMENTE
100
AcDbLine
 62
7
  6
CONTINUOUS
 10
320.9798437146
 20
170.6329828359
 11
321.1744960992
 21
170.3800668482
  0
LINE
  5
3ED
100
AcDbEntity
  8
KONSTRUKTIONSELEMENTE
100
AcDbLine
 62
7
  6
CONTINUOUS
 10
321.4221426208
 20
170.57066368
 11
321.2274902362
 21
170.8235796677
  0
LINE
  5
3EE
100
AcDbEntity
  8
0
100
AcDbLine
 62
7
  6
CONTINUOUS
 10
291.872914321
 20
264.3532419374
 11
291.872914321
 21
268.0058051036
  0
LINE
  5
3EF
100
AcDbEntity
  8
KONSTRUKTIONSELEMENTE
100
AcDbLine
 62
7
  6
CONTINUOUS
 10
282.6085432077
 20
187.5448266177
 11
283.759148645
 21
190.3926750092
  0
LINE
  5
3F0
100
AcDbEntity
  8
KONSTRUKTIONSELEMENTE
100
AcDbLine
 62
7
  6
CONTINUOUS
 10
315.1566620181
 20
214.3844666308
 11
318.2001980699
 21
214.8141408381
  0
LINE
  5
3F1
100
AcDbEntity
  8
KONSTRUKTIONSELEMENTE
100
AcDbLine
 62
7
  6
CONTINUOUS
 10
330.6827237992
 20
186.0575330743
 11
330.8973790918
 21
185.8961161342
  0
LINE
  5
3F2
100
AcDbEntity
  8
KONSTRUKTIONSELEMENTE
100
AcDbLine
 62
7
  6
CONTINUOUS
 10
310.9555124963
 20
168.3907887034
 11
312.0016473673
 21
165.5790984943
  0
LINE
  5
3F3
100
AcDbEntity
  8
KONSTRUKTIONSELEMENTE
100
AcDbLine
 62
7
  6
CONTINUOUS
 10
312.3531086434
 20
165.7098653532
 11
311.5295556334
 21
167.9233236742
  0
LINE
  5
3F4
100
AcDbEntity
  8
KONSTRUKTIONSELEMENTE
100
AcDbLine
 62
7
  6
CONTINUOUS
 10
331.2467687299
 20
186.1289808601
 11
330.8979919945
 21
186.4242941375
  0
LINE
  5
3F5
100
AcDbEntity
  8
KONSTRUKTIONSELEMENTE
100
AcDbLine
 62
7
  6
CONTINUOUS
 10
322.6391367043
 20
175.0459222748
 11
322.785729008
 21
174.8277373084
  0
LINE
  5
3F6
100
AcDbEntity
  8
KONSTRUKTIONSELEMENTE
100
AcDbLine
 62
7
  6
CONTINUOUS
 10
324.5002689768
 20
176.1402335737
 11
324.3536776368
 21
176.3584195974
  0
LINE
  5
3F7
100
AcDbEntity
  8
KONSTRUKTIONSELEMENTE
100
AcDbLine
 62
7
  6
CONTINUOUS
 10
313.6383232901
 20
168.7079248274
 11
314.4618763002
 21
166.4944665064
  0
LINE
  5
3F8
100
AcDbEntity
  8
KONSTRUKTIONSELEMENTE
100
AcDbLine
 62
7
  6
CONTINUOUS
 10
314.8133375764
 20
166.6252333653
 11
313.7672027054
 21
169.4369235744
  0
LINE
  5
3F9
100
AcDbEntity
  8
KONSTRUKTIONSELEMENTE
100
AcDbLine
 62
7
  6
CONTINUOUS
 10
302.816914321
 20
164.6303739583
 11
302.816914321
 21
165.3193149784
  0
LINE
  5
3FA
100
AcDbEntity
  8
KONSTRUKTIONSELEMENTE
100
AcDbLine
 62
7
  6
CONTINUOUS
 10
302.816914321
 20
168.4785756514
 11
302.816914321
 21
169.1675166715
  0
LINE
  5
3FB
100
AcDbEntity
  8
BEZUGSACHSEN
100
AcDbLine
 62
2
  6
CENTER
 10
302.872914321
 20
197.455886335
 11
302.872914321
 21
194.455786335
  0
LINE
  5
3FC
100
AcDbEntity
  8
BEZUGSACHSEN
100
AcDbLine
 62
2
  6
CENTER
 10
302.872914321
 20
197.455886335
 11
302.872914321
 21
200.455986335
  0
LWPOLYLINE
  5
3FD
100
AcDbEntity
  8
KONSTRUKTIONSELEMENTE
100
AcDbPolyline
 62
7
  6
CONTINUOUS
 90
15
 70
0
 10
313.9325096041
 20
222.2839177765
 10
313.9801894267
 20
222.3312364378
 10
314.0300510448
 20
222.3857917971
 10
314.0797317629
 20
222.446989123
 10
314.1266998114
 20
222.5137564756
 10
314.1704751865
 20
222.5879645548
 10
314.2086670548
 20
222.6685187565
 10
314.2400562139
 20
222.756365671
 10
314.2626618497
 20
222.8509669817
 10
314.2748232578
 20
222.9520101341
 10
314.274671768
 20
223.0588037863
 10
314.260461253
 20
223.1678474062
 10
314.2319040409
 20
223.2762030967
 10
314.1905524325
 20
223.379713598
 10
314.1392654019
 20
223.474419556
  0
LINE
  5
3FE
100
AcDbEntity
  8
KONSTRUKTIONSELEMENTE
100
AcDbLine
 62
7
  6
CONTINUOUS
 10
313.7148929535
 20
222.077416808
 11
313.9325048575
 21
222.2839227942
  0
LINE
  5
3FF
100
AcDbEntity
  8
KONSTRUKTIONSELEMENTE
100
AcDbLine
 62
7
  6
CONTINUOUS
 10
313.6800167999
 20
220.0803332564
 11
312.6203170182
 21
219.0747157121
  0
LINE
  5
400
100
AcDbEntity
  8
KONSTRUKTIONSELEMENTE
100
AcDbLine
 62
7
  6
CONTINUOUS
 10
282.7203772934
 20
192.956686335
 11
282.1214891207
 21
192.4887836138
  0
LINE
  5
401
100
AcDbEntity
  8
KONSTRUKTIONSELEMENTE
100
AcDbLine
 62
7
  6
CONTINUOUS
 10
313.5201396227
 20
216.4814636579
 11
312.920114321
 21
216.0126725142
  0
LINE
  5
402
100
AcDbEntity
  8
KONSTRUKTIONSELEMENTE
100
AcDbLine
 62
7
  6
CONTINUOUS
 10
329.9737632199
 20
182.0603660327
 11
330.6187005037
 21
181.2174717922
  0
LINE
  5
403
100
AcDbEntity
  8
KONSTRUKTIONSELEMENTE
100
AcDbLine
 62
7
  6
CONTINUOUS
 10
330.791307035
 20
181.5967053131
 11
330.1463697018
 21
182.4395994451
  0
LINE
  5
404
100
AcDbEntity
  8
KONSTRUKTIONSELEMENTE
100
AcDbLine
 62
7
  6
CONTINUOUS
 10
306.236914321
 20
166.5569453149
 11
306.236914321
 21
167.245886335
  0
LINE
  5
405
100
AcDbEntity
  8
KONSTRUKTIONSELEMENTE
100
AcDbLine
 62
7
  6
CONTINUOUS
 10
306.692914321
 20
164.6303739583
 11
306.692914321
 21
165.3193149784
  0
LINE
  5
406
100
AcDbEntity
  8
KONSTRUKTIONSELEMENTE
100
AcDbLine
 62
7
  6
CONTINUOUS
 10
306.692914321
 20
168.4785756514
 11
306.692914321
 21
169.1675166715
  0
LINE
  5
407
100
AcDbEntity
  8
0
100
AcDbLine
 62
7
  6
CONTINUOUS
 10
321.21325385
 20
223.8839621881
 11
320.7498396437
 21
223.4221026268
  0
LINE
  5
408
100
AcDbEntity
  8
KONSTRUKTIONSELEMENTE
100
AcDbLine
 62
7
  6
CONTINUOUS
 10
284.9289054481
 20
188.8954545773
 11
285.5277936209
 21
189.3633572986
  0
LINE
  5
409
100
AcDbEntity
  8
KONSTRUKTIONSELEMENTE
100
AcDbLine
 62
7
  6
CONTINUOUS
 10
315.7275306485
 20
212.4193434777
 11
316.3264188212
 21
212.887246199
  0
LINE
  5
40A
100
AcDbEntity
  8
0
100
AcDbLine
 62
7
  6
CONTINUOUS
 10
319.9228593813
 20
224.3652941264
 11
320.7885128179
 21
224.3194973147
  0
LINE
  5
40B
100
AcDbEntity
  8
KONSTRUKTIONSELEMENTE
100
AcDbLine
 62
7
  6
CONTINUOUS
 10
279.1291548138
 20
242.8288883107
 11
311.3371396557
 21
218.9962332225
  0
LINE
  5
40C
100
AcDbEntity
  8
KONSTRUKTIONSELEMENTE
100
AcDbLine
 62
7
  6
CONTINUOUS
 10
330.8973790918
 20
185.8961161342
 11
331.0850877064
 21
185.6558431987
  0
LINE
  5
40D
100
AcDbEntity
  8
0
100
AcDbLine
 62
7
  6
CONTINUOUS
 10
315.4495659486
 20
207.2818434812
 11
312.2467689756
 21
211.3812366664
  0
LINE
  5
40E
100
AcDbEntity
  8
KONSTRUKTIONSELEMENTE
100
AcDbLine
 62
7
  6
CONTINUOUS
 10
331.4880644881
 20
185.782331336
 11
331.2467687299
 21
186.1289808601
  0
LINE
  5
40F
100
AcDbEntity
  8
KONSTRUKTIONSELEMENTE
100
AcDbLine
 62
7
  6
CONTINUOUS
 10
324.1010602305
 20
176.081274426
 11
324.2055493119
 21
175.8168982453
  0
LINE
  5
410
100
AcDbEntity
  8
KONSTRUKTIONSELEMENTE
100
AcDbLine
 62
7
  6
CONTINUOUS
 10
315.738521095
 20
168.2095103123
 11
315.4494282752
 21
169.9991901818
  0
LINE
  5
411
100
AcDbEntity
  8
KONSTRUKTIONSELEMENTE
100
AcDbLine
 62
7
  6
CONTINUOUS
 10
315.928355969
 20
167.1584989239
 11
315.7998703909
 21
167.9539122273
  0
LINE
  5
412
100
AcDbEntity
  8
KONSTRUKTIONSELEMENTE
100
AcDbLine
 62
7
  6
CONTINUOUS
 10
315.110265954
 20
170.1116927672
 11
315.594980593
 21
166.9867844554
  0
LINE
  5
413
100
AcDbEntity
  8
KONSTRUKTIONSELEMENTE
100
AcDbLine
 62
7
  6
CONTINUOUS
 10
313.2400107912
 20
169.2407732861
 11
313.2962015258
 21
166.4012819157
  0
LINE
  5
414
100
AcDbEntity
  8
KONSTRUKTIONSELEMENTE
100
AcDbLine
 62
7
  6
CONTINUOUS
 10
313.6417999334
 20
166.189343815
 11
313.6383232901
 21
168.7079248274
  0
LINE
  5
415
100
AcDbEntity
  8
KONSTRUKTIONSELEMENTE
100
AcDbLine
 62
7
  6
CONTINUOUS
 10
315.8400885102
 20
217.8310685331
 11
314.6898964258
 21
214.9842432261
  0
LINE
  5
416
100
AcDbEntity
  8
KONSTRUKTIONSELEMENTE
100
AcDbLine
 62
7
  6
CONTINUOUS
 10
313.7059306648
 20
221.069943319
 11
313.538504797
 21
221.246373371
  0
LINE
  5
417
100
AcDbEntity
  8
BEZUGSACHSEN
100
AcDbLine
 62
7
  6
CONTINUOUS
 10
299.9688196075
 20
236.9846553923
 11
299.4798808917
 21
237.4998892935
  0
LINE
  5
418
100
AcDbEntity
  8
BEZUGSACHSEN
100
AcDbLine
 62
7
  6
CONTINUOUS
 10
307.1278825357
 20
229.440577163
 11
307.6168212515
 21
228.9253432618
  0
LWPOLYLINE
  5
419
100
AcDbEntity
  8
KONSTRUKTIONSELEMENTE
100
AcDbPolyline
 62
7
  6
CONTINUOUS
 90
4
 70
0
 10
313.6480771404
 20
221.1309094685
 10
313.6446536791
 20
221.1346128197
 10
313.6360096643
 20
221.1445071725
 10
313.6241470899
 20
221.1590099842
  0
LINE
  5
41A
100
AcDbEntity
  8
KONSTRUKTIONSELEMENTE
100
AcDbLine
 62
7
  6
CONTINUOUS
 10
318.2001980699
 20
214.8141408381
 11
315.8400885102
 21
217.8310685331
  0
LINE
  5
41B
100
AcDbEntity
  8
KONSTRUKTIONSELEMENTE
100
AcDbLine
 62
7
  6
CONTINUOUS
 10
312.920114321
 20
216.0126725142
 11
315.7275306485
 21
212.4193434777
  0
LINE
  5
41C
100
AcDbEntity
  8
KONSTRUKTIONSELEMENTE
100
AcDbLine
 62
7
  6
CONTINUOUS
 10
316.3264188212
 20
212.887246199
 11
315.1566620181
 21
214.3844666308
  0
LINE
  5
41D
100
AcDbEntity
  8
KONSTRUKTIONSELEMENTE
100
AcDbLine
 62
7
  6
CONTINUOUS
 10
314.6898964258
 20
214.9842432261
 11
313.5201396227
 21
216.4814636579
  0
LINE
  5
41E
100
AcDbEntity
  8
KONSTRUKTIONSELEMENTE
100
AcDbLine
 62
7
  6
CONTINUOUS
 10
313.6241470899
 20
221.1590099842
 11
313.6109406942
 21
221.1762115915
  0
LINE
  5
41F
100
AcDbEntity
  8
KONSTRUKTIONSELEMENTE
100
AcDbLine
 62
7
  6
CONTINUOUS
 10
313.6109479382
 20
221.1762343703
 11
313.5720651992
 21
221.235189729
  0
LWPOLYLINE
  5
420
100
AcDbEntity
  8
KONSTRUKTIONSELEMENTE
100
AcDbPolyline
 62
7
  6
CONTINUOUS
 90
10
 70
0
 10
313.5720651992
 20
221.235189729
 10
313.5247117337
 20
221.3372447974
 10
313.4961771558
 20
221.4468093343
 10
313.4870962214
 20
221.5604583837
 10
313.4973486523
 20
221.6745164422
 10
313.5261457505
 20
221.7854372763
 10
313.5716531973
 20
221.8894825091
 10
313.6315234076
 20
221.9836643647
 10
313.7027342518
 20
222.0655638308
 10
313.7149170203
 20
222.0773914485
  0
LINE
  5
421
100
AcDbEntity
  8
KONSTRUKTIONSELEMENTE
100
AcDbLine
 62
7
  6
CONTINUOUS
 10
325.9811695118
 20
182.0476753876
 11
326.2704679856
 21
181.3257210725
  0
LINE
  5
422
100
AcDbEntity
  8
KONSTRUKTIONSELEMENTE
100
AcDbLine
 62
7
  6
CONTINUOUS
 10
326.8707458858
 20
181.0044348639
 11
326.5814472017
 21
181.7263892916
  0
LINE
  5
423
100
AcDbEntity
  8
KONSTRUKTIONSELEMENTE
100
AcDbLine
 62
7
  6
CONTINUOUS
 10
322.996243192
 20
175.0586912655
 11
322.9389277512
 21
175.2800687438
  0
LINE
  5
424
100
AcDbEntity
  8
KONSTRUKTIONSELEMENTE
100
AcDbLine
 62
7
  6
CONTINUOUS
 10
324.5575844177
 20
175.9188560954
 11
324.5002689768
 21
176.1402335737
  0
LINE
  5
425
100
AcDbEntity
  8
KONSTRUKTIONSELEMENTE
100
AcDbLine
 62
7
  6
CONTINUOUS
 10
322.6188540674
 20
175.4026808841
 11
322.6391367043
 21
175.0459222748
  0
LINE
  5
426
100
AcDbEntity
  8
KONSTRUKTIONSELEMENTE
100
AcDbLine
 62
7
  6
CONTINUOUS
 10
318.5740044417
 20
170.4170636349
 11
318.5357690497
 21
168.5531412864
  0
LINE
  5
427
100
AcDbEntity
  8
KONSTRUKTIONSELEMENTE
100
AcDbLine
 62
7
  6
CONTINUOUS
 10
318.6475345988
 20
172.2278021481
 11
318.5890564618
 21
170.7334771917
  0
LINE
  5
428
100
AcDbEntity
  8
0
100
AcDbLine
 62
7
  6
CONTINUOUS
 10
320.2199462943
 20
224.7540242064
 11
320.7885128179
 21
224.3194973147
  0
LINE
  5
429
100
AcDbEntity
  8
RUNDUNGEN
100
AcDbLine
 62
7
  6
CONTINUOUS
 10
323.1568897928
 20
220.9189017876
 11
322.9372721518
 21
221.1341025027
  0
LINE
  5
42A
100
AcDbEntity
  8
RUNDUNGEN
100
AcDbLine
 62
7
  6
CONTINUOUS
 10
321.7393337639
 20
219.4747921503
 11
321.5219252722
 21
219.6918199962
  0
LINE
  5
42B
100
AcDbEntity
  8
KONSTRUKTIONSELEMENTE
100
AcDbLine
 62
7
  6
CONTINUOUS
 10
296.0204220988
 20
242.6120600939
 11
313.9543510625
 21
223.7136421837
  0
LINE
  5
42C
100
AcDbEntity
  8
KONSTRUKTIONSELEMENTE
100
AcDbLine
 62
7
  6
CONTINUOUS
 10
296.9714470151
 20
242.336258774
 11
299.7248653179
 21
239.43476129
  0
LWPOLYLINE
  5
42D
100
AcDbEntity
  8
KONSTRUKTIONSELEMENTE
100
AcDbPolyline
 62
7
  6
CONTINUOUS
 90
5
 70
0
 10
314.1231817148
 20
223.5000187559
 10
314.1044684852
 20
223.5280675426
 10
314.0524632664
 20
223.5993826525
 10
313.9954494128
 20
223.6685605369
 10
313.9543671228
 20
223.7136430785
  0
LINE
  5
42E
100
AcDbEntity
  8
KONSTRUKTIONSELEMENTE
100
AcDbLine
 62
7
  6
CONTINUOUS
 10
314.1392654019
 20
223.474419556
 11
314.1235571257
 21
223.4992802067
  0
LINE
  5
42F
100
AcDbEntity
  8
KONSTRUKTIONSELEMENTE
100
AcDbLine
 62
7
  6
CONTINUOUS
 10
333.402114321
 20
193.1417180779
 11
331.350114321
 21
196.695886335
  0
LINE
  5
430
100
AcDbEntity
  8
KONSTRUKTIONSELEMENTE
100
AcDbLine
 62
7
  6
CONTINUOUS
 10
329.4722610922
 20
184.3576234383
 11
329.3384462343
 21
184.7556089835
  0
LINE
  5
431
100
AcDbEntity
  8
KONSTRUKTIONSELEMENTE
100
AcDbLine
 62
7
  6
CONTINUOUS
 10
321.1242468736
 20
174.2333329798
 11
321.1466442273
 21
171.9486841022
  0
LINE
  5
432
100
AcDbEntity
  8
KONSTRUKTIONSELEMENTE
100
AcDbLine
 62
7
  6
CONTINUOUS
 10
321.4738208113
 20
172.2391346561
 11
321.4632531356
 21
173.8514610597
  0
LINE
  5
433
100
AcDbEntity
  8
KONSTRUKTIONSELEMENTE
100
AcDbLine
 62
7
  6
CONTINUOUS
 10
324.2055493119
 20
175.8168982453
 11
324.2060088748
 21
173.448586111
  0
LINE
  5
434
100
AcDbEntity
  8
KONSTRUKTIONSELEMENTE
100
AcDbLine
 62
7
  6
CONTINUOUS
 10
324.5428317619
 20
173.8181126538
 11
324.5575844177
 21
175.9188560954
  0
LINE
  5
435
100
AcDbEntity
  8
KONSTRUKTIONSELEMENTE
100
AcDbLine
 62
7
  6
CONTINUOUS
 10
318.8482264424
 20
168.7604945544
 11
318.9067039834
 21
170.2548191153
  0
LINE
  5
436
100
AcDbEntity
  8
KONSTRUKTIONSELEMENTE
100
AcDbLine
 62
7
  6
CONTINUOUS
 10
318.8864618344
 20
170.6244169029
 11
318.9599919914
 21
172.4351554162
  0
LINE
  5
437
100
AcDbEntity
  8
0
100
AcDbLine
 62
7
  6
CONTINUOUS
 10
280.452914321
 20
239.835886335
 11
282.692914321
 21
239.835886335
  0
LINE
  5
438
100
AcDbEntity
  8
0
100
AcDbLine
 62
7
  6
CONTINUOUS
 10
333.5115361328
 20
211.81182864
 11
321.21325385
 21
223.8839621881
  0
LINE
  5
439
100
AcDbEntity
  8
0
100
AcDbLine
 62
7
  6
CONTINUOUS
 10
321.21325385
 20
223.8839621881
 11
320.7885128179
 21
224.3194973147
  0
LINE
  5
43A
100
AcDbEntity
  8
KONSTRUKTIONSELEMENTE
100
AcDbLine
 62
7
  6
CONTINUOUS
 10
331.0850877064
 20
185.6558431987
 11
331.1653153155
 21
185.3642340261
  0
LINE
  5
43B
100
AcDbEntity
  8
KONSTRUKTIONSELEMENTE
100
AcDbLine
 62
7
  6
CONTINUOUS
 10
328.9088291977
 20
184.8143538621
 11
329.015697167
 21
184.3375118896
  0
LINE
  5
43C
100
AcDbEntity
  8
KONSTRUKTIONSELEMENTE
100
AcDbLine
 62
7
  6
CONTINUOUS
 10
331.5949324014
 20
185.3054891307
 11
331.4880644881
 21
185.782331336
  0
LINE
  5
43D
100
AcDbEntity
  8
KONSTRUKTIONSELEMENTE
100
AcDbLine
 62
7
  6
CONTINUOUS
 10
328.842114321
 20
197.455886335
 11
328.842114321
 21
196.695886335
  0
LINE
  5
43E
100
AcDbEntity
  8
KONSTRUKTIONSELEMENTE
100
AcDbLine
 62
7
  6
CONTINUOUS
 10
322.9389277512
 20
175.2800687438
 11
322.9708891732
 21
175.5046387342
  0
LINE
  5
43F
100
AcDbEntity
  8
KONSTRUKTIONSELEMENTE
100
AcDbLine
 62
7
  6
CONTINUOUS
 10
281.5695007532
 20
248.7597706459
 11
282.1603854051
 21
248.6555817393
  0
LINE
  5
440
100
AcDbEntity
  8
KONSTRUKTIONSELEMENTE
100
AcDbLine
 62
7
  6
CONTINUOUS
 10
285.262529827
 20
248.1085899797
 11
286.239855489
 21
247.9362610966
  0
LINE
  5
441
100
AcDbEntity
  8
KONSTRUKTIONSELEMENTE
100
AcDbLine
 62
7
  6
CONTINUOUS
 10
333.402114321
 20
196.695886335
 11
333.402114321
 21
197.455886335
  0
LINE
  5
442
100
AcDbEntity
  8
KONSTRUKTIONSELEMENTE
100
AcDbLine
 62
7
  6
CONTINUOUS
 10
329.3384462343
 20
184.7556089835
 11
329.3656995743
 21
185.0985544124
  0
LINE
  5
443
100
AcDbEntity
  8
KONSTRUKTIONSELEMENTE
100
AcDbLine
 62
7
  6
CONTINUOUS
 10
331.1653153155
 20
185.3642340261
 11
331.1380619755
 21
185.0212885972
  0
LINE
  5
444
100
AcDbEntity
  8
KONSTRUKTIONSELEMENTE
100
AcDbLine
 62
7
  6
CONTINUOUS
 10
328.9630292721
 20
185.2361552671
 11
328.9088291977
 21
184.8143538621
  0
LINE
  5
445
100
AcDbEntity
  8
KONSTRUKTIONSELEMENTE
100
AcDbLine
 62
7
  6
CONTINUOUS
 10
331.540732334
 20
184.8836877232
 11
331.5949324014
 21
185.3054891307
  0
LINE
  5
446
100
AcDbEntity
  8
KONSTRUKTIONSELEMENTE
100
AcDbLine
 62
7
  6
CONTINUOUS
 10
329.1155748884
 20
188.949840702
 11
329.0293437974
 21
188.5421948046
  0
LINE
  5
447
100
AcDbEntity
  8
KONSTRUKTIONSELEMENTE
100
AcDbLine
 62
7
  6
CONTINUOUS
 10
329.9713945777
 20
189.7057569707
 11
329.7816860392
 21
188.8089353435
  0
LINE
  5
448
100
AcDbEntity
  8
KONSTRUKTIONSELEMENTE
100
AcDbLine
 62
7
  6
CONTINUOUS
 10
329.6954549482
 20
188.4012894462
 11
329.5574850841
 21
187.7490554507
  0
LINE
  5
449
100
AcDbEntity
  8
KONSTRUKTIONSELEMENTE
100
AcDbLine
 62
7
  6
CONTINUOUS
 10
329.8905405428
 20
187.6786027961
 11
330.0285104069
 21
188.3308367916
  0
LINE
  5
44A
100
AcDbEntity
  8
KONSTRUKTIONSELEMENTE
100
AcDbLine
 62
7
  6
CONTINUOUS
 10
330.114741498
 20
188.7384826889
 11
330.3044500364
 21
189.6353043161
  0
LINE
  5
44B
100
AcDbEntity
  8
KONSTRUKTIONSELEMENTE
100
AcDbLine
 62
7
  6
CONTINUOUS
 10
322.6929187117
 20
175.6734420888
 11
322.6188540674
 21
175.4026808841
  0
LINE
  5
44C
100
AcDbEntity
  8
KONSTRUKTIONSELEMENTE
100
AcDbLine
 62
7
  6
CONTINUOUS
 10
328.1059399786
 20
187.2022676617
 11
327.1897474605
 21
184.5211540967
  0
LINE
  5
44D
100
AcDbEntity
  8
KONSTRUKTIONSELEMENTE
100
AcDbLine
 62
7
  6
CONTINUOUS
 10
327.7271519746
 20
184.7778347017
 11
328.5086102807
 21
187.064666807
  0
LINE
  5
44E
100
AcDbEntity
  8
KONSTRUKTIONSELEMENTE
100
AcDbLine
 62
7
  6
CONTINUOUS
 10
330.894114321
 20
196.695886335
 11
328.842114321
 21
193.1417180779
  0
LINE
  5
44F
100
AcDbEntity
  8
KONSTRUKTIONSELEMENTE
100
AcDbLine
 62
7
  6
CONTINUOUS
 10
330.1192917148
 20
186.5142633111
 11
329.7163149613
 21
186.3877751641
  0
LINE
  5
450
100
AcDbEntity
  8
KONSTRUKTIONSELEMENTE
100
AcDbLine
 62
7
  6
CONTINUOUS
 10
330.384469912
 20
183.6055799242
 11
330.7874466937
 21
183.7320680615
  0
LINE
  5
451
100
AcDbEntity
  8
KONSTRUKTIONSELEMENTE
100
AcDbLine
 62
7
  6
CONTINUOUS
 10
281.5695007532
 20
248.1520020241
 11
282.1603854051
 21
248.2561909307
  0
LINE
  5
452
100
AcDbEntity
  8
KONSTRUKTIONSELEMENTE
100
AcDbLine
 62
7
  6
CONTINUOUS
 10
285.262529827
 20
248.8031826904
 11
286.2447588172
 21
248.9763761626
  0
LINE
  5
453
100
AcDbEntity
  8
KONSTRUKTIONSELEMENTE
100
AcDbLine
 62
7
  6
CONTINUOUS
 10
329.1247102957
 20
185.7092929285
 11
328.9630292721
 21
185.2361552671
  0
LINE
  5
454
100
AcDbEntity
  8
KONSTRUKTIONSELEMENTE
100
AcDbLine
 62
7
  6
CONTINUOUS
 10
329.3656995743
 20
185.0985544124
 11
329.5273805978
 21
185.5716920738
  0
LINE
  5
455
100
AcDbEntity
  8
KONSTRUKTIONSELEMENTE
100
AcDbLine
 62
7
  6
CONTINUOUS
 10
329.2836332571
 20
183.8056295752
 11
329.4722610922
 21
184.3576234383
  0
LINE
  5
456
100
AcDbEntity
  8
KONSTRUKTIONSELEMENTE
100
AcDbLine
 62
7
  6
CONTINUOUS
 10
330.1701209372
 20
184.0310856596
 11
330.0084399137
 21
183.5579479982
  0
LINE
  5
457
100
AcDbEntity
  8
KONSTRUKTIONSELEMENTE
100
AcDbLine
 62
7
  6
CONTINUOUS
 10
331.1380619755
 20
185.0212885972
 11
330.9763809519
 21
184.5481509358
  0
LINE
  5
458
100
AcDbEntity
  8
KONSTRUKTIONSELEMENTE
100
AcDbLine
 62
7
  6
CONTINUOUS
 10
331.3790513105
 20
184.4105500618
 11
331.540732334
 21
184.8836877232
  0
LINE
  5
459
100
AcDbEntity
  8
KONSTRUKTIONSELEMENTE
100
AcDbLine
 62
7
  6
CONTINUOUS
 10
332.414604745
 20
188.5075148545
 11
332.6013459657
 21
188.9790769527
  0
LINE
  5
45A
100
AcDbEntity
  8
KONSTRUKTIONSELEMENTE
100
AcDbLine
 62
7
  6
CONTINUOUS
 10
332.2682904778
 20
189.0495296134
 11
332.0987953942
 21
188.6594964194
  0
LINE
  5
45B
100
AcDbEntity
  8
KONSTRUKTIONSELEMENTE
100
AcDbLine
 62
7
  6
CONTINUOUS
 10
330.1463697018
 20
182.4395994451
 11
329.9737632199
 21
182.0603660327
  0
LINE
  5
45C
100
AcDbEntity
  8
KONSTRUKTIONSELEMENTE
100
AcDbLine
 62
7
  6
CONTINUOUS
 10
326.2171140167
 20
182.4885043688
 11
325.9811695118
 21
182.0476753876
  0
LINE
  5
45D
100
AcDbEntity
  8
KONSTRUKTIONSELEMENTE
100
AcDbLine
 62
7
  6
CONTINUOUS
 10
329.339978491
 20
186.0760539917
 11
329.1247102957
 21
185.7092929285
  0
LINE
  5
45E
100
AcDbEntity
  8
KONSTRUKTIONSELEMENTE
100
AcDbLine
 62
7
  6
CONTINUOUS
 10
332.2796021986
 20
188.280540388
 11
332.414604745
 21
188.5075148545
  0
LINE
  5
45F
100
AcDbEntity
  8
KONSTRUKTIONSELEMENTE
100
AcDbLine
 62
7
  6
CONTINUOUS
 10
322.9708891732
 20
175.5046387342
 11
323.1342306803
 21
175.7785924509
  0
LINE
  5
460
100
AcDbEntity
  8
KONSTRUKTIONSELEMENTE
100
AcDbLine
 62
7
  6
CONTINUOUS
 10
329.5273805978
 20
185.5716920738
 11
329.7157020586
 21
185.8595971609
  0
LINE
  5
461
100
AcDbEntity
  8
KONSTRUKTIONSELEMENTE
100
AcDbLine
 62
7
  6
CONTINUOUS
 10
322.940464736
 20
176.0397761196
 11
322.6929187117
 21
175.6734420888
  0
LINE
  5
462
100
AcDbEntity
  8
KONSTRUKTIONSELEMENTE
100
AcDbLine
 62
7
  6
CONTINUOUS
 10
332.0987953942
 20
188.6594964194
 11
331.8805289904
 21
188.450135115
  0
LINE
  5
463
100
AcDbEntity
  8
KONSTRUKTIONSELEMENTE
100
AcDbLine
 62
7
  6
CONTINUOUS
 10
332.0613357803
 20
188.0711790867
 11
332.2796021986
 21
188.280540388
  0
LINE
  5
464
100
AcDbEntity
  8
KONSTRUKTIONSELEMENTE
100
AcDbLine
 62
7
  6
CONTINUOUS
 10
329.7163149613
 20
186.3877751641
 11
329.339978491
 21
186.0760539917
  0
LINE
  5
465
100
AcDbEntity
  8
KONSTRUKTIONSELEMENTE
100
AcDbLine
 62
7
  6
CONTINUOUS
 10
329.7157020586
 20
185.8595971609
 11
329.9576106913
 21
186.0411256497
  0
LINE
  5
466
100
AcDbEntity
  8
KONSTRUKTIONSELEMENTE
100
AcDbLine
 62
7
  6
CONTINUOUS
 10
330.7880594911
 20
184.2602458488
 11
330.5461509356
 21
184.0787175856
  0
LINE
  5
467
100
AcDbEntity
  8
KONSTRUKTIONSELEMENTE
100
AcDbLine
 62
7
  6
CONTINUOUS
 10
323.6714269149
 20
176.557452784
 11
323.4086677083
 21
176.4586863887
  0
LINE
  5
468
100
AcDbEntity
  8
KONSTRUKTIONSELEMENTE
100
AcDbLine
 62
7
  6
CONTINUOUS
 10
330.6187005037
 20
181.2174717922
 11
330.791307035
 21
181.5967053131
  0
LINE
  5
469
100
AcDbEntity
  8
KONSTRUKTIONSELEMENTE
100
AcDbLine
 62
7
  6
CONTINUOUS
 10
329.5078013608
 20
180.1601193483
 11
329.7437458657
 21
180.6009483295
  0
LINE
  5
46A
100
AcDbEntity
  8
KONSTRUKTIONSELEMENTE
100
AcDbLine
 62
7
  6
CONTINUOUS
 10
331.1637831081
 20
184.0437890011
 11
331.3790513105
 21
184.4105500618
  0
LINE
  5
46B
100
AcDbEntity
  8
KONSTRUKTIONSELEMENTE
100
AcDbLine
 62
7
  6
CONTINUOUS
 10
330.9763809519
 20
184.5481509358
 11
330.7880594911
 21
184.2602458488
  0
LINE
  5
46C
100
AcDbEntity
  8
KONSTRUKTIONSELEMENTE
100
AcDbLine
 62
7
  6
CONTINUOUS
 10
323.1088766615
 20
176.2245399196
 11
322.940464736
 21
176.0397761196
  0
LINE
  5
46D
100
AcDbEntity
  8
KONSTRUKTIONSELEMENTE
100
AcDbLine
 62
7
  6
CONTINUOUS
 10
323.1342306803
 20
175.7785924509
 11
323.3026416421
 21
175.9633551936
  0
LINE
  5
46E
100
AcDbEntity
  8
KONSTRUKTIONSELEMENTE
100
AcDbLine
 62
7
  6
CONTINUOUS
 10
322.785729008
 20
174.8277373084
 11
322.996243192
 21
175.0586912655
  0
LINE
  5
46F
100
AcDbEntity
  8
KONSTRUKTIONSELEMENTE
100
AcDbLine
 62
7
  6
CONTINUOUS
 10
325.7217133126
 20
175.1114571395
 11
324.5428317619
 21
173.8181126538
  0
LINE
  5
470
100
AcDbEntity
  8
KONSTRUKTIONSELEMENTE
100
AcDbLine
 62
7
  6
CONTINUOUS
 10
324.4418771107
 20
173.2335925693
 11
325.9575815485
 21
174.8964635977
  0
LINE
  5
471
100
AcDbEntity
  8
KONSTRUKTIONSELEMENTE
100
AcDbLine
 62
7
  6
CONTINUOUS
 10
321.4046840984
 20
174.4822907332
 11
321.1242468736
 21
174.2333329798
  0
LINE
  5
472
100
AcDbEntity
  8
KONSTRUKTIONSELEMENTE
100
AcDbLine
 62
7
  6
CONTINUOUS
 10
323.0162260826
 20
173.6084027743
 11
322.5488303513
 21
173.1934728688
  0
LINE
  5
473
100
AcDbEntity
  8
KONSTRUKTIONSELEMENTE
100
AcDbLine
 62
7
  6
CONTINUOUS
 10
322.2683931265
 20
172.9445151155
 11
321.4738208113
 21
172.2391346561
  0
LINE
  5
474
100
AcDbEntity
  8
KONSTRUKTIONSELEMENTE
100
AcDbLine
 62
7
  6
CONTINUOUS
 10
321.4008989831
 20
171.6622800952
 11
322.5226478824
 21
172.6581111085
  0
LINE
  5
475
100
AcDbEntity
  8
KONSTRUKTIONSELEMENTE
100
AcDbLine
 62
7
  6
CONTINUOUS
 10
322.8030851072
 20
172.9070688618
 11
323.2704808385
 21
173.3219987673
  0
LINE
  5
476
100
AcDbEntity
  8
KONSTRUKTIONSELEMENTE
100
AcDbLine
 62
7
  6
CONTINUOUS
 10
323.1159089002
 20
171.9898351813
 11
323.396346125
 21
172.2387929347
  0
LINE
  5
477
100
AcDbEntity
  8
KONSTRUKTIONSELEMENTE
100
AcDbLine
 62
7
  6
CONTINUOUS
 10
330.7874466937
 20
183.7320680615
 11
331.1637831081
 21
184.0437890011
  0
LINE
  5
478
100
AcDbEntity
  8
KONSTRUKTIONSELEMENTE
100
AcDbLine
 62
7
  6
CONTINUOUS
 10
323.4086677083
 20
176.4586863887
 11
323.1088766615
 21
176.2245399196
  0
LINE
  5
479
100
AcDbEntity
  8
KONSTRUKTIONSELEMENTE
100
AcDbLine
 62
7
  6
CONTINUOUS
 10
321.2274902362
 20
170.8235796677
 11
320.9798437146
 21
170.6329828359
  0
LINE
  5
47A
100
AcDbEntity
  8
KONSTRUKTIONSELEMENTE
100
AcDbLine
 62
7
  6
CONTINUOUS
 10
321.1744960992
 20
170.3800668482
 11
321.4221426208
 21
170.57066368
  0
LINE
  5
47B
100
AcDbEntity
  8
KONSTRUKTIONSELEMENTE
100
AcDbLine
 62
7
  6
CONTINUOUS
 10
323.3026416421
 20
175.9633551936
 11
323.5603304303
 21
176.1513115056
  0
LINE
  5
47C
100
AcDbEntity
  8
KONSTRUKTIONSELEMENTE
100
AcDbLine
 62
7
  6
CONTINUOUS
 10
318.9599919914
 20
172.4351554162
 11
318.6475345988
 21
172.2278021481
  0
LINE
  5
47D
100
AcDbEntity
  8
KONSTRUKTIONSELEMENTE
100
AcDbLine
 62
7
  6
CONTINUOUS
 10
317.1894002982
 20
171.2601536959
 11
316.8769429055
 21
171.0528004279
  0
LINE
  5
47E
100
AcDbEntity
  8
KONSTRUKTIONSELEMENTE
100
AcDbLine
 62
7
  6
CONTINUOUS
 10
315.5547663494
 20
170.3406453373
 11
315.110265954
 21
170.1116927672
  0
LINE
  5
47F
100
AcDbEntity
  8
KONSTRUKTIONSELEMENTE
100
AcDbLine
 62
7
  6
CONTINUOUS
 10
316.738647223
 20
168.7246537177
 11
315.738521095
 21
168.2095103123
  0
LINE
  5
480
100
AcDbEntity
  8
KONSTRUKTIONSELEMENTE
100
AcDbLine
 62
7
  6
CONTINUOUS
 10
315.7998703909
 20
167.9539122273
 11
316.9111215383
 21
168.5262937342
  0
LINE
  5
481
100
AcDbEntity
  8
KONSTRUKTIONSELEMENTE
100
AcDbLine
 62
7
  6
CONTINUOUS
 10
313.7672027054
 20
169.4369235744
 11
313.2400107912
 21
169.2407732861
  0
LINE
  5
482
100
AcDbEntity
  8
KONSTRUKTIONSELEMENTE
100
AcDbLine
 62
7
  6
CONTINUOUS
 10
311.4827044105
 20
168.5869389917
 11
310.9555124963
 21
168.3907887034
  0
LINE
  5
483
100
AcDbEntity
  8
KONSTRUKTIONSELEMENTE
100
AcDbLine
 62
7
  6
CONTINUOUS
 10
318.5357690497
 20
168.5531412864
 11
318.8482264424
 21
168.7604945544
  0
LINE
  5
484
100
AcDbEntity
  8
KONSTRUKTIONSELEMENTE
100
AcDbLine
 62
7
  6
CONTINUOUS
 10
320.3063607429
 20
169.7281430067
 11
320.6188181356
 21
169.9354962747
  0
LINE
  5
485
100
AcDbEntity
  8
KONSTRUKTIONSELEMENTE
100
AcDbLine
 62
7
  6
CONTINUOUS
 10
315.594980593
 20
166.9867844554
 11
315.928355969
 21
167.1584989239
  0
LINE
  5
486
100
AcDbEntity
  8
KONSTRUKTIONSELEMENTE
100
AcDbLine
 62
7
  6
CONTINUOUS
 10
317.4841078296
 20
167.9598331646
 11
317.8174832056
 21
168.131547633
  0
LINE
  5
487
100
AcDbEntity
  8
KONSTRUKTIONSELEMENTE
100
AcDbLine
 62
7
  6
CONTINUOUS
 10
312.0016473673
 20
165.5790984943
 11
312.3531086434
 21
165.7098653532
  0
LINE
  5
488
100
AcDbEntity
  8
KONSTRUKTIONSELEMENTE
100
AcDbLine
 62
7
  6
CONTINUOUS
 10
313.1731849265
 20
166.0149880135
 11
313.6417999334
 21
166.189343815
  0
LINE
  5
489
100
AcDbEntity
  8
KONSTRUKTIONSELEMENTE
100
AcDbLine
 62
7
  6
CONTINUOUS
 10
314.4618763002
 20
166.4944665064
 11
314.8133375764
 21
166.6252333653
  0
LINE
  5
48A
100
AcDbEntity
  8
0
100
AcDbLine
 62
7
  6
CONTINUOUS
 10
279.3427794472
 20
270.455886335
 11
265.212914321
 21
270.455886335
  0
LWPOLYLINE
  5
48B
100
AcDbEntity
  8
0
100
AcDbPolyline
 62
7
  6
CONTINUOUS
 90
17
 70
0
 10
114.7227122987
 20
35.4648285576
 10
114.8242418943
 20
35.4777747956
 10
115.0392675075
 20
35.520536911
 10
115.2493136477
 20
35.5834617193
 10
115.4524744494
 20
35.6659871582
 10
115.6469098137
 20
35.7673692337
 10
115.8308719637
 20
35.8866970767
 10
116.0027022592
 20
36.0228932252
 10
116.1608612322
 20
36.1747344604
 10
116.3039295145
 20
36.3408550248
 10
116.4306245866
 20
36.5197621284
 10
116.5398102946
 20
36.7098471244
 10
116.6305094963
 20
36.909404307
 10
116.7019098254
 20
37.1166419566
 10
116.7533723768
 20
37.329701952
 10
116.7844361413
 20
37.5466748123
 10
116.7948218214
 20
37.7656109618
  0
LINE
  5
48C
100
AcDbEntity
  8
0
100
AcDbLine
 62
7
  6
CONTINUOUS
 10
114.7227165654
 20
35.4648289712
 11
111.0188218214
 21
35.0755339466
  0
LINE
  5
48D
100
AcDbEntity
  8
0
100
AcDbLine
 62
7
  6
CONTINUOUS
 10
111.0188218214
 20
35.0755339466
 11
107.3149270774
 21
35.4648289712
  0
LINE
  5
48E
100
AcDbEntity
  8
0
100
AcDbLine
 62
7
  6
CONTINUOUS
 10
76.0188218214
 20
106.8941460294
 11
76.0188218214
 21
111.1248428002
  0
LINE
  5
48F
100
AcDbEntity
  8
RUNDUNGEN
100
AcDbLine
 62
7
  6
CONTINUOUS
 10
76.0188218214
 20
106.8941460178
 11
76.0188218214
 21
111.1248428002
  0
LWPOLYLINE
  5
490
100
AcDbEntity
  8
RUNDUNGEN
100
AcDbPolyline
 62
7
  6
CONTINUOUS
 90
16
 70
0
 10
76.0188218216
 20
106.8941463788
 10
76.0283147854
 20
106.6818907218
 10
76.0617034119
 20
106.4446181695
 10
76.1188042875
 20
106.2119131585
 10
76.1990366422
 20
105.9861419054
 10
76.3015849497
 20
105.7695973325
 10
76.4254061254
 20
105.5644798813
 10
76.5692420097
 20
105.372871707
 10
76.7316308898
 20
105.1967184134
 10
76.9109228675
 20
105.0378084024
 10
77.1052962207
 20
104.8977551367
 10
77.3127767025
 20
104.777980181
 10
77.5312567789
 20
104.6796994574
 10
77.7585177931
 20
104.6039105125
 10
77.9922521795
 20
104.5513827233
 10
78.230085301
 20
104.5226496927
  0
LINE
  5
491
100
AcDbEntity
  8
0
100
AcDbLine
 62
7
  6
CONTINUOUS
 10
116.6110467087
 20
56.4148977399
 11
111.0188218214
 21
55.5492443033
  0
LINE
  5
492
100
AcDbEntity
  8
0
100
AcDbLine
 62
7
  6
CONTINUOUS
 10
111.0188218214
 20
55.1245032712
 11
117.2434011666
 21
55.5879174774
  0
LINE
  5
493
100
AcDbEntity
  8
KONSTRUKTIONSELEMENTE
100
AcDbLine
 62
7
  6
CONTINUOUS
 10
102.0188218214
 20
58.1375590513
 11
101.0188218214
 21
58.1375590513
  0
LINE
  5
494
100
AcDbEntity
  8
0
100
AcDbLine
 62
7
  6
CONTINUOUS
 10
111.0188218214
 20
55.1245032712
 11
104.7942424762
 21
55.5879174774
  0
LINE
  5
495
100
AcDbEntity
  8
0
100
AcDbLine
 62
7
  6
CONTINUOUS
 10
105.4265969341
 20
56.4148977399
 11
111.0188218214
 21
55.5492443033
  0
LINE
  5
496
100
AcDbEntity
  8
RUNDUNGEN
100
AcDbLine
 62
7
  6
CONTINUOUS
 10
102.9421236277
 20
50.9886139156
 11
104.7342827094
 21
47.5644879107
  0
LWPOLYLINE
  5
497
100
AcDbEntity
  8
RUNDUNGEN
100
AcDbPolyline
 62
7
  6
CONTINUOUS
 90
7
 70
0
 10
104.7341140944
 20
47.5647643605
 10
104.9408994035
 20
47.1393776586
 10
105.1445850106
 20
46.6393130796
 10
105.3077104456
 20
46.1343352434
 10
105.4288157156
 20
45.6262929371
 10
105.5065168609
 20
45.1169700168
 10
105.5371655338
 20
44.6920904717
  0
LWPOLYLINE
  5
498
100
AcDbEntity
  8
KONSTRUKTIONSELEMENTE
100
AcDbPolyline
 62
7
  6
CONTINUOUS
 90
4
 70
0
 10
100.0763069283
 20
99.1471498747
 10
100.0670891081
 20
99.1215587831
 10
100.0309464618
 20
98.9498322903
 10
100.0188218214
 20
98.7747650715
  0
LINE
  5
499
100
AcDbEntity
  8
0
100
AcDbLine
 62
7
  6
CONTINUOUS
 10
118.5612811765
 20
62.4395886198
 11
117.6765914211
 21
62.4395886198
  0
LINE
  5
49A
100
AcDbEntity
  8
KONSTRUKTIONSELEMENTE
100
AcDbLine
 62
7
  6
CONTINUOUS
 10
104.3610522217
 20
62.4395886198
 11
103.4763624663
 21
62.4395886198
  0
LINE
  5
49B
100
AcDbEntity
  8
KONSTRUKTIONSELEMENTE
100
AcDbLine
 62
7
  6
CONTINUOUS
 10
101.7354932867
 20
63.4176428002
 11
101.0188218214
 21
63.4176428002
  0
LWPOLYLINE
  5
49C
100
AcDbEntity
  8
KONSTRUKTIONSELEMENTE
100
AcDbPolyline
 62
7
  6
CONTINUOUS
 90
14
 70
0
 10
102.0620539229
 20
62.5787198819
 10
102.1194230028
 20
62.4600792761
 10
102.1996391442
 20
62.3464319665
 10
102.2972547816
 20
62.2486732898
 10
102.408822107
 20
62.1697333963
 10
102.5308783054
 20
62.1115640135
 10
102.6598802303
 20
62.0753423709
 10
102.7918491538
 20
62.0614944377
 10
102.9237790534
 20
62.0701054467
 10
103.0528202008
 20
62.1011950376
 10
103.175100382
 20
62.1538623055
 10
103.2872668751
 20
62.2269008407
 10
103.3857981717
 20
62.3184664503
 10
103.4646073672
 20
62.4210182345
  0
LINE
  5
49D
100
AcDbEntity
  8
KONSTRUKTIONSELEMENTE
100
AcDbLine
 62
7
  6
CONTINUOUS
 10
100.3790875145
 20
66.902605605
 11
102.0619611059
 21
62.5789553793
  0
LINE
  5
49E
100
AcDbEntity
  8
KONSTRUKTIONSELEMENTE
100
AcDbLine
 62
7
  6
CONTINUOUS
 10
100.3729856568
 20
66.9187894939
 11
100.3791558965
 21
66.9024257766
  0
LWPOLYLINE
  5
49F
100
AcDbEntity
  8
KONSTRUKTIONSELEMENTE
100
AcDbPolyline
 62
7
  6
CONTINUOUS
 90
7
 70
0
 10
100.0188227298
 20
69.387514843
 10
100.0231136063
 20
69.1208282827
 10
100.0441598647
 20
68.7338171314
 10
100.0830178406
 20
68.3387461374
 10
100.1399119099
 20
67.9361939333
 10
100.2150206634
 20
67.5267300723
 10
100.2833343021
 20
67.215621056
  0
LWPOLYLINE
  5
4A0
100
AcDbEntity
  8
KONSTRUKTIONSELEMENTE
100
AcDbPolyline
 62
7
  6
CONTINUOUS
 90
13
 70
0
 10
107.496382424
 20
66.0201333904
 10
107.3905667853
 20
65.9985950362
 10
107.1745243727
 20
65.9416835097
 10
106.9611998366
 20
65.8676350023
 10
106.7525284509
 20
65.7766894209
 10
106.5504157242
 20
65.6691939095
 10
106.3566500713
 20
65.5456381401
 10
106.1730787787
 20
65.4066722671
 10
106.0012829511
 20
65.2529530461
 10
105.8429035392
 20
65.0852938331
 10
105.6994288465
 20
64.9044771133
 10
105.572398506
 20
64.7115005211
 10
105.5126950302
 20
64.6054961559
  0
LINE
  5
4A1
100
AcDbEntity
  8
KONSTRUKTIONSELEMENTE
100
AcDbLine
 62
7
  6
CONTINUOUS
 10
108.242623485
 20
66.1568427763
 11
107.4963827011
 21
66.0201348537
  0
LINE
  5
4A2
100
AcDbEntity
  8
KONSTRUKTIONSELEMENTE
100
AcDbLine
 62
7
  6
CONTINUOUS
 10
108.2871446364
 20
66.3540555923
 11
108.0188218214
 21
66.3206159492
  0
LINE
  5
4A3
100
AcDbEntity
  8
KONSTRUKTIONSELEMENTE
100
AcDbLine
 62
7
  6
CONTINUOUS
 10
109.0188218214
 20
67.5282083469
 11
113.0188218214
 21
67.5282083469
  0
LINE
  5
4A4
100
AcDbEntity
  8
0
100
AcDbLine
 62
7
  6
CONTINUOUS
 10
114.0188218214
 20
66.3206159492
 11
113.7504990064
 21
66.3540555923
  0
LWPOLYLINE
  5
4A5
100
AcDbEntity
  8
0
100
AcDbPolyline
 62
7
  6
CONTINUOUS
 90
7
 70
0
 10
113.7504991599
 20
66.3540555524
 10
113.6429092312
 20
66.3702153421
 10
113.5352940796
 20
66.3920978544
 10
113.4338790995
 20
66.4183991248
 10
113.3403503691
 20
66.4481580241
 10
113.2563267136
 20
66.4801571387
 10
113.2376371041
 20
66.4885416572
  0
LINE
  5
4A6
100
AcDbEntity
  8
0
100
AcDbLine
 62
7
  6
CONTINUOUS
 10
114.5412609417
 20
66.0201348537
 11
113.7950201578
 21
66.1568427763
  0
LWPOLYLINE
  5
4A7
100
AcDbEntity
  8
0
100
AcDbPolyline
 62
7
  6
CONTINUOUS
 90
15
 70
0
 10
113.7950092736
 20
66.1568452048
 10
113.7856654772
 20
66.1586052956
 10
113.6930368119
 20
66.1822598869
 10
113.6004788165
 20
66.2172874851
 10
113.50904718
 20
66.2636311645
 10
113.4203304879
 20
66.3208130454
 10
113.3357666112
 20
66.3883206324
 10
113.2566042869
 20
66.4657604765
 10
113.1859468643
 20
66.5506259799
 10
113.1259588066
 20
66.6403340543
 10
113.0788858606
 20
66.7307696984
 10
113.045702464
 20
66.8178608324
 10
113.0263767886
 20
66.8967537853
 10
113.0191315778
 20
66.963344853
 10
113.0188346688
 20
66.9795527941
  0
LWPOLYLINE
  5
4A8
100
AcDbEntity
  8
KONSTRUKTIONSELEMENTE
100
AcDbPolyline
 62
7
  6
CONTINUOUS
 90
4
 70
0
 10
100.2833231178
 20
67.2156404685
 10
100.3073709651
 20
67.1215254974
 10
100.3383274822
 20
67.0183328959
 10
100.3729856568
 20
66.9187894939
  0
LINE
  5
4A9
100
AcDbEntity
  8
BEZUGSACHSEN
100
AcDbLine
 62
7
  6
CONTINUOUS
 10
101.7212996636
 20
71.9908812914
 11
101.7253719399
 21
71.9404543579
  0
LWPOLYLINE
  5
4AA
100
AcDbEntity
  8
RUNDUNGEN
100
AcDbPolyline
 62
7
  6
CONTINUOUS
 90
17
 70
0
 10
105.2428218214
 20
37.7656109619
 10
105.2531503503
 20
37.5472766862
 10
105.2840436909
 20
37.3308894887
 10
105.3352256129
 20
37.1183829947
 10
105.4062401616
 20
36.9116512187
 10
105.4964554117
 20
36.7125375174
 10
105.6050677801
 20
36.5228198341
 10
105.7311105953
 20
36.3441912428
 10
105.8734597919
 20
36.1782490291
 10
106.0308463283
 20
36.0264761756
 10
106.2018655697
 20
35.8902302996
 10
106.3849937616
 20
35.7707283372
 10
106.5785889259
 20
35.6690433773
 10
106.7809203897
 20
35.5860840389
 10
106.9901658826
 20
35.5225941227
 10
107.2044374963
 20
35.479137812
 10
107.3149313139
 20
35.4648285608
  0
LINE
  5
4AB
100
AcDbEntity
  8
BEZUGSACHSEN
100
AcDbLine
 62
7
  6
CONTINUOUS
 10
101.7212996636
 20
74.7442995942
 11
101.7227338235
 21
74.7109379753
  0
LINE
  5
4AC
100
AcDbEntity
  8
BEZUGSACHSEN
100
AcDbLine
 62
7
  6
CONTINUOUS
 10
101.7184771116
 20
68.6392435343
 11
101.7198860575
 21
68.605838621
  0
LWPOLYLINE
  5
4AD
100
AcDbEntity
  8
RUNDUNGEN
100
AcDbPolyline
 62
7
  6
CONTINUOUS
 90
9
 70
0
 10
102.0188218398
 20
54.5988752999
 10
102.02864161
 20
54.2241272696
 10
102.0693497451
 20
53.748349699
 10
102.1421087614
 20
53.2698710524
 10
102.2472430559
 20
52.790341356
 10
102.3849323095
 20
52.3113302226
 10
102.5552358853
 20
51.8343370725
 10
102.7580727649
 20
51.3608837136
 10
102.942314301
 20
50.9881876602
  0
LINE
  5
4AE
100
AcDbEntity
  8
RUNDUNGEN
100
AcDbLine
 62
7
  6
CONTINUOUS
 10
103.8408707287
 20
53.1808673284
 11
103.8383010897
 21
53.4004849693
  0
LINE
  5
4AF
100
AcDbEntity
  8
BEZUGSACHSEN
100
AcDbLine
 62
7
  6
CONTINUOUS
 10
101.7184771116
 20
76.8994984426
 11
101.7185213684
 21
76.8905205733
  0
LINE
  5
4B0
100
AcDbEntity
  8
RUNDUNGEN
100
AcDbLine
 62
7
  6
CONTINUOUS
 10
102.0187863708
 20
54.8158863597
 11
102.018814465
 21
54.5982865349
  0
LINE
  5
4B1
100
AcDbEntity
  8
KONSTRUKTIONSELEMENTE
100
AcDbLine
 62
7
  6
CONTINUOUS
 10
100.0188218214
 20
69.3875165955
 11
100.0188218214
 21
98.7747637701
  0
LINE
  5
4B2
100
AcDbEntity
  8
KONSTRUKTIONSELEMENTE
100
AcDbLine
 62
7
  6
CONTINUOUS
 10
101.0188218214
 20
58.1375590513
 11
101.0188218214
 21
63.4176428002
  0
LINE
  5
4B3
100
AcDbEntity
  8
KONSTRUKTIONSELEMENTE
100
AcDbLine
 62
7
  6
CONTINUOUS
 10
102.0188218214
 20
54.815831849
 11
102.0188218214
 21
59.7327997052
  0
LINE
  5
4B4
100
AcDbEntity
  8
KONSTRUKTIONSELEMENTE
100
AcDbLine
 62
7
  6
CONTINUOUS
 10
102.0188218214
 20
61.2455748733
 11
102.0188218214
 21
61.6003939677
  0
LWPOLYLINE
  5
4B5
100
AcDbEntity
  8
0
100
AcDbPolyline
 62
7
  6
CONTINUOUS
 90
6
 70
0
 10
118.4258948938
 20
61.1599674652
 10
118.4248506146
 20
61.1607877997
 10
118.4127970482
 20
61.1710141375
 10
118.3903400122
 20
61.1929391227
 10
118.3592327032
 20
61.2274799262
 10
118.3206018944
 20
61.2757818234
  0
LINE
  5
4B6
100
AcDbEntity
  8
BEZUGSACHSEN
100
AcDbLine
 62
7
  6
CONTINUOUS
 10
104.2279915996
 20
75.6002892551
 11
104.2313247303
 21
75.5483461301
  0
LINE
  5
4B7
100
AcDbEntity
  8
RUNDUNGEN
100
AcDbLine
 62
7
  6
CONTINUOUS
 10
105.5371652096
 20
44.6921027476
 11
105.5371519283
 21
44.692483103
  0
LINE
  5
4B8
100
AcDbEntity
  8
BEZUGSACHSEN
100
AcDbLine
 62
7
  6
CONTINUOUS
 10
104.2188323773
 20
73.1491121973
 11
104.2188343999
 21
73.1464254547
  0
LINE
  5
4B9
100
AcDbEntity
  8
RUNDUNGEN
100
AcDbLine
 62
7
  6
CONTINUOUS
 10
105.2428218214
 20
37.7656112164
 11
105.2428218214
 21
42.7351851904
  0
LINE
  5
4BA
100
AcDbEntity
  8
KONSTRUKTIONSELEMENTE
100
AcDbLine
 62
7
  6
CONTINUOUS
 10
105.2428218214
 20
39.7292356839
 11
105.2428218214
 21
46.3352071493
  0
LINE
  5
4BB
100
AcDbEntity
  8
KONSTRUKTIONSELEMENTE
100
AcDbLine
 62
7
  6
CONTINUOUS
 10
105.8188218214
 20
79.7289972916
 11
105.8188218214
 21
76.6128918033
  0
LINE
  5
4BC
100
AcDbEntity
  8
KONSTRUKTIONSELEMENTE
100
AcDbLine
 62
7
  6
CONTINUOUS
 10
106.3188218214
 20
76.6128918033
 11
106.3188218214
 21
77.8431425518
  0
LINE
  5
4BD
100
AcDbEntity
  8
KONSTRUKTIONSELEMENTE
100
AcDbLine
 62
7
  6
CONTINUOUS
 10
106.3188218214
 20
78.1946427187
 11
106.3188218214
 21
79.0733933003
  0
LINE
  5
4BE
100
AcDbEntity
  8
KONSTRUKTIONSELEMENTE
100
AcDbLine
 62
7
  6
CONTINUOUS
 10
105.2431917307
 20
42.781575219
 11
105.2428219681
 21
42.7351728339
  0
LWPOLYLINE
  5
4BF
100
AcDbEntity
  8
KONSTRUKTIONSELEMENTE
100
AcDbPolyline
 62
7
  6
CONTINUOUS
 90
7
 70
0
 10
105.3673235291
 20
45.884255553
 10
105.3656313729
 20
45.6981618365
 10
105.3598894065
 20
45.3248154531
 10
105.3519142964
 20
44.9597613471
 10
105.3417527641
 20
44.6057342446
 10
105.3295154252
 20
44.2654422814
 10
105.3203767945
 20
44.0505068615
  0
LWPOLYLINE
  5
4C0
100
AcDbEntity
  8
KONSTRUKTIONSELEMENTE
100
AcDbPolyline
 62
7
  6
CONTINUOUS
 90
9
 70
0
 10
105.6513928857
 20
81.8389686558
 10
105.659113421
 20
82.3033196128
 10
105.6712052006
 20
82.8021970179
 10
105.6866090422
 20
83.2652992273
 10
105.7051155323
 20
83.691319786
 10
105.726491879
 20
84.0798612252
 10
105.7504586137
 20
84.4306519652
 10
105.7767024146
 20
84.7438972974
 10
105.794853121
 20
84.9218808401
  0
LINE
  5
4C1
100
AcDbEntity
  8
BEZUGSACHSEN
100
AcDbLine
 62
7
  6
CONTINUOUS
 10
104.2299525017
 20
70.1634219
 11
104.2279915996
 21
70.0934526495
  0
LINE
  5
4C2
100
AcDbEntity
  8
KONSTRUKTIONSELEMENTE
100
AcDbLine
 62
7
  6
CONTINUOUS
 10
105.2457365722
 20
42.8663082716
 11
105.2431917307
 21
42.781575219
  0
LINE
  5
4C3
100
AcDbEntity
  8
KONSTRUKTIONSELEMENTE
100
AcDbLine
 62
7
  6
CONTINUOUS
 10
105.3203741495
 20
44.0504497181
 11
105.3145382732
 21
43.9260299765
  0
LWPOLYLINE
  5
4C4
100
AcDbEntity
  8
KONSTRUKTIONSELEMENTE
100
AcDbPolyline
 62
7
  6
CONTINUOUS
 90
6
 70
0
 10
105.3145382732
 20
43.9260299765
 10
105.302504769
 20
43.6945153603
 10
105.2896580022
 20
43.4777450846
 10
105.276135409
 20
43.2764837126
 10
105.2620852272
 20
43.0914455522
 10
105.2545279043
 20
43.0008245666
  0
LWPOLYLINE
  5
4C5
100
AcDbEntity
  8
KONSTRUKTIONSELEMENTE
100
AcDbPolyline
 62
7
  6
CONTINUOUS
 90
3
 70
0
 10
102.0821148627
 20
62.3764462122
 10
102.0296038074
 20
61.921264151
 10
102.0188245794
 20
61.6013005132
  0
LINE
  5
4C6
100
AcDbEntity
  8
0
100
AcDbLine
 62
7
  6
CONTINUOUS
 10
120.4456817504
 20
97.8837174797
 11
124.7884617649
 21
101.5038085192
  0
LINE
  5
4C7
100
AcDbEntity
  8
KONSTRUKTIONSELEMENTE
100
AcDbLine
 62
7
  6
CONTINUOUS
 10
115.6521548368
 20
77.0229753724
 11
115.3188218214
 21
76.9643920113
  0
LINE
  5
4C8
100
AcDbEntity
  8
KONSTRUKTIONSELEMENTE
100
AcDbLine
 62
7
  6
CONTINUOUS
 10
115.6521548368
 20
77.385662558
 11
115.3188218214
 21
77.3270791968
  0
LINE
  5
4C9
100
AcDbEntity
  8
KONSTRUKTIONSELEMENTE
100
AcDbLine
 62
7
  6
CONTINUOUS
 10
111.6521553137
 20
77.0229753724
 11
111.3188218214
 21
76.9643920113
  0
LINE
  5
4CA
100
AcDbEntity
  8
KONSTRUKTIONSELEMENTE
100
AcDbLine
 62
7
  6
CONTINUOUS
 10
111.6521553137
 20
77.385662558
 11
111.3188218214
 21
77.3270791968
  0
LINE
  5
4CB
100
AcDbEntity
  8
KONSTRUKTIONSELEMENTE
100
AcDbLine
 62
7
  6
CONTINUOUS
 10
115.3188218214
 20
76.6128918033
 11
115.735488806
 21
76.6714751696
  0
LINE
  5
4CC
100
AcDbEntity
  8
KONSTRUKTIONSELEMENTE
100
AcDbLine
 62
7
  6
CONTINUOUS
 10
111.3188218214
 20
76.6128918033
 11
111.7354883291
 21
76.6714751696
  0
LINE
  5
4CD
100
AcDbEntity
  8
KONSTRUKTIONSELEMENTE
100
AcDbLine
 62
7
  6
CONTINUOUS
 10
105.8188218214
 20
76.6128918033
 11
106.3188218214
 21
76.6128918033
  0
LINE
  5
4CE
100
AcDbEntity
  8
KONSTRUKTIONSELEMENTE
100
AcDbLine
 62
7
  6
CONTINUOUS
 10
108.4021550753
 20
76.6128918033
 11
108.9854885675
 21
76.6128918033
  0
LINE
  5
4CF
100
AcDbEntity
  8
KONSTRUKTIONSELEMENTE
100
AcDbLine
 62
7
  6
CONTINUOUS
 10
110.9854883291
 20
76.6128918033
 11
111.3188218214
 21
76.6128918033
  0
LINE
  5
4D0
100
AcDbEntity
  8
KONSTRUKTIONSELEMENTE
100
AcDbLine
 62
7
  6
CONTINUOUS
 10
113.3188218214
 20
76.6128918033
 11
115.3188218214
 21
76.6128918033
  0
LINE
  5
4D1
100
AcDbEntity
  8
KONSTRUKTIONSELEMENTE
100
AcDbLine
 62
7
  6
CONTINUOUS
 10
115.3188218214
 20
76.9643920113
 11
113.8188218214
 21
76.9643920113
  0
LINE
  5
4D2
100
AcDbEntity
  8
KONSTRUKTIONSELEMENTE
100
AcDbLine
 62
7
  6
CONTINUOUS
 10
111.3188218214
 20
76.9643920113
 11
110.9854883291
 21
76.9643920113
  0
LINE
  5
4D3
100
AcDbEntity
  8
KONSTRUKTIONSELEMENTE
100
AcDbLine
 62
7
  6
CONTINUOUS
 10
115.3188218214
 20
77.3270791968
 11
113.8188218214
 21
77.3270791968
  0
LINE
  5
4D4
100
AcDbEntity
  8
KONSTRUKTIONSELEMENTE
100
AcDbLine
 62
7
  6
CONTINUOUS
 10
111.3188218214
 20
77.3270791968
 11
110.9854883291
 21
77.3270791968
  0
LINE
  5
4D5
100
AcDbEntity
  8
KONSTRUKTIONSELEMENTE
100
AcDbLine
 62
7
  6
CONTINUOUS
 10
110.5688218214
 20
76.6714751696
 11
110.9854883291
 21
76.6128918033
  0
LINE
  5
4D6
100
AcDbEntity
  8
KONSTRUKTIONSELEMENTE
100
AcDbLine
 62
7
  6
CONTINUOUS
 10
110.9854883291
 20
76.9643920113
 11
110.6521553137
 21
77.0229753724
  0
LINE
  5
4D7
100
AcDbEntity
  8
KONSTRUKTIONSELEMENTE
100
AcDbLine
 62
7
  6
CONTINUOUS
 10
110.9854883291
 20
77.3270791968
 11
110.6521553137
 21
77.385662558
  0
LINE
  5
4D8
100
AcDbEntity
  8
KONSTRUKTIONSELEMENTE
100
AcDbLine
 62
7
  6
CONTINUOUS
 10
110.2354883291
 20
76.7886419073
 11
110.5688218214
 21
76.6714751696
  0
LINE
  5
4D9
100
AcDbEntity
  8
KONSTRUKTIONSELEMENTE
100
AcDbLine
 62
7
  6
CONTINUOUS
 10
110.6521553137
 20
77.0229753724
 11
110.4021553137
 21
77.1401421358
  0
LINE
  5
4DA
100
AcDbEntity
  8
KONSTRUKTIONSELEMENTE
100
AcDbLine
 62
7
  6
CONTINUOUS
 10
110.6521553137
 20
77.385662558
 11
110.4021553137
 21
77.5028293213
  0
LINE
  5
4DB
100
AcDbEntity
  8
KONSTRUKTIONSELEMENTE
100
AcDbLine
 62
7
  6
CONTINUOUS
 10
109.9021553137
 20
77.0229753724
 11
110.2354883291
 21
76.7886419073
  0
LWPOLYLINE
  5
4DC
100
AcDbEntity
  8
0
100
AcDbPolyline
 62
7
  6
CONTINUOUS
 90
14
 70
0
 10
118.5730347419
 20
62.4210206048
 10
118.6515168722
 20
62.3188291075
 10
118.7497893758
 20
62.227359801
 10
118.8616597305
 20
62.1543362037
 10
118.9836389819
 20
62.1015907727
 10
119.1123953295
 20
62.0703301063
 10
119.2440792078
 20
62.0614620928
 10
119.375855776
 20
62.0749802143
 10
119.504747314
 20
62.1108104001
 10
119.6267628785
 20
62.1685306064
 10
119.7383487335
 20
62.2469576877
 10
119.8360799889
 20
62.3441539899
 10
119.9165397088
 20
62.4572231436
 10
119.9755846619
 20
62.578706887
  0
LWPOLYLINE
  5
4DD
100
AcDbEntity
  8
0
100
AcDbPolyline
 62
7
  6
CONTINUOUS
 90
3
 70
0
 10
118.3206018944
 20
61.2757818234
 10
118.2756794093
 20
61.3385636435
 10
118.22516139
 20
61.417090127
  0
LWPOLYLINE
  5
4DE
100
AcDbEntity
  8
0
100
AcDbPolyline
 62
7
  6
CONTINUOUS
 90
3
 70
0
 10
118.22516139
 20
61.417090127
 10
118.1698073642
 20
61.5126177908
 10
118.1504229274
 20
61.5484480612
  0
LINE
  5
4DF
100
AcDbEntity
  8
KONSTRUKTIONSELEMENTE
100
AcDbLine
 62
7
  6
CONTINUOUS
 10
108.9854885675
 20
76.6128918033
 11
108.2354885675
 21
77.9603092741
  0
LINE
  5
4E0
100
AcDbEntity
  8
KONSTRUKTIONSELEMENTE
100
AcDbLine
 62
7
  6
CONTINUOUS
 10
108.9854885675
 20
76.9755789888
 11
108.4043328794
 21
78.0196580921
  0
LINE
  5
4E1
100
AcDbEntity
  8
KONSTRUKTIONSELEMENTE
100
AcDbLine
 62
7
  6
CONTINUOUS
 10
107.7354884483
 20
77.8431425518
 11
108.4021550753
 21
76.6128918033
  0
LINE
  5
4E2
100
AcDbEntity
  8
KONSTRUKTIONSELEMENTE
100
AcDbLine
 62
7
  6
CONTINUOUS
 10
107.8188218214
 20
79.7289972916
 11
107.8188218214
 21
79.3663101061
  0
LINE
  5
4E3
100
AcDbEntity
  8
KONSTRUKTIONSELEMENTE
100
AcDbLine
 62
7
  6
CONTINUOUS
 10
107.9021550753
 20
78.5573299043
 11
107.9021550753
 21
78.1946427187
  0
LINE
  5
4E4
100
AcDbEntity
  8
KONSTRUKTIONSELEMENTE
100
AcDbLine
 62
7
  6
CONTINUOUS
 10
108.0188218214
 20
67.4417946635
 11
108.0188218214
 21
66.115989466
  0
LINE
  5
4E5
100
AcDbEntity
  8
KONSTRUKTIONSELEMENTE
100
AcDbLine
 62
7
  6
CONTINUOUS
 10
108.1521550753
 20
78.6159132654
 11
108.1521550753
 21
78.2532260799
  0
LINE
  5
4E6
100
AcDbEntity
  8
KONSTRUKTIONSELEMENTE
100
AcDbLine
 62
7
  6
CONTINUOUS
 10
108.2354885675
 20
79.6704139304
 11
108.2354885675
 21
79.3077267449
  0
LINE
  5
4E7
100
AcDbEntity
  8
KONSTRUKTIONSELEMENTE
100
AcDbLine
 62
7
  6
CONTINUOUS
 10
108.3188218214
 20
78.7330799877
 11
108.3188218214
 21
78.3703928022
  0
LINE
  5
4E8
100
AcDbEntity
  8
KONSTRUKTIONSELEMENTE
100
AcDbLine
 62
7
  6
CONTINUOUS
 10
108.4021550753
 20
78.7218931333
 11
108.4021550753
 21
78.5461428857
  0
LINE
  5
4E9
100
AcDbEntity
  8
KONSTRUKTIONSELEMENTE
100
AcDbLine
 62
7
  6
CONTINUOUS
 10
108.5688218214
 20
79.4946638469
 11
108.5688218214
 21
79.1319766614
  0
LINE
  5
4EA
100
AcDbEntity
  8
KONSTRUKTIONSELEMENTE
100
AcDbLine
 62
7
  6
CONTINUOUS
 10
108.8188218214
 20
79.2603304023
 11
108.8188218214
 21
78.8976432168
  0
LINE
  5
4EB
100
AcDbEntity
  8
KONSTRUKTIONSELEMENTE
100
AcDbLine
 62
7
  6
CONTINUOUS
 10
108.9021550753
 20
78.4875595245
 11
108.9021550753
 21
79.0845803188
  0
LINE
  5
4EC
100
AcDbEntity
  8
KONSTRUKTIONSELEMENTE
100
AcDbLine
 62
7
  6
CONTINUOUS
 10
108.9854885675
 20
76.9755789888
 11
108.9854885675
 21
76.6128918033
  0
LINE
  5
4ED
100
AcDbEntity
  8
KONSTRUKTIONSELEMENTE
100
AcDbLine
 62
7
  6
CONTINUOUS
 10
109.0188218214
 20
66.4938431624
 11
109.0188218214
 21
67.5282083469
  0
LINE
  5
4EE
100
AcDbEntity
  8
KONSTRUKTIONSELEMENTE
100
AcDbLine
 62
7
  6
CONTINUOUS
 10
109.6521550753
 20
79.7289972916
 11
109.6521550753
 21
77.5502256639
  0
LINE
  5
4EF
100
AcDbEntity
  8
KONSTRUKTIONSELEMENTE
100
AcDbLine
 62
7
  6
CONTINUOUS
 10
110.1521553137
 20
77.5502256639
 11
110.1521553137
 21
79.7289972916
  0
LINE
  5
4F0
100
AcDbEntity
  8
KONSTRUKTIONSELEMENTE
100
AcDbLine
 62
7
  6
CONTINUOUS
 10
110.2354883291
 20
77.6785794048
 11
110.2354883291
 21
77.3158922193
  0
LINE
  5
4F1
100
AcDbEntity
  8
KONSTRUKTIONSELEMENTE
100
AcDbLine
 62
7
  6
CONTINUOUS
 10
110.4021553137
 20
77.5028293213
 11
110.4021553137
 21
77.1401421358
  0
LINE
  5
4F2
100
AcDbEntity
  8
KONSTRUKTIONSELEMENTE
100
AcDbLine
 62
7
  6
CONTINUOUS
 10
110.6521553137
 20
77.385662558
 11
110.6521553137
 21
77.0229753724
  0
LINE
  5
4F3
100
AcDbEntity
  8
KONSTRUKTIONSELEMENTE
100
AcDbLine
 62
7
  6
CONTINUOUS
 10
110.9854883291
 20
77.3270791968
 11
110.9854883291
 21
76.9643920113
  0
LINE
  5
4F4
100
AcDbEntity
  8
BG_STARTBEZUEGE
100
AcDbLine
 62
2
  6
CENTER
 10
111.0188218214
 20
112.859635171
 11
111.0188218214
 21
32.0755339466
  0
LINE
  5
4F5
100
AcDbEntity
  8
0
100
AcDbLine
 62
7
  6
CONTINUOUS
 10
111.0188218214
 20
35.0755339466
 11
111.0188218214
 21
56.1178108268
  0
LINE
  5
4F6
100
AcDbEntity
  8
KONSTRUKTIONSELEMENTE
100
AcDbLine
 62
7
  6
CONTINUOUS
 10
111.3188218214
 20
77.3270791968
 11
111.3188218214
 21
76.9643920113
  0
LWPOLYLINE
  5
4F7
100
AcDbEntity
  8
KONSTRUKTIONSELEMENTE
100
AcDbPolyline
 62
7
  6
CONTINUOUS
 90
15
 70
0
 10
109.0188089687
 20
66.9795610674
 10
109.0185131407
 20
66.9633734006
 10
109.0112665769
 20
66.8967522021
 10
108.9918997038
 20
66.8177277935
 10
108.9586243772
 20
66.7304729992
 10
108.9114307344
 20
66.6399055961
 10
108.8513614306
 20
66.5501779877
 10
108.7808043754
 20
66.4655060899
 10
108.7018880415
 20
66.388330361
 10
108.6176940008
 20
66.3210869054
 10
108.529339774
 20
66.264058255
 10
108.4381108732
 20
66.2177058933
 10
108.3455325646
 20
66.1825533139
 10
108.2525739699
 20
66.1587213878
 10
108.2426352578
 20
66.1568453366
  0
LWPOLYLINE
  5
4F8
100
AcDbEntity
  8
KONSTRUKTIONSELEMENTE
100
AcDbPolyline
 62
7
  6
CONTINUOUS
 90
3
 70
0
 10
105.2545114818
 20
43.0006903562
 10
105.2506148007
 20
42.951080663
 10
105.2457365722
 20
42.8663082716
  0
LINE
  5
4F9
100
AcDbEntity
  8
KONSTRUKTIONSELEMENTE
100
AcDbLine
 62
7
  6
CONTINUOUS
 10
108.3578362818
 20
78.8153616023
 11
108.3188218214
 21
78.7330799877
  0
LINE
  5
4FA
100
AcDbEntity
  8
KONSTRUKTIONSELEMENTE
100
AcDbLine
 62
7
  6
CONTINUOUS
 10
108.4021550753
 20
78.5461428857
 11
108.3188218214
 21
78.3703928022
  0
LINE
  5
4FB
100
AcDbEntity
  8
KONSTRUKTIONSELEMENTE
100
AcDbLine
 62
7
  6
CONTINUOUS
 10
108.8188218214
 20
78.3118094411
 11
108.9021550753
 21
78.4875595245
  0
LINE
  5
4FC
100
AcDbEntity
  8
KONSTRUKTIONSELEMENTE
100
AcDbLine
 62
7
  6
CONTINUOUS
 10
108.5688218214
 20
78.0774759964
 11
108.8188218214
 21
78.3118094411
  0
LINE
  5
4FD
100
AcDbEntity
  8
KONSTRUKTIONSELEMENTE
100
AcDbLine
 62
7
  6
CONTINUOUS
 10
108.3188218214
 20
78.7330799877
 11
108.1521550753
 21
78.6159132654
  0
LINE
  5
4FE
100
AcDbEntity
  8
KONSTRUKTIONSELEMENTE
100
AcDbLine
 62
7
  6
CONTINUOUS
 10
108.1521550753
 20
78.2532260799
 11
107.9021550753
 21
78.1946427187
  0
LINE
  5
4FF
100
AcDbEntity
  8
KONSTRUKTIONSELEMENTE
100
AcDbLine
 62
7
  6
CONTINUOUS
 10
108.1521550753
 20
78.6159132654
 11
107.9021550753
 21
78.5573299043
  0
LINE
  5
500
100
AcDbEntity
  8
KONSTRUKTIONSELEMENTE
100
AcDbLine
 62
7
  6
CONTINUOUS
 10
106.3188218214
 20
77.8431425518
 11
107.7354884483
 21
77.8431425518
  0
LINE
  5
501
100
AcDbEntity
  8
KONSTRUKTIONSELEMENTE
100
AcDbLine
 62
7
  6
CONTINUOUS
 10
107.9021550753
 20
78.1946427187
 11
106.3188218214
 21
78.1946427187
  0
LINE
  5
502
100
AcDbEntity
  8
KONSTRUKTIONSELEMENTE
100
AcDbLine
 62
7
  6
CONTINUOUS
 10
107.9021550753
 20
78.5573299043
 11
106.3188218214
 21
78.5573299043
  0
LINE
  5
503
100
AcDbEntity
  8
KONSTRUKTIONSELEMENTE
100
AcDbLine
 62
7
  6
CONTINUOUS
 10
113.8188218214
 20
79.0148099391
 11
115.3188218214
 21
79.0148099391
  0
LINE
  5
504
100
AcDbEntity
  8
KONSTRUKTIONSELEMENTE
100
AcDbLine
 62
7
  6
CONTINUOUS
 10
106.3188218214
 20
79.0733933003
 11
107.9021550753
 21
79.0733933003
  0
LINE
  5
505
100
AcDbEntity
  8
KONSTRUKTIONSELEMENTE
100
AcDbLine
 62
7
  6
CONTINUOUS
 10
115.3188218214
 20
79.3663101061
 11
113.3188218214
 21
79.3663101061
  0
LINE
  5
506
100
AcDbEntity
  8
KONSTRUKTIONSELEMENTE
100
AcDbLine
 62
7
  6
CONTINUOUS
 10
112.6521553137
 20
79.3663101061
 11
112.1521553137
 21
79.3663101061
  0
LINE
  5
507
100
AcDbEntity
  8
KONSTRUKTIONSELEMENTE
100
AcDbLine
 62
7
  6
CONTINUOUS
 10
110.1521553137
 20
79.3663101061
 11
109.6521550753
 21
79.3663101061
  0
LINE
  5
508
100
AcDbEntity
  8
KONSTRUKTIONSELEMENTE
100
AcDbLine
 62
7
  6
CONTINUOUS
 10
107.8188218214
 20
79.3663101061
 11
105.8188218214
 21
79.3663101061
  0
LINE
  5
509
100
AcDbEntity
  8
KONSTRUKTIONSELEMENTE
100
AcDbLine
 62
7
  6
CONTINUOUS
 10
115.3188218214
 20
79.7289972916
 11
113.3188218214
 21
79.7289972916
  0
LINE
  5
50A
100
AcDbEntity
  8
KONSTRUKTIONSELEMENTE
100
AcDbLine
 62
7
  6
CONTINUOUS
 10
112.6521553137
 20
79.7289972916
 11
112.1521553137
 21
79.7289972916
  0
LINE
  5
50B
100
AcDbEntity
  8
KONSTRUKTIONSELEMENTE
100
AcDbLine
 62
7
  6
CONTINUOUS
 10
110.1521553137
 20
79.7289972916
 11
109.6521550753
 21
79.7289972916
  0
LINE
  5
50C
100
AcDbEntity
  8
KONSTRUKTIONSELEMENTE
100
AcDbLine
 62
7
  6
CONTINUOUS
 10
107.8188218214
 20
79.7289972916
 11
105.8188218214
 21
79.7289972916
  0
LINE
  5
50D
100
AcDbEntity
  8
KONSTRUKTIONSELEMENTE
100
AcDbLine
 62
7
  6
CONTINUOUS
 10
108.2354885675
 20
79.3077267449
 11
107.8188218214
 21
79.3663101061
  0
LINE
  5
50E
100
AcDbEntity
  8
KONSTRUKTIONSELEMENTE
100
AcDbLine
 62
7
  6
CONTINUOUS
 10
108.2354885675
 20
79.6704139304
 11
107.8188218214
 21
79.7289972916
  0
LINE
  5
50F
100
AcDbEntity
  8
KONSTRUKTIONSELEMENTE
100
AcDbLine
 62
7
  6
CONTINUOUS
 10
115.735488806
 20
79.3077267449
 11
115.3188218214
 21
79.3663101061
  0
LINE
  5
510
100
AcDbEntity
  8
KONSTRUKTIONSELEMENTE
100
AcDbLine
 62
7
  6
CONTINUOUS
 10
115.735488806
 20
79.6704139304
 11
115.3188218214
 21
79.7289972916
  0
LINE
  5
511
100
AcDbEntity
  8
KONSTRUKTIONSELEMENTE
100
AcDbLine
 62
7
  6
CONTINUOUS
 10
115.3188218214
 20
79.0148099391
 11
115.6521548368
 21
78.9562265779
  0
LINE
  5
512
100
AcDbEntity
  8
KONSTRUKTIONSELEMENTE
100
AcDbLine
 62
7
  6
CONTINUOUS
 10
107.9021550753
 20
79.0733933003
 11
108.1521550753
 21
79.0148099391
  0
LINE
  5
513
100
AcDbEntity
  8
KONSTRUKTIONSELEMENTE
100
AcDbLine
 62
7
  6
CONTINUOUS
 10
116.0688218214
 20
79.1905600226
 11
115.735488806
 21
79.3077267449
  0
LINE
  5
514
100
AcDbEntity
  8
KONSTRUKTIONSELEMENTE
100
AcDbLine
 62
7
  6
CONTINUOUS
 10
116.0688218214
 20
79.5532472081
 11
115.735488806
 21
79.6704139304
  0
LINE
  5
515
100
AcDbEntity
  8
KONSTRUKTIONSELEMENTE
100
AcDbLine
 62
7
  6
CONTINUOUS
 10
115.6521548368
 20
78.9562265779
 11
115.9021548368
 21
78.8390598556
  0
LINE
  5
516
100
AcDbEntity
  8
KONSTRUKTIONSELEMENTE
100
AcDbLine
 62
7
  6
CONTINUOUS
 10
108.5688218214
 20
79.1319766614
 11
108.2354885675
 21
79.3077267449
  0
LINE
  5
517
100
AcDbEntity
  8
KONSTRUKTIONSELEMENTE
100
AcDbLine
 62
7
  6
CONTINUOUS
 10
108.5688218214
 20
79.4946638469
 11
108.2354885675
 21
79.6704139304
  0
LINE
  5
518
100
AcDbEntity
  8
KONSTRUKTIONSELEMENTE
100
AcDbLine
 62
7
  6
CONTINUOUS
 10
108.1521550753
 20
79.0148099391
 11
108.3188218214
 21
78.8976432168
  0
LINE
  5
519
100
AcDbEntity
  8
KONSTRUKTIONSELEMENTE
100
AcDbLine
 62
7
  6
CONTINUOUS
 10
108.8188218214
 20
78.8976432168
 11
108.5688218214
 21
79.1319766614
  0
LINE
  5
51A
100
AcDbEntity
  8
KONSTRUKTIONSELEMENTE
100
AcDbLine
 62
7
  6
CONTINUOUS
 10
108.8188218214
 20
79.2603304023
 11
108.5688218214
 21
79.4946638469
  0
LINE
  5
51B
100
AcDbEntity
  8
KONSTRUKTIONSELEMENTE
100
AcDbLine
 62
7
  6
CONTINUOUS
 10
110.4021553137
 20
77.1401421358
 11
110.2354883291
 21
77.3158922193
  0
LINE
  5
51C
100
AcDbEntity
  8
KONSTRUKTIONSELEMENTE
100
AcDbLine
 62
7
  6
CONTINUOUS
 10
110.4021553137
 20
77.5028293213
 11
110.2354883291
 21
77.6785794048
  0
LINE
  5
51D
100
AcDbEntity
  8
KONSTRUKTIONSELEMENTE
100
AcDbLine
 62
7
  6
CONTINUOUS
 10
109.7354885675
 20
77.2573088581
 11
109.9021553137
 21
77.0229753724
  0
LWPOLYLINE
  5
51E
100
AcDbEntity
  8
0
100
AcDbPolyline
 62
7
  6
CONTINUOUS
 90
13
 70
0
 10
116.5249486127
 20
64.6054961559
 10
116.4652451369
 20
64.7115005211
 10
116.3382147963
 20
64.9044771133
 10
116.1947401036
 20
65.0852938331
 10
116.0363606917
 20
65.2529530461
 10
115.8645648641
 20
65.4066722671
 10
115.6809935715
 20
65.5456381401
 10
115.4872279186
 20
65.6691939095
 10
115.2851151919
 20
65.7766894209
 10
115.0764438062
 20
65.8676350023
 10
114.8631192701
 20
65.9416835097
 10
114.6470768575
 20
65.9985950362
 10
114.5412612188
 20
66.0201333904
  0
LWPOLYLINE
  5
51F
100
AcDbEntity
  8
0
100
AcDbPolyline
 62
7
  6
CONTINUOUS
 90
5
 70
0
 10
118.4881428725
 20
62.5675223829
 10
118.5111739028
 20
62.5245842271
 10
118.5394193845
 20
62.4751636707
 10
118.5676467311
 20
62.4292301402
 10
118.5730304208
 20
62.4208544653
  0
LINE
  5
520
100
AcDbEntity
  8
0
100
AcDbLine
 62
7
  6
CONTINUOUS
 10
116.5249638643
 20
64.6054755146
 11
118.1504233003
 21
61.5484443854
  0
LINE
  5
521
100
AcDbEntity
  8
0
100
AcDbLine
 62
7
  6
CONTINUOUS
 10
116.8217009434
 20
65.7624705717
 11
118.4881835967
 21
62.5674462118
  0
LINE
  5
522
100
AcDbEntity
  8
KONSTRUKTIONSELEMENTE
100
AcDbLine
 62
7
  6
CONTINUOUS
 10
108.3188218214
 20
78.8976432168
 11
108.4021550753
 21
78.7218931333
  0
LINE
  5
523
100
AcDbEntity
  8
KONSTRUKTIONSELEMENTE
100
AcDbLine
 62
7
  6
CONTINUOUS
 10
108.9021550753
 20
78.7218931333
 11
108.8188218214
 21
78.8976432168
  0
LINE
  5
524
100
AcDbEntity
  8
KONSTRUKTIONSELEMENTE
100
AcDbLine
 62
7
  6
CONTINUOUS
 10
108.9021550753
 20
79.0845803188
 11
108.8188218214
 21
79.2603304023
  0
LINE
  5
525
100
AcDbEntity
  8
KONSTRUKTIONSELEMENTE
100
AcDbLine
 62
7
  6
CONTINUOUS
 10
110.2354883291
 20
77.3158922193
 11
110.1521553137
 21
77.5502256639
  0
LINE
  5
526
100
AcDbEntity
  8
KONSTRUKTIONSELEMENTE
100
AcDbLine
 62
7
  6
CONTINUOUS
 10
110.2354883291
 20
77.6785794048
 11
110.1521553137
 21
77.9129128494
  0
LINE
  5
527
100
AcDbEntity
  8
KONSTRUKTIONSELEMENTE
100
AcDbLine
 62
7
  6
CONTINUOUS
 10
109.6521550753
 20
77.5502256639
 11
109.7354885675
 21
77.2573088581
  0
LWPOLYLINE
  5
528
100
AcDbEntity
  8
0
100
AcDbPolyline
 62
7
  6
CONTINUOUS
 90
6
 70
0
 10
116.7831321611
 20
43.0006903562
 10
116.7755584156
 20
43.0914455522
 10
116.7615082338
 20
43.2764837126
 10
116.7479856407
 20
43.4777450846
 10
116.7351388738
 20
43.6945153603
 10
116.7231053696
 20
43.9260299765
  0
LINE
  5
529
100
AcDbEntity
  8
0
100
AcDbLine
 62
7
  6
CONTINUOUS
 10
116.7870288421
 20
42.951080663
 11
116.7831321611
 21
43.0006903562
  0
LINE
  5
52A
100
AcDbEntity
  8
0
100
AcDbLine
 62
7
  6
CONTINUOUS
 10
116.7919070706
 20
42.8663082716
 11
116.7870288421
 21
42.951080663
  0
LINE
  5
52B
100
AcDbEntity
  8
0
100
AcDbLine
 62
7
  6
CONTINUOUS
 10
116.7231053696
 20
43.9260299765
 11
116.7172694933
 21
44.0504497181
  0
LWPOLYLINE
  5
52C
100
AcDbEntity
  8
0
100
AcDbPolyline
 62
7
  6
CONTINUOUS
 90
7
 70
0
 10
116.7172668483
 20
44.0505068615
 10
116.7081282176
 20
44.2654422814
 10
116.6958908787
 20
44.6057342446
 10
116.6857293464
 20
44.9597613471
 10
116.6777542363
 20
45.3248154531
 10
116.6720122699
 20
45.6981618365
 10
116.6703192411
 20
45.8843515133
  0
LINE
  5
52D
100
AcDbEntity
  8
KONSTRUKTIONSELEMENTE
100
AcDbLine
 62
7
  6
CONTINUOUS
 10
111.6521553137
 20
77.385662558
 11
111.6521553137
 21
77.0229753724
  0
LINE
  5
52E
100
AcDbEntity
  8
KONSTRUKTIONSELEMENTE
100
AcDbLine
 62
7
  6
CONTINUOUS
 10
111.9021553137
 20
77.5028293213
 11
111.9021553137
 21
77.1401421358
  0
LINE
  5
52F
100
AcDbEntity
  8
KONSTRUKTIONSELEMENTE
100
AcDbLine
 62
7
  6
CONTINUOUS
 10
112.0688218214
 20
77.6785794048
 11
112.0688218214
 21
77.3158922193
  0
LINE
  5
530
100
AcDbEntity
  8
KONSTRUKTIONSELEMENTE
100
AcDbLine
 62
7
  6
CONTINUOUS
 10
112.1521553137
 20
79.7289972916
 11
112.1521553137
 21
77.5502256639
  0
LINE
  5
531
100
AcDbEntity
  8
KONSTRUKTIONSELEMENTE
100
AcDbLine
 62
7
  6
CONTINUOUS
 10
112.6521553137
 20
77.5502256639
 11
112.6521553137
 21
79.7289972916
  0
LINE
  5
532
100
AcDbEntity
  8
0
100
AcDbLine
 62
7
  6
CONTINUOUS
 10
113.0188218214
 20
66.9790649722
 11
113.0188218214
 21
67.5282083469
  0
LINE
  5
533
100
AcDbEntity
  8
KONSTRUKTIONSELEMENTE
100
AcDbLine
 62
7
  6
CONTINUOUS
 10
113.3188218214
 20
79.7289972916
 11
113.3188218214
 21
76.6128918033
  0
LINE
  5
534
100
AcDbEntity
  8
KONSTRUKTIONSELEMENTE
100
AcDbLine
 62
7
  6
CONTINUOUS
 10
113.8188218214
 20
76.9643920113
 11
113.8188218214
 21
79.0148099391
  0
LINE
  5
535
100
AcDbEntity
  8
0
100
AcDbLine
 62
7
  6
CONTINUOUS
 10
114.0188218214
 20
67.4417946635
 11
114.0188218214
 21
66.115989466
  0
LINE
  5
536
100
AcDbEntity
  8
KONSTRUKTIONSELEMENTE
100
AcDbLine
 62
7
  6
CONTINUOUS
 10
115.3188218214
 20
79.7289972916
 11
115.3188218214
 21
79.3663101061
  0
LINE
  5
537
100
AcDbEntity
  8
KONSTRUKTIONSELEMENTE
100
AcDbLine
 62
7
  6
CONTINUOUS
 10
115.3188218214
 20
77.3270791968
 11
115.3188218214
 21
76.9643920113
  0
LINE
  5
538
100
AcDbEntity
  8
KONSTRUKTIONSELEMENTE
100
AcDbLine
 62
7
  6
CONTINUOUS
 10
112.5688218214
 20
77.2573088581
 11
112.6521553137
 21
77.5502256639
  0
LINE
  5
539
100
AcDbEntity
  8
KONSTRUKTIONSELEMENTE
100
AcDbLine
 62
7
  6
CONTINUOUS
 10
112.1521553137
 20
77.9129128494
 11
112.0688218214
 21
77.6785794048
  0
LINE
  5
53A
100
AcDbEntity
  8
KONSTRUKTIONSELEMENTE
100
AcDbLine
 62
7
  6
CONTINUOUS
 10
112.1521553137
 20
77.5502256639
 11
112.0688218214
 21
77.3158922193
  0
LINE
  5
53B
100
AcDbEntity
  8
KONSTRUKTIONSELEMENTE
100
AcDbLine
 62
7
  6
CONTINUOUS
 10
103.5494600461
 20
62.5674462118
 11
105.2159426994
 21
65.7624705717
  0
LINE
  5
53C
100
AcDbEntity
  8
KONSTRUKTIONSELEMENTE
100
AcDbLine
 62
7
  6
CONTINUOUS
 10
103.8872203425
 20
61.5484443854
 11
105.5126797785
 21
64.6054755146
  0
LWPOLYLINE
  5
53D
100
AcDbEntity
  8
KONSTRUKTIONSELEMENTE
100
AcDbPolyline
 62
7
  6
CONTINUOUS
 90
3
 70
0
 10
103.8872212813
 20
61.5484491255
 10
103.8674948656
 20
61.5119979041
 10
103.811868531
 20
61.4160867041
  0
LWPOLYLINE
  5
53E
100
AcDbEntity
  8
KONSTRUKTIONSELEMENTE
100
AcDbPolyline
 62
7
  6
CONTINUOUS
 90
5
 70
0
 10
103.464613222
 20
62.4208544653
 10
103.4699969118
 20
62.4292301402
 10
103.4982242583
 20
62.4751636707
 10
103.52646974
 20
62.5245842271
 10
103.5495007703
 20
62.5675223829
  0
LINE
  5
53F
100
AcDbEntity
  8
KONSTRUKTIONSELEMENTE
100
AcDbLine
 62
7
  6
CONTINUOUS
 10
112.4021553137
 20
77.0229753724
 11
112.5688218214
 21
77.2573088581
  0
LINE
  5
540
100
AcDbEntity
  8
KONSTRUKTIONSELEMENTE
100
AcDbLine
 62
7
  6
CONTINUOUS
 10
112.0688218214
 20
77.6785794048
 11
111.9021553137
 21
77.5028293213
  0
LINE
  5
541
100
AcDbEntity
  8
KONSTRUKTIONSELEMENTE
100
AcDbLine
 62
7
  6
CONTINUOUS
 10
112.0688218214
 20
77.3158922193
 11
111.9021553137
 21
77.1401421358
  0
LINE
  5
542
100
AcDbEntity
  8
KONSTRUKTIONSELEMENTE
100
AcDbLine
 62
7
  6
CONTINUOUS
 10
108.3188218214
 20
78.3703928022
 11
108.1521550753
 21
78.2532260799
  0
LINE
  5
543
100
AcDbEntity
  8
KONSTRUKTIONSELEMENTE
100
AcDbLine
 62
7
  6
CONTINUOUS
 10
112.0688218214
 20
76.7886419073
 11
112.4021553137
 21
77.0229753724
  0
LINE
  5
544
100
AcDbEntity
  8
KONSTRUKTIONSELEMENTE
100
AcDbLine
 62
7
  6
CONTINUOUS
 10
111.9021553137
 20
77.5028293213
 11
111.6521553137
 21
77.385662558
  0
LINE
  5
545
100
AcDbEntity
  8
KONSTRUKTIONSELEMENTE
100
AcDbLine
 62
7
  6
CONTINUOUS
 10
111.9021553137
 20
77.1401421358
 11
111.6521553137
 21
77.0229753724
  0
LINE
  5
546
100
AcDbEntity
  8
KONSTRUKTIONSELEMENTE
100
AcDbLine
 62
7
  6
CONTINUOUS
 10
108.2354885675
 20
77.9603092741
 11
108.5688218214
 21
78.0774759964
  0
LINE
  5
547
100
AcDbEntity
  8
KONSTRUKTIONSELEMENTE
100
AcDbLine
 62
7
  6
CONTINUOUS
 10
111.7354883291
 20
76.6714751696
 11
112.0688218214
 21
76.7886419073
  0
LINE
  5
548
100
AcDbEntity
  8
0
100
AcDbLine
 62
7
  6
CONTINUOUS
 10
121.1059775642
 20
85.3473545749
 11
111.0188218214
 21
84.4648428002
  0
LINE
  5
549
100
AcDbEntity
  8
0
100
AcDbLine
 62
7
  6
CONTINUOUS
 10
100.9316660787
 20
85.3473545749
 11
111.0188218214
 21
84.4648428002
  0
LINE
  5
54A
100
AcDbEntity
  8
KONSTRUKTIONSELEMENTE
100
AcDbLine
 62
7
  6
CONTINUOUS
 10
116.4021548368
 20
78.9562265779
 11
116.0688218214
 21
79.1905600226
  0
LINE
  5
54B
100
AcDbEntity
  8
KONSTRUKTIONSELEMENTE
100
AcDbLine
 62
7
  6
CONTINUOUS
 10
116.4021548368
 20
79.3189137635
 11
116.0688218214
 21
79.5532472081
  0
LINE
  5
54C
100
AcDbEntity
  8
KONSTRUKTIONSELEMENTE
100
AcDbLine
 62
7
  6
CONTINUOUS
 10
115.9021548368
 20
78.8390598556
 11
116.0688218214
 21
78.663309608
  0
LINE
  5
54D
100
AcDbEntity
  8
KONSTRUKTIONSELEMENTE
100
AcDbLine
 62
7
  6
CONTINUOUS
 10
116.5688218214
 20
78.7218931333
 11
116.4021548368
 21
78.9562265779
  0
LINE
  5
54E
100
AcDbEntity
  8
KONSTRUKTIONSELEMENTE
100
AcDbLine
 62
7
  6
CONTINUOUS
 10
116.5688218214
 20
79.0845803188
 11
116.4021548368
 21
79.3189137635
  0
LINE
  5
54F
100
AcDbEntity
  8
KONSTRUKTIONSELEMENTE
100
AcDbLine
 62
7
  6
CONTINUOUS
 10
116.0688218214
 20
78.663309608
 11
116.1521548368
 21
78.4289761634
  0
LWPOLYLINE
  5
550
100
AcDbEntity
  8
0
100
AcDbPolyline
 62
7
  6
CONTINUOUS
 90
9
 70
0
 10
116.2427867791
 20
84.9218805126
 10
116.2607639905
 20
84.7458109906
 10
116.287005667
 20
84.4330166682
 10
116.3109795247
 20
84.0826612534
 10
116.3323753759
 20
83.6944302366
 10
116.3509137134
 20
83.2684598639
 10
116.3663585558
 20
82.8049846568
 10
116.3784950613
 20
82.3050672953
 10
116.3862623312
 20
81.8392288833
  0
LINE
  5
551
100
AcDbEntity
  8
0
100
AcDbLine
 62
7
  6
CONTINUOUS
 10
117.8076911412
 20
70.1634219
 11
117.8096520432
 21
70.0934526495
  0
LWPOLYLINE
  5
552
100
AcDbEntity
  8
0
100
AcDbPolyline
 62
7
  6
CONTINUOUS
 90
3
 70
0
 10
116.7948216747
 20
42.7351728339
 10
116.7944519121
 20
42.781575219
 10
116.7919070706
 20
42.8663082716
  0
LINE
  5
553
100
AcDbEntity
  8
KONSTRUKTIONSELEMENTE
100
AcDbLine
 62
7
  6
CONTINUOUS
 10
115.6521548368
 20
77.385662558
 11
115.6521548368
 21
77.0229753724
  0
LINE
  5
554
100
AcDbEntity
  8
KONSTRUKTIONSELEMENTE
100
AcDbLine
 62
7
  6
CONTINUOUS
 10
115.735488806
 20
79.6704139304
 11
115.735488806
 21
79.3077267449
  0
LINE
  5
555
100
AcDbEntity
  8
KONSTRUKTIONSELEMENTE
100
AcDbLine
 62
7
  6
CONTINUOUS
 10
115.9021548368
 20
77.5028293213
 11
115.9021548368
 21
77.1401421358
  0
LINE
  5
556
100
AcDbEntity
  8
KONSTRUKTIONSELEMENTE
100
AcDbLine
 62
7
  6
CONTINUOUS
 10
116.0688218214
 20
79.5532472081
 11
116.0688218214
 21
79.1905600226
  0
LINE
  5
557
100
AcDbEntity
  8
KONSTRUKTIONSELEMENTE
100
AcDbLine
 62
7
  6
CONTINUOUS
 10
116.0688218214
 20
77.6785794048
 11
116.0688218214
 21
77.3158922193
  0
LINE
  5
558
100
AcDbEntity
  8
KONSTRUKTIONSELEMENTE
100
AcDbLine
 62
7
  6
CONTINUOUS
 10
116.1521548368
 20
78.4289761634
 11
116.1521548368
 21
77.5502256639
  0
LINE
  5
559
100
AcDbEntity
  8
KONSTRUKTIONSELEMENTE
100
AcDbLine
 62
7
  6
CONTINUOUS
 10
116.4021548368
 20
79.3189137635
 11
116.4021548368
 21
78.9562265779
  0
LINE
  5
55A
100
AcDbEntity
  8
KONSTRUKTIONSELEMENTE
100
AcDbLine
 62
7
  6
CONTINUOUS
 10
116.5688218214
 20
79.0845803188
 11
116.5688218214
 21
78.7218931333
  0
LINE
  5
55B
100
AcDbEntity
  8
KONSTRUKTIONSELEMENTE
100
AcDbLine
 62
7
  6
CONTINUOUS
 10
116.6521548368
 20
77.5502256639
 11
116.6521548368
 21
78.7916633489
  0
LINE
  5
55C
100
AcDbEntity
  8
0
100
AcDbLine
 62
7
  6
CONTINUOUS
 10
116.7948218214
 20
37.7656112164
 11
116.7948218214
 21
46.3353623902
  0
LINE
  5
55D
100
AcDbEntity
  8
0
100
AcDbLine
 62
7
  6
CONTINUOUS
 10
117.8188112656
 20
73.1491121973
 11
117.8188092429
 21
73.1464254547
  0
LINE
  5
55E
100
AcDbEntity
  8
0
100
AcDbLine
 62
7
  6
CONTINUOUS
 10
118.1967729141
 20
53.1808673284
 11
118.1993425531
 21
53.4004849693
  0
LINE
  5
55F
100
AcDbEntity
  8
0
100
AcDbLine
 62
7
  6
CONTINUOUS
 10
116.5004797101
 20
44.6921393413
 11
116.5004917145
 21
44.692483103
  0
LINE
  5
560
100
AcDbEntity
  8
0
100
AcDbLine
 62
7
  6
CONTINUOUS
 10
117.8096520432
 20
75.6002892551
 11
117.8063189126
 21
75.5483461301
  0
LWPOLYLINE
  5
561
100
AcDbEntity
  8
0
100
AcDbPolyline
 62
7
  6
CONTINUOUS
 90
7
 70
0
 10
116.5004793861
 20
44.6921270676
 10
116.5317622182
 20
45.1227703752
 10
116.6097387703
 20
45.6309368588
 10
116.7309102592
 20
46.137810288
 10
116.8939003727
 20
46.641616461
 10
117.0972567839
 20
47.1405173556
 10
117.3035295194
 20
47.5647643052
  0
LINE
  5
562
100
AcDbEntity
  8
KONSTRUKTIONSELEMENTE
100
AcDbLine
 62
7
  6
CONTINUOUS
 10
116.5688218214
 20
77.2573088581
 11
116.6521548368
 21
77.5502256639
  0
LINE
  5
563
100
AcDbEntity
  8
KONSTRUKTIONSELEMENTE
100
AcDbLine
 62
7
  6
CONTINUOUS
 10
116.1521548368
 20
77.9129128494
 11
116.0688218214
 21
77.6785794048
  0
LINE
  5
564
100
AcDbEntity
  8
KONSTRUKTIONSELEMENTE
100
AcDbLine
 62
7
  6
CONTINUOUS
 10
116.1521548368
 20
77.5502256639
 11
116.0688218214
 21
77.3158922193
  0
LWPOLYLINE
  5
565
100
AcDbEntity
  8
KONSTRUKTIONSELEMENTE
100
AcDbPolyline
 62
7
  6
CONTINUOUS
 90
3
 70
0
 10
103.811868531
 20
61.4160867041
 10
103.7611687671
 20
61.3373933711
 10
103.7161532083
 20
61.2746095721
  0
LINE
  5
566
100
AcDbEntity
  8
KONSTRUKTIONSELEMENTE
100
AcDbLine
 62
7
  6
CONTINUOUS
 10
116.4021548368
 20
77.0229753724
 11
116.5688218214
 21
77.2573088581
  0
LWPOLYLINE
  5
567
100
AcDbEntity
  8
KONSTRUKTIONSELEMENTE
100
AcDbPolyline
 62
7
  6
CONTINUOUS
 90
4
 70
0
 10
103.7161532083
 20
61.2746095721
 10
103.6775169699
 20
61.2264296171
 10
103.6465060813
 20
61.1921120712
 10
103.6242584038
 20
61.1704834247
  0
LINE
  5
568
100
AcDbEntity
  8
KONSTRUKTIONSELEMENTE
100
AcDbLine
 62
7
  6
CONTINUOUS
 10
116.0688218214
 20
77.6785794048
 11
115.9021548368
 21
77.5028293213
  0
LINE
  5
569
100
AcDbEntity
  8
KONSTRUKTIONSELEMENTE
100
AcDbLine
 62
7
  6
CONTINUOUS
 10
116.0688218214
 20
77.3158922193
 11
115.9021548368
 21
77.1401421358
  0
LINE
  5
56A
100
AcDbEntity
  8
KONSTRUKTIONSELEMENTE
100
AcDbLine
 62
7
  6
CONTINUOUS
 10
116.0688218214
 20
76.7886419073
 11
116.4021548368
 21
77.0229753724
  0
LINE
  5
56B
100
AcDbEntity
  8
KONSTRUKTIONSELEMENTE
100
AcDbLine
 62
7
  6
CONTINUOUS
 10
115.9021548368
 20
77.5028293213
 11
115.6521548368
 21
77.385662558
  0
LINE
  5
56C
100
AcDbEntity
  8
KONSTRUKTIONSELEMENTE
100
AcDbLine
 62
7
  6
CONTINUOUS
 10
115.9021548368
 20
77.1401421358
 11
115.6521548368
 21
77.0229753724
  0
LINE
  5
56D
100
AcDbEntity
  8
KONSTRUKTIONSELEMENTE
100
AcDbLine
 62
7
  6
CONTINUOUS
 10
115.735488806
 20
76.6714751696
 11
116.0688218214
 21
76.7886419073
  0
LINE
  5
56E
100
AcDbEntity
  8
RUNDUNGEN
100
AcDbLine
 62
7
  6
CONTINUOUS
 10
101.591990114
 20
97.8836939545
 11
97.249181878
 21
101.5038085192
  0
LINE
  5
56F
100
AcDbEntity
  8
KONSTRUKTIONSELEMENTE
100
AcDbLine
 62
7
  6
CONTINUOUS
 10
101.5919618924
 20
97.8837174797
 11
97.2491430992
 21
101.5038408447
  0
LINE
  5
570
100
AcDbEntity
  8
KONSTRUKTIONSELEMENTE
100
AcDbLine
 62
7
  6
CONTINUOUS
 10
116.6521548368
 20
78.4289761634
 11
116.5688218214
 21
78.7218931333
  0
LINE
  5
571
100
AcDbEntity
  8
KONSTRUKTIONSELEMENTE
100
AcDbLine
 62
7
  6
CONTINUOUS
 10
116.6521548368
 20
78.7916633489
 11
116.5688218214
 21
79.0845803188
  0
LWPOLYLINE
  5
572
100
AcDbEntity
  8
0
100
AcDbPolyline
 62
7
  6
CONTINUOUS
 90
4
 70
0
 10
120.0188190633
 20
61.6013006412
 10
120.008042201
 20
61.9212289481
 10
119.9617274027
 20
62.3376566097
 10
119.9315542389
 20
62.488115222
  0
LINE
  5
573
100
AcDbEntity
  8
0
100
AcDbLine
 62
7
  6
CONTINUOUS
 10
120.0188218214
 20
54.5984233573
 11
120.0188216748
 21
61.6013006418
  0
LINE
  5
574
100
AcDbEntity
  8
0
100
AcDbLine
 62
7
  6
CONTINUOUS
 10
122.0188218214
 20
69.3875165955
 11
122.0188218214
 21
98.7747637701
  0
LINE
  5
575
100
AcDbEntity
  8
0
100
AcDbLine
 62
7
  6
CONTINUOUS
 10
120.3191665312
 20
76.8994984426
 11
120.3191222744
 21
76.8905205733
  0
LINE
  5
576
100
AcDbEntity
  8
0
100
AcDbLine
 62
7
  6
CONTINUOUS
 10
120.3191665312
 20
68.6392435343
 11
120.3177575853
 21
68.605838621
  0
LINE
  5
577
100
AcDbEntity
  8
0
100
AcDbLine
 62
7
  6
CONTINUOUS
 10
120.3163439792
 20
74.7442995942
 11
120.3149098194
 21
74.7109379753
  0
LINE
  5
578
100
AcDbEntity
  8
0
100
AcDbLine
 62
7
  6
CONTINUOUS
 10
120.3163439792
 20
71.9908812914
 11
120.312271703
 21
71.9404543579
  0
LWPOLYLINE
  5
579
100
AcDbEntity
  8
0
100
AcDbPolyline
 62
7
  6
CONTINUOUS
 90
4
 70
0
 10
122.0188218214
 20
98.7747650715
 10
122.0065802639
 20
98.9506702813
 10
121.9700913575
 20
99.1231863656
 10
121.961396596
 20
99.1471997911
  0
LWPOLYLINE
  5
57A
100
AcDbEntity
  8
0
100
AcDbPolyline
 62
7
  6
CONTINUOUS
 90
7
 70
0
 10
121.7543093407
 20
67.215621056
 10
121.8226229794
 20
67.5267300723
 10
121.897731733
 20
67.9361939333
 10
121.9546258022
 20
68.3387461374
 10
121.9934837782
 20
68.7338171314
 10
122.0145300366
 20
69.1208282827
 10
122.018820913
 20
69.387514843
  0
LWPOLYLINE
  5
57B
100
AcDbEntity
  8
0
100
AcDbPolyline
 62
7
  6
CONTINUOUS
 90
4
 70
0
 10
121.664657986
 20
66.9187894939
 10
121.6993161606
 20
67.0183328959
 10
121.7302726777
 20
67.1215254974
 10
121.754320525
 20
67.2156404685
  0
LINE
  5
57C
100
AcDbEntity
  8
0
100
AcDbLine
 62
7
  6
CONTINUOUS
 10
121.6584877464
 20
66.9024257766
 11
121.664657986
 21
66.9187894939
  0
LINE
  5
57D
100
AcDbEntity
  8
0
100
AcDbLine
 62
7
  6
CONTINUOUS
 10
119.9755916044
 20
62.578721776
 11
121.6315254445
 21
66.832773171
  0
LINE
  5
57E
100
AcDbEntity
  8
0
100
AcDbLine
 62
7
  6
CONTINUOUS
 10
121.6315254445
 20
66.832773171
 11
121.6585561284
 21
66.902605605
  0
LWPOLYLINE
  5
57F
100
AcDbEntity
  8
KONSTRUKTIONSELEMENTE
100
AcDbPolyline
 62
7
  6
CONTINUOUS
 90
7
 70
0
 10
108.7999183156
 20
66.4884437478
 10
108.7846286822
 20
66.4815347791
 10
108.7004990868
 20
66.4492814686
 10
108.6067362958
 20
66.4192594853
 10
108.5049335426
 20
66.3926971081
 10
108.3967217385
 20
66.3705664834
 10
108.2871443209
 20
66.3540555322
  0
LWPOLYLINE
  5
580
100
AcDbEntity
  8
0
100
AcDbPolyline
 62
7
  6
CONTINUOUS
 90
16
 70
0
 10
143.8075583418
 20
104.5226496927
 10
144.0460316255
 20
104.5514931265
 10
144.2803773932
 20
104.6042592446
 10
144.5082018856
 20
104.6804091122
 10
144.7271792669
 20
104.7791654905
 10
144.9350737662
 20
104.8995205605
 10
145.1297622022
 20
105.0402458856
 10
145.3092564114
 20
105.1999053375
 10
145.4717227215
 20
105.3768690495
 10
145.6155014939
 20
105.5693306483
 10
145.7391236668
 20
105.7753252623
 10
145.8413262864
 20
105.992750492
 10
145.9210641379
 20
106.2193849554
 10
145.9775223262
 20
106.4529144915
 10
146.0101235001
 20
106.6909515738
 10
146.0188218213
 20
106.8941463756
  0
LWPOLYLINE
  5
581
100
AcDbEntity
  8
0
100
AcDbPolyline
 62
7
  6
CONTINUOUS
 90
9
 70
0
 10
119.0953293418
 20
50.9881876602
 10
119.279570878
 20
51.3608837136
 10
119.4824077575
 20
51.8343370725
 10
119.6527113333
 20
52.3113302226
 10
119.7904005869
 20
52.790341356
 10
119.8955348814
 20
53.2698710524
 10
119.9682938977
 20
53.748349699
 10
120.0090020328
 20
54.2241272696
 10
120.018821803
 20
54.5988752999
  0
LINE
  5
582
100
AcDbEntity
  8
0
100
AcDbLine
 62
7
  6
CONTINUOUS
 10
117.3033637778
 20
47.5644933454
 11
119.095524414
 21
50.9886223201
  0
LINE
  5
583
100
AcDbEntity
  8
0
100
AcDbLine
 62
7
  6
CONTINUOUS
 10
131.503606342
 20
103.662273555
 11
143.8075582697
 21
104.5226496876
  0
LINE
  5
584
100
AcDbEntity
  8
RUNDUNGEN
100
AcDbLine
 62
7
  6
CONTINUOUS
 10
90.5340373009
 20
103.662273555
 11
78.2310277619
 21
104.5225837894
  0
LINE
  5
585
100
AcDbEntity
  8
0
100
AcDbLine
 62
7
  6
CONTINUOUS
 10
76.0188218214
 20
111.1248428002
 11
146.0188218214
 21
111.1248428002
  0
LINE
  5
586
100
AcDbEntity
  8
0
100
AcDbLine
 62
7
  6
CONTINUOUS
 10
146.0188218214
 20
111.1248428002
 11
146.0188218214
 21
106.8941460178
  0
ARC
  5
587
100
AcDbEntity
  8
KONSTRUKTIONSELEMENTE
100
AcDbCircle
 62
7
  6
CONTINUOUS
 10
109.6204423676
 20
215.2863464418
 40
7.5819449994
100
AcDbArc
 50
195.8367750825
 51
198.446728129
  0
ARC
  5
588
100
AcDbEntity
  8
KONSTRUKTIONSELEMENTE
100
AcDbCircle
 62
7
  6
CONTINUOUS
 10
109.4176718057
 20
215.2291094737
 40
7.3712511559
100
AcDbArc
 50
190.5920285853
 51
195.8388831717
  0
ARC
  5
589
100
AcDbEntity
  8
RUNDUNGEN
100
AcDbCircle
 62
7
  6
CONTINUOUS
 10
109.0428218214
 20
205.5124977285
 40
3.8
100
AcDbArc
 50
175.8129950602
 51
180.0
  0
ARC
  5
58A
100
AcDbEntity
  8
KONSTRUKTIONSELEMENTE
100
AcDbCircle
 62
7
  6
CONTINUOUS
 10
105.0388218214
 20
171.335886335
 40
1.8
100
AcDbArc
 50
83.4874874477
 51
90.0
  0
ARC
  5
58B
100
AcDbEntity
  8
KONSTRUKTIONSELEMENTE
100
AcDbCircle
 62
7
  6
CONTINUOUS
 10
104.0429726333
 20
213.1854933503
 40
1.6422116557
100
AcDbArc
 50
190.4637324918
 51
198.4665166988
  0
ARC
  5
58C
100
AcDbEntity
  8
KONSTRUKTIONSELEMENTE
100
AcDbCircle
 62
7
  6
CONTINUOUS
 10
104.9388218214
 20
174.655886335
 40
1.52
100
AcDbArc
 50
180.0
 51
270.0
  0
ARC
  5
58D
100
AcDbEntity
  8
RUNDUNGEN
100
AcDbCircle
 62
7
  6
CONTINUOUS
 10
88.0188218214
 20
256.3978090234
 40
12.0
100
AcDbArc
 50
94.9999636404
 51
180.0000110506
  0
ARC
  5
58E
100
AcDbEntity
  8
KONSTRUKTIONSELEMENTE
100
AcDbCircle
 62
7
  6
CONTINUOUS
 10
101.0188218214
 20
268.3446031644
 40
1.0
100
AcDbArc
 50
96.2746142468
 51
179.999999974
  0
ARC
  5
58F
100
AcDbEntity
  8
KONSTRUKTIONSELEMENTE
100
AcDbCircle
 62
7
  6
CONTINUOUS
 10
101.0188218214
 20
264.6849047129
 40
1.0
100
AcDbArc
 50
180.0
 51
262.7896607012
  0
ARC
  5
590
100
AcDbEntity
  8
BEZUGSACHSEN
100
AcDbCircle
 62
7
  6
CONTINUOUS
 10
105.0233210802
 20
230.1720935366
 40
0.8046499397
100
AcDbArc
 50
164.4558706289
 51
169.5467752831
  0
ARC
  5
591
100
AcDbEntity
  8
BEZUGSACHSEN
100
AcDbCircle
 62
7
  6
CONTINUOUS
 10
102.5214890693
 20
228.8595767989
 40
0.8035072001
100
AcDbArc
 50
170.233738402
 51
177.8197284748
  0
ARC
  5
592
100
AcDbEntity
  8
BEZUGSACHSEN
100
AcDbCircle
 62
7
  6
CONTINUOUS
 10
102.522049024
 20
231.1689641935
 40
0.8032966779
100
AcDbArc
 50
166.8894550113
 51
174.041395891
  0
ARC
  5
593
100
AcDbEntity
  8
BEZUGSACHSEN
100
AcDbCircle
 62
7
  6
CONTINUOUS
 10
105.0188520569
 20
235.9763912515
 40
0.8000240529
100
AcDbArc
 50
71.0863290329
 51
162.9644045594
  0
ARC
  5
594
100
AcDbEntity
  8
BEZUGSACHSEN
100
AcDbCircle
 62
7
  6
CONTINUOUS
 10
102.5180203017
 20
237.564824186
 40
0.8000185781
100
AcDbArc
 50
38.938071675
 51
175.7610878387
  0
ARC
  5
595
100
AcDbEntity
  8
BEZUGSACHSEN
100
AcDbCircle
 62
7
  6
CONTINUOUS
 10
102.5188276838
 20
234.0713392782
 40
0.8000153571
100
AcDbArc
 50
32.4944444161
 51
172.6305617961
  0
ARC
  5
596
100
AcDbEntity
  8
BEZUGSACHSEN
100
AcDbCircle
 62
7
  6
CONTINUOUS
 10
105.0188322986
 20
232.8684249007
 40
0.7999947765
100
AcDbArc
 50
42.9099259271
 51
179.5710920767
  0
ARC
  5
597
100
AcDbEntity
  8
BEZUGSACHSEN
100
AcDbCircle
 62
7
  6
CONTINUOUS
 10
102.5188357281
 20
231.1698738088
 40
0.7999891209
100
AcDbArc
 50
26.3744475494
 51
166.9007021369
  0
ARC
  5
598
100
AcDbEntity
  8
BEZUGSACHSEN
100
AcDbCircle
 62
7
  6
CONTINUOUS
 10
102.5180083565
 20
228.8603630115
 40
0.7999793072
100
AcDbArc
 50
19.8771106878
 51
170.2469451683
  0
ARC
  5
599
100
AcDbEntity
  8
BEZUGSACHSEN
100
AcDbCircle
 62
7
  6
CONTINUOUS
 10
105.0188150187
 20
230.1734813505
 40
0.7999584959
100
AcDbArc
 50
46.3386382097
 51
164.4651473411
  0
ARC
  5
59A
100
AcDbEntity
  8
BEZUGSACHSEN
100
AcDbCircle
 62
7
  6
CONTINUOUS
 10
102.361149859
 20
237.5764044402
 40
0.6427161664
100
AcDbArc
 50
179.3340061505
 51
181.2102852996
  0
ARC
  5
59B
100
AcDbEntity
  8
BEZUGSACHSEN
100
AcDbCircle
 62
7
  6
CONTINUOUS
 10
102.3549558961
 20
237.5762292534
 40
0.6365198865
100
AcDbArc
 50
181.2062959192
 51
186.8882558158
  0
ARC
  5
59C
100
AcDbEntity
  8
BEZUGSACHSEN
100
AcDbCircle
 62
7
  6
CONTINUOUS
 10
102.2083664701
 20
234.1096609269
 40
0.4870927537
100
AcDbArc
 50
179.4086037386
 51
189.6808664953
  0
ARC
  5
59D
100
AcDbEntity
  8
BEZUGSACHSEN
100
AcDbCircle
 62
7
  6
CONTINUOUS
 10
102.0512472504
 20
231.2173035864
 40
0.3299732157
100
AcDbArc
 50
180.7141125883
 51
192.6502824795
  0
ARC
  5
59E
100
AcDbEntity
  8
0
100
AcDbCircle
 62
7
  6
CONTINUOUS
 10
112.9948218214
 20
205.5124977285
 40
3.8
100
AcDbArc
 50
0.0
 51
4.1870049398
  0
ARC
  5
59F
100
AcDbEntity
  8
0
100
AcDbCircle
 62
7
  6
CONTINUOUS
 10
116.9988218214
 20
171.335886335
 40
1.8
100
AcDbArc
 50
90.0
 51
96.5125125523
  0
ARC
  5
5A0
100
AcDbEntity
  8
0
100
AcDbCircle
 62
7
  6
CONTINUOUS
 10
117.0988218214
 20
174.655886335
 40
1.52
100
AcDbArc
 50
270.0
 51
360.0
  0
ARC
  5
5A1
100
AcDbEntity
  8
0
100
AcDbCircle
 62
7
  6
CONTINUOUS
 10
134.0188218214
 20
256.3978090234
 40
12.0
100
AcDbArc
 50
359.9999889494
 51
85.0000363596
  0
ARC
  5
5A2
100
AcDbEntity
  8
0
100
AcDbCircle
 62
7
  6
CONTINUOUS
 10
121.0188218214
 20
268.3446031644
 40
1.0
100
AcDbArc
 50
0.0000000258
 51
83.725385761
  0
ARC
  5
5A3
100
AcDbEntity
  8
0
100
AcDbCircle
 62
7
  6
CONTINUOUS
 10
121.0188218214
 20
264.6849047129
 40
1.0
100
AcDbArc
 50
277.2103392988
 51
360.0
  0
ARC
  5
5A4
100
AcDbEntity
  8
0
100
AcDbCircle
 62
7
  6
CONTINUOUS
 10
117.0143225626
 20
230.1720935366
 40
0.8046499397
100
AcDbArc
 50
10.4532247168
 51
15.544129371
  0
ARC
  5
5A5
100
AcDbEntity
  8
0
100
AcDbCircle
 62
7
  6
CONTINUOUS
 10
119.5161545735
 20
228.8595767989
 40
0.8035072001
100
AcDbArc
 50
2.1802715252
 51
9.766261598
  0
ARC
  5
5A6
100
AcDbEntity
  8
0
100
AcDbCircle
 62
7
  6
CONTINUOUS
 10
119.5155946188
 20
231.1689641935
 40
0.8032966779
100
AcDbArc
 50
5.958604109
 51
13.1105449887
  0
ARC
  5
5A7
100
AcDbEntity
  8
0
100
AcDbCircle
 62
7
  6
CONTINUOUS
 10
117.0187913695
 20
235.9763913619
 40
0.8000240529
100
AcDbArc
 50
17.0355833438
 51
108.9136588708
  0
ARC
  5
5A8
100
AcDbEntity
  8
0
100
AcDbCircle
 62
7
  6
CONTINUOUS
 10
119.5196231912
 20
237.5648242328
 40
0.800018578
100
AcDbArc
 50
4.2389080207
 51
141.0619241874
  0
ARC
  5
5A9
100
AcDbEntity
  8
0
100
AcDbCircle
 62
7
  6
CONTINUOUS
 10
119.5188157665
 20
234.0713393212
 40
0.8000153571
100
AcDbArc
 50
7.3694333828
 51
147.505550776
  0
ARC
  5
5AA
100
AcDbEntity
  8
0
100
AcDbCircle
 62
7
  6
CONTINUOUS
 10
117.0188112416
 20
232.868424885
 40
0.799994867
100
AcDbArc
 50
0.4289089933
 51
137.0900682425
  0
ARC
  5
5AB
100
AcDbEntity
  8
0
100
AcDbCircle
 62
7
  6
CONTINUOUS
 10
119.5188081203
 20
231.1698743175
 40
0.7999887874
100
AcDbArc
 50
13.0992657173
 51
153.6255916319
  0
ARC
  5
5AC
100
AcDbEntity
  8
0
100
AcDbCircle
 62
7
  6
CONTINUOUS
 10
119.5196352818
 20
228.8603630131
 40
0.7999793159
100
AcDbArc
 50
9.7530546631
 51
160.1228893108
  0
ARC
  5
5AD
100
AcDbEntity
  8
0
100
AcDbCircle
 62
7
  6
CONTINUOUS
 10
117.018828456
 20
230.1734813892
 40
0.7999584412
100
AcDbArc
 50
15.5348467648
 51
133.6613549956
  0
ARC
  5
5AE
100
AcDbEntity
  8
0
100
AcDbCircle
 62
7
  6
CONTINUOUS
 10
119.6764937838
 20
237.5764044402
 40
0.6427161663
100
AcDbArc
 50
358.7897147002
 51
0.6659938495
  0
ARC
  5
5AF
100
AcDbEntity
  8
0
100
AcDbCircle
 62
7
  6
CONTINUOUS
 10
119.6826877468
 20
237.5762292534
 40
0.6365198865
100
AcDbArc
 50
353.1117441842
 51
358.7937040808
  0
ARC
  5
5B0
100
AcDbEntity
  8
0
100
AcDbCircle
 62
7
  6
CONTINUOUS
 10
119.8292771727
 20
234.1096609269
 40
0.4870927537
100
AcDbArc
 50
350.3191335047
 51
0.5913962614
  0
ARC
  5
5B1
100
AcDbEntity
  8
0
100
AcDbCircle
 62
7
  6
CONTINUOUS
 10
119.9863963925
 20
231.2173035864
 40
0.3299732158
100
AcDbArc
 50
347.3497175206
 51
359.2858874116
  0
ARC
  5
5B2
100
AcDbEntity
  8
0
100
AcDbCircle
 62
7
  6
CONTINUOUS
 10
279.3427794472
 20
146.925886335
 40
123.53
100
AcDbArc
 50
85.0260056025
 51
90.0
  0
ARC
  5
5B3
100
AcDbEntity
  8
0
100
AcDbCircle
 62
7
  6
CONTINUOUS
 10
305.7222231746
 20
191.088018874
 40
35.54
100
AcDbArc
 50
265.401554146
 51
18.3673874104
  0
ARC
  5
5B4
100
AcDbEntity
  8
KONSTRUKTIONSELEMENTE
100
AcDbCircle
 62
7
  6
CONTINUOUS
 10
302.872914321
 20
197.455886335
 40
24.32
100
AcDbArc
 50
251.0567510459
 51
317.4791231824
  0
ARC
  5
5B5
100
AcDbEntity
  8
0
100
AcDbCircle
 62
7
  6
CONTINUOUS
 10
302.872914321
 20
197.455886335
 40
24.32
100
AcDbArc
 50
251.0567510459
 51
251.4470246086
  0
ARC
  5
5B6
100
AcDbEntity
  8
0
100
AcDbCircle
 62
7
  6
CONTINUOUS
 10
302.872914321
 20
197.455886335
 40
15.96
100
AcDbArc
 50
218.0
 51
38.0
  0
ARC
  5
5B7
100
AcDbEntity
  8
KONSTRUKTIONSELEMENTE
100
AcDbCircle
 62
7
  6
CONTINUOUS
 10
284.040114321
 20
191.026286335
 40
4.674123302
100
AcDbArc
 50
131.7422392785
 51
229.2300238651
  0
ARC
  5
5B8
100
AcDbEntity
  8
KONSTRUKTIONSELEMENTE
100
AcDbCircle
 62
7
  6
CONTINUOUS
 10
306.464914321
 20
166.8989453149
 40
2.28
100
AcDbArc
 50
84.2608295227
 51
269.3171996582
  0
ARC
  5
5B9
100
AcDbEntity
  8
KONSTRUKTIONSELEMENTE
100
AcDbCircle
 62
7
  6
CONTINUOUS
 10
302.588914321
 20
166.8989453149
 40
2.28
100
AcDbArc
 50
84.2608295227
 51
269.3171996582
  0
ARC
  5
5BA
100
AcDbEntity
  8
KONSTRUKTIONSELEMENTE
100
AcDbCircle
 62
7
  6
CONTINUOUS
 10
306.464914321
 20
166.8989453149
 40
1.596
100
AcDbArc
 50
192.3736251162
 51
278.2132107017
  0
ARC
  5
5BB
100
AcDbEntity
  8
KONSTRUKTIONSELEMENTE
100
AcDbCircle
 62
7
  6
CONTINUOUS
 10
306.464914321
 20
166.8989453149
 40
1.596
100
AcDbArc
 50
81.7867892983
 51
167.4447123387
  0
ARC
  5
5BC
100
AcDbEntity
  8
KONSTRUKTIONSELEMENTE
100
AcDbCircle
 62
7
  6
CONTINUOUS
 10
302.588914321
 20
166.8989453149
 40
1.596
100
AcDbArc
 50
81.7867892983
 51
278.2132107017
  0
ARC
  5
5BD
100
AcDbEntity
  8
0
100
AcDbCircle
 62
7
  6
CONTINUOUS
 10
280.452914321
 20
235.275886335
 40
4.56
100
AcDbArc
 50
90.0
 51
122.2645586367
  0
ARC
  5
5BE
100
AcDbEntity
  8
0
100
AcDbCircle
 62
7
  6
CONTINUOUS
 10
280.452914321
 20
235.275886335
 40
4.56
100
AcDbArc
 50
142.5192027858
 51
180.0
  0
ARC
  5
5BF
100
AcDbEntity
  8
0
100
AcDbCircle
 62
7
  6
CONTINUOUS
 10
277.1398080605
 20
236.774628554
 40
0.5
100
AcDbArc
 50
171.0
 51
351.0
  0
ARC
  5
5C0
100
AcDbEntity
  8
0
100
AcDbCircle
 62
7
  6
CONTINUOUS
 10
282.692914321
 20
248.955886335
 40
15.0
100
AcDbArc
 50
64.9763248954
 51
78.9532292627
  0
ARC
  5
5C1
100
AcDbEntity
  8
KONSTRUKTIONSELEMENTE
100
AcDbCircle
 62
7
  6
CONTINUOUS
 10
282.5860498477
 20
248.4743962327
 40
14.0
100
AcDbArc
 50
59.5699350479
 51
65.524312837
  0
ARC
  5
5C2
100
AcDbEntity
  8
0
100
AcDbCircle
 62
7
  6
CONTINUOUS
 10
282.692914321
 20
248.955886335
 40
9.12
100
AcDbArc
 50
270.0
 51
272.8827991101
  0
ARC
  5
5C3
100
AcDbEntity
  8
0
100
AcDbCircle
 62
7
  6
CONTINUOUS
 10
282.692914321
 20
248.955886335
 40
9.12
100
AcDbArc
 50
2.5470043595
 51
27.3380590583
  0
ARC
  5
5C4
100
AcDbEntity
  8
KONSTRUKTIONSELEMENTE
100
AcDbCircle
 62
7
  6
CONTINUOUS
 10
283.292914321
 20
248.455886335
 40
7.0
100
AcDbArc
 50
133.5
 51
233.5
  0
CIRCLE
  5
5C5
100
AcDbEntity
  8
FASEN
100
AcDbCircle
 62
7
  6
CONTINUOUS
 10
283.292914321
 20
248.455886335
 40
3.3
  0
CIRCLE
  5
5C6
100
AcDbEntity
  8
FASEN
100
AcDbCircle
 62
7
  6
CONTINUOUS
 10
283.292914321
 20
248.455886335
 40
3.0
  0
ARC
  5
5C7
100
AcDbEntity
  8
KONSTRUKTIONSELEMENTE
100
AcDbCircle
 62
7
  6
CONTINUOUS
 10
283.292914321
 20
248.455886335
 40
2.0
100
AcDbArc
 50
10.0
 51
350.0
  0
ARC
  5
5C8
100
AcDbEntity
  8
KONSTRUKTIONSELEMENTE
100
AcDbCircle
 62
7
  6
CONTINUOUS
 10
283.292914321
 20
248.455886335
 40
1.75
100
AcDbArc
 50
190.0
 51
170.0
  0
ARC
  5
5C9
100
AcDbEntity
  8
KONSTRUKTIONSELEMENTE
100
AcDbCircle
 62
7
  6
CONTINUOUS
 10
283.292914321
 20
248.455886335
 40
1.15
100
AcDbArc
 50
190.0
 51
170.0
  0
ARC
  5
5CA
100
AcDbEntity
  8
0
100
AcDbCircle
 62
7
  6
CONTINUOUS
 10
285.1846958491
 20
259.7840560939
 40
1.9917818364
100
AcDbArc
 50
179.9682024898
 51
221.0504839611
  0
ARC
  5
5CB
100
AcDbEntity
  8
KONSTRUKTIONSELEMENTE
100
AcDbCircle
 62
7
  6
CONTINUOUS
 10
288.6638852473
 20
258.8213724506
 40
2.0
100
AcDbArc
 50
353.6264568848
 51
59.5699350479
  0
ARC
  5
5CC
100
AcDbEntity
  8
KONSTRUKTIONSELEMENTE
100
AcDbCircle
 62
7
  6
CONTINUOUS
 10
287.5577347264
 20
259.3960421465
 40
2.0
100
AcDbArc
 50
65.524312837
 51
133.5
  0
ARC
  5
5CD
100
AcDbEntity
  8
0
100
AcDbCircle
 62
7
  6
CONTINUOUS
 10
287.5577347264
 20
259.3960421465
 40
2.0
100
AcDbArc
 50
65.524312837
 51
117.0384955649
  0
ARC
  5
5CE
100
AcDbEntity
  8
0
100
AcDbCircle
 62
7
  6
CONTINUOUS
 10
288.6638852473
 20
258.8213724506
 40
2.0
100
AcDbArc
 50
14.82256805
 51
18.2555089653
  0
ARC
  5
5CF
100
AcDbEntity
  8
0
100
AcDbCircle
 62
7
  6
CONTINUOUS
 10
288.6638852473
 20
258.8213724506
 40
2.0
100
AcDbArc
 50
353.6264568848
 51
356.4379997841
  0
ARC
  5
5D0
100
AcDbEntity
  8
0
100
AcDbCircle
 62
7
  6
CONTINUOUS
 10
289.8829198929
 20
268.0080006154
 40
1.9899735521
100
AcDbArc
 50
359.9367849274
 51
85.0892206785
  0
ARC
  5
5D1
100
AcDbEntity
  8
0
100
AcDbCircle
 62
7
  6
CONTINUOUS
 10
310.092914321
 20
217.8413787882
 40
34.2
100
AcDbArc
 50
180.0
 51
218.0
  0
ARC
  5
5D2
100
AcDbEntity
  8
BEZUGSACHSEN
100
AcDbCircle
 62
7
  6
CONTINUOUS
 10
304.6597903312
 20
240.1192889287
 40
5.8045427254
100
AcDbArc
 50
205.8997719681
 51
206.8250141024
  0
ARC
  5
5D3
100
AcDbEntity
  8
BEZUGSACHSEN
100
AcDbCircle
 62
7
  6
CONTINUOUS
 10
310.5037266035
 20
233.9610650293
 40
5.8045427237
100
AcDbArc
 50
240.1749858975
 51
241.100228032
  0
ARC
  5
5D4
100
AcDbEntity
  8
0
100
AcDbCircle
 62
7
  6
CONTINUOUS
 10
310.7050110852
 20
221.5916683271
 40
3.9858016552
100
AcDbArc
 50
168.9141208887
 51
204.2674898573
  0
ARC
  5
5D5
100
AcDbEntity
  8
BEZUGSACHSEN
100
AcDbCircle
 62
7
  6
CONTINUOUS
 10
307.6784785258
 20
228.8603700516
 40
0.8
100
AcDbArc
 50
340.5520627254
 51
133.5
  0
ARC
  5
5D6
100
AcDbEntity
  8
BEZUGSACHSEN
100
AcDbCircle
 62
7
  6
CONTINUOUS
 10
306.1566945002
 20
230.1734478784
 40
0.8
100
AcDbArc
 50
349.4045373696
 51
120.9462451612
  0
ARC
  5
5D7
100
AcDbEntity
  8
BEZUGSACHSEN
100
AcDbCircle
 62
7
  6
CONTINUOUS
 10
304.3012382639
 20
231.1698826005
 40
0.8
100
AcDbArc
 50
331.5153212113
 51
126.8421231848
  0
ARC
  5
5D8
100
AcDbEntity
  8
BEZUGSACHSEN
100
AcDbCircle
 62
7
  6
CONTINUOUS
 10
299.4182236174
 20
237.5648625037
 40
0.8
100
AcDbArc
 50
313.5
 51
106.4479372746
  0
ARC
  5
5D9
100
AcDbEntity
  8
BEZUGSACHSEN
100
AcDbCircle
 62
7
  6
CONTINUOUS
 10
300.6498578946
 20
235.9764428465
 40
0.8
100
AcDbArc
 50
326.1126707682
 51
97.5431593615
  0
ARC
  5
5DA
100
AcDbEntity
  8
BEZUGSACHSEN
100
AcDbCircle
 62
7
  6
CONTINUOUS
 10
301.5478199612
 20
234.0713800846
 40
0.8
100
AcDbArc
 50
320.1278659108
 51
115.4829663981
  0
ARC
  5
5DB
100
AcDbEntity
  8
BEZUGSACHSEN
100
AcDbCircle
 62
7
  6
CONTINUOUS
 10
303.1856638861
 20
232.8684389898
 40
0.8
100
AcDbArc
 50
329.3137093441
 51
117.6883324425
  0
ARC
  5
5DC
100
AcDbEntity
  8
KONSTRUKTIONSELEMENTE
100
AcDbCircle
 62
7
  6
CONTINUOUS
 10
310.527909519
 20
256.3791516077
 40
20.0
100
AcDbArc
 50
173.6264568848
 51
223.5
  0
ARC
  5
5DD
100
AcDbEntity
  8
0
100
AcDbCircle
 62
7
  6
CONTINUOUS
 10
316.7692294789
 20
194.755886335
 40
23.9
100
AcDbArc
 50
18.3673874104
 51
45.5316690622
  0
ARC
  5
5DE
100
AcDbEntity
  8
0
100
AcDbCircle
 62
7
  6
CONTINUOUS
 10
345.1856184763
 20
237.115886335
 40
41.8
100
AcDbArc
 50
204.2414657556
 51
218.0
  0
ARC
  5
5DF
100
AcDbEntity
  8
0
100
AcDbCircle
 62
7
  6
CONTINUOUS
 10
314.252914321
 20
216.9463264782
 40
9.826780469
100
AcDbArc
 50
52.6111336177
 51
106.6143894154
  0
ARC
  5
5E0
100
AcDbEntity
  8
KONSTRUKTIONSELEMENTE
100
AcDbCircle
 62
7
  6
CONTINUOUS
 10
311.9319624425
 20
219.8000900831
 40
1.0
100
AcDbArc
 50
233.5
 51
313.5
  0
ARC
  5
5E1
100
AcDbEntity
  8
KONSTRUKTIONSELEMENTE
100
AcDbCircle
 62
7
  6
CONTINUOUS
 10
313.1981685013
 20
220.5880952254
 40
0.7
100
AcDbArc
 50
313.5
 51
43.5
  0
ARC
  5
5E2
100
AcDbEntity
  8
KONSTRUKTIONSELEMENTE
100
AcDbCircle
 62
7
  6
CONTINUOUS
 10
108.8586779985
 20
62.2347287516
 40
5.2762027761
100
AcDbArc
 50
106.3275553008
 51
106.8664370954
  0
ARC
  5
5E3
100
AcDbEntity
  8
KONSTRUKTIONSELEMENTE
100
AcDbCircle
 62
7
  6
CONTINUOUS
 10
108.0502431913
 20
63.8557452424
 40
3.4562970787
100
AcDbArc
 50
125.6241414568
 51
126.8681377828
  0
ARC
  5
5E4
100
AcDbEntity
  8
KONSTRUKTIONSELEMENTE
100
AcDbCircle
 62
7
  6
CONTINUOUS
 10
104.3968877096
 20
61.9966057413
 40
2.3457303907
100
AcDbArc
 50
167.8439407458
 51
170.6811526326
  0
ARC
  5
5E5
100
AcDbEntity
  8
KONSTRUKTIONSELEMENTE
100
AcDbCircle
 62
7
  6
CONTINUOUS
 10
101.0188218214
 20
86.3435597857
 40
1.0
100
AcDbArc
 50
180.0006036314
 51
265.0000516818
  0
ARC
  5
5E6
100
AcDbEntity
  8
BEZUGSACHSEN
100
AcDbCircle
 62
7
  6
CONTINUOUS
 10
105.0234349807
 20
75.6892673911
 40
0.8047605007
100
AcDbArc
 50
190.0823374115
 51
195.3079743014
  0
ARC
  5
5E7
100
AcDbEntity
  8
BEZUGSACHSEN
100
AcDbCircle
 62
7
  6
CONTINUOUS
 10
102.5215085133
 20
76.9203416617
 40
0.8035267437
100
AcDbArc
 50
182.1269192092
 51
189.847082327
  0
ARC
  5
5E8
100
AcDbEntity
  8
BEZUGSACHSEN
100
AcDbCircle
 62
7
  6
CONTINUOUS
 10
102.5220906358
 20
74.7908649634
 40
0.8033365257
100
AcDbArc
 50
185.7099751509
 51
193.0053236311
  0
ARC
  5
5E9
100
AcDbEntity
  8
BEZUGSACHSEN
100
AcDbCircle
 62
7
  6
CONTINUOUS
 10
105.0188672864
 20
70.1811420217
 40
0.8000522314
100
AcDbArc
 50
195.4919740738
 51
294.1895746458
  0
ARC
  5
5EA
100
AcDbEntity
  8
BEZUGSACHSEN
100
AcDbCircle
 62
7
  6
CONTINUOUS
 10
102.5180193988
 20
68.6593233912
 40
0.8000199842
100
AcDbArc
 50
183.8333873306
 51
324.6726622213
  0
ARC
  5
5EB
100
AcDbEntity
  8
BEZUGSACHSEN
100
AcDbCircle
 62
7
  6
CONTINUOUS
 10
102.5188295729
 20
72.0365635672
 40
0.8000177053
100
AcDbArc
 50
186.9004594513
 51
329.4877201696
  0
ARC
  5
5EC
100
AcDbEntity
  8
BEZUGSACHSEN
100
AcDbCircle
 62
7
  6
CONTINUOUS
 10
105.0188095696
 20
73.1521038171
 40
0.7999888081
100
AcDbArc
 50
180.4067795971
 51
319.1505270132
  0
ARC
  5
5ED
100
AcDbEntity
  8
BEZUGSACHSEN
100
AcDbCircle
 62
7
  6
CONTINUOUS
 10
102.5188332113
 20
74.7899481106
 40
0.7999886957
100
AcDbArc
 50
192.9938438892
 51
334.7251503669
  0
ARC
  5
5EE
100
AcDbEntity
  8
BEZUGSACHSEN
100
AcDbCircle
 62
7
  6
CONTINUOUS
 10
102.5180030435
 20
76.9195324268
 40
0.7999720409
100
AcDbArc
 50
189.8329140422
 51
340.6603114198
  0
ARC
  5
5EF
100
AcDbEntity
  8
BEZUGSACHSEN
100
AcDbCircle
 62
7
  6
CONTINUOUS
 10
105.018812243
 20
75.6878598088
 40
0.7999532567
100
AcDbArc
 50
195.2981468062
 51
315.2030535936
  0
ARC
  5
5F0
100
AcDbEntity
  8
BEZUGSACHSEN
100
AcDbCircle
 62
7
  6
CONTINUOUS
 10
102.3224817464
 20
68.6465508432
 40
0.6040488354
100
AcDbArc
 50
172.9264097732
 51
180.6931363039
  0
ARC
  5
5F1
100
AcDbEntity
  8
BEZUGSACHSEN
100
AcDbCircle
 62
7
  6
CONTINUOUS
 10
102.1677407834
 20
71.9956781373
 40
0.4464668892
100
AcDbArc
 50
168.5133503318
 51
180.6155984197
  0
ARC
  5
5F2
100
AcDbEntity
  8
BEZUGSACHSEN
100
AcDbCircle
 62
7
  6
CONTINUOUS
 10
102.0114970438
 20
74.7404143325
 40
0.2902233876
100
AcDbArc
 50
166.4893465664
 51
179.2329503526
  0
ARC
  5
5F3
100
AcDbEntity
  8
KONSTRUKTIONSELEMENTE
100
AcDbCircle
 62
7
  6
CONTINUOUS
 10
102.2340818252
 20
115.7725570914
 40
15.2
100
AcDbArc
 50
241.9821498656
 51
246.8768998859
  0
ARC
  5
5F4
100
AcDbEntity
  8
KONSTRUKTIONSELEMENTE
100
AcDbCircle
 62
7
  6
CONTINUOUS
 10
91.6388218214
 20
90.9600428002
 40
11.78
100
AcDbArc
 50
57.2140648704
 51
66.8768998859
  0
ARC
  5
5F5
100
AcDbEntity
  8
RUNDUNGEN
100
AcDbCircle
 62
7
  6
CONTINUOUS
 10
89.7388218214
 20
92.2900428002
 40
11.4
100
AcDbArc
 50
69.0005118259
 51
86.0000419242
  0
ARC
  5
5F6
100
AcDbEntity
  8
KONSTRUKTIONSELEMENTE
100
AcDbCircle
 62
7
  6
CONTINUOUS
 10
89.7388218214
 20
92.2900428002
 40
11.4
100
AcDbArc
 50
61.9821498656
 51
69.0222333785
  0
ARC
  5
5F7
100
AcDbEntity
  8
RUNDUNGEN
100
AcDbCircle
 62
7
  6
CONTINUOUS
 10
97.4077174095
 20
112.2687324584
 40
10.0
100
AcDbArc
 50
249.0005122057
 51
257.2517308809
  0
ARC
  5
5F8
100
AcDbEntity
  8
RUNDUNGEN
100
AcDbCircle
 62
7
  6
CONTINUOUS
 10
94.1240218214
 20
97.7548428002
 40
4.8807140194
100
AcDbArc
 50
50.1852125698
 51
77.2517473746
  0
ARC
  5
5F9
100
AcDbEntity
  8
KONSTRUKTIONSELEMENTE
100
AcDbCircle
 62
7
  6
CONTINUOUS
 10
97.4386710594
 20
105.8289171211
 40
4.1799998122
100
AcDbArc
 50
250.7643881986
 51
264.5217616814
  0
ARC
  5
5FA
100
AcDbEntity
  8
RUNDUNGEN
100
AcDbCircle
 62
7
  6
CONTINUOUS
 10
99.1588218214
 20
94.9648428002
 40
3.8
100
AcDbArc
 50
20.2192201933
 51
50.1852512505
  0
ARC
  5
5FB
100
AcDbEntity
  8
KONSTRUKTIONSELEMENTE
100
AcDbCircle
 62
7
  6
CONTINUOUS
 10
99.1588218214
 20
94.9648428002
 40
3.8
100
AcDbArc
 50
292.7990297446
 51
20.2192201933
  0
ARC
  5
5FC
100
AcDbEntity
  8
KONSTRUKTIONSELEMENTE
100
AcDbCircle
 62
7
  6
CONTINUOUS
 10
101.0188218214
 20
90.5398567785
 40
1.0
100
AcDbArc
 50
112.7987829642
 51
179.9993423197
  0
ARC
  5
5FD
100
AcDbEntity
  8
0
100
AcDbCircle
 62
7
  6
CONTINUOUS
 10
113.1789656442
 20
62.2347287514
 40
5.2762027762
100
AcDbArc
 50
73.1335629046
 51
73.6724446992
  0
ARC
  5
5FE
100
AcDbEntity
  8
0
100
AcDbCircle
 62
7
  6
CONTINUOUS
 10
113.9874004516
 20
63.8557452425
 40
3.4562970786
100
AcDbArc
 50
53.1318622172
 51
54.3758585432
  0
ARC
  5
5FF
100
AcDbEntity
  8
0
100
AcDbCircle
 62
7
  6
CONTINUOUS
 10
121.0188218214
 20
86.3435597857
 40
1.0
100
AcDbArc
 50
274.9999483182
 51
359.9993963686
  0
ARC
  5
600
100
AcDbEntity
  8
0
100
AcDbCircle
 62
7
  6
CONTINUOUS
 10
117.0142086621
 20
75.6892673911
 40
0.8047605007
100
AcDbArc
 50
344.6920256985
 51
349.9176625885
  0
ARC
  5
601
100
AcDbEntity
  8
0
100
AcDbCircle
 62
7
  6
CONTINUOUS
 10
119.5161351295
 20
76.9203416617
 40
0.8035267437
100
AcDbArc
 50
350.152917673
 51
357.8730807908
  0
ARC
  5
602
100
AcDbEntity
  8
0
100
AcDbCircle
 62
7
  6
CONTINUOUS
 10
119.515553007
 20
74.7908649634
 40
0.8033365257
100
AcDbArc
 50
346.9946763689
 51
354.2900248491
  0
ARC
  5
603
100
AcDbEntity
  8
0
100
AcDbCircle
 62
7
  6
CONTINUOUS
 10
117.0187767012
 20
70.1811418796
 40
0.8000520785
100
AcDbArc
 50
245.8103986611
 51
344.5080291384
  0
ARC
  5
604
100
AcDbEntity
  8
0
100
AcDbCircle
 62
7
  6
CONTINUOUS
 10
119.519624246
 20
68.6593233918
 40
0.8000199841
100
AcDbArc
 50
215.3273377291
 51
356.1666126164
  0
ARC
  5
605
100
AcDbEntity
  8
0
100
AcDbCircle
 62
7
  6
CONTINUOUS
 10
119.5188136975
 20
72.0365648839
 40
0.8000189477
100
AcDbArc
 50
210.5123746155
 51
353.0994501354
  0
ARC
  5
606
100
AcDbEntity
  8
0
100
AcDbCircle
 62
7
  6
CONTINUOUS
 10
117.0188340606
 20
73.15210379
 40
0.7999887977
100
AcDbArc
 50
220.8494721098
 51
359.5932223505
  0
ARC
  5
607
100
AcDbEntity
  8
0
100
AcDbCircle
 62
7
  6
CONTINUOUS
 10
119.5188104315
 20
74.7899481105
 40
0.7999886956
100
AcDbArc
 50
205.2748496262
 51
347.0061561179
  0
ARC
  5
608
100
AcDbEntity
  8
0
100
AcDbCircle
 62
7
  6
CONTINUOUS
 10
119.5196407777
 20
76.9195326015
 40
0.7999720737
100
AcDbArc
 50
199.3396961552
 51
350.1670714452
  0
ARC
  5
609
100
AcDbEntity
  8
0
100
AcDbCircle
 62
7
  6
CONTINUOUS
 10
117.0188313705
 20
75.6878598543
 40
0.7999532567
100
AcDbArc
 50
224.7969501985
 51
344.7018506053
  0
ARC
  5
60A
100
AcDbEntity
  8
0
100
AcDbCircle
 62
7
  6
CONTINUOUS
 10
119.7151618964
 20
68.6465508432
 40
0.6040488354
100
AcDbArc
 50
359.306863696
 51
7.0735902269
  0
ARC
  5
60B
100
AcDbEntity
  8
0
100
AcDbCircle
 62
7
  6
CONTINUOUS
 10
119.8699028594
 20
71.9956781373
 40
0.4464668892
100
AcDbArc
 50
359.3844015803
 51
11.4866496682
  0
ARC
  5
60C
100
AcDbEntity
  8
0
100
AcDbCircle
 62
7
  6
CONTINUOUS
 10
120.0261465991
 20
74.7404143325
 40
0.2902233876
100
AcDbArc
 50
0.7670496475
 51
13.5106534335
  0
ARC
  5
60D
100
AcDbEntity
  8
0
100
AcDbCircle
 62
7
  6
CONTINUOUS
 10
119.8035618176
 20
115.7725570914
 40
15.2
100
AcDbArc
 50
293.1231001141
 51
298.0178501344
  0
ARC
  5
60E
100
AcDbEntity
  8
0
100
AcDbCircle
 62
7
  6
CONTINUOUS
 10
130.3988218214
 20
90.9600428002
 40
11.78
100
AcDbArc
 50
113.1231001141
 51
122.8293429753
  0
ARC
  5
60F
100
AcDbEntity
  8
0
100
AcDbCircle
 62
7
  6
CONTINUOUS
 10
132.2988218214
 20
92.2900428002
 40
11.4
100
AcDbArc
 50
93.9999580758
 51
118.0178501344
  0
ARC
  5
610
100
AcDbEntity
  8
0
100
AcDbCircle
 62
7
  6
CONTINUOUS
 10
124.6299262333
 20
112.2687324584
 40
10.0
100
AcDbArc
 50
282.7482691191
 51
290.9994877943
  0
ARC
  5
611
100
AcDbEntity
  8
0
100
AcDbCircle
 62
7
  6
CONTINUOUS
 10
127.9136218214
 20
97.7548428002
 40
4.8807140194
100
AcDbArc
 50
102.7482526254
 51
129.8147874302
  0
ARC
  5
612
100
AcDbEntity
  8
0
100
AcDbCircle
 62
7
  6
CONTINUOUS
 10
124.5989725834
 20
105.8289171211
 40
4.1799998122
100
AcDbArc
 50
275.4782383186
 51
289.2356118014
  0
ARC
  5
613
100
AcDbEntity
  8
0
100
AcDbCircle
 62
7
  6
CONTINUOUS
 10
122.8788218214
 20
94.9648428002
 40
3.8
100
AcDbArc
 50
129.8147487495
 51
247.2009702554
  0
ARC
  5
614
100
AcDbEntity
  8
0
100
AcDbCircle
 62
7
  6
CONTINUOUS
 10
121.0188218214
 20
90.5398567785
 40
1.0
100
AcDbArc
 50
0.0006576803
 51
67.2012170358
  0
SPLINE
  5
615
100
AcDbEntity
  8
BEZUGSACHSEN
100
AcDbSpline
 62
7
  6
CONTINUOUS
 70
0
 71
3
 72
13
 73
9
 74
0
 42
0.0000001
 43
0.0000001
 44
0.0000000001
 40
0.0
 40
0.0
 40
0.0
 40
0.0
 40
0.2663989528
 40
0.5386465995
 40
0.6674448115
 40
0.7870970771
 40
0.8972754445
 40
1.0
 40
1.0
 40
1.0
 40
1.0
 10
102.9747048873
 20
237.0884175331
 30
0.0
 10
102.8564892042
 20
237.0287933747
 30
0.0
 10
102.5889486734
 20
236.9622188215
 30
0.0
 10
102.2514755503
 20
237.0014239015
 30
0.0
 10
102.0130503185
 20
237.1065627736
 30
0.0
 10
101.8689614165
 20
237.2146378079
 30
0.0
 10
101.7665695833
 20
237.3472557548
 30
0.0
 10
101.730866812
 20
237.4494399548
 30
0.0
 10
101.7230304444
 20
237.4998892935
 30
0.0
  0
SPLINE
  5
616
100
AcDbEntity
  8
0
100
AcDbSpline
 62
7
  6
CONTINUOUS
 70
0
 71
3
 72
13
 73
9
 74
0
 42
0.0000001
 43
0.0000001
 44
0.0000000001
 40
0.0
 40
0.0
 40
0.0
 40
0.0
 40
0.2663989528
 40
0.5386465995
 40
0.6674448115
 40
0.7870970771
 40
0.8972754445
 40
1.0
 40
1.0
 40
1.0
 40
1.0
 10
119.0629387555
 20
237.0884175331
 30
0.0
 10
119.1811544386
 20
237.0287933747
 30
0.0
 10
119.4486949694
 20
236.9622188215
 30
0.0
 10
119.7861680925
 20
237.0014239015
 30
0.0
 10
120.0245933243
 20
237.1065627736
 30
0.0
 10
120.1686822263
 20
237.2146378079
 30
0.0
 10
120.2710740595
 20
237.3472557548
 30
0.0
 10
120.3067768308
 20
237.4494399548
 30
0.0
 10
120.3146131984
 20
237.4998892935
 30
0.0
  0
SPLINE
  5
617
100
AcDbEntity
  8
0
100
AcDbSpline
 62
7
  6
CONTINUOUS
 70
0
 71
3
 72
9
 73
5
 74
0
 42
0.0000001
 43
0.0000001
 44
0.0000000001
 40
0.0
 40
0.0
 40
0.0
 40
0.0
 40
0.2547399518
 40
1.0
 40
1.0
 40
1.0
 40
1.0
 10
117.7837300672
 20
236.2107740192
 30
0.0
 10
117.7875327793
 20
236.1982949267
 30
0.0
 10
117.8009502054
 20
236.1488652468
 30
0.0
 10
117.808205752
 20
236.0977201101
 30
0.0
 10
117.8096520432
 20
236.0595816052
 30
0.0
  0
SPLINE
  5
618
100
AcDbEntity
  8
0
100
AcDbSpline
 62
7
  6
CONTINUOUS
 70
0
 71
3
 72
9
 73
5
 74
0
 42
0.0000001
 43
0.0000001
 44
0.0000000001
 40
0.0
 40
0.0
 40
0.0
 40
0.0
 40
0.2566205045
 40
1.0
 40
1.0
 40
1.0
 40
1.0
 10
117.805626421
 20
230.3180883726
 30
0.0
 10
117.8065732423
 20
230.3128949586
 30
0.0
 10
117.8097085495
 20
230.2925627231
 30
0.0
 10
117.8105317033
 20
230.2718535968
 30
0.0
 10
117.8096520432
 20
230.2565866371
 30
0.0
  0
SPLINE
  5
619
100
AcDbEntity
  8
BEZUGSACHSEN
100
AcDbSpline
 62
7
  6
CONTINUOUS
 70
0
 71
3
 72
17
 73
13
 74
0
 42
0.0000001
 43
0.0000001
 44
0.0000000001
 40
0.0
 40
0.0
 40
0.0
 40
0.0
 40
0.0519231106
 40
0.1031636125
 40
0.1556660955
 40
0.211120957
 40
0.3336087165
 40
0.4714985901
 40
0.6169419335
 40
0.7589168081
 40
0.8877774902
 40
1.0
 40
1.0
 40
1.0
 40
1.0
 10
104.2188323773
 20
232.871267889
 30
0.0
 10
104.2188323773
 20
232.8354720968
 30
0.0
 10
104.2281103561
 20
232.7639049267
 30
0.0
 10
104.2716253635
 20
232.6642830226
 30
0.0
 10
104.3424931034
 20
232.5787186826
 30
0.0
 10
104.4725986344
 20
232.4850200914
 30
0.0
 10
104.6876399529
 20
232.422583407
 30
0.0
 10
104.9708279114
 20
232.4362436904
 30
0.0
 10
105.2523693317
 20
232.5302284662
 30
0.0
 10
105.4936605912
 20
232.6925438139
 30
0.0
 10
105.6624145276
 20
232.9017581546
 30
0.0
 10
105.7098704886
 20
233.0685161851
 30
0.0
 10
105.7098704886
 20
233.1458823826
 30
0.0
  0
SPLINE
  5
61A
100
AcDbEntity
  8
BEZUGSACHSEN
100
AcDbSpline
 62
7
  6
CONTINUOUS
 70
0
 71
3
 72
9
 73
5
 74
0
 42
0.0000001
 43
0.0000001
 44
0.0000000001
 40
0.0
 40
0.0
 40
0.0
 40
0.0
 40
0.499601309
 40
1.0
 40
1.0
 40
1.0
 40
1.0
 10
105.7098704886
 20
233.1458823826
 30
0.0
 10
105.7098704886
 20
233.1945818823
 30
0.0
 10
105.6922480473
 20
233.2931880693
 30
0.0
 10
105.6379757627
 20
233.3773732518
 30
0.0
 10
105.6047694932
 20
233.4131022517
 30
0.0
  0
SPLINE
  5
61B
100
AcDbEntity
  8
BEZUGSACHSEN
100
AcDbSpline
 62
7
  6
CONTINUOUS
 70
0
 71
3
 72
15
 73
11
 74
0
 42
0.0000001
 43
0.0000001
 44
0.0000000001
 40
0.0
 40
0.0
 40
0.0
 40
0.0
 40
0.1095132731
 40
0.2267249757
 40
0.3551686046
 40
0.4921558237
 40
0.6310747436
 40
0.7644830237
 40
0.8873302065
 40
1.0
 40
1.0
 40
1.0
 40
1.0
 10
101.7282100732
 20
234.0277513112
 30
0.0
 10
101.7412997074
 20
233.9512924935
 30
0.0
 10
101.8096534645
 20
233.7978592222
 30
0.0
 10
102.0095984805
 20
233.6336391544
 30
0.0
 10
102.2725280649
 20
233.5485302419
 30
0.0
 10
102.563268949
 20
233.5495476948
 30
0.0
 10
102.844662547
 20
233.6351029779
 30
0.0
 10
103.0801573848
 20
233.7950737698
 30
0.0
 10
103.2381532025
 20
234.0107781338
 30
0.0
 10
103.2736288992
 20
234.1809037921
 30
0.0
 10
103.2700947381
 20
234.2606325375
 30
0.0
  0
SPLINE
  5
61C
100
AcDbEntity
  8
BEZUGSACHSEN
100
AcDbSpline
 62
7
  6
CONTINUOUS
 70
0
 71
3
 72
9
 73
5
 74
0
 42
0.0000001
 43
0.0000001
 44
0.0000000001
 40
0.0
 40
0.0
 40
0.0
 40
0.0
 40
0.4972881631
 40
1.0
 40
1.0
 40
1.0
 40
1.0
 10
103.2700947381
 20
234.2606325375
 30
0.0
 10
103.26822619
 20
234.3027859606
 30
0.0
 10
103.253185266
 20
234.3874323081
 30
0.0
 10
103.2165175783
 20
234.4651482478
 30
0.0
 10
103.1935996312
 20
234.5011234887
 30
0.0
  0
SPLINE
  5
61D
100
AcDbEntity
  8
BEZUGSACHSEN
100
AcDbSpline
 62
7
  6
CONTINUOUS
 70
0
 71
3
 72
15
 73
11
 74
0
 42
0.0000001
 43
0.0000001
 44
0.0000000001
 40
0.0
 40
0.0
 40
0.0
 40
0.0
 40
0.1142367356
 40
0.2281598428
 40
0.3496345359
 40
0.4808591688
 40
0.6179092645
 40
0.7536753854
 40
0.881713847
 40
1.0
 40
1.0
 40
1.0
 40
1.0
 10
104.2279915996
 20
236.0595816052
 30
0.0
 10
104.224819768
 20
235.9759408337
 30
0.0
 10
104.2581299273
 20
235.8036455312
 30
0.0
 10
104.4329465183
 20
235.6018885364
 30
0.0
 10
104.6903983036
 20
235.4987804067
 30
0.0
 10
104.9823378349
 20
235.5034734642
 30
0.0
 10
105.2645460253
 20
235.6100160677
 30
0.0
 10
105.4945898631
 20
235.8018279422
 30
0.0
 10
105.6367879107
 20
236.050770604
 30
0.0
 10
105.6538232978
 20
236.23813796
 30
0.0
 10
105.6397628304
 20
236.323657699
 30
0.0
  0
SPLINE
  5
61E
100
AcDbEntity
  8
BEZUGSACHSEN
100
AcDbSpline
 62
7
  6
CONTINUOUS
 70
0
 71
3
 72
11
 73
7
 74
0
 42
0.0000001
 43
0.0000001
 44
0.0000000001
 40
0.0
 40
0.0
 40
0.0
 40
0.0
 40
0.2450516092
 40
0.4899063226
 40
0.7399413457
 40
1.0
 40
1.0
 40
1.0
 40
1.0
 10
105.6397628304
 20
236.323657699
 30
0.0
 10
105.6321712576
 20
236.3698317912
 30
0.0
 10
105.6041034937
 20
236.4605912624
 30
0.0
 10
105.5250907216
 20
236.5799487147
 30
0.0
 10
105.4141082696
 20
236.6746567611
 30
0.0
 10
105.3251497437
 20
236.7171252866
 30
0.0
 10
105.2781726805
 20
236.7332262114
 30
0.0
  0
SPLINE
  5
61F
100
AcDbEntity
  8
BEZUGSACHSEN
100
AcDbSpline
 62
7
  6
CONTINUOUS
 70
0
 71
3
 72
10
 73
6
 74
0
 42
0.0000001
 43
0.0000001
 44
0.0000000001
 40
0.0
 40
0.0
 40
0.0
 40
0.0
 40
0.5116484222
 40
0.7588139514
 40
1.0
 40
1.0
 40
1.0
 40
1.0
 10
102.9747048873
 20
237.0884175331
 30
0.0
 10
103.0760335267
 20
237.1648092655
 30
0.0
 10
103.2036466927
 20
237.3164960245
 30
0.0
 10
103.2794243266
 20
237.5549599075
 30
0.0
 10
103.2840585266
 20
237.6779224508
 30
0.0
 10
103.2777176063
 20
237.7374040602
 30
0.0
  0
SPLINE
  5
620
100
AcDbEntity
  8
BEZUGSACHSEN
100
AcDbSpline
 62
7
  6
CONTINUOUS
 70
0
 71
3
 72
9
 73
5
 74
0
 42
0.0000001
 43
0.0000001
 44
0.0000000001
 40
0.0
 40
0.0
 40
0.0
 40
0.0
 40
0.4983357498
 40
1.0
 40
1.0
 40
1.0
 40
1.0
 10
103.2777176063
 20
237.7374040602
 30
0.0
 10
103.2713541472
 20
237.7970970975
 30
0.0
 10
103.24112939
 20
237.9156720875
 30
0.0
 10
103.1782642595
 20
238.0206050473
 30
0.0
 10
103.1402847437
 20
238.0676115369
 30
0.0
  0
SPLINE
  5
621
100
AcDbEntity
  8
BEZUGSACHSEN
100
AcDbSpline
 62
7
  6
CONTINUOUS
 70
0
 71
3
 72
9
 73
5
 74
0
 42
0.0000001
 43
0.0000001
 44
0.0000000001
 40
0.0
 40
0.0
 40
0.0
 40
0.0
 40
0.7465816341
 40
1.0
 40
1.0
 40
1.0
 40
1.0
 10
103.2700947381
 20
231.3591350534
 30
0.0
 10
103.2723519685
 20
231.4015653981
 30
0.0
 10
103.2641039502
 20
231.4598378388
 30
0.0
 10
103.2419604381
 20
231.512335101
 30
0.0
 10
103.2355531645
 20
231.5252566096
 30
0.0
  0
SPLINE
  5
622
100
AcDbEntity
  8
BEZUGSACHSEN
100
AcDbSpline
 62
7
  6
CONTINUOUS
 70
0
 71
3
 72
16
 73
12
 74
0
 42
0.0000001
 43
0.0000001
 44
0.0000000001
 40
0.0
 40
0.0
 40
0.0
 40
0.0
 40
0.048505746
 40
0.0994180959
 40
0.2133819419
 40
0.3460631988
 40
0.4914579667
 40
0.6388120351
 40
0.7767735878
 40
0.8972982101
 40
1.0
 40
1.0
 40
1.0
 40
1.0
 10
101.7292841526
 20
231.1450395786
 30
0.0
 10
101.7361859917
 20
231.1143400756
 30
0.0
 10
101.7596528823
 20
231.0531753586
 30
0.0
 10
101.8432588844
 20
230.9410629222
 30
0.0
 10
102.0112419649
 20
230.8343648512
 30
0.0
 10
102.2616921631
 20
230.774960049
 30
0.0
 10
102.5403338504
 20
230.7810928166
 30
0.0
 10
102.8132357786
 20
230.8520915589
 30
0.0
 10
103.046978732
 20
230.979771748
 30
0.0
 10
103.2143967841
 20
231.1499183603
 30
0.0
 10
103.2665555073
 20
231.2926062746
 30
0.0
 10
103.2700947381
 20
231.3591350534
 30
0.0
  0
SPLINE
  5
623
100
AcDbEntity
  8
BEZUGSACHSEN
100
AcDbSpline
 62
7
  6
CONTINUOUS
 70
0
 71
3
 72
9
 73
5
 74
0
 42
0.0000001
 43
0.0000001
 44
0.0000000001
 40
0.0
 40
0.0
 40
0.0
 40
0.0
 40
0.5020980286
 40
1.0
 40
1.0
 40
1.0
 40
1.0
 10
105.6397628304
 20
230.520662731
 30
0.0
 10
105.6490839028
 20
230.5615592124
 30
0.0
 10
105.6498116053
 20
230.6497440289
 30
0.0
 10
105.6012081335
 20
230.7234975952
 30
0.0
 10
105.5711164944
 20
230.7522136858
 30
0.0
  0
SPLINE
  5
624
100
AcDbEntity
  8
BEZUGSACHSEN
100
AcDbSpline
 62
7
  6
CONTINUOUS
 70
0
 71
3
 72
8
 73
4
 74
0
 42
0.0000001
 43
0.0000001
 44
0.0000000001
 40
0.0
 40
0.0
 40
0.0
 40
0.0
 40
1.0
 40
1.0
 40
1.0
 40
1.0
 10
104.2279915996
 20
230.2565866371
 30
0.0
 10
104.2291987845
 20
230.2356353146
 30
0.0
 10
104.2333115538
 20
230.2146438041
 30
0.0
 10
104.2402197977
 20
230.194827362
 30
0.0
  0
SPLINE
  5
625
100
AcDbEntity
  8
BEZUGSACHSEN
100
AcDbSpline
 62
7
  6
CONTINUOUS
 70
0
 71
3
 72
17
 73
13
 74
0
 42
0.0000001
 43
0.0000001
 44
0.0000000001
 40
0.0
 40
0.0
 40
0.0
 40
0.0
 40
0.0426548105
 40
0.088239862
 40
0.1387464456
 40
0.1951528273
 40
0.3249736826
 40
0.4718971175
 40
0.62442504
 40
0.7696797852
 40
0.8966309753
 40
1.0
 40
1.0
 40
1.0
 40
1.0
 10
104.2402197977
 20
230.194827362
 30
0.0
 10
104.2480999331
 20
230.1722230286
 30
0.0
 10
104.2722366475
 20
230.12787341
 30
0.0
 10
104.3288615693
 20
230.0730693997
 30
0.0
 10
104.4035957228
 20
230.029952127
 30
0.0
 10
104.5300563318
 20
229.9871361031
 30
0.0
 10
104.7189025078
 20
229.9712190151
 30
0.0
 10
104.9589827374
 20
230.0040277049
 30
0.0
 10
105.1969176546
 20
230.0842026621
 30
0.0
 10
105.4055706982
 20
230.2031035823
 30
0.0
 10
105.5622970941
 20
230.3468014329
 30
0.0
 10
105.6268713556
 20
230.4641010035
 30
0.0
 10
105.6397628304
 20
230.520662731
 30
0.0
  0
SPLINE
  5
626
100
AcDbEntity
  8
BEZUGSACHSEN
100
AcDbSpline
 62
7
  6
CONTINUOUS
 70
0
 71
3
 72
9
 73
5
 74
0
 42
0.0000001
 43
0.0000001
 44
0.0000000001
 40
0.0
 40
0.0
 40
0.0
 40
0.0
 40
0.4878330558
 40
1.0
 40
1.0
 40
1.0
 40
1.0
 10
101.7184771116
 20
228.8793826147
 30
0.0
 10
101.7189056089
 20
228.8595557506
 30
0.0
 10
101.7266511225
 20
228.8187843919
 30
0.0
 10
101.7469437113
 20
228.7827697307
 30
0.0
 10
101.7594479509
 20
228.7661220165
 30
0.0
  0
SPLINE
  5
627
100
AcDbEntity
  8
BEZUGSACHSEN
100
AcDbSpline
 62
7
  6
CONTINUOUS
 70
0
 71
3
 72
16
 73
12
 74
0
 42
0.0000001
 43
0.0000001
 44
0.0000000001
 40
0.0
 40
0.0
 40
0.0
 40
0.0
 40
0.0928404392
 40
0.2125394198
 40
0.3548120759
 40
0.5088492566
 40
0.6612681615
 40
0.7990418329
 40
0.8592892378
 40
0.912801497
 40
1.0
 40
1.0
 40
1.0
 40
1.0
 10
101.7594479509
 20
228.7661220165
 30
0.0
 10
101.7914442768
 20
228.7235232095
 30
0.0
 10
101.8956821644
 20
228.6508067762
 30
0.0
 10
102.0925933906
 20
228.5939888396
 30
0.0
 10
102.3322040271
 20
228.5761669003
 30
0.0
 10
102.5896241243
 20
228.6006934033
 30
0.0
 10
102.83746874
 20
228.6646233136
 30
0.0
 10
103.0220211439
 20
228.7482323789
 30
0.0
 10
103.1407818597
 20
228.8314039862
 30
0.0
 10
103.2243654107
 20
228.9105178787
 30
0.0
 10
103.2682817229
 20
228.983770115
 30
0.0
 10
103.2777176063
 20
229.0329116081
 30
0.0
  0
SPLINE
  5
628
100
AcDbEntity
  8
BEZUGSACHSEN
100
AcDbSpline
 62
7
  6
CONTINUOUS
 70
0
 71
3
 72
9
 73
5
 74
0
 42
0.0000001
 43
0.0000001
 44
0.0000000001
 40
0.0
 40
0.0
 40
0.0
 40
0.0
 40
0.255580575
 40
1.0
 40
1.0
 40
1.0
 40
1.0
 10
103.2777176063
 20
229.0329116081
 30
0.0
 10
103.2793307098
 20
229.0413125507
 30
0.0
 10
103.2836463965
 20
229.0745374266
 30
0.0
 10
103.2787983538
 20
229.1089280203
 30
0.0
 10
103.2703428335
 20
229.1323655088
 30
0.0
  0
SPLINE
  5
629
100
AcDbEntity
  8
BEZUGSACHSEN
100
AcDbSpline
 62
7
  6
CONTINUOUS
 70
0
 71
3
 72
9
 73
5
 74
0
 42
0.0000001
 43
0.0000001
 44
0.0000000001
 40
0.0
 40
0.0
 40
0.0
 40
0.0
 40
0.2566205045
 40
1.0
 40
1.0
 40
1.0
 40
1.0
 10
104.2320172218
 20
230.3180883726
 30
0.0
 10
104.2310704005
 20
230.3128949586
 30
0.0
 10
104.2279350933
 20
230.2925627231
 30
0.0
 10
104.2271119395
 20
230.2718535968
 30
0.0
 10
104.2279915996
 20
230.2565866371
 30
0.0
  0
SPLINE
  5
62A
100
AcDbEntity
  8
0
100
AcDbSpline
 62
7
  6
CONTINUOUS
 70
0
 71
3
 72
17
 73
13
 74
0
 42
0.0000001
 43
0.0000001
 44
0.0000000001
 40
0.0
 40
0.0
 40
0.0
 40
0.0
 40
0.0519231106
 40
0.1031636125
 40
0.1556660955
 40
0.211120957
 40
0.3336087165
 40
0.4714985901
 40
0.6169419335
 40
0.7589168081
 40
0.8877774902
 40
1.0
 40
1.0
 40
1.0
 40
1.0
 10
117.8188112656
 20
232.871267889
 30
0.0
 10
117.8188112656
 20
232.8354720968
 30
0.0
 10
117.8095332867
 20
232.7639049267
 30
0.0
 10
117.7660182793
 20
232.6642830226
 30
0.0
 10
117.6951505394
 20
232.5787186826
 30
0.0
 10
117.5650450084
 20
232.4850200914
 30
0.0
 10
117.3500036899
 20
232.422583407
 30
0.0
 10
117.0668157314
 20
232.4362436904
 30
0.0
 10
116.7852743111
 20
232.5302284662
 30
0.0
 10
116.5439830516
 20
232.6925438139
 30
0.0
 10
116.3752291152
 20
232.9017581546
 30
0.0
 10
116.3277731542
 20
233.0685161851
 30
0.0
 10
116.3277731542
 20
233.1458823826
 30
0.0
  0
SPLINE
  5
62B
100
AcDbEntity
  8
0
100
AcDbSpline
 62
7
  6
CONTINUOUS
 70
0
 71
3
 72
9
 73
5
 74
0
 42
0.0000001
 43
0.0000001
 44
0.0000000001
 40
0.0
 40
0.0
 40
0.0
 40
0.0
 40
0.499601309
 40
1.0
 40
1.0
 40
1.0
 40
1.0
 10
116.3277731542
 20
233.1458823826
 30
0.0
 10
116.3277731542
 20
233.1945818823
 30
0.0
 10
116.3453955956
 20
233.2931880693
 30
0.0
 10
116.3996678801
 20
233.3773732518
 30
0.0
 10
116.4328741496
 20
233.4131022517
 30
0.0
  0
SPLINE
  5
62C
100
AcDbEntity
  8
0
100
AcDbSpline
 62
7
  6
CONTINUOUS
 70
0
 71
3
 72
15
 73
11
 74
0
 42
0.0000001
 43
0.0000001
 44
0.0000000001
 40
0.0
 40
0.0
 40
0.0
 40
0.0
 40
0.1095132731
 40
0.2267249757
 40
0.3551686046
 40
0.4921558237
 40
0.6310747436
 40
0.7644830237
 40
0.8873302065
 40
1.0
 40
1.0
 40
1.0
 40
1.0
 10
120.3094335697
 20
234.0277513112
 30
0.0
 10
120.2963439354
 20
233.9512924935
 30
0.0
 10
120.2279901783
 20
233.7978592222
 30
0.0
 10
120.0280451623
 20
233.6336391544
 30
0.0
 10
119.7651155779
 20
233.5485302419
 30
0.0
 10
119.4743746939
 20
233.5495476948
 30
0.0
 10
119.1929810958
 20
233.6351029779
 30
0.0
 10
118.957486258
 20
233.7950737698
 30
0.0
 10
118.7994904403
 20
234.0107781338
 30
0.0
 10
118.7640147436
 20
234.1809037921
 30
0.0
 10
118.7675489048
 20
234.2606325375
 30
0.0
  0
SPLINE
  5
62D
100
AcDbEntity
  8
0
100
AcDbSpline
 62
7
  6
CONTINUOUS
 70
0
 71
3
 72
9
 73
5
 74
0
 42
0.0000001
 43
0.0000001
 44
0.0000000001
 40
0.0
 40
0.0
 40
0.0
 40
0.0
 40
0.4972881631
 40
1.0
 40
1.0
 40
1.0
 40
1.0
 10
118.7675489048
 20
234.2606325375
 30
0.0
 10
118.7694174528
 20
234.3027859606
 30
0.0
 10
118.7844583769
 20
234.3874323081
 30
0.0
 10
118.8211260645
 20
234.4651482478
 30
0.0
 10
118.8440440116
 20
234.5011234887
 30
0.0
  0
SPLINE
  5
62E
100
AcDbEntity
  8
0
100
AcDbSpline
 62
7
  6
CONTINUOUS
 70
0
 71
3
 72
15
 73
11
 74
0
 42
0.0000001
 43
0.0000001
 44
0.0000000001
 40
0.0
 40
0.0
 40
0.0
 40
0.0
 40
0.1142367356
 40
0.2281598428
 40
0.3496345359
 40
0.4808591688
 40
0.6179092645
 40
0.7536753854
 40
0.881713847
 40
1.0
 40
1.0
 40
1.0
 40
1.0
 10
117.8096520432
 20
236.0595816052
 30
0.0
 10
117.8128238748
 20
235.9759408337
 30
0.0
 10
117.7795137155
 20
235.8036455312
 30
0.0
 10
117.6046971246
 20
235.6018885364
 30
0.0
 10
117.3472453392
 20
235.4987804067
 30
0.0
 10
117.0553058079
 20
235.5034734642
 30
0.0
 10
116.7730976175
 20
235.6100160677
 30
0.0
 10
116.5430537797
 20
235.8018279422
 30
0.0
 10
116.4008557321
 20
236.050770604
 30
0.0
 10
116.383820345
 20
236.23813796
 30
0.0
 10
116.3978808125
 20
236.323657699
 30
0.0
  0
SPLINE
  5
62F
100
AcDbEntity
  8
0
100
AcDbSpline
 62
7
  6
CONTINUOUS
 70
0
 71
3
 72
11
 73
7
 74
0
 42
0.0000001
 43
0.0000001
 44
0.0000000001
 40
0.0
 40
0.0
 40
0.0
 40
0.0
 40
0.2450516092
 40
0.4899063226
 40
0.7399413457
 40
1.0
 40
1.0
 40
1.0
 40
1.0
 10
116.3978808125
 20
236.323657699
 30
0.0
 10
116.4054723852
 20
236.3698317912
 30
0.0
 10
116.4335401492
 20
236.4605912624
 30
0.0
 10
116.5125529212
 20
236.5799487147
 30
0.0
 10
116.6235353733
 20
236.6746567611
 30
0.0
 10
116.7124938991
 20
236.7171252866
 30
0.0
 10
116.7594709624
 20
236.7332262114
 30
0.0
  0
SPLINE
  5
630
100
AcDbEntity
  8
0
100
AcDbSpline
 62
7
  6
CONTINUOUS
 70
0
 71
3
 72
9
 73
5
 74
0
 42
0.0000001
 43
0.0000001
 44
0.0000000001
 40
0.0
 40
0.0
 40
0.0
 40
0.0
 40
0.4983357498
 40
1.0
 40
1.0
 40
1.0
 40
1.0
 10
118.7599260365
 20
237.7374040602
 30
0.0
 10
118.7662894956
 20
237.7970970975
 30
0.0
 10
118.7965142528
 20
237.9156720875
 30
0.0
 10
118.8593793833
 20
238.0206050473
 30
0.0
 10
118.8973588991
 20
238.0676115369
 30
0.0
  0
SPLINE
  5
631
100
AcDbEntity
  8
0
100
AcDbSpline
 62
7
  6
CONTINUOUS
 70
0
 71
3
 72
10
 73
6
 74
0
 42
0.0000001
 43
0.0000001
 44
0.0000000001
 40
0.0
 40
0.0
 40
0.0
 40
0.0
 40
0.5116484222
 40
0.7588139514
 40
1.0
 40
1.0
 40
1.0
 40
1.0
 10
119.0629387555
 20
237.0884175331
 30
0.0
 10
118.9616101162
 20
237.1648092655
 30
0.0
 10
118.8339969501
 20
237.3164960245
 30
0.0
 10
118.7582193162
 20
237.5549599075
 30
0.0
 10
118.7535851162
 20
237.6779224508
 30
0.0
 10
118.7599260365
 20
237.7374040602
 30
0.0
  0
SPLINE
  5
632
100
AcDbEntity
  8
0
100
AcDbSpline
 62
7
  6
CONTINUOUS
 70
0
 71
3
 72
9
 73
5
 74
0
 42
0.0000001
 43
0.0000001
 44
0.0000000001
 40
0.0
 40
0.0
 40
0.0
 40
0.0
 40
0.7465816341
 40
1.0
 40
1.0
 40
1.0
 40
1.0
 10
118.7675489048
 20
231.3591350534
 30
0.0
 10
118.7652916743
 20
231.4015653981
 30
0.0
 10
118.7735396927
 20
231.4598378388
 30
0.0
 10
118.7956832047
 20
231.512335101
 30
0.0
 10
118.8020904783
 20
231.5252566096
 30
0.0
  0
SPLINE
  5
633
100
AcDbEntity
  8
0
100
AcDbSpline
 62
7
  6
CONTINUOUS
 70
0
 71
3
 72
16
 73
12
 74
0
 42
0.0000001
 43
0.0000001
 44
0.0000000001
 40
0.0
 40
0.0
 40
0.0
 40
0.0
 40
0.048505746
 40
0.0994180959
 40
0.2133819419
 40
0.3460631988
 40
0.4914579667
 40
0.6388120351
 40
0.7767735878
 40
0.8972982101
 40
1.0
 40
1.0
 40
1.0
 40
1.0
 10
120.3083594902
 20
231.1450395786
 30
0.0
 10
120.3014576511
 20
231.1143400756
 30
0.0
 10
120.2779907605
 20
231.0531753586
 30
0.0
 10
120.1943847584
 20
230.9410629222
 30
0.0
 10
120.0264016779
 20
230.8343648512
 30
0.0
 10
119.7759514797
 20
230.774960049
 30
0.0
 10
119.4973097924
 20
230.7810928166
 30
0.0
 10
119.2244078642
 20
230.8520915589
 30
0.0
 10
118.9906649108
 20
230.979771748
 30
0.0
 10
118.8232468587
 20
231.1499183603
 30
0.0
 10
118.7710881356
 20
231.2926062746
 30
0.0
 10
118.7675489048
 20
231.3591350534
 30
0.0
  0
SPLINE
  5
634
100
AcDbEntity
  8
0
100
AcDbSpline
 62
7
  6
CONTINUOUS
 70
0
 71
3
 72
9
 73
5
 74
0
 42
0.0000001
 43
0.0000001
 44
0.0000000001
 40
0.0
 40
0.0
 40
0.0
 40
0.0
 40
0.5020980286
 40
1.0
 40
1.0
 40
1.0
 40
1.0
 10
116.3978808125
 20
230.520662731
 30
0.0
 10
116.38855974
 20
230.5615592124
 30
0.0
 10
116.3878320375
 20
230.6497440289
 30
0.0
 10
116.4364355093
 20
230.7234975952
 30
0.0
 10
116.4665271484
 20
230.7522136858
 30
0.0
  0
SPLINE
  5
635
100
AcDbEntity
  8
0
100
AcDbSpline
 62
7
  6
CONTINUOUS
 70
0
 71
3
 72
8
 73
4
 74
0
 42
0.0000001
 43
0.0000001
 44
0.0000000001
 40
0.0
 40
0.0
 40
0.0
 40
0.0
 40
1.0
 40
1.0
 40
1.0
 40
1.0
 10
117.8096520432
 20
230.2565866371
 30
0.0
 10
117.8084448584
 20
230.2356353146
 30
0.0
 10
117.804332089
 20
230.2146438041
 30
0.0
 10
117.7974238452
 20
230.194827362
 30
0.0
  0
SPLINE
  5
636
100
AcDbEntity
  8
0
100
AcDbSpline
 62
7
  6
CONTINUOUS
 70
0
 71
3
 72
17
 73
13
 74
0
 42
0.0000001
 43
0.0000001
 44
0.0000000001
 40
0.0
 40
0.0
 40
0.0
 40
0.0
 40
0.0426548105
 40
0.088239862
 40
0.1387464456
 40
0.1951528273
 40
0.3249736826
 40
0.4718971175
 40
0.62442504
 40
0.7696797852
 40
0.8966309753
 40
1.0
 40
1.0
 40
1.0
 40
1.0
 10
117.7974238452
 20
230.194827362
 30
0.0
 10
117.7895437097
 20
230.1722230286
 30
0.0
 10
117.7654069953
 20
230.12787341
 30
0.0
 10
117.7087820735
 20
230.0730693997
 30
0.0
 10
117.6340479201
 20
230.029952127
 30
0.0
 10
117.507587311
 20
229.9871361031
 30
0.0
 10
117.318741135
 20
229.9712190151
 30
0.0
 10
117.0786609055
 20
230.0040277049
 30
0.0
 10
116.8407259882
 20
230.0842026621
 30
0.0
 10
116.6320729446
 20
230.2031035823
 30
0.0
 10
116.4753465487
 20
230.3468014329
 30
0.0
 10
116.4107722873
 20
230.4641010035
 30
0.0
 10
116.3978808125
 20
230.520662731
 30
0.0
  0
SPLINE
  5
637
100
AcDbEntity
  8
0
100
AcDbSpline
 62
7
  6
CONTINUOUS
 70
0
 71
3
 72
9
 73
5
 74
0
 42
0.0000001
 43
0.0000001
 44
0.0000000001
 40
0.0
 40
0.0
 40
0.0
 40
0.0
 40
0.255580575
 40
1.0
 40
1.0
 40
1.0
 40
1.0
 10
118.7599260365
 20
229.0329116081
 30
0.0
 10
118.758312933
 20
229.0413125507
 30
0.0
 10
118.7539972463
 20
229.0745374266
 30
0.0
 10
118.758845289
 20
229.1089280203
 30
0.0
 10
118.7673008094
 20
229.1323655088
 30
0.0
  0
SPLINE
  5
638
100
AcDbEntity
  8
0
100
AcDbSpline
 62
7
  6
CONTINUOUS
 70
0
 71
3
 72
9
 73
5
 74
0
 42
0.0000001
 43
0.0000001
 44
0.0000000001
 40
0.0
 40
0.0
 40
0.0
 40
0.0
 40
0.4878330558
 40
1.0
 40
1.0
 40
1.0
 40
1.0
 10
120.3191665312
 20
228.8793826147
 30
0.0
 10
120.3187380339
 20
228.8595557506
 30
0.0
 10
120.3109925203
 20
228.8187843919
 30
0.0
 10
120.2906999315
 20
228.7827697307
 30
0.0
 10
120.2781956919
 20
228.7661220165
 30
0.0
  0
SPLINE
  5
639
100
AcDbEntity
  8
0
100
AcDbSpline
 62
7
  6
CONTINUOUS
 70
0
 71
3
 72
16
 73
12
 74
0
 42
0.0000001
 43
0.0000001
 44
0.0000000001
 40
0.0
 40
0.0
 40
0.0
 40
0.0
 40
0.0928404392
 40
0.2125394198
 40
0.3548120759
 40
0.5088492566
 40
0.6612681615
 40
0.7990418329
 40
0.8592892378
 40
0.912801497
 40
1.0
 40
1.0
 40
1.0
 40
1.0
 10
120.2781956919
 20
228.7661220165
 30
0.0
 10
120.246199366
 20
228.7235232095
 30
0.0
 10
120.1419614784
 20
228.6508067762
 30
0.0
 10
119.9450502522
 20
228.5939888396
 30
0.0
 10
119.7054396157
 20
228.5761669003
 30
0.0
 10
119.4480195185
 20
228.6006934033
 30
0.0
 10
119.2001749029
 20
228.6646233136
 30
0.0
 10
119.0156224989
 20
228.7482323789
 30
0.0
 10
118.8968617831
 20
228.8314039862
 30
0.0
 10
118.8132782321
 20
228.9105178787
 30
0.0
 10
118.76936192
 20
228.983770115
 30
0.0
 10
118.7599260365
 20
229.0329116081
 30
0.0
  0
SPLINE
  5
63A
100
AcDbEntity
  8
BEZUGSACHSEN
100
AcDbSpline
 62
7
  6
CONTINUOUS
 70
0
 71
3
 72
9
 73
5
 74
0
 42
0.0000001
 43
0.0000001
 44
0.0000000001
 40
0.0
 40
0.0
 40
0.0
 40
0.0
 40
0.2547399518
 40
1.0
 40
1.0
 40
1.0
 40
1.0
 10
104.2539135757
 20
236.2107740192
 30
0.0
 10
104.2501108635
 20
236.1982949267
 30
0.0
 10
104.2366934375
 20
236.1488652468
 30
0.0
 10
104.2294378908
 20
236.0977201101
 30
0.0
 10
104.2279915996
 20
236.0595816052
 30
0.0
  0
SPLINE
  5
63B
100
AcDbEntity
  8
KONSTRUKTIONSELEMENTE
100
AcDbSpline
 62
7
  6
CONTINUOUS
 70
0
 71
3
 72
13
 73
9
 74
0
 42
0.0000001
 43
0.0000001
 44
0.0000000001
 40
0.0
 40
0.0
 40
0.0
 40
0.0
 40
0.1056477351
 40
0.2149843734
 40
0.3303421876
 40
0.4529362437
 40
0.7178125631
 40
1.0
 40
1.0
 40
1.0
 40
1.0
 10
103.4188218214
 20
180.7058251845
 30
0.0
 10
103.4188218214
 20
180.6322820213
 30
0.0
 10
103.4393056293
 20
180.4819385298
 30
0.0
 10
103.5285877878
 20
180.2675970231
 30
0.0
 10
103.6720720429
 20
180.0705242289
 30
0.0
 10
103.9335276691
 20
179.8346811036
 30
0.0
 10
104.3604593719
 20
179.6254556378
 30
0.0
 10
104.7424140482
 20
179.5652476047
 30
0.0
 10
104.9388218214
 20
179.5619522973
 30
0.0
  0
SPLINE
  5
63C
100
AcDbEntity
  8
KONSTRUKTIONSELEMENTE
100
AcDbSpline
 62
7
  6
CONTINUOUS
 70
0
 71
3
 72
9
 73
5
 74
0
 42
0.0000001
 43
0.0000001
 44
0.0000000001
 40
0.0
 40
0.0
 40
0.0
 40
0.0
 40
0.4952947293
 40
1.0
 40
1.0
 40
1.0
 40
1.0
 10
96.0987514756
 20
231.9389545926
 30
0.0
 10
96.0847415446
 20
231.9248966753
 30
0.0
 10
96.0649645989
 20
231.8877349398
 30
0.0
 10
96.0615407545
 20
231.8473187105
 30
0.0
 10
96.061540813
 20
231.827094625
 30
0.0
  0
SPLINE
  5
63D
100
AcDbEntity
  8
KONSTRUKTIONSELEMENTE
100
AcDbSpline
 62
7
  6
CONTINUOUS
 70
0
 71
3
 72
8
 73
4
 74
0
 42
0.0000001
 43
0.0000001
 44
0.0000000001
 40
0.0
 40
0.0
 40
0.0
 40
0.0
 40
1.0
 40
1.0
 40
1.0
 40
1.0
 10
102.088467486
 20
214.4109361489
 30
0.0
 10
102.0867906699
 20
214.4243649913
 30
0.0
 10
102.0881557282
 20
214.438424056
 30
0.0
 10
102.0920857545
 20
214.4513739754
 30
0.0
  0
SPLINE
  5
63E
100
AcDbEntity
  8
0
100
AcDbSpline
 62
7
  6
CONTINUOUS
 70
0
 71
3
 72
13
 73
9
 74
0
 42
0.0000001
 43
0.0000001
 44
0.0000000001
 40
0.0
 40
0.0
 40
0.0
 40
0.0
 40
0.1056477351
 40
0.2149843734
 40
0.3303421876
 40
0.4529362437
 40
0.7178125631
 40
1.0
 40
1.0
 40
1.0
 40
1.0
 10
118.6188218214
 20
180.7058251845
 30
0.0
 10
118.6188218214
 20
180.6322820213
 30
0.0
 10
118.5983380135
 20
180.4819385298
 30
0.0
 10
118.5090558551
 20
180.2675970231
 30
0.0
 10
118.3655715999
 20
180.0705242289
 30
0.0
 10
118.1041159737
 20
179.8346811036
 30
0.0
 10
117.6771842709
 20
179.6254556378
 30
0.0
 10
117.2952295946
 20
179.5652476047
 30
0.0
 10
117.0988218214
 20
179.5619522973
 30
0.0
  0
LINE
  5
63F
100
AcDbEntity
  8
0
100
AcDbLine
 62
7
  6
CONTINUOUS
 10
111.0188218214
 20
262.3585300217
 11
111.0188218214
 21
262.3505644657
  0
LINE
  5
640
100
AcDbEntity
  8
0
100
AcDbLine
 62
7
  6
CONTINUOUS
 10
111.0188218214
 20
262.3505644657
 11
111.0188218214
 21
261.7224805902
  0
SPLINE
  5
641
100
AcDbEntity
  8
RUNDUNGEN
100
AcDbSpline
 62
7
  6
CONTINUOUS
 70
0
 71
3
 72
9
 73
5
 74
0
 42
0.0000001
 43
0.0000001
 44
0.0000000001
 40
0.0
 40
0.0
 40
0.0
 40
0.0
 40
0.2462520182
 40
1.0
 40
1.0
 40
1.0
 40
1.0
 10
103.8245064103
 20
223.9348590932
 30
0.0
 10
103.8450310657
 20
223.9651577977
 30
0.0
 10
103.9346139257
 20
224.0839288697
 30
0.0
 10
104.0487234061
 20
224.1836012945
 30
0.0
 10
104.1422444464
 20
224.2452571841
 30
0.0
  0
LINE
  5
642
100
AcDbEntity
  8
RUNDUNGEN
100
AcDbLine
 62
7
  6
CONTINUOUS
 10
105.2891307654
 20
224.3722209606
 11
105.2986836373
 21
224.3712612531
  0
SPLINE
  5
643
100
AcDbEntity
  8
RUNDUNGEN
100
AcDbSpline
 62
7
  6
CONTINUOUS
 70
0
 71
3
 72
16
 73
12
 74
0
 42
0.0000001
 43
0.0000001
 44
0.0000000001
 40
0.0
 40
0.0
 40
0.0
 40
0.0
 40
0.0537078053
 40
0.0821216589
 40
0.114819467
 40
0.2016224189
 40
0.3286919001
 40
0.4871126872
 40
0.6572459414
 40
0.829353305
 40
1.0
 40
1.0
 40
1.0
 40
1.0
 10
104.1422444464
 20
224.2452571841
 30
0.0
 10
104.1627641436
 20
224.2490573209
 30
0.0
 10
104.1956056316
 20
224.2436178346
 30
0.0
 10
104.2380435414
 20
224.2307569124
 30
0.0
 10
104.2940486991
 20
224.2172025081
 30
0.0
 10
104.3903692464
 20
224.2102877547
 30
0.0
 10
104.5343415063
 20
224.230151334
 30
0.0
 10
104.7066376976
 20
224.2707126714
 30
0.0
 10
104.8944697329
 20
224.3217491804
 30
0.0
 10
105.0889930893
 20
224.3643551673
 30
0.0
 10
105.2229997053
 20
224.3770369261
 30
0.0
 10
105.2891307654
 20
224.3722209606
 30
0.0
  0
SPLINE
  5
644
100
AcDbEntity
  8
RUNDUNGEN
100
AcDbSpline
 62
7
  6
CONTINUOUS
 70
0
 71
3
 72
17
 73
13
 74
0
 42
0.0000001
 43
0.0000001
 44
0.0000000001
 40
0.0
 40
0.0
 40
0.0
 40
0.0
 40
0.114559144
 40
0.2238962013
 40
0.3262056131
 40
0.4209059645
 40
0.4672074863
 40
0.5154901102
 40
0.5706164104
 40
0.6371146645
 40
0.803835575
 40
1.0
 40
1.0
 40
1.0
 40
1.0
 10
104.1422523007
 20
224.2452505066
 30
0.0
 10
104.1229244421
 20
224.1928315916
 30
0.0
 10
104.0872923038
 20
224.0895671822
 30
0.0
 10
104.0457736837
 20
223.9357597641
 30
0.0
 10
104.0230896451
 20
223.7877389962
 30
0.0
 10
104.0305157898
 20
223.6672269744
 30
0.0
 10
104.0636514821
 20
223.5801198486
 30
0.0
 10
104.1084864755
 20
223.5209510194
 30
0.0
 10
104.1781454175
 20
223.4737973206
 30
0.0
 10
104.3113526662
 20
223.4260040791
 30
0.0
 10
104.5221514616
 20
223.4056014125
 30
0.0
 10
104.6988230927
 20
223.415000167
 30
0.0
 10
104.794227076
 20
223.422079417
 30
0.0
  0
SPLINE
  5
645
100
AcDbEntity
  8
0
100
AcDbSpline
 62
7
  6
CONTINUOUS
 70
0
 71
3
 72
9
 73
5
 74
0
 42
0.0000001
 43
0.0000001
 44
0.0000000001
 40
0.0
 40
0.0
 40
0.0
 40
0.0
 40
0.2462520018
 40
1.0
 40
1.0
 40
1.0
 40
1.0
 10
118.2131336973
 20
223.9348643119
 30
0.0
 10
118.1926091527
 20
223.9651624689
 30
0.0
 10
118.103026938
 20
224.0839314096
 30
0.0
 10
117.988918928
 20
224.1836021573
 30
0.0
 10
117.8953991964
 20
224.2452571841
 30
0.0
  0
SPLINE
  5
646
100
AcDbEntity
  8
0
100
AcDbSpline
 62
7
  6
CONTINUOUS
 70
0
 71
3
 72
9
 73
5
 74
0
 42
0.0000001
 43
0.0000001
 44
0.0000000001
 40
0.0
 40
0.0
 40
0.0
 40
0.0
 40
0.4952947293
 40
1.0
 40
1.0
 40
1.0
 40
1.0
 10
125.9388921672
 20
231.9389545926
 30
0.0
 10
125.9529020983
 20
231.9248966753
 30
0.0
 10
125.9726790439
 20
231.8877349398
 30
0.0
 10
125.9761028883
 20
231.8473187105
 30
0.0
 10
125.9761028299
 20
231.827094625
 30
0.0
  0
SPLINE
  5
647
100
AcDbEntity
  8
0
100
AcDbSpline
 62
7
  6
CONTINUOUS
 70
0
 71
3
 72
16
 73
12
 74
0
 42
0.0000001
 43
0.0000001
 44
0.0000000001
 40
0.0
 40
0.0
 40
0.0
 40
0.0
 40
0.0537078053
 40
0.0821216589
 40
0.114819467
 40
0.2016224189
 40
0.3286919001
 40
0.4871126872
 40
0.6572459414
 40
0.829353305
 40
1.0
 40
1.0
 40
1.0
 40
1.0
 10
117.8953991964
 20
224.2452571841
 30
0.0
 10
117.8748794992
 20
224.2490573209
 30
0.0
 10
117.8420380112
 20
224.2436178346
 30
0.0
 10
117.7996001014
 20
224.2307569124
 30
0.0
 10
117.7435949437
 20
224.2172025081
 30
0.0
 10
117.6472743964
 20
224.2102877547
 30
0.0
 10
117.5033021365
 20
224.230151334
 30
0.0
 10
117.3310059452
 20
224.2707126714
 30
0.0
 10
117.1431739099
 20
224.3217491804
 30
0.0
 10
116.9486505535
 20
224.3643551673
 30
0.0
 10
116.8146439375
 20
224.3770369261
 30
0.0
 10
116.7485128775
 20
224.3722209606
 30
0.0
  0
LINE
  5
648
100
AcDbEntity
  8
0
100
AcDbLine
 62
7
  6
CONTINUOUS
 10
116.7485128775
 20
224.3722209606
 11
116.7389600055
 21
224.3712612531
  0
SPLINE
  5
649
100
AcDbEntity
  8
0
100
AcDbSpline
 62
7
  6
CONTINUOUS
 70
0
 71
3
 72
17
 73
13
 74
0
 42
0.0000001
 43
0.0000001
 44
0.0000000001
 40
0.0
 40
0.0
 40
0.0
 40
0.0
 40
0.114559144
 40
0.2238962013
 40
0.3262056131
 40
0.4209059645
 40
0.4672074863
 40
0.5154901102
 40
0.5706164104
 40
0.6371146645
 40
0.803835575
 40
1.0
 40
1.0
 40
1.0
 40
1.0
 10
117.8953913421
 20
224.2452505066
 30
0.0
 10
117.9147192007
 20
224.1928315916
 30
0.0
 10
117.950351339
 20
224.0895671822
 30
0.0
 10
117.9918699591
 20
223.9357597641
 30
0.0
 10
118.0145539977
 20
223.7877389962
 30
0.0
 10
118.0071278531
 20
223.6672269744
 30
0.0
 10
117.9739921607
 20
223.5801198486
 30
0.0
 10
117.9291571674
 20
223.5209510194
 30
0.0
 10
117.8594982253
 20
223.4737973206
 30
0.0
 10
117.7262909766
 20
223.4260040791
 30
0.0
 10
117.5154921812
 20
223.4056014125
 30
0.0
 10
117.3388205501
 20
223.415000167
 30
0.0
 10
117.2434165668
 20
223.422079417
 30
0.0
  0
SPLINE
  5
64A
100
AcDbEntity
  8
RUNDUNGEN
100
AcDbSpline
 62
7
  6
CONTINUOUS
 70
0
 71
3
 72
9
 73
5
 74
0
 42
0.0000001
 43
0.0000001
 44
0.0000000001
 40
0.0
 40
0.0
 40
0.0
 40
0.0
 40
0.7523644153
 40
1.0
 40
1.0
 40
1.0
 40
1.0
 10
105.4265969341
 20
224.3652941264
 30
0.0
 10
105.3944437563
 20
224.3655574407
 30
0.0
 10
105.3516703917
 20
224.3664368959
 30
0.0
 10
105.3090803579
 20
224.3700567595
 30
0.0
 10
105.2985397395
 20
224.371006874
 30
0.0
  0
SPLINE
  5
64B
100
AcDbEntity
  8
KONSTRUKTIONSELEMENTE
100
AcDbSpline
 62
7
  6
CONTINUOUS
 70
0
 71
3
 72
8
 73
4
 74
0
 42
0.0000001
 43
0.0000001
 44
0.0000000001
 40
0.0
 40
0.0
 40
0.0
 40
0.0
 40
1.0
 40
1.0
 40
1.0
 40
1.0
 10
103.7988218214
 20
191.0644389181
 30
0.0
 10
103.7988296241
 20
190.4973446655
 30
0.0
 10
103.8118605311
 20
189.930299732
 30
0.0
 10
103.8249818365
 20
189.3633572986
 30
0.0
  0
SPLINE
  5
64C
100
AcDbEntity
  8
KONSTRUKTIONSELEMENTE
100
AcDbSpline
 62
7
  6
CONTINUOUS
 70
0
 71
3
 72
9
 73
5
 74
0
 42
0.0000001
 43
0.0000001
 44
0.0000000001
 40
0.0
 40
0.0
 40
0.0
 40
0.0
 40
0.2543511349
 40
1.0
 40
1.0
 40
1.0
 40
1.0
 10
103.8249818365
 20
189.3633572986
 30
0.0
 10
103.8206750046
 20
189.3511523469
 30
0.0
 10
103.8056570992
 20
189.302518012
 30
0.0
 10
103.7988222469
 20
189.2513208899
 30
0.0
 10
103.7988218214
 20
189.2133788574
 30
0.0
  0
SPLINE
  5
64D
100
AcDbEntity
  8
KONSTRUKTIONSELEMENTE
100
AcDbSpline
 62
7
  6
CONTINUOUS
 70
0
 71
3
 72
9
 73
5
 74
0
 42
0.0000001
 43
0.0000001
 44
0.0000000001
 40
0.0
 40
0.0
 40
0.0
 40
0.0
 40
0.2581202288
 40
1.0
 40
1.0
 40
1.0
 40
1.0
 10
102.2444175647
 20
214.8141408381
 30
0.0
 10
102.2283656271
 20
214.7843006023
 30
0.0
 10
102.1688338148
 20
214.6672988019
 30
0.0
 10
102.1203670593
 20
214.5445643578
 30
0.0
 10
102.0920857545
 20
214.4513739754
 30
0.0
  0
SPLINE
  5
64E
100
AcDbEntity
  8
0
100
AcDbSpline
 62
7
  6
CONTINUOUS
 70
0
 71
3
 72
9
 73
5
 74
0
 42
0.0000001
 43
0.0000001
 44
0.0000000001
 40
0.0
 40
0.0
 40
0.0
 40
0.0
 40
0.7523644153
 40
1.0
 40
1.0
 40
1.0
 40
1.0
 10
116.6110467087
 20
224.3652941264
 30
0.0
 10
116.6431998865
 20
224.3655574407
 30
0.0
 10
116.6859732512
 20
224.3664368959
 30
0.0
 10
116.7285632849
 20
224.3700567595
 30
0.0
 10
116.7391039033
 20
224.371006874
 30
0.0
  0
SPLINE
  5
64F
100
AcDbEntity
  8
BEZUGSACHSEN
100
AcDbSpline
 62
7
  6
CONTINUOUS
 70
0
 71
3
 72
16
 73
12
 74
0
 42
0.0000001
 43
0.0000001
 44
0.0000000001
 40
0.0
 40
0.0
 40
0.0
 40
0.0
 40
0.0254128925
 40
0.0504855213
 40
0.1118558537
 40
0.19993269
 40
0.3172325021
 40
0.4613316275
 40
0.6274139616
 40
0.8093618707
 40
1.0
 40
1.0
 40
1.0
 40
1.0
 10
300.5451171428
 20
236.7695526227
 30
0.0
 10
300.5385254222
 20
236.768623824
 30
0.0
 10
300.5255237004
 20
236.7645494543
 30
0.0
 10
300.5031065664
 20
236.7444121818
 30
0.0
 10
300.4902643303
 20
236.6978878772
 30
0.0
 10
300.4940583307
 20
236.6281106266
 30
0.0
 10
300.5136797519
 20
236.5382513475
 30
0.0
 10
300.5494358276
 20
236.4320426966
 30
0.0
 10
300.5998723463
 20
236.313277176
 30
0.0
 10
300.663108719
 20
236.1870587838
 30
0.0
 10
300.7115668848
 20
236.1022765052
 30
0.0
 10
300.7374678661
 20
236.0595816052
 30
0.0
  0
SPLINE
  5
650
100
AcDbEntity
  8
BEZUGSACHSEN
100
AcDbSpline
 62
7
  6
CONTINUOUS
 70
0
 71
3
 72
17
 73
13
 74
0
 42
0.0000001
 43
0.0000001
 44
0.0000000001
 40
0.0
 40
0.0
 40
0.0
 40
0.0
 40
0.1861835381
 40
0.3652020397
 40
0.5300203835
 40
0.6745840246
 40
0.7939537863
 40
0.8853499646
 40
0.9207749683
 40
0.9502908403
 40
0.975704317
 40
1.0
 40
1.0
 40
1.0
 40
1.0
 10
303.1886449238
 20
232.871267889
 30
0.0
 10
303.2246935922
 20
232.8332805187
 30
0.0
 10
303.2973632562
 20
232.7605991548
 30
0.0
 10
303.4083732954
 20
232.6609646723
 30
0.0
 10
303.5160725657
 20
232.5755473103
 30
0.0
 10
303.6159893512
 20
232.5076719539
 30
0.0
 10
303.7039905542
 20
232.4600817242
 30
0.0
 10
303.769748467
 20
232.4362633332
 30
0.0
 10
303.8136536596
 20
232.4311917027
 30
0.0
 10
303.8392255874
 20
232.4338130914
 30
0.0
 10
303.8600281378
 20
232.4431083736
 30
0.0
 10
303.869726154
 20
232.4537963872
 30
0.0
 10
303.8732955085
 20
232.4596240015
 30
0.0
  0
SPLINE
  5
651
100
AcDbEntity
  8
BEZUGSACHSEN
100
AcDbSpline
 62
7
  6
CONTINUOUS
 70
0
 71
3
 72
17
 73
13
 74
0
 42
0.0000001
 43
0.0000001
 44
0.0000000001
 40
0.0
 40
0.0
 40
0.0
 40
0.0
 40
0.3772775248
 40
0.5477777119
 40
0.6971267015
 40
0.8196382026
 40
0.8694239722
 40
0.9110093655
 40
0.944221457
 40
0.9691670691
 40
0.9867514472
 40
1.0
 40
1.0
 40
1.0
 40
1.0
 10
301.593457527
 20
234.1146885175
 30
0.0
 10
301.6558348694
 20
234.0339521157
 30
0.0
 10
301.7493790124
 20
233.9189544983
 30
0.0
 10
301.8750453753
 20
233.7783822378
 30
0.0
 10
301.95813424
 20
233.6922798291
 30
0.0
 10
302.0216480811
 20
233.6327458184
 30
0.0
 10
302.0663779927
 20
233.5960274429
 30
0.0
 10
302.0936460488
 20
233.5762246334
 30
0.0
 10
302.1167937783
 20
233.5622015143
 30
0.0
 10
302.1356604121
 20
233.5542012834
 30
0.0
 10
302.1509528301
 20
233.551557639
 30
0.0
 10
302.1592123463
 20
233.5554824006
 30
0.0
 10
302.1615376212
 20
233.5582080743
 30
0.0
  0
SPLINE
  5
652
100
AcDbEntity
  8
BEZUGSACHSEN
100
AcDbSpline
 62
7
  6
CONTINUOUS
 70
0
 71
3
 72
17
 73
13
 74
0
 42
0.0000001
 43
0.0000001
 44
0.0000000001
 40
0.0
 40
0.0
 40
0.0
 40
0.0
 40
0.1877419593
 40
0.3690021857
 40
0.5355829381
 40
0.6809260819
 40
0.7996324753
 40
0.8886733287
 40
0.922488986
 40
0.9504999819
 40
0.9751266859
 40
1.0
 40
1.0
 40
1.0
 40
1.0
 10
300.7374678661
 20
236.0595816052
 30
0.0
 10
300.7645955551
 20
236.0148646133
 30
0.0
 10
300.820335837
 20
235.9284194876
 30
0.0
 10
300.9080763172
 20
235.8076290315
 30
0.0
 10
300.9956927989
 20
235.7016876014
 30
0.0
 10
301.0791441873
 20
235.615192649
 30
0.0
 10
301.1545911934
 20
235.5519652509
 30
0.0
 10
301.2130653289
 20
235.5169820743
 30
0.0
 10
301.2537948447
 20
235.5055284418
 30
0.0
 10
301.2782715451
 20
235.5050604183
 30
0.0
 10
301.2990974081
 20
235.512808678
 30
0.0
 10
301.3089823973
 20
235.523077576
 30
0.0
 10
301.3128762294
 20
235.5288094103
 30
0.0
  0
SPLINE
  5
653
100
AcDbEntity
  8
BEZUGSACHSEN
100
AcDbSpline
 62
7
  6
CONTINUOUS
 70
0
 71
3
 72
17
 73
13
 74
0
 42
0.0000001
 43
0.0000001
 44
0.0000000001
 40
0.0
 40
0.0
 40
0.0
 40
0.0
 40
0.3783843548
 40
0.5487781758
 40
0.6978707729
 40
0.8200312808
 40
0.86966252
 40
0.9110972806
 40
0.9441901492
 40
0.9691045267
 40
0.9866914256
 40
1.0
 40
1.0
 40
1.0
 40
1.0
 10
304.3468758298
 20
231.2131910334
 30
0.0
 10
304.4232570825
 20
231.1475163265
 30
0.0
 10
304.5364358425
 20
231.0549697345
 30
0.0
 10
304.6856177506
 20
230.9441835853
 30
0.0
 10
304.7826397657
 20
230.877719469
 30
0.0
 10
304.8555254411
 20
230.8330262838
 30
0.0
 10
304.9057968234
 20
230.8065964878
 30
0.0
 10
304.935928494
 20
230.7929838674
 30
0.0
 10
304.9609763744
 20
230.7841394535
 30
0.0
 10
304.9807194595
 20
230.7802038552
 30
0.0
 10
304.996010701
 20
230.7807521561
 30
0.0
 10
305.0031641135
 20
230.7862215639
 30
0.0
 10
305.0048847663
 20
230.7893187077
 30
0.0
  0
SPLINE
  5
654
100
AcDbEntity
  8
BEZUGSACHSEN
100
AcDbSpline
 62
7
  6
CONTINUOUS
 70
0
 71
3
 72
16
 73
12
 74
0
 42
0.0000001
 43
0.0000001
 44
0.0000000001
 40
0.0
 40
0.0
 40
0.0
 40
0.0
 40
0.1905192777
 40
0.3725730441
 40
0.538603836
 40
0.6826764011
 40
0.8000123692
 40
0.8881366646
 40
0.9494881933
 40
0.974570605
 40
1.0
 40
1.0
 40
1.0
 40
1.0
 10
306.2443044717
 20
230.2565866371
 30
0.0
 10
306.2855653659
 20
230.2285002478
 30
0.0
 10
306.3677109527
 20
230.1756771525
 30
0.0
 10
306.4904401354
 20
230.1059035587
 30
0.0
 10
306.6064252441
 20
230.0493097911
 30
0.0
 10
306.7106287157
 20
230.0080490541
 30
0.0
 10
306.7993587067
 20
229.9837628276
 30
0.0
 10
306.8688859128
 20
229.9762849647
 30
0.0
 10
306.9160018155
 20
229.9867890228
 30
0.0
 10
306.9372815305
 20
230.00813231
 30
0.0
 10
306.9420064905
 20
230.020927288
 30
0.0
 10
306.9432585485
 20
230.027470669
 30
0.0
  0
SPLINE
  5
655
100
AcDbEntity
  8
BEZUGSACHSEN
100
AcDbSpline
 62
7
  6
CONTINUOUS
 70
0
 71
3
 72
15
 73
11
 74
0
 42
0.0000001
 43
0.0000001
 44
0.0000000001
 40
0.0
 40
0.0
 40
0.0
 40
0.0
 40
0.3781109413
 40
0.5484813885
 40
0.6975650386
 40
0.8199685282
 40
0.9113423098
 40
0.9447235107
 40
0.9699059169
 40
1.0
 40
1.0
 40
1.0
 40
1.0
 10
307.6985135869
 20
228.8793826147
 30
0.0
 10
307.7870312132
 20
228.8305160596
 30
0.0
 10
307.9172269908
 20
228.7627589641
 30
0.0
 10
308.0865762858
 20
228.6844691834
 30
0.0
 10
308.1956128826
 20
228.6389013047
 30
0.0
 10
308.2871340474
 20
228.6062996039
 30
0.0
 10
308.3507213388
 20
228.5885171923
 30
0.0
 10
308.3909735902
 20
228.5833073977
 30
0.0
 10
308.413800236
 20
228.5826239895
 30
0.0
 10
308.431039395
 20
228.58911792
 30
0.0
 10
308.4337564501
 20
228.5966928042
 30
0.0
  0
SPLINE
  5
656
100
AcDbEntity
  8
BEZUGSACHSEN
100
AcDbSpline
 62
7
  6
CONTINUOUS
 70
0
 71
3
 72
17
 73
13
 74
0
 42
0.0000001
 43
0.0000001
 44
0.0000000001
 40
0.0
 40
0.0
 40
0.0
 40
0.0
 40
0.0133057282
 40
0.0308831588
 40
0.0557840172
 40
0.0888636993
 40
0.1302906357
 40
0.1799166483
 40
0.302074046
 40
0.451172375
 40
0.621578829
 40
1.0
 40
1.0
 40
1.0
 40
1.0
 10
301.2046231754
 20
234.7939908694
 30
0.0
 10
301.2014382774
 20
234.7924401506
 30
0.0
 10
301.1955914413
 20
234.785594233
 30
0.0
 10
301.1942367234
 20
234.7703575517
 30
0.0
 10
301.1971238736
 20
234.7504440824
 30
0.0
 10
301.204637709
 20
234.7249736134
 30
0.0
 10
301.2166496156
 20
234.69417543
 30
0.0
 10
301.2404072141
 20
234.642590256
 30
0.0
 10
301.2812227551
 20
234.5674623243
 30
0.0
 10
301.3425198528
 20
234.4670871417
 30
0.0
 10
301.4453561277
 20
234.3122937926
 30
0.0
 10
301.5318625337
 20
234.1944123071
 30
0.0
 10
301.593457527
 20
234.1146885175
 30
0.0
  0
SPLINE
  5
657
100
AcDbEntity
  8
BEZUGSACHSEN
100
AcDbSpline
 62
7
  6
CONTINUOUS
 70
0
 71
3
 72
17
 73
13
 74
0
 42
0.0000001
 43
0.0000001
 44
0.0000000001
 40
0.0
 40
0.0
 40
0.0
 40
0.0
 40
0.0243036502
 40
0.0497072546
 40
0.0791880387
 40
0.1145947144
 40
0.2059422303
 40
0.3253049129
 40
0.4698662311
 40
0.634719725
 40
0.8137456081
 40
1.0
 40
1.0
 40
1.0
 40
1.0
 10
302.8135248968
 20
233.5766032941
 30
0.0
 10
302.8075042441
 20
233.5733628419
 30
0.0
 10
302.7962998499
 20
233.5642580373
 30
0.0
 10
302.7858926434
 20
233.5439987984
 30
0.0
 10
302.7818722363
 20
233.5186207894
 30
0.0
 10
302.7846253263
 20
233.4745265435
 30
0.0
 10
302.8049109801
 20
233.4076073285
 30
0.0
 10
302.8478241456
 20
233.3172264863
 30
0.0
 10
302.9103681287
 20
233.2138567888
 30
0.0
 10
302.9900531683
 20
233.1018044839
 30
0.0
 10
303.0837689654
 20
232.9856795003
 30
0.0
 10
303.1525760648
 20
232.9092765357
 30
0.0
 10
303.1886449238
 20
232.871267889
 30
0.0
  0
SPLINE
  5
658
100
AcDbEntity
  8
BEZUGSACHSEN
100
AcDbSpline
 62
7
  6
CONTINUOUS
 70
0
 71
3
 72
17
 73
13
 74
0
 42
0.0000001
 43
0.0000001
 44
0.0000000001
 40
0.0
 40
0.0
 40
0.0
 40
0.0
 40
0.0248334394
 40
0.0494818118
 40
0.0775508403
 40
0.1114639792
 40
0.2006175712
 40
0.3193719496
 40
0.4647282077
 40
0.6312822764
 40
0.8122768044
 40
1.0
 40
1.0
 40
1.0
 40
1.0
 10
305.7440356885
 20
230.858792582
 30
0.0
 10
305.7381418376
 20
230.8551757266
 30
0.0
 10
305.7274632985
 20
230.8457507734
 30
0.0
 10
305.7187667992
 20
230.8253119743
 30
0.0
 10
305.7180587598
 20
230.8008032949
 30
0.0
 10
305.7275431474
 20
230.7595167818
 30
0.0
 10
305.7594670833
 20
230.6992911825
 30
0.0
 10
305.8187278937
 20
230.620674532
 30
0.0
 10
305.900737023
 20
230.5328777299
 30
0.0
 10
306.0018658203
 20
230.4399529812
 30
0.0
 10
306.1177727151
 20
230.3461002508
 30
0.0
 10
306.2010922192
 20
230.2860013205
 30
0.0
 10
306.2443044717
 20
230.2565866371
 30
0.0
  0
SPLINE
  5
659
100
AcDbEntity
  8
BEZUGSACHSEN
100
AcDbSpline
 62
7
  6
CONTINUOUS
 70
0
 71
3
 72
16
 73
12
 74
0
 42
0.0000001
 43
0.0000001
 44
0.0000000001
 40
0.0
 40
0.0
 40
0.0
 40
0.0
 40
0.029757425
 40
0.0548449066
 40
0.0881914927
 40
0.1299179428
 40
0.1798166404
 40
0.3025270051
 40
0.4520162032
 40
0.6226102565
 40
1.0
 40
1.0
 40
1.0
 40
1.0
 10
303.8207337197
 20
231.809483179
 30
0.0
 10
303.8144221379
 20
231.8045102626
 30
0.0
 10
303.8141355743
 20
231.7858677966
 30
0.0
 10
303.8228147785
 20
231.7646868961
 30
0.0
 10
303.8355092772
 20
231.7403771046
 30
0.0
 10
303.853982
 20
231.7122390949
 30
0.0
 10
303.8883258327
 20
231.6655666861
 30
0.0
 10
303.9444925469
 20
231.5990945915
 30
0.0
 10
304.0260946716
 20
231.5116534469
 30
0.0
 10
304.1597827374
 20
231.3789547507
 30
0.0
 10
304.2696061911
 20
231.279629599
 30
0.0
 10
304.3468758298
 20
231.2131910334
 30
0.0
  0
SPLINE
  5
65A
100
AcDbEntity
  8
BEZUGSACHSEN
100
AcDbSpline
 62
7
  6
CONTINUOUS
 70
0
 71
3
 72
15
 73
11
 74
0
 42
0.0000001
 43
0.0000001
 44
0.0000000001
 40
0.0
 40
0.0
 40
0.0
 40
0.0
 40
0.0300940831
 40
0.0552764893
 40
0.0886576902
 40
0.1800314718
 40
0.3024349614
 40
0.4515186115
 40
0.6218890587
 40
1.0
 40
1.0
 40
1.0
 40
1.0
 10
299.194435923
 20
238.3329051468
 30
0.0
 10
299.1867292202
 20
238.3305882542
 30
0.0
 10
299.1793419616
 20
238.3137125868
 30
0.0
 10
299.1788297789
 20
238.2908814574
 30
0.0
 10
299.1819257935
 20
238.2504117106
 30
0.0
 10
299.1963559333
 20
238.1859809039
 30
0.0
 10
299.2241231069
 20
238.0928789246
 30
0.0
 10
299.2639220018
 20
237.9816069201
 30
0.0
 10
299.3332414318
 20
237.8083923419
 30
0.0
 10
299.394091748
 20
237.6748288607
 30
0.0
 10
299.4382586786
 20
237.5838750668
 30
0.0
  0
SPLINE
  5
65B
100
AcDbEntity
  8
0
100
AcDbSpline
 62
7
  6
CONTINUOUS
 70
0
 71
3
 72
15
 73
11
 74
0
 42
0.0000001
 43
0.0000001
 44
0.0000000001
 40
0.0
 40
0.0
 40
0.0
 40
0.0
 40
0.1250062296
 40
0.2500023474
 40
0.3750017504
 40
0.500000361
 40
0.6249991058
 40
0.7499983451
 40
0.8749941662
 40
1.0
 40
1.0
 40
1.0
 40
1.0
 10
285.567065873
 20
263.6779532221
 30
0.0
 10
285.423562045
 20
263.7059691271
 30
0.0
 10
285.1294223719
 20
263.7307027697
 30
0.0
 10
284.6914830977
 20
263.6708152262
 30
0.0
 10
284.2770349243
 20
263.5165103217
 30
0.0
 10
283.9066759458
 20
263.2748678365
 30
0.0
 10
283.5985461494
 20
262.9576727147
 30
0.0
 10
283.3676882212
 20
262.5804703395
 30
0.0
 10
283.2249983078
 20
262.1621211156
 30
0.0
 10
283.192914321
 20
261.868693121
 30
0.0
 10
283.192914321
 20
261.7224805902
 30
0.0
  0
SPLINE
  5
65C
100
AcDbEntity
  8
0
100
AcDbSpline
 62
7
  6
CONTINUOUS
 70
0
 71
3
 72
15
 73
11
 74
0
 42
0.0000001
 43
0.0000001
 44
0.0000000001
 40
0.0
 40
0.0
 40
0.0
 40
0.0
 40
0.1250100228
 40
0.2500057172
 40
0.3750038328
 40
0.5000002236
 40
0.6249967752
 40
0.7499949349
 40
0.8749906202
 40
1.0
 40
1.0
 40
1.0
 40
1.0
 10
291.8729143242
 20
264.3532799772
 30
0.0
 10
291.8729148023
 20
264.1868025467
 30
0.0
 10
291.8315431725
 20
263.8523801116
 30
0.0
 10
291.6479456128
 20
263.3825743442
 30
0.0
 10
291.3531668129
 20
262.9728276847
 30
0.0
 10
290.9651196129
 20
262.6500322677
 30
0.0
 10
290.5084850231
 20
262.4349449464
 30
0.0
 10
290.0125107178
 20
262.3411530745
 30
0.0
 10
289.5091443956
 20
262.3735141241
 30
0.0
 10
289.1886142984
 20
262.4774837371
 30
0.0
 10
289.0377641561
 20
262.5479016633
 30
0.0
  0
SPLINE
  5
65D
100
AcDbEntity
  8
0
100
AcDbSpline
 62
7
  6
CONTINUOUS
 70
0
 71
3
 72
18
 73
14
 74
0
 42
0.0000001
 43
0.0000001
 44
0.0000000001
 40
0.0
 40
0.0
 40
0.0
 40
0.0
 40
0.1565618703
 40
0.2877410384
 40
0.3822801105
 40
0.4470429076
 40
0.5018622839
 40
0.5571366656
 40
0.6106344889
 40
0.660246121
 40
0.7521598007
 40
0.8388631102
 40
1.0
 40
1.0
 40
1.0
 40
1.0
 10
275.892914321
 20
235.275886335
 30
0.0
 10
275.8874835906
 20
235.3213657869
 30
0.0
 10
275.8768491449
 20
235.4048946846
 30
0.0
 10
275.8593731331
 20
235.5153277648
 30
0.0
 10
275.840665483
 20
235.5984808442
 30
0.0
 10
275.8174231777
 20
235.6568510508
 30
0.0
 10
275.7941641472
 20
235.7024209418
 30
0.0
 10
275.7739282251
 20
235.7457938672
 30
0.0
 10
275.7534916437
 20
235.7873912669
 30
0.0
 10
275.7258747061
 20
235.8373387388
 30
0.0
 10
275.6906938165
 20
235.8941171279
 30
0.0
 10
275.6357796906
 20
235.9769826335
 30
0.0
 10
275.5921797384
 20
236.0350058871
 30
0.0
 10
275.5629067375
 20
236.0719567121
 30
0.0
  0
SPLINE
  5
65E
100
AcDbEntity
  8
KONSTRUKTIONSELEMENTE
100
AcDbSpline
 62
7
  6
CONTINUOUS
 70
0
 71
3
 72
9
 73
5
 74
0
 42
0.0000001
 43
0.0000001
 44
0.0000000001
 40
0.0
 40
0.0
 40
0.0
 40
0.0
 40
0.4663567713
 40
1.0
 40
1.0
 40
1.0
 40
1.0
 10
274.4682628783
 20
231.9389545926
 30
0.0
 10
274.4626541007
 20
231.9223238607
 30
0.0
 10
274.4566951986
 20
231.8847653893
 30
0.0
 10
274.4554749331
 20
231.8471779684
 30
0.0
 10
274.4554749534
 20
231.827094625
 30
0.0
  0
LINE
  5
65F
100
AcDbEntity
  8
RUNDUNGEN
100
AcDbLine
 62
7
  6
CONTINUOUS
 10
319.8938849624
 20
224.3722209606
 11
319.8965686933
 21
224.3712612531
  0
SPLINE
  5
660
100
AcDbEntity
  8
RUNDUNGEN
100
AcDbSpline
 62
7
  6
CONTINUOUS
 70
0
 71
3
 72
20
 73
16
 74
0
 42
0.0000001
 43
0.0000001
 44
0.0000000001
 40
0.0
 40
0.0
 40
0.0
 40
0.0
 40
0.2075651283
 40
0.4127360384
 40
0.601559377
 40
0.682370521
 40
0.7502813413
 40
0.804756816
 40
0.8477817857
 40
0.8833042794
 40
0.9139969631
 40
0.9405674436
 40
0.9625393922
 40
0.9799249777
 40
1.0
 40
1.0
 40
1.0
 40
1.0
 10
319.039651479
 20
224.2452571841
 30
0.0
 10
319.1033413579
 20
224.2496372046
 30
0.0
 10
319.230716012
 20
224.2418109488
 30
0.0
 10
319.4143709801
 20
224.2221581556
 30
0.0
 10
319.5603888655
 20
224.2115587405
 30
0.0
 10
319.6642395659
 20
224.2171369647
 30
0.0
 10
319.7259860647
 20
224.2279022806
 30
0.0
 10
319.7743283357
 20
224.2449262963
 30
0.0
 10
319.8087899907
 20
224.2678887977
 30
0.0
 10
319.8310015067
 20
224.2935717202
 30
0.0
 10
319.8448296471
 20
224.3186192606
 30
0.0
 10
319.8545645919
 20
224.3410692535
 30
0.0
 10
319.862395201
 20
224.3594730365
 30
0.0
 10
319.8747608553
 20
224.3748120442
 30
0.0
 10
319.8879594966
 20
224.3739565871
 30
0.0
 10
319.8938849624
 20
224.3722209606
 30
0.0
  0
SPLINE
  5
661
100
AcDbEntity
  8
RUNDUNGEN
100
AcDbSpline
 62
7
  6
CONTINUOUS
 70
0
 71
3
 72
9
 73
5
 74
0
 42
0.0000001
 43
0.0000001
 44
0.0000000001
 40
0.0
 40
0.0
 40
0.0
 40
0.0
 40
0.531058338
 40
1.0
 40
1.0
 40
1.0
 40
1.0
 10
318.2169256911
 20
223.5167032955
 30
0.0
 10
318.346536526
 20
223.6623008627
 30
0.0
 10
318.6061159188
 20
223.9230417975
 30
0.0
 10
318.895808739
 20
224.1507174591
 30
0.0
 10
319.039651479
 20
224.2452571841
 30
0.0
  0
SPLINE
  5
662
100
AcDbEntity
  8
RUNDUNGEN
100
AcDbSpline
 62
7
  6
CONTINUOUS
 70
0
 71
3
 72
17
 73
13
 74
0
 42
0.0000001
 43
0.0000001
 44
0.0000000001
 40
0.0
 40
0.0
 40
0.0
 40
0.0
 40
0.1500259889
 40
0.3012495146
 40
0.4534602809
 40
0.6059493514
 40
0.7546901946
 40
0.8826355203
 40
0.9316953764
 40
0.966828467
 40
0.9885603906
 40
1.0
 40
1.0
 40
1.0
 40
1.0
 10
319.0396952317
 20
224.2452505066
 30
0.0
 10
319.119522301
 20
224.1916909345
 30
0.0
 10
319.280585481
 20
224.0852836842
 30
0.0
 10
319.5263686293
 20
223.9302647797
 30
0.0
 10
319.7778919797
 20
223.7815690074
 30
0.0
 10
320.0340404597
 20
223.6441713523
 30
0.0
 10
320.2833261651
 20
223.5277613552
 30
0.0
 10
320.4801975115
 20
223.4564682446
 30
0.0
 10
320.6117995718
 20
223.4230097376
 30
0.0
 10
320.6793446733
 20
223.4120101364
 30
0.0
 10
320.7225056841
 20
223.4112276255
 30
0.0
 10
320.7446684724
 20
223.4169047918
 30
0.0
 10
320.7498600174
 20
223.422079417
 30
0.0
  0
SPLINE
  5
663
100
AcDbEntity
  8
RUNDUNGEN
100
AcDbSpline
 62
7
  6
CONTINUOUS
 70
0
 71
3
 72
9
 73
5
 74
0
 42
0.0000001
 43
0.0000001
 44
0.0000000001
 40
0.0
 40
0.0
 40
0.0
 40
0.0
 40
0.1937640604
 40
1.0
 40
1.0
 40
1.0
 40
1.0
 10
319.9228593813
 20
224.3652941264
 30
0.0
 10
319.9211396662
 20
224.3653851068
 30
0.0
 10
319.9122528178
 20
224.365906797
 30
0.0
 10
319.9036614977
 20
224.368684824
 30
0.0
 10
319.8968825704
 20
224.371006874
 30
0.0
  0
SPLINE
  5
664
100
AcDbEntity
  8
KONSTRUKTIONSELEMENTE
100
AcDbSpline
 62
7
  6
CONTINUOUS
 70
0
 71
3
 72
9
 73
5
 74
0
 42
0.0000001
 43
0.0000001
 44
0.0000000001
 40
0.0
 40
0.0
 40
0.0
 40
0.0
 40
0.4983603377
 40
1.0
 40
1.0
 40
1.0
 40
1.0
 10
318.3414452562
 20
180.7058252365
 30
0.0
 10
318.3307516192
 20
180.717443174
 30
0.0
 10
318.3011386799
 20
180.733275847
 30
0.0
 10
318.2692561259
 20
180.735886335
 30
0.0
 10
318.253362025
 20
180.735886335
 30
0.0
  0
SPLINE
  5
665
100
AcDbEntity
  8
0
100
AcDbSpline
 62
7
  6
CONTINUOUS
 70
0
 71
3
 72
9
 73
5
 74
0
 42
0.0000001
 43
0.0000001
 44
0.0000000001
 40
0.0
 40
0.0
 40
0.0
 40
0.0
 40
0.2543212792
 40
1.0
 40
1.0
 40
1.0
 40
1.0
 10
113.0188218214
 20
67.5282083469
 30
0.0
 10
113.159762201
 20
67.5282083469
 30
0.0
 10
113.7136932115
 20
67.5090235083
 30
0.0
 10
114.2656800095
 20
67.4143195141
 30
0.0
 10
114.6622554361
 20
67.2981433235
 30
0.0
  0
SPLINE
  5
666
100
AcDbEntity
  8
0
100
AcDbSpline
 62
7
  6
CONTINUOUS
 70
0
 71
3
 72
9
 73
5
 74
0
 42
0.0000001
 43
0.0000001
 44
0.0000000001
 40
0.0
 40
0.0
 40
0.0
 40
0.0
 40
0.2647273222
 40
1.0
 40
1.0
 40
1.0
 40
1.0
 10
114.709811868
 20
67.2839688502
 30
0.0
 10
114.8309805452
 20
67.247231777
 30
0.0
 10
115.2833099233
 20
67.0921241108
 30
0.0
 10
115.7147261837
 20
66.8700640998
 30
0.0
 10
116.0005743156
 20
66.6652150303
 30
0.0
  0
SPLINE
  5
667
100
AcDbEntity
  8
0
100
AcDbSpline
 62
7
  6
CONTINUOUS
 70
0
 71
3
 72
9
 73
5
 74
0
 42
0.0000001
 43
0.0000001
 44
0.0000000001
 40
0.0
 40
0.0
 40
0.0
 40
0.0
 40
0.2747938129
 40
1.0
 40
1.0
 40
1.0
 40
1.0
 10
116.0610937685
 20
66.620846601
 30
0.0
 10
116.1455117539
 20
66.5575310797
 30
0.0
 10
116.4416600135
 20
66.3135393192
 30
0.0
 10
116.6929119898
 20
66.0093881407
 30
0.0
 10
116.8217009433
 20
65.7624705721
 30
0.0
  0
SPLINE
  5
668
100
AcDbEntity
  8
KONSTRUKTIONSELEMENTE
100
AcDbSpline
 62
7
  6
CONTINUOUS
 70
0
 71
3
 72
9
 73
5
 74
0
 42
0.0000001
 43
0.0000001
 44
0.0000000001
 40
0.0
 40
0.0
 40
0.0
 40
0.0
 40
0.2543212792
 40
1.0
 40
1.0
 40
1.0
 40
1.0
 10
109.0188218214
 20
67.5282083469
 30
0.0
 10
108.8778814418
 20
67.5282083469
 30
0.0
 10
108.3239504313
 20
67.5090235083
 30
0.0
 10
107.7719636334
 20
67.4143195141
 30
0.0
 10
107.3753882067
 20
67.2981433235
 30
0.0
  0
SPLINE
  5
669
100
AcDbEntity
  8
KONSTRUKTIONSELEMENTE
100
AcDbSpline
 62
7
  6
CONTINUOUS
 70
0
 71
3
 72
9
 73
5
 74
0
 42
0.0000001
 43
0.0000001
 44
0.0000000001
 40
0.0
 40
0.0
 40
0.0
 40
0.0
 40
0.2647273222
 40
1.0
 40
1.0
 40
1.0
 40
1.0
 10
107.3278317748
 20
67.2839688502
 30
0.0
 10
107.2066630976
 20
67.247231777
 30
0.0
 10
106.7543337195
 20
67.0921241108
 30
0.0
 10
106.3229174591
 20
66.8700640998
 30
0.0
 10
106.0370693272
 20
66.6652150303
 30
0.0
  0
SPLINE
  5
66A
100
AcDbEntity
  8
KONSTRUKTIONSELEMENTE
100
AcDbSpline
 62
7
  6
CONTINUOUS
 70
0
 71
3
 72
9
 73
5
 74
0
 42
0.0000001
 43
0.0000001
 44
0.0000000001
 40
0.0
 40
0.0
 40
0.0
 40
0.0
 40
0.2747938129
 40
1.0
 40
1.0
 40
1.0
 40
1.0
 10
105.9765498743
 20
66.620846601
 30
0.0
 10
105.8921318889
 20
66.5575310797
 30
0.0
 10
105.5959836293
 20
66.3135393192
 30
0.0
 10
105.3447316531
 20
66.0093881407
 30
0.0
 10
105.2159426996
 20
65.7624705721
 30
0.0
  0
SPLINE
  5
66B
100
AcDbEntity
  8
BEZUGSACHSEN
100
AcDbSpline
 62
7
  6
CONTINUOUS
 70
0
 71
3
 72
13
 73
9
 74
0
 42
0.0000001
 43
0.0000001
 44
0.0000000001
 40
0.0
 40
0.0
 40
0.0
 40
0.0
 40
0.2689256595
 40
0.5444488081
 40
0.6737973813
 40
0.7927277434
 40
0.9007107307
 40
1.0
 40
1.0
 40
1.0
 40
1.0
 10
102.9747048873
 20
69.1114079905
 30
0.0
 10
102.8556666723
 20
69.1683828901
 30
0.0
 10
102.588447171
 20
69.2309242477
 30
0.0
 10
102.2526290519
 20
69.1942766954
 30
0.0
 10
102.0138852588
 20
69.0946289903
 30
0.0
 10
101.8698636964
 20
68.9924307018
 30
0.0
 10
101.7671165608
 20
68.8667787879
 30
0.0
 10
101.7309011766
 20
68.7690204473
 30
0.0
 10
101.7230304444
 20
68.7209358697
 30
0.0
  0
SPLINE
  5
66C
100
AcDbEntity
  8
0
100
AcDbSpline
 62
7
  6
CONTINUOUS
 70
0
 71
3
 72
13
 73
9
 74
0
 42
0.0000001
 43
0.0000001
 44
0.0000000001
 40
0.0
 40
0.0
 40
0.0
 40
0.0
 40
0.2689256595
 40
0.5444488081
 40
0.6737973813
 40
0.7927277434
 40
0.9007107307
 40
1.0
 40
1.0
 40
1.0
 40
1.0
 10
119.0629387555
 20
69.1114079905
 30
0.0
 10
119.1819769705
 20
69.1683828901
 30
0.0
 10
119.4491964718
 20
69.2309242477
 30
0.0
 10
119.7850145909
 20
69.1942766954
 30
0.0
 10
120.023758384
 20
69.0946289903
 30
0.0
 10
120.1677799464
 20
68.9924307018
 30
0.0
 10
120.270527082
 20
68.8667787879
 30
0.0
 10
120.3067424663
 20
68.7690204473
 30
0.0
 10
120.3146131984
 20
68.7209358697
 30
0.0
  0
SPLINE
  5
66D
100
AcDbEntity
  8
BEZUGSACHSEN
100
AcDbSpline
 62
7
  6
CONTINUOUS
 70
0
 71
3
 72
17
 73
13
 74
0
 42
0.0000001
 43
0.0000001
 44
0.0000000001
 40
0.0
 40
0.0
 40
0.0
 40
0.0
 40
0.1094047735
 40
0.2377172659
 40
0.3813330525
 40
0.5296320684
 40
0.6702422372
 40
0.7938498625
 40
0.8488715433
 40
0.9002607656
 40
0.9498696405
 40
1.0
 40
1.0
 40
1.0
 40
1.0
 10
105.7098704886
 20
72.8597289018
 30
0.0
 10
105.7098704886
 20
72.9337486643
 30
0.0
 10
105.6610603733
 20
73.0948023515
 30
0.0
 10
105.4919503232
 20
73.2954249192
 30
0.0
 10
105.2513101362
 20
73.4532577066
 30
0.0
 10
104.9707967585
 20
73.5473604081
 30
0.0
 10
104.6890720071
 20
73.5658202057
 30
0.0
 10
104.4740763874
 20
73.5114749139
 30
0.0
 10
104.3430606774
 20
73.4248536357
 30
0.0
 10
104.2719359954
 20
73.3450062409
 30
0.0
 10
104.228116661
 20
73.2509929796
 30
0.0
 10
104.2188323773
 20
73.1830287915
 30
0.0
 10
104.2188323773
 20
73.1491121973
 30
0.0
  0
SPLINE
  5
66E
100
AcDbEntity
  8
BEZUGSACHSEN
100
AcDbSpline
 62
7
  6
CONTINUOUS
 70
0
 71
3
 72
18
 73
14
 74
0
 42
0.0000001
 43
0.0000001
 44
0.0000000001
 40
0.0
 40
0.0
 40
0.0
 40
0.0
 40
0.0990722017
 40
0.1562466896
 40
0.2188697973
 40
0.3579271654
 40
0.5077593495
 40
0.655840402
 40
0.790119837
 40
0.8497452887
 40
0.9039424062
 40
0.95345301
 40
1.0
 40
1.0
 40
1.0
 40
1.0
 10
103.2700947381
 20
74.5905066865
 30
0.0
 10
103.2665229411
 20
74.6535168667
 30
0.0
 10
103.228051916
 20
74.7514788995
 30
0.0
 10
103.1392168141
 20
74.85915436
 30
0.0
 10
103.0132278611
 20
74.9668834329
 30
0.0
 10
102.8119972218
 20
75.071376235
 30
0.0
 10
102.5401599856
 20
75.1405659009
 30
0.0
 10
102.2628651954
 20
75.1495406737
 30
0.0
 10
102.0464996152
 20
75.1038617495
 30
0.0
 10
101.9039825039
 20
75.033724989
 30
0.0
 10
101.8207330186
 20
74.9699425932
 30
0.0
 10
101.7600184156
 20
74.8945982066
 30
0.0
 10
101.7362430804
 20
74.8370465415
 30
0.0
 10
101.7293051538
 20
74.808218108
 30
0.0
  0
SPLINE
  5
66F
100
AcDbEntity
  8
BEZUGSACHSEN
100
AcDbSpline
 62
7
  6
CONTINUOUS
 70
0
 71
3
 72
15
 73
11
 74
0
 42
0.0000001
 43
0.0000001
 44
0.0000000001
 40
0.0
 40
0.0
 40
0.0
 40
0.0
 40
0.099037729
 40
0.2235669174
 40
0.3684415979
 40
0.5226066329
 40
0.6729649718
 40
0.7429087028
 40
0.8076076995
 40
1.0
 40
1.0
 40
1.0
 40
1.0
 10
105.6397628304
 20
75.3220111158
 30
0.0
 10
105.6270504695
 20
75.3738113408
 30
0.0
 10
105.5639938436
 20
75.4815023159
 30
0.0
 10
105.4144659819
 20
75.6140921487
 30
0.0
 10
105.2147394938
 20
75.7273961856
 30
0.0
 10
104.9854401837
 20
75.8083884017
 30
0.0
 10
104.7859130286
 20
75.8432627962
 30
0.0
 10
104.6314786865
 20
75.8465388973
 30
0.0
 10
104.4589094928
 20
75.8316252273
 30
0.0
 10
104.3044075684
 20
75.774174273
 30
0.0
 10
104.2530440523
 20
75.6841874405
 30
0.0
  0
SPLINE
  5
670
100
AcDbEntity
  8
BEZUGSACHSEN
100
AcDbSpline
 62
7
  6
CONTINUOUS
 70
0
 71
3
 72
8
 73
4
 74
0
 42
0.0000001
 43
0.0000001
 44
0.0000000001
 40
0.0
 40
0.0
 40
0.0
 40
0.0
 40
1.0
 40
1.0
 40
1.0
 40
1.0
 10
104.2530440523
 20
75.6841874405
 30
0.0
 10
104.238575839
 20
75.6588397075
 30
0.0
 10
104.2298124875
 20
75.6294186412
 30
0.0
 10
104.2279915996
 20
75.6002892551
 30
0.0
  0
SPLINE
  5
671
100
AcDbEntity
  8
BEZUGSACHSEN
100
AcDbSpline
 62
7
  6
CONTINUOUS
 70
0
 71
3
 72
16
 73
12
 74
0
 42
0.0000001
 43
0.0000001
 44
0.0000000001
 40
0.0
 40
0.0
 40
0.0
 40
0.0
 40
0.0826261431
 40
0.1349786199
 40
0.1947641979
 40
0.3333184971
 40
0.4879888788
 40
0.6447822866
 40
0.7892790988
 40
0.9095295195
 40
1.0
 40
1.0
 40
1.0
 40
1.0
 10
103.2777176063
 20
76.7377126407
 30
0.0
 10
103.2680643
 20
76.7833097298
 30
0.0
 10
103.2229085051
 20
76.8505292852
 30
0.0
 10
103.1402732147
 20
76.9222920997
 30
0.0
 10
103.020994948
 20
76.9994510029
 30
0.0
 10
102.8364526528
 20
77.0774670868
 30
0.0
 10
102.5892176883
 20
77.1386936495
 30
0.0
 10
102.3324807895
 20
77.1645785629
 30
0.0
 10
102.0936430855
 20
77.1521149321
 30
0.0
 10
101.8982775109
 20
77.1043406999
 30
0.0
 10
101.792295325
 20
77.0403549108
 30
0.0
 10
101.7594479509
 20
77.0012988897
 30
0.0
  0
SPLINE
  5
672
100
AcDbEntity
  8
BEZUGSACHSEN
100
AcDbSpline
 62
7
  6
CONTINUOUS
 70
0
 71
3
 72
9
 73
5
 74
0
 42
0.0000001
 43
0.0000001
 44
0.0000000001
 40
0.0
 40
0.0
 40
0.0
 40
0.0
 40
0.5165935276
 40
1.0
 40
1.0
 40
1.0
 40
1.0
 10
101.7594479509
 20
77.0012988897
 30
0.0
 10
101.7471040796
 20
76.9866218414
 30
0.0
 10
101.7268211283
 20
76.9546802355
 30
0.0
 10
101.7189061005
 20
76.9174390652
 30
0.0
 10
101.7184771116
 20
76.8994984426
 30
0.0
  0
SPLINE
  5
673
100
AcDbEntity
  8
BEZUGSACHSEN
100
AcDbSpline
 62
7
  6
CONTINUOUS
 70
0
 71
3
 72
15
 73
11
 74
0
 42
0.0000001
 43
0.0000001
 44
0.0000000001
 40
0.0
 40
0.0
 40
0.0
 40
0.0
 40
0.1099742174
 40
0.2316654155
 40
0.3657484946
 40
0.5066435431
 40
0.6459463881
 40
0.7758987478
 40
0.8928165851
 40
1.0
 40
1.0
 40
1.0
 40
1.0
 10
103.2700947381
 20
71.8370883837
 30
0.0
 10
103.2736200156
 20
71.9132529815
 30
0.0
 10
103.2378377356
 20
72.0771246161
 30
0.0
 10
103.0809775958
 20
72.2837568855
 30
0.0
 10
102.8482370733
 20
72.4383413392
 30
0.0
 10
102.5699777783
 20
72.523459679
 30
0.0
 10
102.2818111177
 20
72.5293133317
 30
0.0
 10
102.0199502569
 20
72.4539262693
 30
0.0
 10
101.8178150279
 20
72.3031005337
 30
0.0
 10
101.7450730206
 20
72.1573983232
 30
0.0
 10
101.7302161205
 20
72.0845873748
 30
0.0
  0
SPLINE
  5
674
100
AcDbEntity
  8
BEZUGSACHSEN
100
AcDbSpline
 62
7
  6
CONTINUOUS
 70
0
 71
3
 72
15
 73
11
 74
0
 42
0.0000001
 43
0.0000001
 44
0.0000000001
 40
0.0
 40
0.0
 40
0.0
 40
0.0
 40
0.1158028395
 40
0.2424531982
 40
0.3786145937
 40
0.5177702206
 40
0.6519797058
 40
0.7757834803
 40
0.8894425199
 40
1.0
 40
1.0
 40
1.0
 40
1.0
 10
105.6397628304
 20
69.8151745102
 30
0.0
 10
105.653371798
 20
69.8949324382
 30
0.0
 10
105.638105741
 20
70.0708517502
 30
0.0
 10
105.5056478634
 20
70.3068261548
 30
0.0
 10
105.2898728256
 20
70.4943353091
 30
0.0
 10
105.0222548789
 20
70.6081041001
 30
0.0
 10
104.7406632223
 20
70.6322811612
 30
0.0
 10
104.4839621221
 20
70.5604108946
 30
0.0
 10
104.2928214914
 20
70.3954648624
 30
0.0
 10
104.2376843193
 20
70.2402699827
 30
0.0
 10
104.2300476268
 20
70.1634026597
 30
0.0
  0
SPLINE
  5
675
100
AcDbEntity
  8
BEZUGSACHSEN
100
AcDbSpline
 62
7
  6
CONTINUOUS
 70
0
 71
3
 72
9
 73
5
 74
0
 42
0.0000001
 43
0.0000001
 44
0.0000000001
 40
0.0
 40
0.0
 40
0.0
 40
0.0
 40
0.2455876306
 40
1.0
 40
1.0
 40
1.0
 40
1.0
 10
104.2279915996
 20
70.0934526495
 30
0.0
 10
104.2284013907
 20
70.0830044153
 30
0.0
 10
104.2313647499
 20
70.0405171423
 30
0.0
 10
104.2393879724
 20
69.9984163699
 30
0.0
 10
104.2479045994
 20
69.967445773
 30
0.0
  0
SPLINE
  5
676
100
AcDbEntity
  8
BEZUGSACHSEN
100
AcDbSpline
 62
7
  6
CONTINUOUS
 70
0
 71
3
 72
10
 73
6
 74
0
 42
0.0000001
 43
0.0000001
 44
0.0000000001
 40
0.0
 40
0.0
 40
0.0
 40
0.0
 40
0.2392199459
 40
0.4852560832
 40
1.0
 40
1.0
 40
1.0
 40
1.0
 10
103.2777176063
 20
68.4774577324
 30
0.0
 10
103.2840672183
 20
68.5353695751
 30
0.0
 10
103.279463349
 20
68.6554479519
 30
0.0
 10
103.2029037315
 20
68.8890518346
 30
0.0
 10
103.075397712
 20
69.0367362049
 30
0.0
 10
102.9747048873
 20
69.1114079905
 30
0.0
  0
SPLINE
  5
677
100
AcDbEntity
  8
0
100
AcDbSpline
 62
7
  6
CONTINUOUS
 70
0
 71
3
 72
9
 73
5
 74
0
 42
0.0000001
 43
0.0000001
 44
0.0000000001
 40
0.0
 40
0.0
 40
0.0
 40
0.0
 40
0.2533140496
 40
1.0
 40
1.0
 40
1.0
 40
1.0
 10
118.7954095495
 20
74.4483860334
 30
0.0
 10
118.7901597362
 20
74.4595104116
 30
0.0
 10
118.7720434419
 20
74.5046183593
 30
0.0
 10
118.7654968201
 20
74.5543057988
 30
0.0
 10
118.7675489048
 20
74.5905066865
 30
0.0
  0
SPLINE
  5
678
100
AcDbEntity
  8
0
100
AcDbSpline
 62
7
  6
CONTINUOUS
 70
0
 71
3
 72
9
 73
5
 74
0
 42
0.0000001
 43
0.0000001
 44
0.0000000001
 40
0.0
 40
0.0
 40
0.0
 40
0.0
 40
0.5104088703
 40
1.0
 40
1.0
 40
1.0
 40
1.0
 10
116.6909678406
 20
69.4513632312
 30
0.0
 10
116.6161433057
 20
69.4849708146
 30
0.0
 10
116.4802734647
 20
69.5833575727
 30
0.0
 10
116.4111145865
 20
69.7376154754
 30
0.0
 10
116.3978808125
 20
69.8151745102
 30
0.0
  0
SPLINE
  5
679
100
AcDbEntity
  8
0
100
AcDbSpline
 62
7
  6
CONTINUOUS
 70
0
 71
3
 72
9
 73
5
 74
0
 42
0.0000001
 43
0.0000001
 44
0.0000000001
 40
0.0
 40
0.0
 40
0.0
 40
0.0
 40
0.5005788729
 40
1.0
 40
1.0
 40
1.0
 40
1.0
 10
116.4136789206
 20
72.6288412553
 30
0.0
 10
116.3863712079
 20
72.6604709725
 30
0.0
 10
116.3421467472
 20
72.7337086152
 30
0.0
 10
116.3277731542
 20
72.8180385854
 30
0.0
 10
116.3277731542
 20
72.8597289018
 30
0.0
  0
SPLINE
  5
67A
100
AcDbEntity
  8
0
100
AcDbSpline
 62
7
  6
CONTINUOUS
 70
0
 71
3
 72
9
 73
5
 74
0
 42
0.0000001
 43
0.0000001
 44
0.0000000001
 40
0.0
 40
0.0
 40
0.0
 40
0.0
 40
0.2536773207
 40
1.0
 40
1.0
 40
1.0
 40
1.0
 10
118.8295790817
 20
71.6303751017
 30
0.0
 10
118.8202620917
 20
71.6461856284
 30
0.0
 10
118.787190347
 20
71.7105984237
 30
0.0
 10
118.7700451831
 20
71.7831555999
 30
0.0
 10
118.7675489048
 20
71.8370883837
 30
0.0
  0
SPLINE
  5
67B
100
AcDbEntity
  8
0
100
AcDbSpline
 62
7
  6
CONTINUOUS
 70
0
 71
3
 72
9
 73
5
 74
0
 42
0.0000001
 43
0.0000001
 44
0.0000000001
 40
0.0
 40
0.0
 40
0.0
 40
0.0
 40
0.7438227106
 40
1.0
 40
1.0
 40
1.0
 40
1.0
 10
118.7648415121
 20
76.6546058828
 30
0.0
 10
118.7580065544
 20
76.6742381721
 30
0.0
 10
118.7543332309
 20
76.7030340388
 30
0.0
 10
118.7584431659
 20
76.7307083481
 30
0.0
 10
118.7599260365
 20
76.7377126407
 30
0.0
  0
SPLINE
  5
67C
100
AcDbEntity
  8
0
100
AcDbSpline
 62
7
  6
CONTINUOUS
 70
0
 71
3
 72
9
 73
5
 74
0
 42
0.0000001
 43
0.0000001
 44
0.0000000001
 40
0.0
 40
0.0
 40
0.0
 40
0.0
 40
0.2526874346
 40
1.0
 40
1.0
 40
1.0
 40
1.0
 10
118.8669231763
 20
68.1967193729
 30
0.0
 10
118.8522040669
 20
68.2174929325
 30
0.0
 10
118.7990293118
 20
68.3031992862
 30
0.0
 10
118.7681324938
 20
68.4026104704
 30
0.0
 10
118.7599260365
 20
68.4774577324
 30
0.0
  0
SPLINE
  5
67D
100
AcDbEntity
  8
0
100
AcDbSpline
 62
7
  6
CONTINUOUS
 70
0
 71
3
 72
9
 73
5
 74
0
 42
0.0000001
 43
0.0000001
 44
0.0000000001
 40
0.0
 40
0.0
 40
0.0
 40
0.0
 40
0.4964973939
 40
1.0
 40
1.0
 40
1.0
 40
1.0
 10
116.4511670033
 20
75.1242025143
 30
0.0
 10
116.4264167965
 20
75.1491724351
 30
0.0
 10
116.387003541
 20
75.2127894106
 30
0.0
 10
116.3893831119
 20
75.2873847545
 30
0.0
 10
116.3978808125
 20
75.3220111158
 30
0.0
  0
SPLINE
  5
67E
100
AcDbEntity
  8
BEZUGSACHSEN
100
AcDbSpline
 62
7
  6
CONTINUOUS
 70
0
 71
3
 72
9
 73
5
 74
0
 42
0.0000001
 43
0.0000001
 44
0.0000000001
 40
0.0
 40
0.0
 40
0.0
 40
0.0
 40
0.2526874346
 40
1.0
 40
1.0
 40
1.0
 40
1.0
 10
103.1707204665
 20
68.1967193729
 30
0.0
 10
103.1854395759
 20
68.2174929325
 30
0.0
 10
103.238614331
 20
68.3031992862
 30
0.0
 10
103.269511149
 20
68.4026104704
 30
0.0
 10
103.2777176063
 20
68.4774577324
 30
0.0
  0
SPLINE
  5
67F
100
AcDbEntity
  8
BEZUGSACHSEN
100
AcDbSpline
 62
7
  6
CONTINUOUS
 70
0
 71
3
 72
9
 73
5
 74
0
 42
0.0000001
 43
0.0000001
 44
0.0000000001
 40
0.0
 40
0.0
 40
0.0
 40
0.0
 40
0.5104088703
 40
1.0
 40
1.0
 40
1.0
 40
1.0
 10
105.3466758023
 20
69.4513632312
 30
0.0
 10
105.4215003371
 20
69.4849708146
 30
0.0
 10
105.5573701781
 20
69.5833575727
 30
0.0
 10
105.6265290564
 20
69.7376154754
 30
0.0
 10
105.6397628304
 20
69.8151745102
 30
0.0
  0
SPLINE
  5
680
100
AcDbEntity
  8
BEZUGSACHSEN
100
AcDbSpline
 62
7
  6
CONTINUOUS
 70
0
 71
3
 72
9
 73
5
 74
0
 42
0.0000001
 43
0.0000001
 44
0.0000000001
 40
0.0
 40
0.0
 40
0.0
 40
0.0
 40
0.2536773207
 40
1.0
 40
1.0
 40
1.0
 40
1.0
 10
103.2080645611
 20
71.6303751017
 30
0.0
 10
103.2173815511
 20
71.6461856284
 30
0.0
 10
103.2504532958
 20
71.7105984237
 30
0.0
 10
103.2675984598
 20
71.7831555999
 30
0.0
 10
103.2700947381
 20
71.8370883837
 30
0.0
  0
SPLINE
  5
681
100
AcDbEntity
  8
BEZUGSACHSEN
100
AcDbSpline
 62
7
  6
CONTINUOUS
 70
0
 71
3
 72
9
 73
5
 74
0
 42
0.0000001
 43
0.0000001
 44
0.0000000001
 40
0.0
 40
0.0
 40
0.0
 40
0.0
 40
0.7438227106
 40
1.0
 40
1.0
 40
1.0
 40
1.0
 10
103.2728021307
 20
76.6546058828
 30
0.0
 10
103.2796370884
 20
76.6742381721
 30
0.0
 10
103.283310412
 20
76.7030340388
 30
0.0
 10
103.2792004769
 20
76.7307083481
 30
0.0
 10
103.2777176063
 20
76.7377126407
 30
0.0
  0
SPLINE
  5
682
100
AcDbEntity
  8
BEZUGSACHSEN
100
AcDbSpline
 62
7
  6
CONTINUOUS
 70
0
 71
3
 72
9
 73
5
 74
0
 42
0.0000001
 43
0.0000001
 44
0.0000000001
 40
0.0
 40
0.0
 40
0.0
 40
0.0
 40
0.4964973939
 40
1.0
 40
1.0
 40
1.0
 40
1.0
 10
105.5864766395
 20
75.1242025143
 30
0.0
 10
105.6112268463
 20
75.1491724351
 30
0.0
 10
105.6506401018
 20
75.2127894106
 30
0.0
 10
105.6482605309
 20
75.2873847545
 30
0.0
 10
105.6397628304
 20
75.3220111158
 30
0.0
  0
SPLINE
  5
683
100
AcDbEntity
  8
BEZUGSACHSEN
100
AcDbSpline
 62
7
  6
CONTINUOUS
 70
0
 71
3
 72
9
 73
5
 74
0
 42
0.0000001
 43
0.0000001
 44
0.0000000001
 40
0.0
 40
0.0
 40
0.0
 40
0.0
 40
0.2533140496
 40
1.0
 40
1.0
 40
1.0
 40
1.0
 10
103.2422340933
 20
74.4483860334
 30
0.0
 10
103.2474839066
 20
74.4595104116
 30
0.0
 10
103.2656002009
 20
74.5046183593
 30
0.0
 10
103.2721468227
 20
74.5543057988
 30
0.0
 10
103.2700947381
 20
74.5905066865
 30
0.0
  0
SPLINE
  5
684
100
AcDbEntity
  8
BEZUGSACHSEN
100
AcDbSpline
 62
7
  6
CONTINUOUS
 70
0
 71
3
 72
9
 73
5
 74
0
 42
0.0000001
 43
0.0000001
 44
0.0000000001
 40
0.0
 40
0.0
 40
0.0
 40
0.0
 40
0.5005788729
 40
1.0
 40
1.0
 40
1.0
 40
1.0
 10
105.6239647223
 20
72.6288412553
 30
0.0
 10
105.6512724349
 20
72.6604709725
 30
0.0
 10
105.6954968956
 20
72.7337086152
 30
0.0
 10
105.7098704886
 20
72.8180385854
 30
0.0
 10
105.7098704886
 20
72.8597289018
 30
0.0
  0
SPLINE
  5
685
100
AcDbEntity
  8
0
100
AcDbSpline
 62
7
  6
CONTINUOUS
 70
0
 71
3
 72
17
 73
13
 74
0
 42
0.0000001
 43
0.0000001
 44
0.0000000001
 40
0.0
 40
0.0
 40
0.0
 40
0.0
 40
0.1094047735
 40
0.2377172659
 40
0.3813330525
 40
0.5296320684
 40
0.6702422372
 40
0.7938498625
 40
0.8488715433
 40
0.9002607656
 40
0.9498696405
 40
1.0
 40
1.0
 40
1.0
 40
1.0
 10
116.3277731542
 20
72.8597289018
 30
0.0
 10
116.3277731542
 20
72.9337486643
 30
0.0
 10
116.3765832695
 20
73.0948023515
 30
0.0
 10
116.5456933196
 20
73.2954249192
 30
0.0
 10
116.7863335066
 20
73.4532577066
 30
0.0
 10
117.0668468843
 20
73.5473604081
 30
0.0
 10
117.3485716357
 20
73.5658202057
 30
0.0
 10
117.5635672554
 20
73.5114749139
 30
0.0
 10
117.6945829654
 20
73.4248536357
 30
0.0
 10
117.7657076474
 20
73.3450062409
 30
0.0
 10
117.8095269818
 20
73.2509929796
 30
0.0
 10
117.8188112656
 20
73.1830287915
 30
0.0
 10
117.8188112656
 20
73.1491121973
 30
0.0
  0
SPLINE
  5
686
100
AcDbEntity
  8
0
100
AcDbSpline
 62
7
  6
CONTINUOUS
 70
0
 71
3
 72
18
 73
14
 74
0
 42
0.0000001
 43
0.0000001
 44
0.0000000001
 40
0.0
 40
0.0
 40
0.0
 40
0.0
 40
0.0990722017
 40
0.1562466896
 40
0.2188697973
 40
0.3579271654
 40
0.5077593495
 40
0.655840402
 40
0.790119837
 40
0.8497452887
 40
0.9039424062
 40
0.95345301
 40
1.0
 40
1.0
 40
1.0
 40
1.0
 10
118.7675489048
 20
74.5905066865
 30
0.0
 10
118.7711207017
 20
74.6535168667
 30
0.0
 10
118.8095917268
 20
74.7514788995
 30
0.0
 10
118.8984268287
 20
74.85915436
 30
0.0
 10
119.0244157817
 20
74.9668834329
 30
0.0
 10
119.225646421
 20
75.071376235
 30
0.0
 10
119.4974836572
 20
75.1405659009
 30
0.0
 10
119.7747784474
 20
75.1495406737
 30
0.0
 10
119.9911440276
 20
75.1038617495
 30
0.0
 10
120.1336611389
 20
75.033724989
 30
0.0
 10
120.2169106242
 20
74.9699425932
 30
0.0
 10
120.2776252272
 20
74.8945982066
 30
0.0
 10
120.3014005624
 20
74.8370465415
 30
0.0
 10
120.308338489
 20
74.808218108
 30
0.0
  0
SPLINE
  5
687
100
AcDbEntity
  8
0
100
AcDbSpline
 62
7
  6
CONTINUOUS
 70
0
 71
3
 72
15
 73
11
 74
0
 42
0.0000001
 43
0.0000001
 44
0.0000000001
 40
0.0
 40
0.0
 40
0.0
 40
0.0
 40
0.099037729
 40
0.2235669174
 40
0.3684415979
 40
0.5226066329
 40
0.6729649718
 40
0.7429087028
 40
0.8076076995
 40
1.0
 40
1.0
 40
1.0
 40
1.0
 10
116.3978808125
 20
75.3220111158
 30
0.0
 10
116.4105931733
 20
75.3738113408
 30
0.0
 10
116.4736497993
 20
75.4815023159
 30
0.0
 10
116.6231776609
 20
75.6140921487
 30
0.0
 10
116.822904149
 20
75.7273961856
 30
0.0
 10
117.0522034591
 20
75.8083884017
 30
0.0
 10
117.2517306142
 20
75.8432627962
 30
0.0
 10
117.4061649564
 20
75.8465388973
 30
0.0
 10
117.57873415
 20
75.8316252273
 30
0.0
 10
117.7332360744
 20
75.774174273
 30
0.0
 10
117.7845995905
 20
75.6841874405
 30
0.0
  0
SPLINE
  5
688
100
AcDbEntity
  8
0
100
AcDbSpline
 62
7
  6
CONTINUOUS
 70
0
 71
3
 72
8
 73
4
 74
0
 42
0.0000001
 43
0.0000001
 44
0.0000000001
 40
0.0
 40
0.0
 40
0.0
 40
0.0
 40
1.0
 40
1.0
 40
1.0
 40
1.0
 10
117.7845995905
 20
75.6841874405
 30
0.0
 10
117.7990678039
 20
75.6588397075
 30
0.0
 10
117.8078311553
 20
75.6294186412
 30
0.0
 10
117.8096520432
 20
75.6002892551
 30
0.0
  0
SPLINE
  5
689
100
AcDbEntity
  8
0
100
AcDbSpline
 62
7
  6
CONTINUOUS
 70
0
 71
3
 72
16
 73
12
 74
0
 42
0.0000001
 43
0.0000001
 44
0.0000000001
 40
0.0
 40
0.0
 40
0.0
 40
0.0
 40
0.0826261431
 40
0.1349786199
 40
0.1947641979
 40
0.3333184971
 40
0.4879888788
 40
0.6447822866
 40
0.7892790988
 40
0.9095295195
 40
1.0
 40
1.0
 40
1.0
 40
1.0
 10
118.7599260365
 20
76.7377126407
 30
0.0
 10
118.7695793428
 20
76.7833097298
 30
0.0
 10
118.8147351377
 20
76.8505292852
 30
0.0
 10
118.8973704281
 20
76.9222920997
 30
0.0
 10
119.0166486948
 20
76.9994510029
 30
0.0
 10
119.20119099
 20
77.0774670868
 30
0.0
 10
119.4484259545
 20
77.1386936495
 30
0.0
 10
119.7051628533
 20
77.1645785629
 30
0.0
 10
119.9440005573
 20
77.1521149321
 30
0.0
 10
120.1393661319
 20
77.1043406999
 30
0.0
 10
120.2453483178
 20
77.0403549108
 30
0.0
 10
120.2781956919
 20
77.0012988897
 30
0.0
  0
SPLINE
  5
68A
100
AcDbEntity
  8
0
100
AcDbSpline
 62
7
  6
CONTINUOUS
 70
0
 71
3
 72
9
 73
5
 74
0
 42
0.0000001
 43
0.0000001
 44
0.0000000001
 40
0.0
 40
0.0
 40
0.0
 40
0.0
 40
0.5165935276
 40
1.0
 40
1.0
 40
1.0
 40
1.0
 10
120.2781956919
 20
77.0012988897
 30
0.0
 10
120.2905395632
 20
76.9866218414
 30
0.0
 10
120.3108225145
 20
76.9546802355
 30
0.0
 10
120.3187375423
 20
76.9174390652
 30
0.0
 10
120.3191665312
 20
76.8994984426
 30
0.0
  0
SPLINE
  5
68B
100
AcDbEntity
  8
0
100
AcDbSpline
 62
7
  6
CONTINUOUS
 70
0
 71
3
 72
15
 73
11
 74
0
 42
0.0000001
 43
0.0000001
 44
0.0000000001
 40
0.0
 40
0.0
 40
0.0
 40
0.0
 40
0.1099742174
 40
0.2316654155
 40
0.3657484946
 40
0.5066435431
 40
0.6459463881
 40
0.7758987478
 40
0.8928165851
 40
1.0
 40
1.0
 40
1.0
 40
1.0
 10
118.7675489048
 20
71.8370883837
 30
0.0
 10
118.7640236272
 20
71.9132529815
 30
0.0
 10
118.7998059072
 20
72.0771246161
 30
0.0
 10
118.9566660471
 20
72.2837568855
 30
0.0
 10
119.1894065696
 20
72.4383413392
 30
0.0
 10
119.4676658645
 20
72.523459679
 30
0.0
 10
119.7558325252
 20
72.5293133317
 30
0.0
 10
120.0176933859
 20
72.4539262693
 30
0.0
 10
120.2198286149
 20
72.3031005337
 30
0.0
 10
120.2925706222
 20
72.1573983232
 30
0.0
 10
120.3074275224
 20
72.0845873748
 30
0.0
  0
SPLINE
  5
68C
100
AcDbEntity
  8
0
100
AcDbSpline
 62
7
  6
CONTINUOUS
 70
0
 71
3
 72
15
 73
11
 74
0
 42
0.0000001
 43
0.0000001
 44
0.0000000001
 40
0.0
 40
0.0
 40
0.0
 40
0.0
 40
0.1158028395
 40
0.2424531982
 40
0.3786145937
 40
0.5177702206
 40
0.6519797058
 40
0.7757834803
 40
0.8894425199
 40
1.0
 40
1.0
 40
1.0
 40
1.0
 10
116.3978808125
 20
69.8151745102
 30
0.0
 10
116.3842718448
 20
69.8949324382
 30
0.0
 10
116.3995379018
 20
70.0708517502
 30
0.0
 10
116.5319957794
 20
70.3068261548
 30
0.0
 10
116.7477708173
 20
70.4943353091
 30
0.0
 10
117.0153887639
 20
70.6081041001
 30
0.0
 10
117.2969804205
 20
70.6322811612
 30
0.0
 10
117.5536815207
 20
70.5604108946
 30
0.0
 10
117.7448221514
 20
70.3954648624
 30
0.0
 10
117.7999593235
 20
70.2402699827
 30
0.0
 10
117.807596016
 20
70.1634026597
 30
0.0
  0
SPLINE
  5
68D
100
AcDbEntity
  8
0
100
AcDbSpline
 62
7
  6
CONTINUOUS
 70
0
 71
3
 72
9
 73
5
 74
0
 42
0.0000001
 43
0.0000001
 44
0.0000000001
 40
0.0
 40
0.0
 40
0.0
 40
0.0
 40
0.2455876306
 40
1.0
 40
1.0
 40
1.0
 40
1.0
 10
117.8096520432
 20
70.0934526495
 30
0.0
 10
117.8092422521
 20
70.0830044153
 30
0.0
 10
117.8062788929
 20
70.0405171423
 30
0.0
 10
117.7982556704
 20
69.9984163699
 30
0.0
 10
117.7897390435
 20
69.967445773
 30
0.0
  0
SPLINE
  5
68E
100
AcDbEntity
  8
0
100
AcDbSpline
 62
7
  6
CONTINUOUS
 70
0
 71
3
 72
10
 73
6
 74
0
 42
0.0000001
 43
0.0000001
 44
0.0000000001
 40
0.0
 40
0.0
 40
0.0
 40
0.0
 40
0.2392199459
 40
0.4852560832
 40
1.0
 40
1.0
 40
1.0
 40
1.0
 10
118.7599260365
 20
68.4774577324
 30
0.0
 10
118.7535764246
 20
68.5353695751
 30
0.0
 10
118.7581802938
 20
68.6554479519
 30
0.0
 10
118.8347399113
 20
68.8890518346
 30
0.0
 10
118.9622459308
 20
69.0367362049
 30
0.0
 10
119.0629387555
 20
69.1114079905
 30
0.0
  0
LINE
  5
68F
100
AcDbEntity
  8
RUNDUNGEN
100
AcDbLine
 62
7
  6
CONTINUOUS
 10
105.2891307654
 20
56.4438721587
 11
105.2986836373
 21
56.4411884278
  0
SPLINE
  5
690
100
AcDbEntity
  8
RUNDUNGEN
100
AcDbSpline
 62
7
  6
CONTINUOUS
 70
0
 71
3
 72
15
 73
11
 74
0
 42
0.0000001
 43
0.0000001
 44
0.0000000001
 40
0.0
 40
0.0
 40
0.0
 40
0.0
 40
0.1263043816
 40
0.2522041581
 40
0.3783521116
 40
0.5040694392
 40
0.6277045152
 40
0.7502405574
 40
0.8740530468
 40
1.0
 40
1.0
 40
1.0
 40
1.0
 10
104.1422444464
 20
57.2981056422
 30
0.0
 10
104.1656116676
 20
57.2351797133
 30
0.0
 10
104.2030722843
 20
57.1063698609
 30
0.0
 10
104.2683863512
 20
56.9160312933
 30
0.0
 10
104.3655964489
 20
56.7380046019
 30
0.0
 10
104.5144878228
 20
56.598676562
 30
0.0
 10
104.6996129028
 20
56.5206656975
 30
0.0
 10
104.894636663
 20
56.490138025
 30
0.0
 10
105.0915651519
 20
56.4746920344
 30
0.0
 10
105.2241737443
 20
56.4600220724
 30
0.0
 10
105.2891307654
 20
56.4438721587
 30
0.0
  0
SPLINE
  5
691
100
AcDbEntity
  8
RUNDUNGEN
100
AcDbSpline
 62
7
  6
CONTINUOUS
 70
0
 71
3
 72
9
 73
5
 74
0
 42
0.0000001
 43
0.0000001
 44
0.0000000001
 40
0.0
 40
0.0
 40
0.0
 40
0.0
 40
0.4617986218
 40
1.0
 40
1.0
 40
1.0
 40
1.0
 10
103.6545408422
 20
58.1208314301
 30
0.0
 10
103.6849951389
 20
57.9752840358
 30
0.0
 10
103.8152787362
 20
57.6734834604
 30
0.0
 10
104.0198910863
 20
57.4208367777
 30
0.0
 10
104.1422444464
 20
57.2981056422
 30
0.0
  0
SPLINE
  5
692
100
AcDbEntity
  8
RUNDUNGEN
100
AcDbSpline
 62
7
  6
CONTINUOUS
 70
0
 71
3
 72
16
 73
12
 74
0
 42
0.0000001
 43
0.0000001
 44
0.0000000001
 40
0.0
 40
0.0
 40
0.0
 40
0.0
 40
0.2315371433
 40
0.3496376129
 40
0.4705480437
 40
0.5959421393
 40
0.6606627307
 40
0.7272912065
 40
0.7949303968
 40
0.8629775492
 40
1.0
 40
1.0
 40
1.0
 40
1.0
 10
104.1422523007
 20
57.2980618895
 30
0.0
 10
104.1025532187
 20
57.1375904167
 30
0.0
 10
104.0514426404
 20
56.892508222
 30
0.0
 10
104.0226312563
 20
56.5571541705
 30
0.0
 10
104.0332816125
 20
56.2965517864
 30
0.0
 10
104.0844780924
 20
56.0773197187
 30
0.0
 10
104.1716360476
 20
55.9147211832
 30
0.0
 10
104.2628597399
 20
55.8046609014
 30
0.0
 10
104.3752226416
 20
55.712249
 30
0.0
 10
104.5498409156
 20
55.6231709123
 30
0.0
 10
104.6966679767
 20
55.59515994
 30
0.0
 10
104.794227076
 20
55.5878971037
 30
0.0
  0
SPLINE
  5
693
100
AcDbEntity
  8
RUNDUNGEN
100
AcDbSpline
 62
7
  6
CONTINUOUS
 70
0
 71
3
 72
9
 73
5
 74
0
 42
0.0000001
 43
0.0000001
 44
0.0000000001
 40
0.0
 40
0.0
 40
0.0
 40
0.0
 40
0.5005245737
 40
1.0
 40
1.0
 40
1.0
 40
1.0
 10
105.4265969341
 20
56.4148977399
 30
0.0
 10
105.4050426551
 20
56.4182342537
 30
0.0
 10
105.36196692
 20
56.4250066926
 30
0.0
 10
105.3195884334
 20
56.4353356396
 30
0.0
 10
105.2985397395
 20
56.4408745508
 30
0.0
  0
SPLINE
  5
694
100
AcDbEntity
  8
0
100
AcDbSpline
 62
7
  6
CONTINUOUS
 70
0
 71
3
 72
9
 73
5
 74
0
 42
0.0000001
 43
0.0000001
 44
0.0000000001
 40
0.0
 40
0.0
 40
0.0
 40
0.0
 40
0.5005245737
 40
1.0
 40
1.0
 40
1.0
 40
1.0
 10
116.6110467087
 20
56.4148977399
 30
0.0
 10
116.6326009877
 20
56.4182342537
 30
0.0
 10
116.6756767228
 20
56.4250066926
 30
0.0
 10
116.7180552095
 20
56.4353356396
 30
0.0
 10
116.7391039033
 20
56.4408745508
 30
0.0
  0
SPLINE
  5
695
100
AcDbEntity
  8
0
100
AcDbSpline
 62
7
  6
CONTINUOUS
 70
0
 71
3
 72
9
 73
5
 74
0
 42
0.0000001
 43
0.0000001
 44
0.0000000001
 40
0.0
 40
0.0
 40
0.0
 40
0.0
 40
0.4937647164
 40
1.0
 40
1.0
 40
1.0
 40
1.0
 10
125.9388909499
 20
101.8694936531
 30
0.0
 10
125.8781593954
 20
101.8489414366
 30
0.0
 10
125.7496780836
 20
101.8221261929
 30
0.0
 10
125.6186492048
 20
101.825949575
 30
0.0
 10
125.5535176267
 20
101.8348296743
 30
0.0
  0
SPLINE
  5
696
100
AcDbEntity
  8
KONSTRUKTIONSELEMENTE
100
AcDbSpline
 62
7
  6
CONTINUOUS
 70
0
 71
3
 72
9
 73
5
 74
0
 42
0.0000001
 43
0.0000001
 44
0.0000000001
 40
0.0
 40
0.0
 40
0.0
 40
0.0
 40
0.4937647164
 40
1.0
 40
1.0
 40
1.0
 40
1.0
 10
96.0987526929
 20
101.8694936531
 30
0.0
 10
96.1594842474
 20
101.8489414366
 30
0.0
 10
96.2879655592
 20
101.8221261929
 30
0.0
 10
96.418994438
 20
101.825949575
 30
0.0
 10
96.4841260161
 20
101.8348296743
 30
0.0
  0
SPLINE
  5
697
100
AcDbEntity
  8
0
100
AcDbSpline
 62
7
  6
CONTINUOUS
 70
0
 71
3
 72
9
 73
5
 74
0
 42
0.0000001
 43
0.0000001
 44
0.0000000001
 40
0.0
 40
0.0
 40
0.0
 40
0.0
 40
0.4617986218
 40
1.0
 40
1.0
 40
1.0
 40
1.0
 10
118.3831028006
 20
58.1208314301
 30
0.0
 10
118.3526485039
 20
57.9752840358
 30
0.0
 10
118.2223649066
 20
57.6734834604
 30
0.0
 10
118.0177525565
 20
57.4208367777
 30
0.0
 10
117.8953991964
 20
57.2981056422
 30
0.0
  0
SPLINE
  5
698
100
AcDbEntity
  8
0
100
AcDbSpline
 62
7
  6
CONTINUOUS
 70
0
 71
3
 72
15
 73
11
 74
0
 42
0.0000001
 43
0.0000001
 44
0.0000000001
 40
0.0
 40
0.0
 40
0.0
 40
0.0
 40
0.1263043816
 40
0.2522041581
 40
0.3783521116
 40
0.5040694392
 40
0.6277045152
 40
0.7502405574
 40
0.8740530468
 40
1.0
 40
1.0
 40
1.0
 40
1.0
 10
117.8953991964
 20
57.2981056422
 30
0.0
 10
117.8720319752
 20
57.2351797133
 30
0.0
 10
117.8345713586
 20
57.1063698609
 30
0.0
 10
117.7692572916
 20
56.9160312933
 30
0.0
 10
117.6720471939
 20
56.7380046019
 30
0.0
 10
117.52315582
 20
56.598676562
 30
0.0
 10
117.33803074
 20
56.5206656975
 30
0.0
 10
117.1430069798
 20
56.490138025
 30
0.0
 10
116.9460784909
 20
56.4746920344
 30
0.0
 10
116.8134698985
 20
56.4600220724
 30
0.0
 10
116.7485128775
 20
56.4438721587
 30
0.0
  0
LINE
  5
699
100
AcDbEntity
  8
0
100
AcDbLine
 62
7
  6
CONTINUOUS
 10
116.7485128775
 20
56.4438721587
 11
116.7389600055
 21
56.4411884278
  0
SPLINE
  5
69A
100
AcDbEntity
  8
0
100
AcDbSpline
 62
7
  6
CONTINUOUS
 70
0
 71
3
 72
16
 73
12
 74
0
 42
0.0000001
 43
0.0000001
 44
0.0000000001
 40
0.0
 40
0.0
 40
0.0
 40
0.0
 40
0.2315371433
 40
0.3496376129
 40
0.4705480437
 40
0.5959421393
 40
0.6606627307
 40
0.7272912065
 40
0.7949303968
 40
0.8629775492
 40
1.0
 40
1.0
 40
1.0
 40
1.0
 10
117.8953913421
 20
57.2980618895
 30
0.0
 10
117.9350904242
 20
57.1375904167
 30
0.0
 10
117.9862010024
 20
56.892508222
 30
0.0
 10
118.0150123865
 20
56.5571541705
 30
0.0
 10
118.0043620303
 20
56.2965517864
 30
0.0
 10
117.9531655505
 20
56.0773197187
 30
0.0
 10
117.8660075953
 20
55.9147211832
 30
0.0
 10
117.7747839029
 20
55.8046609014
 30
0.0
 10
117.6624210012
 20
55.712249
 30
0.0
 10
117.4878027272
 20
55.6231709123
 30
0.0
 10
117.3409756661
 20
55.59515994
 30
0.0
 10
117.2434165668
 20
55.5878971037
 30
0.0
  0
ELLIPSE
  5
69B
100
AcDbEntity
  8
KONSTRUKTIONSELEMENTE
100
AcDbEllipse
 62
7
  6
CONTINUOUS
 10
113.5188218214
 20
216.6171377191
 30
0.0
 11
11.5
 21
-0.0
 31
0.0
 40
0.7954374101
 41
-3.1415926536
 42
-2.9431915612
  0
ELLIPSE
  5
69C
100
AcDbEntity
  8
KONSTRUKTIONSELEMENTE
100
AcDbEllipse
 62
7
  6
CONTINUOUS
 10
108.0188218214
 20
61.2455748733
 30
0.0
 11
6.0
 21
-0.0
 31
0.0
 40
0.6084619688
 41
-3.1415926536
 42
-2.9352694217
  0
ELLIPSE
  5
69D
100
AcDbEntity
  8
KONSTRUKTIONSELEMENTE
100
AcDbEllipse
 62
7
  6
CONTINUOUS
 10
108.0188218214
 20
59.7327997052
 30
0.0
 11
6.0
 21
0.0
 31
0.0
 40
0.6222619915
 41
2.9352694217
 42
3.1415926536
  0
ENDSEC
  0
SECTION
  2
OBJECTS
  0
DICTIONARY
  5
C
100
AcDbDictionary
280
0
281
1
  3
ACAD_GROUP
350
D
  3
ACAD_MLINESTYLE
350
17
  3
ACAD_LAYOUT
350
1A
  3
ACAD_PLOTSETTINGS
350
19
  3
ACAD_PLOTSTYLENAME
350
E
  0
DICTIONARY
  5
D
102
{ACAD_REACTORS
330
C
102
}
100
AcDbDictionary
280
0
281
1
  0
ACDBDICTIONARYWDFLT
  5
E
102
{ACAD_REACTORS
330
C
102
}
100
AcDbDictionary
281
1
  3
Normal
350
F
100
AcDbDictionaryWithDefault
340
F
  0
DICTIONARY
  5
17
102
{ACAD_REACTORS
330
C
102
}
100
AcDbDictionary
280
0
281
1
  3
Standard
350
18
  0
DICTIONARY
  5
19
102
{ACAD_REACTORS
330
C
102
}
100
AcDbDictionary
281
1
  0
DICTIONARY
  5
1A
102
{ACAD_REACTORS
330
C
102
}
100
AcDbDictionary
281
1
  3
Model
350
69E
  3
Layout1
350
69F
  0
ACDBPLACEHOLDER
  5
F
102
{ACAD_REACTORS
330
E
102
}
  0
MLINESTYLE
  5
18
102
{ACAD_REACTORS
330
17
102
}
100
AcDbMlineStyle
  2
STANDARD
 70
0
  3

 62
256
 51
90.0
 52
90.0
 71
2
 49
0.5
 62
256
  6
BYLAYER
 49
-0.5
 62
256
  6
BYLAYER
  0
LAYOUT
  5
69E
102
{ACAD_REACTORS
330
1A
102
}
100
AcDbPlotSettings
  1

  2
none_device
  4
ISO_A3_(420.00_x_297.00_MM)
  6

 40
0.0
 41
0.0
 42
0.0
 43
0.0
 44
420.0
 45
297.0
 46
0.0
 47
0.0
 48
0.0
 49
0.0
140
0.0
141
0.0
142
1.0
143
1.0
 70
1024
 72
1
 73
0
 74
0
  7

 75
0
147
1.0
148
0.0
149
0.0
100
AcDbLayout
  1
Model
 70
0
 71
0
 10
0.0
 20
0.0
 11
420.0
 21
297.0
 12
0.0
 22
0.0
 32
0.0
 14
0.0
 24
0.0
 34
0.0
 15
0.0
 25
0.0
 35
0.0
146
0.0
 13
0.0
 23
0.0
 33
0.0
 16
1.0
 26
0.0
 36
0.0
 17
0.0
 27
1.0
 37
0.0
 76
0
330
20D
345
0
346
0
  0
LAYOUT
  5
69F
102
{ACAD_REACTORS
330
1A
102
}
100
AcDbPlotSettings
  1

  2
none_device
  4
ISO_A3_(420.00_x_297.00_MM)
  6

 40
0.0
 41
0.0
 42
0.0
 43
0.0
 44
420.0
 45
297.0
 46
0.0
 47
0.0
 48
0.0
 49
0.0
140
0.0
141
0.0
142
1.0
143
1.0
 70
0
 72
1
 73
0
 74
0
  7

 75
0
147
1.0
148
0.0
149
0.0
100
AcDbLayout
  1
Layout1
 70
0
 71
1
 10
0.0
 20
0.0
 11
420.0
 21
297.0
 12
0.0
 22
0.0
 32
0.0
 14
0.0
 24
0.0
 34
0.0
 15
0.0
 25
0.0
 35
0.0
146
0.0
 13
0.0
 23
0.0
 33
0.0
 16
1.0
 26
0.0
 36
0.0
 17
0.0
 27
1.0
 37
0.0
 76
0
330
20E
345
0
346
0
  0
ENDSEC
  0
EOF
