999
DXF file: 001-m32120-p6.dxf
999
Pro/ENGINEER 2011490 by Parametric Technology Corporation
  0
SECTION
  2
HEADER
  9
$ACADVER
  1
AC1015
  9
$DWGCODEPAGE
  3
ANSI_1252
  9
$EXTMAX
 10
420.0
 20
297.0
 30
0.0
  9
$EXTMIN
 10
0.0
 20
0.0
 30
0.0
  9
$LIMMIN
 10
0.0
 20
0.0
  9
$LIMMAX
 10
420.0
 20
297.0
  9
$VIEWCTR
 10
210.0
 20
148.5
  9
$VIEWSIZE
 40
297.0
  9
$CLAYER
  8
0
  9
$LTSCALE
 40
23.1
  9
$CELTYPE
  6
BYLAYER
  9
$DIMSCALE
 40
1.0
  9
$DIMASZ
 40
3.5
  9
$DIMEXO
 40
2.625
  9
$DIMDLI
 40
15.96
  9
$DIMEXE
 40
7.56
  9
$DIMCEN
 40
3.78
  9
$DIMLFAC
 40
1.0
  9
$DIMBLK
  1
_FILLED
  9
$DIMTXT
 40
3.5
  9
$DIMTOL
 70
1
  9
$DIMLIM
 70
0
  9
$DIMTFAC
 40
1.0
  9
$DIMTP
 40
0.005
  9
$DIMTM
 40
0.005
  9
$PDMODE
 70
3
  9
$PDSIZE
 40
0.3125
  9
$HANDSEED
  5
48B
  9
$TILEMODE
 70
1
  9
$MEASUREMENT
 70
1
  9
$INSUNITS
 70
4
  0
ENDSEC
  0
SECTION
  2
CLASSES
  0
CLASS
  1
ACDBDICTIONARYWDFLT
  2
AcDbDictionaryWithDefault
  3
AutoCAD 2000
 90
0
280
0
281
0
  0
CLASS
  1
ACDBPLACEHOLDER
  2
AcDbPlaceHolder
  3
AutoCAD 2000
 90
0
280
0
281
0
  0
CLASS
  1
LAYOUT
  2
AcDbLayout
  3
AutoCAD 2000
 90
0
280
0
281
0
  0
ENDSEC
  0
SECTION
  2
TABLES
  0
TABLE
  2
VPORT
  5
8
100
AcDbSymbolTable
 70
2
  0
VPORT
  5
1F4
100
AcDbSymbolTableRecord
100
AcDbViewportTableRecord
  2
*ACTIVE
 70
0
 10
0.0
 20
0.0
 11
1.0
 21
1.0
 12
210.0
 22
148.5
 13
0.0
 23
0.0
 14
1.0
 24
1.0
 15
0.0
 25
0.0
 16
0.0
 26
0.0
 36
1.0
 17
0.0
 27
0.0
 37
0.0
 40
297.0
 41
1.4141414141
 42
50.0
 43
0.0
 44
0.0
 50
0.0
 51
0.0
 71
0
 72
100
 73
1
 74
1
 75
0
 76
0
 77
0
 78
0
  0
ENDTAB
  0
TABLE
  2
LTYPE
  5
5
100
AcDbSymbolTable
 70
6
  0
LTYPE
  5
14
100
AcDbSymbolTableRecord
100
AcDbLinetypeTableRecord
  2
BYBLOCK
 70
0
  3

 72
65
 73
0
 40
0.0
  0
LTYPE
  5
15
100
AcDbSymbolTableRecord
100
AcDbLinetypeTableRecord
  2
BYLAYER
 70
0
  3

 72
65
 73
0
 40
0.0
  0
LTYPE
  5
16
100
AcDbSymbolTableRecord
100
AcDbLinetypeTableRecord
  2
CONTINUOUS
 70
64
  3
Solid line
 72
65
 73
0
 40
0.0
  0
LTYPE
  5
1F5
100
AcDbSymbolTableRecord
100
AcDbLinetypeTableRecord
  2
CENTER
 70
64
  3
____ _ ____ _ ____ _ ____ _ ____ _ ____ _ ____
 72
65
 73
4
 40
0.6
 49
0.375
 74
0
 49
-0.075
 74
0
 49
0.075
 74
0
 49
-0.075
 74
0
  0
LTYPE
  5
1F6
100
AcDbSymbolTableRecord
100
AcDbLinetypeTableRecord
  2
HIDDEN
 70
64
  3
- - - - - - - - - - - - - - - - - - - -
 72
65
 73
2
 40
0.2
 49
0.1
 74
0
 49
-0.1
 74
0
  0
LTYPE
  5
1F7
100
AcDbSymbolTableRecord
100
AcDbLinetypeTableRecord
  2
PHANTOM
 70
64
  3
_____ _ _ _____ _ _ _____ _ _ _____
 72
65
 73
6
 40
0.8
 49
0.45
 74
0
 49
-0.05
 74
0
 49
0.1
 74
0
 49
-0.05
 74
0
 49
0.1
 74
0
 49
-0.05
 74
0
  0
LTYPE
  5
1F8
100
AcDbSymbolTableRecord
100
AcDbLinetypeTableRecord
  2
DOT
 70
64
  3
. . . . . . . . . . . . . . . . . . . .
 72
65
 73
2
 40
0.2
 49
0.1
 74
0
 49
-0.1
 74
0
  0
LTYPE
  5
1F9
100
AcDbSymbolTableRecord
100
AcDbLinetypeTableRecord
  2
DASHED
 70
64
  3
- - - - - - - - - - - - - - - - - - - -
 72
65
 73
2
 40
0.2
 49
0.1
 74
0
 49
-0.1
 74
0
  0
ENDTAB
  0
TABLE
  2
LAYER
  5
2
100
AcDbSymbolTable
 70
36
  0
LAYER
  5
10
100
AcDbSymbolTableRecord
100
AcDbLayerTableRecord
  2
0
 70
0
 62
7
  6
CONTINUOUS
370
-3
390
F
  0
LAYER
  5
1FA
100
AcDbSymbolTableRecord
100
AcDbLayerTableRecord
  2
DEFAULT_1
 70
0
 62
7
  6
CENTER
370
-3
390
F
  0
LAYER
  5
1FB
100
AcDbSymbolTableRecord
100
AcDbLayerTableRecord
  2
DEFAULT_2
 70
0
 62
8
  6
HIDDEN
370
-3
390
F
  0
LAYER
  5
1FC
100
AcDbSymbolTableRecord
100
AcDbLayerTableRecord
  2
DEFAULT_3
 70
0
 62
7
  6
PHANTOM
370
-3
390
F
  0
LAYER
  5
1FD
100
AcDbSymbolTableRecord
100
AcDbLayerTableRecord
  2
AUSFORMSCHRAEGEN
 70
0
 62
7
  6
CONTINUOUS
370
-3
390
F
  0
LAYER
  5
1FE
100
AcDbSymbolTableRecord
100
AcDbLayerTableRecord
  2
BEZUGSACHSEN
 70
0
 62
7
  6
CONTINUOUS
370
-3
390
F
  0
LAYER
  5
1FF
100
AcDbSymbolTableRecord
100
AcDbLayerTableRecord
  2
BEZUGSEBENEN
 70
0
 62
7
  6
CONTINUOUS
370
-3
390
F
  0
LAYER
  5
200
100
AcDbSymbolTableRecord
100
AcDbLayerTableRecord
  2
BG_STARTBEZUEGE
 70
0
 62
7
  6
CONTINUOUS
370
-3
390
F
  0
LAYER
  5
201
100
AcDbSymbolTableRecord
100
AcDbLayerTableRecord
  2
FASEN
 70
0
 62
7
  6
CONTINUOUS
370
-3
390
F
  0
LAYER
  5
202
100
AcDbSymbolTableRecord
100
AcDbLayerTableRecord
  2
FLAECHENVERBUND
 70
0
 62
7
  6
CONTINUOUS
370
-3
390
F
  0
LAYER
  5
203
100
AcDbSymbolTableRecord
100
AcDbLayerTableRecord
  2
HILFEN
 70
0
 62
7
  6
CONTINUOUS
370
-3
390
F
  0
LAYER
  5
204
100
AcDbSymbolTableRecord
100
AcDbLayerTableRecord
  2
KONSTRUKTIONSELEMENTE
 70
0
 62
7
  6
CONTINUOUS
370
-3
390
F
  0
LAYER
  5
205
100
AcDbSymbolTableRecord
100
AcDbLayerTableRecord
  2
KURVEN
 70
0
 62
7
  6
CONTINUOUS
370
-3
390
F
  0
LAYER
  5
206
100
AcDbSymbolTableRecord
100
AcDbLayerTableRecord
  2
NORM
 70
0
 62
7
  6
CONTINUOUS
370
-3
390
F
  0
LAYER
  5
207
100
AcDbSymbolTableRecord
100
AcDbLayerTableRecord
  2
PLATZIERUNG
 70
0
 62
7
  6
CONTINUOUS
370
-3
390
F
  0
LAYER
  5
208
100
AcDbSymbolTableRecord
100
AcDbLayerTableRecord
  2
RUNDUNGEN
 70
0
 62
7
  6
CONTINUOUS
370
-3
390
F
  0
LAYER
  5
209
100
AcDbSymbolTableRecord
100
AcDbLayerTableRecord
  2
TEIL_STARTBEZUEGE
 70
0
 62
7
  6
CONTINUOUS
370
-3
390
F
  0
LAYER
  5
20A
100
AcDbSymbolTableRecord
100
AcDbLayerTableRecord
  2
T_STARTBEZUEGE
 70
0
 62
7
  6
CONTINUOUS
370
-3
390
F
  0
ENDTAB
  0
TABLE
  2
STYLE
  5
3
100
AcDbSymbolTable
 70
1
  0
STYLE
  5
11
100
AcDbSymbolTableRecord
100
AcDbTextStyleTableRecord
  2
STANDARD
 70
0
 40
0.0
 41
0.7
 50
0.0
 71
0
 42
0.2
  3
txt
  4

  0
STYLE
  5
20B
100
AcDbSymbolTableRecord
100
AcDbTextStyleTableRecord
  2
TEXTSTYLE_1
 70
0
 40
0.0
 41
0.8
 50
0.0
 71
0
 42
0.2
  3
gdt
  4

  0
ENDTAB
  0
TABLE
  2
VIEW
  5
6
100
AcDbSymbolTable
 70
0
  0
ENDTAB
  0
TABLE
  2
UCS
  5
7
100
AcDbSymbolTable
 70
0
  0
ENDTAB
  0
TABLE
  2
APPID
  5
9
100
AcDbSymbolTable
 70
1
  0
APPID
  5
20C
100
AcDbSymbolTableRecord
100
AcDbRegAppTableRecord
  2
ACAD
 70
0
  0
ENDTAB
  0
TABLE
  2
BLOCK_RECORD
  5
1
100
AcDbSymbolTable
 70
0
  0
BLOCK_RECORD
  5
20D
100
AcDbSymbolTableRecord
100
AcDbBlockTableRecord
  2
*Model_Space
  0
BLOCK_RECORD
  5
20E
100
AcDbSymbolTableRecord
100
AcDbBlockTableRecord
  2
*Paper_Space
  0
ENDTAB
  0
TABLE
  2
DIMSTYLE
  5
A
100
AcDbSymbolTable
 70
1
100
AcDbDimStyleTable
 71
0
  0
DIMSTYLE
105
20F
100
AcDbSymbolTableRecord
100
AcDbDimStyleTableRecord
  2
STANDARD
 70
0
  3

  4

 40
1.0
 41
3.5
 42
0.0625
 43
0.38
 44
0.18
 45
0.0
 46
0.0
 47
0.005
 48
0.005
140
3.5
141
0.09
142
0.0
143
25.4
144
1.0
145
0.0
146
1.0
147
0.09
 71
1.0
 72
0.0
 73
0
 74
0
 75
0
 76
0
 77
1
 78
8
170
0
171
2
172
0
173
0
174
0
175
0
176
0
177
0
178
5
270
2
271
3
272
3
273
2
274
2
275
0
280
0
281
0
282
0
283
1
284
8
285
0
286
0
287
3
288
0
340
11
  0
ENDTAB
  0
ENDSEC
  0
SECTION
  2
BLOCKS
  0
BLOCK
  5
20
100
AcDbEntity
  8
0
100
AcDbBlockBegin
  2
*Model_Space
 70
0
 10
0.0
 20
0.0
 30
0.0
  3
*Model_Space
  1

  0
ENDBLK
  5
21
100
AcDbEntity
  8
0
100
AcDbBlockEnd
  0
BLOCK
  5
1C
100
AcDbEntity
  8
0
100
AcDbBlockBegin
  2
*Paper_Space
 70
0
 10
0.0
 20
0.0
 30
0.0
  3
*Paper_Space
  1

  0
ENDBLK
  5
1D
100
AcDbEntity
  8
0
100
AcDbBlockEnd
  0
ENDSEC
  0
SECTION
  2
ENTITIES
  0
MTEXT
  5
210
100
AcDbEntity
  8
0
100
AcDbMText
 62
5
  6
CONTINUOUS
  7
STANDARD
 71
2
 72
1
 10
136.5597607291
 20
71.29184919
 30
0.0
 11
1.0
 21
0.0
 31
0.0
 44
0.9
  1
VLBS-U-LT-6,7t\PRUD
 40
6.0
 41
62.2857142857
  0
MTEXT
  5
211
100
AcDbEntity
  8
0
100
AcDbMText
 62
5
  6
CONTINUOUS
  7
STANDARD
 71
2
 72
1
 10
139.9188330045
 20
266.9451731168
 30
0.0
 11
1.0
 21
0.0
 31
0.0
 44
0.9
  1
RUD\PVLBS-U-LT-6,7t
 40
6.0
 41
61.1428571429
  0
MTEXT
  5
212
100
AcDbEntity
  8
0
100
AcDbMText
 62
5
  6
CONTINUOUS
  7
STANDARD
 71
2
 72
1
 10
265.8469109985
 20
197.1459557839
 30
0.0
 11
0.0
 21
1.0
 31
0.0
 44
0.9
  1
VLBS-U-LT-6,7t\PRUD
 40
6.0
 41
62.2857142857
  0
LINE
  5
213
100
AcDbEntity
  8
0
100
AcDbLine
 62
7
  6
CONTINUOUS
 10
0.0
 20
0.0
 11
0.0
 21
297.0
  0
LINE
  5
214
100
AcDbEntity
  8
0
100
AcDbLine
 62
7
  6
CONTINUOUS
 10
0.0
 20
0.0
 11
420.0
 21
0.0
  0
LINE
  5
215
100
AcDbEntity
  8
0
100
AcDbLine
 62
7
  6
CONTINUOUS
 10
0.0
 20
297.0
 11
420.0
 21
297.0
  0
LINE
  5
216
100
AcDbEntity
  8
0
100
AcDbLine
 62
7
  6
CONTINUOUS
 10
420.0
 20
0.0
 11
420.0
 21
297.0
  0
LINE
  5
217
100
AcDbEntity
  8
KONSTRUKTIONSELEMENTE
100
AcDbLine
 62
7
  6
CONTINUOUS
 10
109.9616264404
 20
132.0149323904
 11
166.153106384
 21
132.0149323904
  0
LINE
  5
218
100
AcDbEntity
  8
BEZUGSACHSEN
100
AcDbLine
 62
7
  6
CONTINUOUS
 10
191.5573665122
 20
134.0149323904
 11
166.885906801
 21
134.0149323904
  0
LINE
  5
219
100
AcDbEntity
  8
BEZUGSACHSEN
100
AcDbLine
 62
7
  6
CONTINUOUS
 10
109.2286601997
 20
134.0149323904
 11
84.5573663122
 21
134.0149323904
  0
LINE
  5
21A
100
AcDbEntity
  8
KONSTRUKTIONSELEMENTE
100
AcDbLine
 62
7
  6
CONTINUOUS
 10
167.5814603066
 20
135.0149323904
 11
108.5332725178
 21
135.0149323904
  0
LINE
  5
21B
100
AcDbEntity
  8
RUNDUNGEN
100
AcDbLine
 62
7
  6
CONTINUOUS
 10
134.0089785104
 20
271.7096580688
 11
100.8307839658
 21
257.9667999134
  0
LINE
  5
21C
100
AcDbEntity
  8
RUNDUNGEN
100
AcDbLine
 62
7
  6
CONTINUOUS
 10
80.5573663122
 20
215.0149323904
 11
80.5573663122
 21
138.0149323904
  0
LINE
  5
21D
100
AcDbEntity
  8
RUNDUNGEN
100
AcDbLine
 62
7
  6
CONTINUOUS
 10
95.1054988893
 20
252.2415148369
 11
81.3626407338
 21
219.0633202923
  0
LINE
  5
21E
100
AcDbEntity
  8
0
100
AcDbLine
 62
7
  6
CONTINUOUS
 10
111.0573664122
 20
147.3888252779
 11
165.0573664122
 21
147.3888252779
  0
LINE
  5
21F
100
AcDbEntity
  8
0
100
AcDbLine
 62
7
  6
CONTINUOUS
 10
135.6040329199
 20
154.0856871147
 11
136.6040333968
 21
154.0856871147
  0
LINE
  5
220
100
AcDbEntity
  8
0
100
AcDbLine
 62
7
  6
CONTINUOUS
 10
142.1040333968
 20
154.0856871147
 11
143.1040333968
 21
154.0856871147
  0
LINE
  5
221
100
AcDbEntity
  8
0
100
AcDbLine
 62
7
  6
CONTINUOUS
 10
143.7706994277
 20
154.9699880086
 11
143.1040333968
 21
154.8157228718
  0
LINE
  5
222
100
AcDbEntity
  8
0
100
AcDbLine
 62
7
  6
CONTINUOUS
 10
142.1040333968
 20
158.6723516171
 11
141.2706994277
 21
158.5180864803
  0
LINE
  5
223
100
AcDbEntity
  8
0
100
AcDbLine
 62
7
  6
CONTINUOUS
 10
143.1040333968
 20
154.8157228718
 11
142.1040333968
 21
154.8157228718
  0
LINE
  5
224
100
AcDbEntity
  8
0
100
AcDbLine
 62
7
  6
CONTINUOUS
 10
142.1040333968
 20
154.9112277144
 11
143.1040333968
 21
154.9112277144
  0
LINE
  5
225
100
AcDbEntity
  8
0
100
AcDbLine
 62
7
  6
CONTINUOUS
 10
140.6040333968
 20
155.8955789378
 11
139.6834720888
 21
155.8955789378
  0
LINE
  5
226
100
AcDbEntity
  8
0
100
AcDbLine
 62
7
  6
CONTINUOUS
 10
139.6040333968
 20
156.0493854692
 11
140.6040333968
 21
156.0493854692
  0
LINE
  5
227
100
AcDbEntity
  8
0
100
AcDbLine
 62
7
  6
CONTINUOUS
 10
131.6040331584
 20
156.3708382639
 11
135.6040329199
 21
156.3708382639
  0
LINE
  5
228
100
AcDbEntity
  8
0
100
AcDbLine
 62
7
  6
CONTINUOUS
 10
136.6040333968
 20
156.3708382639
 11
138.2706994277
 21
156.3708382639
  0
LINE
  5
229
100
AcDbEntity
  8
0
100
AcDbLine
 62
7
  6
CONTINUOUS
 10
127.9373664122
 20
156.8499251734
 11
130.2706996661
 21
156.8499251734
  0
LINE
  5
22A
100
AcDbEntity
  8
0
100
AcDbLine
 62
7
  6
CONTINUOUS
 10
138.2706994277
 20
157.1297002486
 11
136.6040333968
 21
157.1297002486
  0
LINE
  5
22B
100
AcDbEntity
  8
0
100
AcDbLine
 62
7
  6
CONTINUOUS
 10
135.6040329199
 20
157.1297002486
 11
132.7706999045
 21
157.1297002486
  0
LINE
  5
22C
100
AcDbEntity
  8
0
100
AcDbLine
 62
7
  6
CONTINUOUS
 10
132.7706999045
 20
157.3253140542
 11
135.6040329199
 21
157.3253140542
  0
LINE
  5
22D
100
AcDbEntity
  8
0
100
AcDbLine
 62
7
  6
CONTINUOUS
 10
136.6040333968
 20
157.3253140542
 11
138.2706994277
 21
157.3253140542
  0
LINE
  5
22E
100
AcDbEntity
  8
0
100
AcDbLine
 62
7
  6
CONTINUOUS
 10
130.2706996661
 20
157.4382305223
 11
127.9373664122
 21
157.4382305223
  0
LINE
  5
22F
100
AcDbEntity
  8
0
100
AcDbLine
 62
7
  6
CONTINUOUS
 10
139.6040333968
 20
157.4829571068
 11
140.7706994277
 21
157.4829571068
  0
LINE
  5
230
100
AcDbEntity
  8
0
100
AcDbLine
 62
7
  6
CONTINUOUS
 10
127.9373664122
 20
157.6401908224
 11
130.2706996661
 21
157.6401908224
  0
LINE
  5
231
100
AcDbEntity
  8
0
100
AcDbLine
 62
7
  6
CONTINUOUS
 10
142.1040333968
 20
158.1094386242
 11
143.1040333968
 21
158.1094386242
  0
LINE
  5
232
100
AcDbEntity
  8
0
100
AcDbLine
 62
7
  6
CONTINUOUS
 10
143.1040333968
 20
158.6723516171
 11
142.1040333968
 21
158.6723516171
  0
LINE
  5
233
100
AcDbEntity
  8
0
100
AcDbLine
 62
7
  6
CONTINUOUS
 10
142.1040333968
 20
158.8833505901
 11
143.1040333968
 21
158.8833505901
  0
LINE
  5
234
100
AcDbEntity
  8
0
100
AcDbLine
 62
7
  6
CONTINUOUS
 10
150.6873664122
 20
159.6849735569
 11
151.1873664122
 21
159.6849735569
  0
LINE
  5
235
100
AcDbEntity
  8
0
100
AcDbLine
 62
7
  6
CONTINUOUS
 10
140.4373664122
 20
160.6990579717
 11
145.2707003813
 21
160.6990579717
  0
LINE
  5
236
100
AcDbEntity
  8
0
100
AcDbLine
 62
7
  6
CONTINUOUS
 10
143.9373664122
 20
158.5180864803
 11
143.1040333968
 21
158.6723516171
  0
LINE
  5
237
100
AcDbEntity
  8
0
100
AcDbLine
 62
7
  6
CONTINUOUS
 10
142.1040333968
 20
154.8157228718
 11
141.4373664122
 21
154.9699880086
  0
LINE
  5
238
100
AcDbEntity
  8
0
100
AcDbLine
 62
7
  6
CONTINUOUS
 10
151.1873664122
 20
161.2948593758
 11
150.6873664122
 21
161.2948593758
  0
LINE
  5
239
100
AcDbEntity
  8
0
100
AcDbLine
 62
7
  6
CONTINUOUS
 10
145.2707003813
 20
161.2948593758
 11
139.6040333968
 21
161.2948593758
  0
LINE
  5
23A
100
AcDbEntity
  8
0
100
AcDbLine
 62
7
  6
CONTINUOUS
 10
136.6040333968
 20
161.2948593758
 11
135.6040329199
 21
161.2948593758
  0
LINE
  5
23B
100
AcDbEntity
  8
0
100
AcDbLine
 62
7
  6
CONTINUOUS
 10
135.6040329199
 20
161.4381455677
 11
136.6040333968
 21
161.4381455677
  0
LINE
  5
23C
100
AcDbEntity
  8
0
100
AcDbLine
 62
7
  6
CONTINUOUS
 10
139.6040333968
 20
161.4381455677
 11
145.2707003813
 21
161.4381455677
  0
LINE
  5
23D
100
AcDbEntity
  8
0
100
AcDbLine
 62
7
  6
CONTINUOUS
 10
150.6873664122
 20
161.4381455677
 11
151.1873664122
 21
161.4381455677
  0
LINE
  5
23E
100
AcDbEntity
  8
0
100
AcDbLine
 62
7
  6
CONTINUOUS
 10
184.7065769472
 20
165.1880902184
 11
186.8223664272
 21
165.1880902184
  0
LINE
  5
23F
100
AcDbEntity
  8
0
100
AcDbLine
 62
7
  6
CONTINUOUS
 10
141.4373664122
 20
154.9699880086
 11
140.9373664122
 21
155.2785182823
  0
LINE
  5
240
100
AcDbEntity
  8
RUNDUNGEN
100
AcDbLine
 62
7
  6
CONTINUOUS
 10
104.5573663122
 20
167.5149323904
 11
104.5573663122
 21
176.3440259581
  0
LINE
  5
241
100
AcDbEntity
  8
RUNDUNGEN
100
AcDbLine
 62
7
  6
CONTINUOUS
 10
104.5573663122
 20
211.2125537776
 11
104.5573663122
 21
215.0149323904
  0
LINE
  5
242
100
AcDbEntity
  8
KONSTRUKTIONSELEMENTE
100
AcDbLine
 62
7
  6
CONTINUOUS
 10
108.0573664122
 20
143.9295210431
 11
108.0573664122
 21
137.8535218459
  0
LINE
  5
243
100
AcDbEntity
  8
0
100
AcDbLine
 62
7
  6
CONTINUOUS
 10
108.0573664122
 20
143.9295210431
 11
108.0573664122
 21
173.0149323904
  0
LINE
  5
244
100
AcDbEntity
  8
0
100
AcDbLine
 62
7
  6
CONTINUOUS
 10
186.7523664272
 20
166.7780902184
 11
184.7771032632
 21
166.7780902184
  0
LINE
  5
245
100
AcDbEntity
  8
0
100
AcDbLine
 62
7
  6
CONTINUOUS
 10
183.1197348372
 20
170.0896691804
 11
187.6157874822
 21
170.0896691804
  0
LINE
  5
246
100
AcDbEntity
  8
0
100
AcDbLine
 62
7
  6
CONTINUOUS
 10
189.7315769622
 20
171.6765112904
 11
188.4092085372
 21
171.6765112904
  0
LINE
  5
247
100
AcDbEntity
  8
0
100
AcDbLine
 62
7
  6
CONTINUOUS
 10
187.6157874822
 20
171.6765112904
 11
181.7973664122
 21
171.6765112904
  0
LINE
  5
248
100
AcDbEntity
  8
0
100
AcDbLine
 62
7
  6
CONTINUOUS
 10
144.7707003813
 20
158.0552910697
 11
143.9373664122
 21
158.5180864803
  0
LINE
  5
249
100
AcDbEntity
  8
0
100
AcDbLine
 62
7
  6
CONTINUOUS
 10
113.6673664122
 20
176.4617713068
 11
113.6673664122
 21
175.7981491408
  0
LINE
  5
24A
100
AcDbEntity
  8
0
100
AcDbLine
 62
7
  6
CONTINUOUS
 10
113.6673664122
 20
175.4402509953
 11
113.6673664122
 21
173.3095747219
  0
LINE
  5
24B
100
AcDbEntity
  8
0
100
AcDbLine
 62
7
  6
CONTINUOUS
 10
184.9710506322
 20
173.2633534004
 11
189.7315769622
 21
173.2633534004
  0
LINE
  5
24C
100
AcDbEntity
  8
0
100
AcDbLine
 62
7
  6
CONTINUOUS
 10
113.6673664122
 20
173.3095747219
 11
115.1673664122
 21
173.3095747219
  0
LINE
  5
24D
100
AcDbEntity
  8
0
100
AcDbLine
 62
7
  6
CONTINUOUS
 10
115.7673664122
 20
173.3095747219
 11
122.4873664122
 21
173.3095747219
  0
LINE
  5
24E
100
AcDbEntity
  8
0
100
AcDbLine
 62
7
  6
CONTINUOUS
 10
145.1758221825
 20
173.484122404
 11
146.5162475546
 21
173.484122404
  0
LINE
  5
24F
100
AcDbEntity
  8
0
100
AcDbLine
 62
7
  6
CONTINUOUS
 10
113.6673664122
 20
173.858199081
 11
115.1673664122
 21
173.858199081
  0
LINE
  5
250
100
AcDbEntity
  8
0
100
AcDbLine
 62
7
  6
CONTINUOUS
 10
115.7673664122
 20
173.858199081
 11
122.4873664122
 21
173.858199081
  0
LINE
  5
251
100
AcDbEntity
  8
0
100
AcDbLine
 62
7
  6
CONTINUOUS
 10
145.1758221825
 20
174.0293286895
 11
146.5162475546
 21
174.0293286895
  0
LINE
  5
252
100
AcDbEntity
  8
0
100
AcDbLine
 62
7
  6
CONTINUOUS
 10
145.1758221825
 20
174.4145801568
 11
145.5588008602
 21
174.4145801568
  0
LINE
  5
253
100
AcDbEntity
  8
0
100
AcDbLine
 62
7
  6
CONTINUOUS
 10
147.0907158394
 20
174.4873010134
 11
147.6651838561
 21
174.4873010134
  0
LINE
  5
254
100
AcDbEntity
  8
0
100
AcDbLine
 62
7
  6
CONTINUOUS
 10
115.7673664122
 20
174.5951265815
 11
117.4173664122
 21
174.5951265815
  0
LINE
  5
255
100
AcDbEntity
  8
0
100
AcDbLine
 62
7
  6
CONTINUOUS
 10
118.8873664122
 20
174.5951265815
 11
122.4873664122
 21
174.5951265815
  0
LINE
  5
256
100
AcDbEntity
  8
0
100
AcDbLine
 62
7
  6
CONTINUOUS
 10
189.7315769622
 20
174.8501955104
 11
184.9710506322
 21
174.8501955104
  0
LINE
  5
257
100
AcDbEntity
  8
0
100
AcDbLine
 62
7
  6
CONTINUOUS
 10
127.4687282131
 20
174.9533480347
 11
135.8073664122
 21
174.9533480347
  0
LINE
  5
258
100
AcDbEntity
  8
0
100
AcDbLine
 62
7
  6
CONTINUOUS
 10
147.0907158394
 20
175.3572012447
 11
147.6651838561
 21
175.3572012447
  0
LINE
  5
259
100
AcDbEntity
  8
0
100
AcDbLine
 62
7
  6
CONTINUOUS
 10
126.8073664122
 20
175.4713731123
 11
135.8073664122
 21
175.4713731123
  0
LINE
  5
25A
100
AcDbEntity
  8
0
100
AcDbLine
 62
7
  6
CONTINUOUS
 10
126.8073664122
 20
175.7506646834
 11
134.6584302449
 21
175.7506646834
  0
LINE
  5
25B
100
AcDbEntity
  8
0
100
AcDbLine
 62
7
  6
CONTINUOUS
 10
113.6673664122
 20
175.7981491408
 11
114.1099692103
 21
175.7981491408
  0
LINE
  5
25C
100
AcDbEntity
  8
0
100
AcDbLine
 62
7
  6
CONTINUOUS
 10
118.4747270845
 20
175.7981491408
 11
118.9040037076
 21
175.7981491408
  0
LINE
  5
25D
100
AcDbEntity
  8
0
100
AcDbLine
 62
7
  6
CONTINUOUS
 10
147.0907158394
 20
175.868219337
 11
147.6651838561
 21
175.868219337
  0
LINE
  5
25E
100
AcDbEntity
  8
0
100
AcDbLine
 62
7
  6
CONTINUOUS
 10
141.3460348685
 20
176.0139114356
 11
142.3034815629
 21
176.0139114356
  0
LINE
  5
25F
100
AcDbEntity
  8
KONSTRUKTIONSELEMENTE
100
AcDbLine
 62
7
  6
CONTINUOUS
 10
111.0573664122
 20
176.0149323904
 11
113.6673664122
 21
176.0149323904
  0
LINE
  5
260
100
AcDbEntity
  8
KONSTRUKTIONSELEMENTE
100
AcDbLine
 62
7
  6
CONTINUOUS
 10
122.4873664122
 20
176.0149323904
 11
134.6584302449
 21
176.0149323904
  0
LINE
  5
261
100
AcDbEntity
  8
KONSTRUKTIONSELEMENTE
100
AcDbLine
 62
7
  6
CONTINUOUS
 10
135.8073664122
 20
176.0149323904
 11
141.3460348685
 21
176.0149323904
  0
LINE
  5
262
100
AcDbEntity
  8
KONSTRUKTIONSELEMENTE
100
AcDbLine
 62
7
  6
CONTINUOUS
 10
142.3034815629
 20
176.0149323904
 11
146.4141711309
 21
176.0149323904
  0
LINE
  5
263
100
AcDbEntity
  8
KONSTRUKTIONSELEMENTE
100
AcDbLine
 62
7
  6
CONTINUOUS
 10
148.3417283643
 20
176.0149323904
 11
149.38858804
 21
176.0149323904
  0
LINE
  5
264
100
AcDbEntity
  8
KONSTRUKTIONSELEMENTE
100
AcDbLine
 62
7
  6
CONTINUOUS
 10
151.4949710359
 20
176.0149323904
 11
155.0460348685
 21
176.0149323904
  0
LINE
  5
265
100
AcDbEntity
  8
KONSTRUKTIONSELEMENTE
100
AcDbLine
 62
7
  6
CONTINUOUS
 10
163.0460348685
 20
176.0149323904
 11
165.0573664122
 21
176.0149323904
  0
LINE
  5
266
100
AcDbEntity
  8
0
100
AcDbLine
 62
7
  6
CONTINUOUS
 10
146.8992262323
 20
176.0491445492
 11
147.8566731949
 21
176.0491445492
  0
LINE
  5
267
100
AcDbEntity
  8
0
100
AcDbLine
 62
7
  6
CONTINUOUS
 10
113.6673664122
 20
176.3017281932
 11
118.9623664122
 21
176.3017281932
  0
LINE
  5
268
100
AcDbEntity
  8
0
100
AcDbLine
 62
7
  6
CONTINUOUS
 10
113.6673664122
 20
176.4617713068
 11
118.9623664122
 21
176.4617713068
  0
LINE
  5
269
100
AcDbEntity
  8
0
100
AcDbLine
 62
7
  6
CONTINUOUS
 10
155.0660851201
 20
176.465828929
 11
156.2460348846
 21
176.465828929
  0
LINE
  5
26A
100
AcDbEntity
  8
0
100
AcDbLine
 62
7
  6
CONTINUOUS
 10
161.8460348479
 20
176.465828929
 11
163.025984617
 21
176.465828929
  0
LINE
  5
26B
100
AcDbEntity
  8
0
100
AcDbLine
 62
7
  6
CONTINUOUS
 10
113.6673664122
 20
176.4702685403
 11
118.9623664122
 21
176.4702685403
  0
LINE
  5
26C
100
AcDbEntity
  8
0
100
AcDbLine
 62
7
  6
CONTINUOUS
 10
134.6584302449
 20
176.4928653912
 11
135.8073664122
 21
176.4928653912
  0
LINE
  5
26D
100
AcDbEntity
  8
0
100
AcDbLine
 62
7
  6
CONTINUOUS
 10
126.8073664122
 20
176.5130372536
 11
135.8073664122
 21
176.5130372536
  0
LINE
  5
26E
100
AcDbEntity
  8
0
100
AcDbLine
 62
7
  6
CONTINUOUS
 10
141.3460348685
 20
176.5139281731
 11
142.3034815629
 21
176.5139281731
  0
LINE
  5
26F
100
AcDbEntity
  8
0
100
AcDbLine
 62
7
  6
CONTINUOUS
 10
120.6873664122
 20
176.5149323904
 11
122.4617885105
 21
176.5149323904
  0
LINE
  5
270
100
AcDbEntity
  8
0
100
AcDbLine
 62
7
  6
CONTINUOUS
 10
184.9710506322
 20
178.0238797304
 11
189.7315769622
 21
178.0238797304
  0
LINE
  5
271
100
AcDbEntity
  8
0
100
AcDbLine
 62
7
  6
CONTINUOUS
 10
120.6857248183
 20
176.5148807981
 11
120.6873664122
 21
176.5147815482
  0
LINE
  5
272
100
AcDbEntity
  8
0
100
AcDbLine
 62
7
  6
CONTINUOUS
 10
122.4873664122
 20
176.5147189449
 11
122.4865648841
 21
176.5148161266
  0
LINE
  5
273
100
AcDbEntity
  8
0
100
AcDbLine
 62
7
  6
CONTINUOUS
 10
115.1673664122
 20
175.3567860299
 11
115.1673664122
 21
173.3095747219
  0
LINE
  5
274
100
AcDbEntity
  8
0
100
AcDbLine
 62
7
  6
CONTINUOUS
 10
115.7673664122
 20
174.5951265815
 11
115.7673664122
 21
173.3095747219
  0
LINE
  5
275
100
AcDbEntity
  8
0
100
AcDbLine
 62
7
  6
CONTINUOUS
 10
117.4173664122
 20
175.3567860299
 11
117.4173664122
 21
174.5951265815
  0
LINE
  5
276
100
AcDbEntity
  8
0
100
AcDbLine
 62
7
  6
CONTINUOUS
 10
118.8873664122
 20
174.9200011498
 11
118.8873664122
 21
174.5951265815
  0
LINE
  5
277
100
AcDbEntity
  8
BEZUGSACHSEN
100
AcDbLine
 62
7
  6
CONTINUOUS
 10
168.0573665122
 20
179.6040164917
 11
157.8573664122
 21
179.6040164917
  0
LINE
  5
278
100
AcDbEntity
  8
RUNDUNGEN
100
AcDbLine
 62
7
  6
CONTINUOUS
 10
108.0573663122
 20
179.6040164917
 11
118.2573664122
 21
179.6040164917
  0
LINE
  5
279
100
AcDbEntity
  8
0
100
AcDbLine
 62
7
  6
CONTINUOUS
 10
189.7315769622
 20
179.6107218404
 11
184.9710506322
 21
179.6107218404
  0
LINE
  5
27A
100
AcDbEntity
  8
0
100
AcDbLine
 62
7
  6
CONTINUOUS
 10
145.2707003813
 20
157.4382305223
 11
144.7707003813
 21
158.0552910697
  0
LINE
  5
27B
100
AcDbEntity
  8
0
100
AcDbLine
 62
7
  6
CONTINUOUS
 10
140.9373664122
 20
155.2785182823
 11
140.6040333968
 21
155.8955789378
  0
LINE
  5
27C
100
AcDbEntity
  8
0
100
AcDbLine
 62
7
  6
CONTINUOUS
 10
122.4873664122
 20
174.5951265815
 11
122.4873664122
 21
173.3095747219
  0
LINE
  5
27D
100
AcDbEntity
  8
0
100
AcDbLine
 62
7
  6
CONTINUOUS
 10
122.4873664122
 20
175.1750042353
 11
122.4873664122
 21
176.5118947731
  0
LINE
  5
27E
100
AcDbEntity
  8
0
100
AcDbLine
 62
7
  6
CONTINUOUS
 10
181.7973664122
 20
186.2225639654
 11
185.1121032642
 21
186.2225639654
  0
LINE
  5
27F
100
AcDbEntity
  8
0
100
AcDbLine
 62
7
  6
CONTINUOUS
 10
186.4344716892
 20
186.2225639654
 11
187.6157874822
 21
186.2225639654
  0
LINE
  5
280
100
AcDbEntity
  8
0
100
AcDbLine
 62
7
  6
CONTINUOUS
 10
189.7315769622
 20
187.5449323904
 11
188.4092085372
 21
187.5449323904
  0
LINE
  5
281
100
AcDbEntity
  8
0
100
AcDbLine
 62
7
  6
CONTINUOUS
 10
187.6157874822
 20
187.5449323904
 11
181.7973664122
 21
187.5449323904
  0
LINE
  5
282
100
AcDbEntity
  8
0
100
AcDbLine
 62
7
  6
CONTINUOUS
 10
151.6873664122
 20
160.6906543285
 11
151.1873664122
 21
161.2948593758
  0
LINE
  5
283
100
AcDbEntity
  8
0
100
AcDbLine
 62
7
  6
CONTINUOUS
 10
126.8073664122
 20
176.5130372536
 11
126.8073664122
 21
176.013005666
  0
LINE
  5
284
100
AcDbEntity
  8
0
100
AcDbLine
 62
7
  6
CONTINUOUS
 10
126.8073664122
 20
175.7506646834
 11
126.8073664122
 21
174.1043213342
  0
LINE
  5
285
100
AcDbEntity
  8
0
100
AcDbLine
 62
7
  6
CONTINUOUS
 10
126.8073664122
 20
172.112514175
 11
126.8073664122
 21
170.7950030118
  0
LINE
  5
286
100
AcDbEntity
  8
0
100
AcDbLine
 62
7
  6
CONTINUOUS
 10
127.9373664122
 20
157.6401908224
 11
127.9373664122
 21
156.8499251734
  0
LINE
  5
287
100
AcDbEntity
  8
0
100
AcDbLine
 62
7
  6
CONTINUOUS
 10
130.2706996661
 20
157.6401908224
 11
130.2706996661
 21
156.8499251734
  0
LINE
  5
288
100
AcDbEntity
  8
0
100
AcDbLine
 62
7
  6
CONTINUOUS
 10
131.6040331584
 20
157.3253140542
 11
131.6040331584
 21
156.3708382639
  0
LINE
  5
289
100
AcDbEntity
  8
0
100
AcDbLine
 62
7
  6
CONTINUOUS
 10
132.7706999045
 20
157.3253140542
 11
132.7706999045
 21
157.1297002486
  0
LINE
  5
28A
100
AcDbEntity
  8
0
100
AcDbLine
 62
7
  6
CONTINUOUS
 10
145.6040324431
 20
156.666904622
 11
145.2707003813
 21
157.4382305223
  0
LINE
  5
28B
100
AcDbEntity
  8
0
100
AcDbLine
 62
7
  6
CONTINUOUS
 10
134.6584302449
 20
176.4928653912
 11
134.6584302449
 21
175.7506646834
  0
LINE
  5
28C
100
AcDbEntity
  8
0
100
AcDbLine
 62
7
  6
CONTINUOUS
 10
135.6040329199
 20
161.4381455677
 11
135.6040329199
 21
161.2948593758
  0
LINE
  5
28D
100
AcDbEntity
  8
0
100
AcDbLine
 62
7
  6
CONTINUOUS
 10
135.6040329199
 20
160.2506609884
 11
135.6040329199
 21
157.1297002486
  0
LINE
  5
28E
100
AcDbEntity
  8
0
100
AcDbLine
 62
7
  6
CONTINUOUS
 10
135.6040329199
 20
156.3708382639
 11
135.6040329199
 21
154.0856871147
  0
LINE
  5
28F
100
AcDbEntity
  8
0
100
AcDbLine
 62
7
  6
CONTINUOUS
 10
135.8073664122
 20
176.5130372536
 11
135.8073664122
 21
174.9533480347
  0
LINE
  5
290
100
AcDbEntity
  8
0
100
AcDbLine
 62
7
  6
CONTINUOUS
 10
135.8073664122
 20
173.8760504585
 11
135.8073664122
 21
172.5952240082
  0
LINE
  5
291
100
AcDbEntity
  8
0
100
AcDbLine
 62
7
  6
CONTINUOUS
 10
136.6040333968
 20
156.3708382639
 11
136.6040333968
 21
154.0856871147
  0
LINE
  5
292
100
AcDbEntity
  8
0
100
AcDbLine
 62
7
  6
CONTINUOUS
 10
136.6040333968
 20
157.1297002486
 11
136.6040333968
 21
161.4381455677
  0
LINE
  5
293
100
AcDbEntity
  8
0
100
AcDbLine
 62
7
  6
CONTINUOUS
 10
138.2706994277
 20
157.3253140542
 11
138.2706994277
 21
156.3708382639
  0
LINE
  5
294
100
AcDbEntity
  8
0
100
AcDbLine
 62
7
  6
CONTINUOUS
 10
139.6040333968
 20
161.4381455677
 11
139.6040333968
 21
157.4829571068
  0
LINE
  5
295
100
AcDbEntity
  8
0
100
AcDbLine
 62
7
  6
CONTINUOUS
 10
140.4373664122
 20
158.0552910697
 11
140.4373664122
 21
160.6990579717
  0
LINE
  5
296
100
AcDbEntity
  8
0
100
AcDbLine
 62
7
  6
CONTINUOUS
 10
140.6040333968
 20
156.0493854692
 11
140.6040333968
 21
155.8955789378
  0
LINE
  5
297
100
AcDbEntity
  8
0
100
AcDbLine
 62
7
  6
CONTINUOUS
 10
140.9373664122
 20
155.4015088971
 11
140.9373664122
 21
155.2785182823
  0
LINE
  5
298
100
AcDbEntity
  8
0
100
AcDbLine
 62
7
  6
CONTINUOUS
 10
141.2706994277
 20
158.7293845499
 11
141.2706994277
 21
158.5180864803
  0
LINE
  5
299
100
AcDbEntity
  8
0
100
AcDbLine
 62
7
  6
CONTINUOUS
 10
141.3460348685
 20
176.5139281731
 11
141.3460348685
 21
176.0139114356
  0
LINE
  5
29A
100
AcDbEntity
  8
0
100
AcDbLine
 62
7
  6
CONTINUOUS
 10
141.3460348685
 20
175.3610377285
 11
141.3460348685
 21
174.6141701708
  0
LINE
  5
29B
100
AcDbEntity
  8
0
100
AcDbLine
 62
7
  6
CONTINUOUS
 10
141.4373664122
 20
155.0750730492
 11
141.4373664122
 21
154.9699880086
  0
LINE
  5
29C
100
AcDbEntity
  8
0
100
AcDbLine
 62
7
  6
CONTINUOUS
 10
141.5375242074
 20
174.8298589849
 11
141.5375242074
 21
174.3000874129
  0
LINE
  5
29D
100
AcDbEntity
  8
0
100
AcDbLine
 62
7
  6
CONTINUOUS
 10
142.1040333968
 20
158.8833505902
 11
142.1040333968
 21
158.6723516171
  0
LINE
  5
29E
100
AcDbEntity
  8
0
100
AcDbLine
 62
7
  6
CONTINUOUS
 10
142.1040333968
 20
154.9112277144
 11
142.1040333968
 21
154.8157228718
  0
LINE
  5
29F
100
AcDbEntity
  8
0
100
AcDbLine
 62
7
  6
CONTINUOUS
 10
142.111992224
 20
174.4873010134
 11
142.111992224
 21
173.9510340333
  0
LINE
  5
2A0
100
AcDbEntity
  8
0
100
AcDbLine
 62
7
  6
CONTINUOUS
 10
142.3034815629
 20
176.5139281731
 11
142.3034815629
 21
176.0139114356
  0
LINE
  5
2A1
100
AcDbEntity
  8
0
100
AcDbLine
 62
7
  6
CONTINUOUS
 10
142.3034815629
 20
175.4134866704
 11
142.3034815629
 21
175.0792359904
  0
LINE
  5
2A2
100
AcDbEntity
  8
0
100
AcDbLine
 62
7
  6
CONTINUOUS
 10
142.4949709018
 20
175.5631370736
 11
142.4949709018
 21
175.0467494194
  0
LINE
  5
2A3
100
AcDbEntity
  8
0
100
AcDbLine
 62
7
  6
CONTINUOUS
 10
142.8779495795
 20
175.7013770033
 11
142.8779495795
 21
175.1874364611
  0
LINE
  5
2A4
100
AcDbEntity
  8
0
100
AcDbLine
 62
7
  6
CONTINUOUS
 10
142.8779495795
 20
174.2648437841
 11
142.8779495795
 21
173.7242718584
  0
LINE
  5
2A5
100
AcDbEntity
  8
0
100
AcDbLine
 62
7
  6
CONTINUOUS
 10
143.1040333968
 20
158.8833505901
 11
143.1040333968
 21
158.6723516171
  0
LINE
  5
2A6
100
AcDbEntity
  8
0
100
AcDbLine
 62
7
  6
CONTINUOUS
 10
143.1040333968
 20
154.9112277144
 11
143.1040333968
 21
154.8157228718
  0
LINE
  5
2A7
100
AcDbEntity
  8
0
100
AcDbLine
 62
7
  6
CONTINUOUS
 10
143.4524175962
 20
175.9804254277
 11
143.4524175962
 21
175.2748451743
  0
LINE
  5
2A8
100
AcDbEntity
  8
0
100
AcDbLine
 62
7
  6
CONTINUOUS
 10
143.7706994277
 20
155.0750730492
 11
143.7706994277
 21
154.9699880086
  0
LINE
  5
2A9
100
AcDbEntity
  8
0
100
AcDbLine
 62
7
  6
CONTINUOUS
 10
143.8353968103
 20
174.1093044938
 11
143.8353968103
 21
173.5656809081
  0
LINE
  5
2AA
100
AcDbEntity
  8
0
100
AcDbLine
 62
7
  6
CONTINUOUS
 10
143.9373664122
 20
158.7293845499
 11
143.9373664122
 21
158.5180864803
  0
LINE
  5
2AB
100
AcDbEntity
  8
0
100
AcDbLine
 62
7
  6
CONTINUOUS
 10
144.2707003813
 20
155.4015088971
 11
144.2707003813
 21
155.2785182823
  0
LINE
  5
2AC
100
AcDbEntity
  8
0
100
AcDbLine
 62
7
  6
CONTINUOUS
 10
144.6013541658
 20
175.4134866704
 11
144.6013541658
 21
174.6141701708
  0
LINE
  5
2AD
100
AcDbEntity
  8
0
100
AcDbLine
 62
7
  6
CONTINUOUS
 10
144.6040324431
 20
155.8880387752
 11
144.6040324431
 21
155.7413138009
  0
LINE
  5
2AE
100
AcDbEntity
  8
0
100
AcDbLine
 62
7
  6
CONTINUOUS
 10
144.7707003813
 20
158.2650374987
 11
144.7707003813
 21
158.0552910697
  0
LINE
  5
2AF
100
AcDbEntity
  8
0
100
AcDbLine
 62
7
  6
CONTINUOUS
 10
144.7707003813
 20
156.6906410926
 11
144.7707003813
 21
156.2041092115
  0
LINE
  5
2B0
100
AcDbEntity
  8
0
100
AcDbLine
 62
7
  6
CONTINUOUS
 10
144.7928435047
 20
174.8298589849
 11
144.7928435047
 21
174.4389686687
  0
LINE
  5
2B1
100
AcDbEntity
  8
0
100
AcDbLine
 62
7
  6
CONTINUOUS
 10
163.025984617
 20
176.465828929
 11
163.0460347768
 21
176.4401189292
  0
LINE
  5
2B2
100
AcDbEntity
  8
0
100
AcDbLine
 62
7
  6
CONTINUOUS
 10
145.1758221825
 20
174.0293286895
 11
145.1758221825
 21
173.484122404
  0
LINE
  5
2B3
100
AcDbEntity
  8
0
100
AcDbLine
 62
7
  6
CONTINUOUS
 10
145.2707003813
 20
161.4381455677
 11
145.2707003813
 21
160.6990579717
  0
LINE
  5
2B4
100
AcDbEntity
  8
0
100
AcDbLine
 62
7
  6
CONTINUOUS
 10
145.2707003813
 20
157.6401908224
 11
145.2707003813
 21
157.4382305223
  0
LINE
  5
2B5
100
AcDbEntity
  8
0
100
AcDbLine
 62
7
  6
CONTINUOUS
 10
145.5588008602
 20
175.4646484573
 11
145.5588008602
 21
175.0792359904
  0
LINE
  5
2B6
100
AcDbEntity
  8
0
100
AcDbLine
 62
7
  6
CONTINUOUS
 10
145.6040324431
 20
156.8499251734
 11
145.6040324431
 21
156.2103184137
  0
LINE
  5
2B7
100
AcDbEntity
  8
0
100
AcDbLine
 62
7
  6
CONTINUOUS
 10
145.7502901991
 20
175.6104766685
 11
145.7502901991
 21
175.0949296586
  0
LINE
  5
2B8
100
AcDbEntity
  8
0
100
AcDbLine
 62
7
  6
CONTINUOUS
 10
146.1332688768
 20
175.7449491675
 11
146.1332688768
 21
175.231775094
  0
LINE
  5
2B9
100
AcDbEntity
  8
0
100
AcDbLine
 62
7
  6
CONTINUOUS
 10
146.5162475546
 20
175.8283651851
 11
146.5162475546
 21
175.3166520499
  0
LINE
  5
2BA
100
AcDbEntity
  8
0
100
AcDbLine
 62
7
  6
CONTINUOUS
 10
146.5162475546
 20
174.0293286895
 11
146.5162475546
 21
173.484122404
  0
LINE
  5
2BB
100
AcDbEntity
  8
0
100
AcDbLine
 62
7
  6
CONTINUOUS
 10
147.0907158394
 20
175.868219337
 11
147.0907158394
 21
175.3572012447
  0
LINE
  5
2BC
100
AcDbEntity
  8
0
100
AcDbLine
 62
7
  6
CONTINUOUS
 10
147.6651838561
 20
175.868219337
 11
147.6651838561
 21
175.3572012447
  0
LINE
  5
2BD
100
AcDbEntity
  8
0
100
AcDbLine
 62
7
  6
CONTINUOUS
 10
147.8566731949
 20
174.1093044938
 11
147.8566731949
 21
173.5656809081
  0
LINE
  5
2BE
100
AcDbEntity
  8
0
100
AcDbLine
 62
7
  6
CONTINUOUS
 10
148.2396518727
 20
175.8283651851
 11
148.2396518727
 21
175.3166520499
  0
LINE
  5
2BF
100
AcDbEntity
  8
0
100
AcDbLine
 62
7
  6
CONTINUOUS
 10
148.8141200234
 20
175.7449491675
 11
148.8141200234
 21
175.231775094
  0
LINE
  5
2C0
100
AcDbEntity
  8
0
100
AcDbLine
 62
7
  6
CONTINUOUS
 10
148.8141200234
 20
174.2648437841
 11
148.8141200234
 21
173.7242718584
  0
LINE
  5
2C1
100
AcDbEntity
  8
0
100
AcDbLine
 62
7
  6
CONTINUOUS
 10
149.1970987012
 20
175.6104766685
 11
149.1970987012
 21
175.0949296586
  0
LINE
  5
2C2
100
AcDbEntity
  8
0
100
AcDbLine
 62
7
  6
CONTINUOUS
 10
149.38858804
 20
176.4648296809
 11
149.38858804
 21
175.8945370244
  0
LINE
  5
2C3
100
AcDbEntity
  8
0
100
AcDbLine
 62
7
  6
CONTINUOUS
 10
149.38858804
 20
175.4646484573
 11
149.38858804
 21
175.0792359904
  0
LINE
  5
2C4
100
AcDbEntity
  8
0
100
AcDbLine
 62
7
  6
CONTINUOUS
 10
149.580077446
 20
174.4873010134
 11
149.580077446
 21
173.9510340333
  0
LINE
  5
2C5
100
AcDbEntity
  8
0
100
AcDbLine
 62
7
  6
CONTINUOUS
 10
150.1545455129
 20
174.8298589849
 11
150.1545455129
 21
174.3000874129
  0
LINE
  5
2C6
100
AcDbEntity
  8
0
100
AcDbLine
 62
7
  6
CONTINUOUS
 10
150.1873664122
 20
160.8600694514
 11
150.1873664122
 21
160.2756686169
  0
LINE
  5
2C7
100
AcDbEntity
  8
0
100
AcDbLine
 62
7
  6
CONTINUOUS
 10
150.3460348685
 20
176.471479184
 11
150.3460348685
 21
176.4309740672
  0
LINE
  5
2C8
100
AcDbEntity
  8
0
100
AcDbLine
 62
7
  6
CONTINUOUS
 10
150.3460348685
 20
175.4134866704
 11
150.3460348685
 21
174.6141701708
  0
LINE
  5
2C9
100
AcDbEntity
  8
0
100
AcDbLine
 62
7
  6
CONTINUOUS
 10
150.6873664122
 20
161.4381455677
 11
150.6873664122
 21
161.2948593758
  0
LINE
  5
2CA
100
AcDbEntity
  8
0
100
AcDbLine
 62
7
  6
CONTINUOUS
 10
151.1873664122
 20
161.4381455677
 11
151.1873664122
 21
161.2948593758
  0
LINE
  5
2CB
100
AcDbEntity
  8
0
100
AcDbLine
 62
7
  6
CONTINUOUS
 10
151.4949710359
 20
176.3793646395
 11
151.4949710359
 21
175.7720139235
  0
LINE
  5
2CC
100
AcDbEntity
  8
0
100
AcDbLine
 62
7
  6
CONTINUOUS
 10
151.6873664122
 20
160.8600694514
 11
151.6873664122
 21
160.2756686169
  0
LINE
  5
2CD
100
AcDbEntity
  8
0
100
AcDbLine
 62
7
  6
CONTINUOUS
 10
155.0460348685
 20
175.9362829335
 11
155.0460348685
 21
176.4375665973
  0
LINE
  5
2CE
100
AcDbEntity
  8
0
100
AcDbLine
 62
7
  6
CONTINUOUS
 10
156.2747535764
 20
176.465828929
 11
156.2747535764
 21
176.4120469734
  0
LINE
  5
2CF
100
AcDbEntity
  8
0
100
AcDbLine
 62
7
  6
CONTINUOUS
 10
161.8173161606
 20
176.465828929
 11
161.8173161606
 21
176.4120455449
  0
LINE
  5
2D0
100
AcDbEntity
  8
0
100
AcDbLine
 62
7
  6
CONTINUOUS
 10
163.0460348685
 20
175.9362943374
 11
163.0460348685
 21
176.4375650124
  0
LINE
  5
2D1
100
AcDbEntity
  8
0
100
AcDbLine
 62
7
  6
CONTINUOUS
 10
144.7707003813
 20
156.2041092115
 11
144.6040324431
 21
155.7413138009
  0
LINE
  5
2D2
100
AcDbEntity
  8
0
100
AcDbLine
 62
7
  6
CONTINUOUS
 10
168.0573664122
 20
173.0149323904
 11
168.0573664122
 21
143.9295210431
  0
LINE
  5
2D3
100
AcDbEntity
  8
KONSTRUKTIONSELEMENTE
100
AcDbLine
 62
7
  6
CONTINUOUS
 10
168.0573664122
 20
143.9295210431
 11
168.0573664122
 21
137.8535218459
  0
LINE
  5
2D4
100
AcDbEntity
  8
0
100
AcDbLine
 62
7
  6
CONTINUOUS
 10
155.046034951
 20
176.4401239456
 11
155.0660851201
 21
176.465828929
  0
LINE
  5
2D5
100
AcDbEntity
  8
0
100
AcDbLine
 62
7
  6
CONTINUOUS
 10
135.6040329199
 20
161.2948593758
 11
131.6040331584
 21
157.1297002486
  0
LINE
  5
2D6
100
AcDbEntity
  8
BEZUGSACHSEN
100
AcDbLine
 62
7
  6
CONTINUOUS
 10
171.5573665122
 20
167.5149323904
 11
171.5573665122
 21
176.3440259581
  0
LINE
  5
2D7
100
AcDbEntity
  8
BEZUGSACHSEN
100
AcDbLine
 62
7
  6
CONTINUOUS
 10
171.5573665122
 20
211.2125537776
 11
171.5573665122
 21
215.0149323904
  0
LINE
  5
2D8
100
AcDbEntity
  8
0
100
AcDbLine
 62
7
  6
CONTINUOUS
 10
144.6040324431
 20
155.7413138009
 11
144.2707003813
 21
155.2785182823
  0
LINE
  5
2D9
100
AcDbEntity
  8
0
100
AcDbLine
 62
7
  6
CONTINUOUS
 10
150.6873664122
 20
161.2948593758
 11
150.1873664122
 21
160.6906543285
  0
LINE
  5
2DA
100
AcDbEntity
  8
0
100
AcDbLine
 62
7
  6
CONTINUOUS
 10
184.4509190517
 20
183.7275854435
 11
181.7973664122
 21
182.1955561127
  0
LINE
  5
2DB
100
AcDbEntity
  8
0
100
AcDbLine
 62
7
  6
CONTINUOUS
 10
181.7973664122
 20
180.6686165804
 11
185.2682319308
 21
182.6725217219
  0
LINE
  5
2DC
100
AcDbEntity
  8
0
100
AcDbLine
 62
7
  6
CONTINUOUS
 10
141.2706994277
 20
158.5180864803
 11
140.4373664122
 21
158.0552910697
  0
LINE
  5
2DD
100
AcDbEntity
  8
0
100
AcDbLine
 62
7
  6
CONTINUOUS
 10
181.7973664122
 20
187.5449323904
 11
181.7973664122
 21
186.2225639654
  0
LINE
  5
2DE
100
AcDbEntity
  8
0
100
AcDbLine
 62
7
  6
CONTINUOUS
 10
181.7973664122
 20
182.1955561127
 11
181.7973664122
 21
180.6686165804
  0
LINE
  5
2DF
100
AcDbEntity
  8
0
100
AcDbLine
 62
7
  6
CONTINUOUS
 10
181.7973664122
 20
171.6765112904
 11
181.7973664122
 21
168.0973007534
  0
LINE
  5
2E0
100
AcDbEntity
  8
0
100
AcDbLine
 62
7
  6
CONTINUOUS
 10
183.1197348372
 20
168.4354586444
 11
183.1197348372
 21
170.0896691804
  0
LINE
  5
2E1
100
AcDbEntity
  8
0
100
AcDbLine
 62
7
  6
CONTINUOUS
 10
185.1121032642
 20
186.2225639654
 11
185.1121032642
 21
184.8727900927
  0
LINE
  5
2E2
100
AcDbEntity
  8
0
100
AcDbLine
 62
7
  6
CONTINUOUS
 10
186.4344716892
 20
184.0362481694
 11
186.4344716892
 21
186.2225639654
  0
LINE
  5
2E3
100
AcDbEntity
  8
0
100
AcDbLine
 62
7
  6
CONTINUOUS
 10
144.2707003813
 20
155.2785182823
 11
143.7706994277
 21
154.9699880086
  0
LINE
  5
2E4
100
AcDbEntity
  8
0
100
AcDbLine
 62
7
  6
CONTINUOUS
 10
187.6157874822
 20
170.0896691804
 11
187.6157874822
 21
171.6765112904
  0
LINE
  5
2E5
100
AcDbEntity
  8
0
100
AcDbLine
 62
7
  6
CONTINUOUS
 10
187.6157874822
 20
186.2225639654
 11
187.6157874822
 21
187.5449323904
  0
LINE
  5
2E6
100
AcDbEntity
  8
0
100
AcDbLine
 62
7
  6
CONTINUOUS
 10
188.4092085372
 20
187.5449323904
 11
188.4092085372
 21
184.0362481694
  0
LINE
  5
2E7
100
AcDbEntity
  8
0
100
AcDbLine
 62
7
  6
CONTINUOUS
 10
188.4092085372
 20
171.6765112904
 11
188.4092085372
 21
168.4354585609
  0
LINE
  5
2E8
100
AcDbEntity
  8
0
100
AcDbLine
 62
7
  6
CONTINUOUS
 10
189.7315769622
 20
168.0973007534
 11
189.7315769622
 21
171.6765112904
  0
LINE
  5
2E9
100
AcDbEntity
  8
0
100
AcDbLine
 62
7
  6
CONTINUOUS
 10
189.7315769622
 20
173.2633534004
 11
189.7315769622
 21
174.8501955104
  0
LINE
  5
2EA
100
AcDbEntity
  8
0
100
AcDbLine
 62
7
  6
CONTINUOUS
 10
189.7315769622
 20
178.0238797304
 11
189.7315769622
 21
179.6107218404
  0
LINE
  5
2EB
100
AcDbEntity
  8
0
100
AcDbLine
 62
7
  6
CONTINUOUS
 10
189.7315769622
 20
183.5073007994
 11
189.7315769622
 21
187.5449323904
  0
LINE
  5
2EC
100
AcDbEntity
  8
BEZUGSACHSEN
100
AcDbLine
 62
7
  6
CONTINUOUS
 10
195.5573665122
 20
215.0149323904
 11
195.5573665122
 21
138.0149323904
  0
LINE
  5
2ED
100
AcDbEntity
  8
BEZUGSACHSEN
100
AcDbLine
 62
7
  6
CONTINUOUS
 10
181.0092339352
 20
252.2415148369
 11
194.7520920906
 21
219.0633202923
  0
LINE
  5
2EE
100
AcDbEntity
  8
BEZUGSACHSEN
100
AcDbLine
 62
7
  6
CONTINUOUS
 10
142.1057543141
 20
271.7096580688
 11
175.2839488586
 21
257.9667999134
  0
LINE
  5
2EF
100
AcDbEntity
  8
KONSTRUKTIONSELEMENTE
100
AcDbLine
 62
7
  6
CONTINUOUS
 10
294.1500135294
 20
132.0149323904
 11
291.1500135294
 21
132.0149323904
  0
LINE
  5
2F0
100
AcDbEntity
  8
KONSTRUKTIONSELEMENTE
100
AcDbLine
 62
7
  6
CONTINUOUS
 10
255.4185804305
 20
132.0149323904
 11
252.4185804305
 21
132.0149323904
  0
LINE
  5
2F1
100
AcDbEntity
  8
BEZUGSACHSEN
100
AcDbLine
 62
7
  6
CONTINUOUS
 10
273.5342969799
 20
134.0149323904
 11
273.0342969799
 21
134.0149323904
  0
LINE
  5
2F2
100
AcDbEntity
  8
KONSTRUKTIONSELEMENTE
100
AcDbLine
 62
7
  6
CONTINUOUS
 10
295.6789944715
 20
135.0149323904
 11
294.6789944715
 21
135.0149323904
  0
LINE
  5
2F3
100
AcDbEntity
  8
KONSTRUKTIONSELEMENTE
100
AcDbLine
 62
7
  6
CONTINUOUS
 10
251.8895994884
 20
135.0149323904
 11
250.8895994884
 21
135.0149323904
  0
LINE
  5
2F4
100
AcDbEntity
  8
KONSTRUKTIONSELEMENTE
100
AcDbLine
 62
7
  6
CONTINUOUS
 10
250.8895994884
 20
135.0149323904
 11
242.7842969799
 21
147.3888252779
  0
LINE
  5
2F5
100
AcDbEntity
  8
KONSTRUKTIONSELEMENTE
100
AcDbLine
 62
7
  6
CONTINUOUS
 10
252.4185804305
 20
132.0149323904
 11
251.8895994884
 21
135.0149323904
  0
LINE
  5
2F6
100
AcDbEntity
  8
0
100
AcDbLine
 62
7
  6
CONTINUOUS
 10
284.5342969799
 20
179.6107218404
 11
285.0342969799
 21
179.6107218404
  0
LINE
  5
2F7
100
AcDbEntity
  8
0
100
AcDbLine
 62
7
  6
CONTINUOUS
 10
284.5342969799
 20
180.6686165804
 11
285.0342969799
 21
180.6686165804
  0
LINE
  5
2F8
100
AcDbEntity
  8
0
100
AcDbLine
 62
7
  6
CONTINUOUS
 10
284.5342969799
 20
182.1955561127
 11
285.0342969799
 21
182.1955561127
  0
LINE
  5
2F9
100
AcDbEntity
  8
0
100
AcDbLine
 62
7
  6
CONTINUOUS
 10
257.5692969799
 20
172.1547253315
 11
257.5692969799
 21
171.569555749
  0
LINE
  5
2FA
100
AcDbEntity
  8
0
100
AcDbLine
 62
7
  6
CONTINUOUS
 10
257.9442976952
 20
172.3765412553
 11
257.9442976952
 21
171.7964067847
  0
LINE
  5
2FB
100
AcDbEntity
  8
0
100
AcDbLine
 62
7
  6
CONTINUOUS
 10
258.1317969799
 20
172.4847594346
 11
258.1317969799
 21
171.9070497961
  0
LINE
  5
2FC
100
AcDbEntity
  8
0
100
AcDbLine
 62
7
  6
CONTINUOUS
 10
258.3192962647
 20
172.5912141769
 11
258.3192962647
 21
172.0158699426
  0
LINE
  5
2FD
100
AcDbEntity
  8
KONSTRUKTIONSELEMENTE
100
AcDbLine
 62
7
  6
CONTINUOUS
 10
244.0865235001
 20
152.9062329805
 11
242.7842969799
 21
147.3888252779
  0
LINE
  5
2FE
100
AcDbEntity
  8
0
100
AcDbLine
 62
7
  6
CONTINUOUS
 10
284.5342969799
 20
186.2225639654
 11
285.0342969799
 21
186.2225639654
  0
LINE
  5
2FF
100
AcDbEntity
  8
0
100
AcDbLine
 62
7
  6
CONTINUOUS
 10
284.5342969799
 20
187.5449323904
 11
285.0342969799
 21
187.5449323904
  0
LINE
  5
300
100
AcDbEntity
  8
0
100
AcDbLine
 62
7
  6
CONTINUOUS
 10
258.8817962647
 20
172.9002066711
 11
258.8817962647
 21
172.3316186018
  0
LINE
  5
301
100
AcDbEntity
  8
0
100
AcDbLine
 62
7
  6
CONTINUOUS
 10
259.6317976952
 20
173.2887158332
 11
259.6317976952
 21
172.7283983445
  0
LINE
  5
302
100
AcDbEntity
  8
0
100
AcDbLine
 62
7
  6
CONTINUOUS
 10
260.5692962647
 20
173.7381853888
 11
260.5692962647
 21
173.1871379839
  0
LINE
  5
303
100
AcDbEntity
  8
0
100
AcDbLine
 62
7
  6
CONTINUOUS
 10
260.8342969799
 20
173.858199081
 11
260.8342969799
 21
173.3095747219
  0
LINE
  5
304
100
AcDbEntity
  8
BEZUGSACHSEN
100
AcDbLine
 62
7
  6
CONTINUOUS
 10
262.0342969799
 20
268.5149320404
 11
262.0342969799
 21
145.0149323904
  0
LINE
  5
305
100
AcDbEntity
  8
KONSTRUKTIONSELEMENTE
100
AcDbLine
 62
7
  6
CONTINUOUS
 10
284.5606084294
 20
150.1191741104
 11
291.1500135294
 21
132.0149323904
  0
LINE
  5
306
100
AcDbEntity
  8
KONSTRUKTIONSELEMENTE
100
AcDbLine
 62
7
  6
CONTINUOUS
 10
255.4185804305
 20
132.0149323904
 11
262.0079855305
 21
150.1191741104
  0
LINE
  5
307
100
AcDbEntity
  8
BEZUGSACHSEN
100
AcDbLine
 62
7
  6
CONTINUOUS
 10
284.5342969799
 20
268.5149320404
 11
284.5342969799
 21
268.0141399388
  0
LINE
  5
308
100
AcDbEntity
  8
RUNDUNGEN
100
AcDbLine
 62
7
  6
CONTINUOUS
 10
284.5342969799
 20
268.0141399388
 11
284.5342969799
 21
145.0149323904
  0
LINE
  5
309
100
AcDbEntity
  8
0
100
AcDbLine
 62
7
  6
CONTINUOUS
 10
285.0342969799
 20
187.5449323904
 11
285.0342969799
 21
180.6686165804
  0
LINE
  5
30A
100
AcDbEntity
  8
0
100
AcDbLine
 62
7
  6
CONTINUOUS
 10
285.0342969799
 20
179.6107218404
 11
285.0342969799
 21
174.1607191193
  0
LINE
  5
30B
100
AcDbEntity
  8
0
100
AcDbLine
 62
7
  6
CONTINUOUS
 10
285.7342969799
 20
173.858199081
 11
285.7342969799
 21
173.3095747219
  0
LINE
  5
30C
100
AcDbEntity
  8
0
100
AcDbLine
 62
7
  6
CONTINUOUS
 10
286.4442970693
 20
173.5297356361
 11
286.4442970693
 21
172.974427891
  0
LINE
  5
30D
100
AcDbEntity
  8
0
100
AcDbLine
 62
7
  6
CONTINUOUS
 10
289.0692969799
 20
172.112514175
 11
289.0692969799
 21
171.5263763911
  0
LINE
  5
30E
100
AcDbEntity
  8
0
100
AcDbLine
 62
7
  6
CONTINUOUS
 10
290.1942969799
 20
171.3980350377
 11
290.1942969799
 21
170.7950030118
  0
LINE
  5
30F
100
AcDbEntity
  8
0
100
AcDbLine
 62
7
  6
CONTINUOUS
 10
302.4820704597
 20
152.9062329805
 11
303.7842969799
 21
147.3888252779
  0
LINE
  5
310
100
AcDbEntity
  8
KONSTRUKTIONSELEMENTE
100
AcDbLine
 62
7
  6
CONTINUOUS
 10
294.6789944715
 20
135.0149323904
 11
294.1500135294
 21
132.0149323904
  0
LINE
  5
311
100
AcDbEntity
  8
KONSTRUKTIONSELEMENTE
100
AcDbLine
 62
7
  6
CONTINUOUS
 10
301.5183401346
 20
143.9295210431
 11
295.6789944715
 21
135.0149323904
  0
LINE
  5
312
100
AcDbEntity
  8
0
100
AcDbLine
 62
7
  6
CONTINUOUS
 10
301.5183401346
 20
143.9295210431
 11
303.7842969799
 21
147.3888252779
  0
LINE
  5
313
100
AcDbEntity
  8
0
100
AcDbLine
 62
7
  6
CONTINUOUS
 10
266.0342969799
 20
272.5149324904
 11
280.5342969799
 21
272.5149324904
  0
LINE
  5
314
100
AcDbEntity
  8
BEZUGSACHSEN
100
AcDbLine
 62
7
  6
CONTINUOUS
 10
80.5573663122
 20
57.2027099237
 11
80.5573663122
 21
71.7027099237
  0
LINE
  5
315
100
AcDbEntity
  8
0
100
AcDbLine
 62
7
  6
CONTINUOUS
 10
108.0573664122
 20
36.218666769
 11
108.0573664122
 21
53.2027099237
  0
LINE
  5
316
100
AcDbEntity
  8
0
100
AcDbLine
 62
7
  6
CONTINUOUS
 10
108.0573664122
 20
75.7027099237
 11
108.0573664122
 21
90.7307060555
  0
LINE
  5
317
100
AcDbEntity
  8
KONSTRUKTIONSELEMENTE
100
AcDbLine
 62
7
  6
CONTINUOUS
 10
108.0573664122
 20
90.7307060555
 11
108.0573664122
 21
92.6867530783
  0
LINE
  5
318
100
AcDbEntity
  8
0
100
AcDbLine
 62
7
  6
CONTINUOUS
 10
111.0573664122
 20
33.9527099237
 11
165.0573664122
 21
33.9527099237
  0
LINE
  5
319
100
AcDbEntity
  8
0
100
AcDbLine
 62
7
  6
CONTINUOUS
 10
143.9373664122
 20
35.7191972106
 11
144.7707003813
 21
35.9350022736
  0
LINE
  5
31A
100
AcDbEntity
  8
0
100
AcDbLine
 62
7
  6
CONTINUOUS
 10
143.1040333968
 20
35.6472621896
 11
143.9373664122
 21
35.7191972106
  0
LINE
  5
31B
100
AcDbEntity
  8
0
100
AcDbLine
 62
7
  6
CONTINUOUS
 10
135.6040329199
 20
35.5587154234
 11
136.6040333968
 21
35.5587154234
  0
LINE
  5
31C
100
AcDbEntity
  8
0
100
AcDbLine
 62
7
  6
CONTINUOUS
 10
142.1040333968
 20
35.5587154234
 11
143.1040333968
 21
35.5587154234
  0
LINE
  5
31D
100
AcDbEntity
  8
0
100
AcDbLine
 62
7
  6
CONTINUOUS
 10
135.6040329199
 20
35.6472621896
 11
136.6040333968
 21
35.6472621896
  0
LINE
  5
31E
100
AcDbEntity
  8
0
100
AcDbLine
 62
7
  6
CONTINUOUS
 10
142.1040333968
 20
35.6472621896
 11
143.1040333968
 21
35.6472621896
  0
LINE
  5
31F
100
AcDbEntity
  8
0
100
AcDbLine
 62
7
  6
CONTINUOUS
 10
142.1040333968
 20
35.8021265176
 11
143.1040333968
 21
35.8021265176
  0
LINE
  5
320
100
AcDbEntity
  8
0
100
AcDbLine
 62
7
  6
CONTINUOUS
 10
139.6040333968
 20
36.1806432958
 11
140.6040333968
 21
36.1806432958
  0
LINE
  5
321
100
AcDbEntity
  8
0
100
AcDbLine
 62
7
  6
CONTINUOUS
 10
131.6040331584
 20
36.2968008895
 11
135.6040329199
 21
36.2968008895
  0
LINE
  5
322
100
AcDbEntity
  8
0
100
AcDbLine
 62
7
  6
CONTINUOUS
 10
136.6040333968
 20
36.2968008895
 11
138.2706994277
 21
36.2968008895
  0
LINE
  5
323
100
AcDbEntity
  8
0
100
AcDbLine
 62
7
  6
CONTINUOUS
 10
127.9373664122
 20
36.4776687013
 11
130.2706996661
 21
36.4776687013
  0
LINE
  5
324
100
AcDbEntity
  8
0
100
AcDbLine
 62
7
  6
CONTINUOUS
 10
131.6040331584
 20
36.6543524962
 11
135.6040329199
 21
36.6543524962
  0
LINE
  5
325
100
AcDbEntity
  8
0
100
AcDbLine
 62
7
  6
CONTINUOUS
 10
136.6040333968
 20
36.6543524962
 11
138.2706994277
 21
36.6543524962
  0
LINE
  5
326
100
AcDbEntity
  8
0
100
AcDbLine
 62
7
  6
CONTINUOUS
 10
132.7706999045
 20
36.6664675253
 11
135.6040329199
 21
36.6664675253
  0
LINE
  5
327
100
AcDbEntity
  8
0
100
AcDbLine
 62
7
  6
CONTINUOUS
 10
136.6040333968
 20
36.6664675253
 11
138.2706994277
 21
36.6664675253
  0
LINE
  5
328
100
AcDbEntity
  8
0
100
AcDbLine
 62
7
  6
CONTINUOUS
 10
139.6040333968
 20
36.7311585763
 11
140.7706994277
 21
36.7311585763
  0
LINE
  5
329
100
AcDbEntity
  8
0
100
AcDbLine
 62
7
  6
CONTINUOUS
 10
127.9373664122
 20
36.7967274535
 11
130.2706996661
 21
36.7967274535
  0
LINE
  5
32A
100
AcDbEntity
  8
0
100
AcDbLine
 62
7
  6
CONTINUOUS
 10
142.1040333968
 20
36.9986952999
 11
143.1040333968
 21
36.9986952999
  0
LINE
  5
32B
100
AcDbEntity
  8
0
100
AcDbLine
 62
7
  6
CONTINUOUS
 10
139.6040333968
 20
37.1578976999
 11
140.4373664122
 21
37.1578976999
  0
LINE
  5
32C
100
AcDbEntity
  8
0
100
AcDbLine
 62
7
  6
CONTINUOUS
 10
142.1040333968
 20
37.3528240745
 11
143.1040333968
 21
37.3528240745
  0
LINE
  5
32D
100
AcDbEntity
  8
0
100
AcDbLine
 62
7
  6
CONTINUOUS
 10
150.6873664122
 20
37.7482163971
 11
151.1873664122
 21
37.7482163971
  0
LINE
  5
32E
100
AcDbEntity
  8
0
100
AcDbLine
 62
7
  6
CONTINUOUS
 10
150.6873664122
 20
38.1829717601
 11
151.1873664122
 21
38.1829717601
  0
LINE
  5
32F
100
AcDbEntity
  8
0
100
AcDbLine
 62
7
  6
CONTINUOUS
 10
140.4373664122
 20
38.2921201766
 11
145.2707003813
 21
38.2921201766
  0
LINE
  5
330
100
AcDbEntity
  8
0
100
AcDbLine
 62
7
  6
CONTINUOUS
 10
140.4373664122
 20
38.6685332101
 11
145.2707003813
 21
38.6685332101
  0
LINE
  5
331
100
AcDbEntity
  8
0
100
AcDbLine
 62
7
  6
CONTINUOUS
 10
135.6040329199
 20
38.7209300534
 11
136.6040333968
 21
38.7209300534
  0
LINE
  5
332
100
AcDbEntity
  8
0
100
AcDbLine
 62
7
  6
CONTINUOUS
 10
139.6040333968
 20
38.7209300534
 11
145.2707003813
 21
38.7209300534
  0
LINE
  5
333
100
AcDbEntity
  8
0
100
AcDbLine
 62
7
  6
CONTINUOUS
 10
150.6873664122
 20
38.7209300534
 11
151.1873664122
 21
38.7209300534
  0
LINE
  5
334
100
AcDbEntity
  8
0
100
AcDbLine
 62
7
  6
CONTINUOUS
 10
141.2706994277
 20
35.7191972106
 11
142.1040333968
 21
35.6472621896
  0
LINE
  5
335
100
AcDbEntity
  8
0
100
AcDbLine
 62
7
  6
CONTINUOUS
 10
140.4373664122
 20
35.9350022736
 11
141.2706994277
 21
35.7191972106
  0
LINE
  5
336
100
AcDbEntity
  8
0
100
AcDbLine
 62
7
  6
CONTINUOUS
 10
113.6673664122
 20
53.2027099237
 11
113.6673664122
 21
52.0027099237
  0
LINE
  5
337
100
AcDbEntity
  8
0
100
AcDbLine
 62
7
  6
CONTINUOUS
 10
115.1673664122
 20
53.2027099237
 11
115.1673664122
 21
52.0027099237
  0
LINE
  5
338
100
AcDbEntity
  8
0
100
AcDbLine
 62
7
  6
CONTINUOUS
 10
115.7673664122
 20
53.2027099237
 11
115.7673664122
 21
52.0027099237
  0
LINE
  5
339
100
AcDbEntity
  8
0
100
AcDbLine
 62
7
  6
CONTINUOUS
 10
140.0105210823
 20
36.1806432958
 11
140.4373664122
 21
35.9350022736
  0
LINE
  5
33A
100
AcDbEntity
  8
0
100
AcDbLine
 62
7
  6
CONTINUOUS
 10
127.5733237677
 20
78.8552106389
 11
126.9988557511
 21
78.1052092084
  0
LINE
  5
33B
100
AcDbEntity
  8
0
100
AcDbLine
 62
7
  6
CONTINUOUS
 10
128.3392811232
 20
79.4177106389
 11
127.5733237677
 21
78.8552106389
  0
LINE
  5
33C
100
AcDbEntity
  8
0
100
AcDbLine
 62
7
  6
CONTINUOUS
 10
128.9137491398
 20
79.6052099237
 11
128.3392811232
 21
79.4177106389
  0
LINE
  5
33D
100
AcDbEntity
  8
0
100
AcDbLine
 62
7
  6
CONTINUOUS
 10
144.3612923566
 20
37.1711818752
 11
144.6040324431
 21
37.0140276705
  0
LINE
  5
33E
100
AcDbEntity
  8
0
100
AcDbLine
 62
7
  6
CONTINUOUS
 10
122.4873664122
 20
53.2027099237
 11
122.4873664122
 21
52.0027099237
  0
LINE
  5
33F
100
AcDbEntity
  8
0
100
AcDbLine
 62
7
  6
CONTINUOUS
 10
126.9988557511
 20
78.1052092084
 11
126.8073664122
 21
77.1677106389
  0
LINE
  5
340
100
AcDbEntity
  8
0
100
AcDbLine
 62
7
  6
CONTINUOUS
 10
128.1477917843
 20
77.9177099237
 11
127.9563024455
 21
77.3552099237
  0
LINE
  5
341
100
AcDbEntity
  8
0
100
AcDbLine
 62
7
  6
CONTINUOUS
 10
131.2116217428
 20
79.0427099237
 11
130.828643065
 21
78.2927106389
  0
LINE
  5
342
100
AcDbEntity
  8
0
100
AcDbLine
 62
7
  6
CONTINUOUS
 10
132.360557776
 20
78.6677092084
 11
131.9775790983
 21
78.1052092084
  0
LINE
  5
343
100
AcDbEntity
  8
0
100
AcDbLine
 62
7
  6
CONTINUOUS
 10
128.5307704621
 20
78.2927106389
 11
128.1477917843
 21
77.9177099237
  0
LINE
  5
344
100
AcDbEntity
  8
0
100
AcDbLine
 62
7
  6
CONTINUOUS
 10
131.9775790983
 20
79.7927092084
 11
131.2116217428
 21
79.0427099237
  0
LINE
  5
345
100
AcDbEntity
  8
0
100
AcDbLine
 62
7
  6
CONTINUOUS
 10
132.9350260609
 20
79.0427099237
 11
132.360557776
 21
78.6677092084
  0
LINE
  5
346
100
AcDbEntity
  8
0
100
AcDbLine
 62
7
  6
CONTINUOUS
 10
128.9137491398
 20
78.4802099237
 11
128.5307704621
 21
78.2927106389
  0
LINE
  5
347
100
AcDbEntity
  8
0
100
AcDbLine
 62
7
  6
CONTINUOUS
 10
132.743536722
 20
80.1677099237
 11
131.9775790983
 21
79.7927092084
  0
LINE
  5
348
100
AcDbEntity
  8
0
100
AcDbLine
 62
7
  6
CONTINUOUS
 10
147.8566731949
 20
52.5802099293
 11
146.5162475546
 21
52.3927099237
  0
LINE
  5
349
100
AcDbEntity
  8
0
100
AcDbLine
 62
7
  6
CONTINUOUS
 10
113.6673664122
 20
52.0027099237
 11
115.1673664122
 21
52.0027099237
  0
LINE
  5
34A
100
AcDbEntity
  8
0
100
AcDbLine
 62
7
  6
CONTINUOUS
 10
115.7673664122
 20
52.0027099237
 11
122.4873664122
 21
52.0027099237
  0
LINE
  5
34B
100
AcDbEntity
  8
0
100
AcDbLine
 62
7
  6
CONTINUOUS
 10
132.3273662048
 20
53.2027099237
 11
135.8073664122
 21
52.0427099237
  0
LINE
  5
34C
100
AcDbEntity
  8
0
100
AcDbLine
 62
7
  6
CONTINUOUS
 10
128.9458461942
 20
53.2027099237
 11
134.6584302449
 21
51.2927098343
  0
LINE
  5
34D
100
AcDbEntity
  8
0
100
AcDbLine
 62
7
  6
CONTINUOUS
 10
150.2537419686
 20
38.42731518
 11
150.6873664122
 21
38.1829717601
  0
LINE
  5
34E
100
AcDbEntity
  8
0
100
AcDbLine
 62
7
  6
CONTINUOUS
 10
126.8073664122
 20
77.1677106389
 11
126.8073664122
 21
76.2302099237
  0
LINE
  5
34F
100
AcDbEntity
  8
0
100
AcDbLine
 62
7
  6
CONTINUOUS
 10
126.8073664122
 20
48.6677099237
 11
126.8073664122
 21
47.5427099237
  0
LINE
  5
350
100
AcDbEntity
  8
0
100
AcDbLine
 62
7
  6
CONTINUOUS
 10
127.9373664122
 20
36.7967274535
 11
127.9373664122
 21
36.4776687013
  0
LINE
  5
351
100
AcDbEntity
  8
0
100
AcDbLine
 62
7
  6
CONTINUOUS
 10
127.9563024455
 20
77.3552099237
 11
127.9563024455
 21
76.2302099237
  0
LINE
  5
352
100
AcDbEntity
  8
0
100
AcDbLine
 62
7
  6
CONTINUOUS
 10
128.9137491398
 20
79.6052099237
 11
128.9137491398
 21
78.4802099237
  0
LINE
  5
353
100
AcDbEntity
  8
0
100
AcDbLine
 62
7
  6
CONTINUOUS
 10
130.828643065
 20
78.2927106389
 11
130.6371537262
 21
77.3552099237
  0
LINE
  5
354
100
AcDbEntity
  8
0
100
AcDbLine
 62
7
  6
CONTINUOUS
 10
131.9775790983
 20
78.1052092084
 11
131.7860897594
 21
77.3552099237
  0
LINE
  5
355
100
AcDbEntity
  8
0
100
AcDbLine
 62
7
  6
CONTINUOUS
 10
131.7860897594
 20
76.2302099237
 11
131.651408796
 21
75.7027099237
  0
LINE
  5
356
100
AcDbEntity
  8
0
100
AcDbLine
 62
7
  6
CONTINUOUS
 10
130.6371537262
 20
76.2302099237
 11
130.4575792795
 21
75.7027099237
  0
LINE
  5
357
100
AcDbEntity
  8
0
100
AcDbLine
 62
7
  6
CONTINUOUS
 10
145.1758221825
 20
52.3927099237
 11
146.5162475546
 21
52.3927099237
  0
LINE
  5
358
100
AcDbEntity
  8
0
100
AcDbLine
 62
7
  6
CONTINUOUS
 10
189.7315769622
 20
52.7027099237
 11
181.7973664122
 21
52.7027099237
  0
LINE
  5
359
100
AcDbEntity
  8
RUNDUNGEN
100
AcDbLine
 62
7
  6
CONTINUOUS
 10
135.5397122398
 20
53.2027099237
 11
84.5573663122
 21
53.2027099237
  0
LINE
  5
35A
100
AcDbEntity
  8
BEZUGSACHSEN
100
AcDbLine
 62
7
  6
CONTINUOUS
 10
135.5397122398
 20
53.2027099237
 11
191.5573665122
 21
53.2027099237
  0
LINE
  5
35B
100
AcDbEntity
  8
0
100
AcDbLine
 62
7
  6
CONTINUOUS
 10
143.8353968103
 20
52.5802099293
 11
145.1758221825
 21
52.3927099237
  0
LINE
  5
35C
100
AcDbEntity
  8
0
100
AcDbLine
 62
7
  6
CONTINUOUS
 10
142.8779495795
 20
52.9552099237
 11
143.8353968103
 21
52.5802099293
  0
LINE
  5
35D
100
AcDbEntity
  8
0
100
AcDbLine
 62
7
  6
CONTINUOUS
 10
144.6040324431
 20
37.0140276705
 11
144.7707003813
 21
36.7982225256
  0
LINE
  5
35E
100
AcDbEntity
  8
0
100
AcDbLine
 62
7
  6
CONTINUOUS
 10
130.2706996661
 20
36.7967274535
 11
130.2706996661
 21
36.4776687013
  0
LINE
  5
35F
100
AcDbEntity
  8
0
100
AcDbLine
 62
7
  6
CONTINUOUS
 10
130.6371537262
 20
77.3552099237
 11
130.6371537262
 21
76.2302099237
  0
LINE
  5
360
100
AcDbEntity
  8
0
100
AcDbLine
 62
7
  6
CONTINUOUS
 10
131.6040331584
 20
36.6664675253
 11
131.6040331584
 21
36.2968008895
  0
LINE
  5
361
100
AcDbEntity
  8
0
100
AcDbLine
 62
7
  6
CONTINUOUS
 10
131.7860897594
 20
77.3552099237
 11
131.7860897594
 21
76.2302099237
  0
LINE
  5
362
100
AcDbEntity
  8
0
100
AcDbLine
 62
7
  6
CONTINUOUS
 10
132.7706999045
 20
36.6664675253
 11
132.7706999045
 21
37.0859626852
  0
LINE
  5
363
100
AcDbEntity
  8
0
100
AcDbLine
 62
7
  6
CONTINUOUS
 10
135.8073664122
 20
75.8552092084
 11
135.7762175756
 21
75.7027099237
  0
LINE
  5
364
100
AcDbEntity
  8
0
100
AcDbLine
 62
7
  6
CONTINUOUS
 10
134.6584302449
 20
75.8552092084
 11
134.6194942248
 21
75.7027099237
  0
LINE
  5
365
100
AcDbEntity
  8
0
100
AcDbLine
 62
7
  6
CONTINUOUS
 10
142.5409283431
 20
53.2027099237
 11
142.8779495795
 21
52.9552099237
  0
LINE
  5
366
100
AcDbEntity
  8
0
100
AcDbLine
 62
7
  6
CONTINUOUS
 10
127.9563024455
 20
76.2302099237
 11
128.1358768921
 21
75.7027099237
  0
LINE
  5
367
100
AcDbEntity
  8
0
100
AcDbLine
 62
7
  6
CONTINUOUS
 10
126.8073664122
 20
76.2302099237
 11
126.9420473757
 21
75.7027099237
  0
LINE
  5
368
100
AcDbEntity
  8
0
100
AcDbLine
 62
7
  6
CONTINUOUS
 10
134.6584302449
 20
77.3552099237
 11
134.6584302449
 21
75.8552092084
  0
LINE
  5
369
100
AcDbEntity
  8
0
100
AcDbLine
 62
7
  6
CONTINUOUS
 10
135.6040329199
 20
35.5587154234
 11
135.6040329199
 21
36.6543524962
  0
LINE
  5
36A
100
AcDbEntity
  8
0
100
AcDbLine
 62
7
  6
CONTINUOUS
 10
135.6040329199
 20
36.6664675253
 11
135.6040329199
 21
38.452728166
  0
LINE
  5
36B
100
AcDbEntity
  8
0
100
AcDbLine
 62
7
  6
CONTINUOUS
 10
135.8073664122
 20
77.3552099237
 11
135.8073664122
 21
75.8552092084
  0
LINE
  5
36C
100
AcDbEntity
  8
0
100
AcDbLine
 62
7
  6
CONTINUOUS
 10
135.8073664122
 20
52.0427099237
 11
135.8073664122
 21
50.5427100131
  0
LINE
  5
36D
100
AcDbEntity
  8
0
100
AcDbLine
 62
7
  6
CONTINUOUS
 10
136.6040333968
 20
35.5587154234
 11
136.6040333968
 21
36.6543524962
  0
LINE
  5
36E
100
AcDbEntity
  8
0
100
AcDbLine
 62
7
  6
CONTINUOUS
 10
136.6040333968
 20
36.6664675253
 11
136.6040333968
 21
38.7209300534
  0
LINE
  5
36F
100
AcDbEntity
  8
0
100
AcDbLine
 62
7
  6
CONTINUOUS
 10
138.2706994277
 20
36.6664675253
 11
138.2706994277
 21
36.2968008895
  0
LINE
  5
370
100
AcDbEntity
  8
0
100
AcDbLine
 62
7
  6
CONTINUOUS
 10
134.466940906
 20
78.1052092084
 11
134.6584302449
 21
77.3552099237
  0
LINE
  5
371
100
AcDbEntity
  8
0
100
AcDbLine
 62
7
  6
CONTINUOUS
 10
135.6158770566
 20
78.2927106389
 11
135.8073664122
 21
77.3552099237
  0
LINE
  5
372
100
AcDbEntity
  8
0
100
AcDbLine
 62
7
  6
CONTINUOUS
 10
139.6040333968
 20
38.7209300534
 11
139.6040333968
 21
36.7311585763
  0
LINE
  5
373
100
AcDbEntity
  8
0
100
AcDbLine
 62
7
  6
CONTINUOUS
 10
139.9373664122
 20
35.958988133
 11
139.9373664122
 21
36.1806432958
  0
LINE
  5
374
100
AcDbEntity
  8
0
100
AcDbLine
 62
7
  6
CONTINUOUS
 10
140.4373664122
 20
35.7516359858
 11
140.4373664122
 21
35.9350022736
  0
LINE
  5
375
100
AcDbEntity
  8
0
100
AcDbLine
 62
7
  6
CONTINUOUS
 10
140.4373664122
 20
37.0677701659
 11
140.4373664122
 21
38.6685332101
  0
LINE
  5
376
100
AcDbEntity
  8
0
100
AcDbLine
 62
7
  6
CONTINUOUS
 10
140.7706994277
 20
36.7311585763
 11
140.7706994277
 21
37.1578976999
  0
LINE
  5
377
100
AcDbEntity
  8
0
100
AcDbLine
 62
7
  6
CONTINUOUS
 10
141.2706994277
 20
35.6055846392
 11
141.2706994277
 21
35.7191972106
  0
LINE
  5
378
100
AcDbEntity
  8
0
100
AcDbLine
 62
7
  6
CONTINUOUS
 10
141.4373664122
 20
36.9304963041
 11
141.4373664122
 21
37.2946973016
  0
LINE
  5
379
100
AcDbEntity
  8
0
100
AcDbLine
 62
7
  6
CONTINUOUS
 10
142.1040333968
 20
35.5587154234
 11
142.1040333968
 21
35.6472621896
  0
LINE
  5
37A
100
AcDbEntity
  8
0
100
AcDbLine
 62
7
  6
CONTINUOUS
 10
142.1040333968
 20
36.9986952999
 11
142.1040333968
 21
37.3528240745
  0
LINE
  5
37B
100
AcDbEntity
  8
0
100
AcDbLine
 62
7
  6
CONTINUOUS
 10
134.0839620941
 20
78.6677092084
 11
134.466940906
 21
78.1052092084
  0
LINE
  5
37C
100
AcDbEntity
  8
0
100
AcDbLine
 62
7
  6
CONTINUOUS
 10
135.2328983285
 20
79.0427099237
 11
135.6158770566
 21
78.2927106389
  0
LINE
  5
37D
100
AcDbEntity
  8
0
100
AcDbLine
 62
7
  6
CONTINUOUS
 10
143.1040333968
 20
35.5587154234
 11
143.1040333968
 21
35.6472621896
  0
LINE
  5
37E
100
AcDbEntity
  8
0
100
AcDbLine
 62
7
  6
CONTINUOUS
 10
143.1040333968
 20
36.9986952999
 11
143.1040333968
 21
37.3528240742
  0
LINE
  5
37F
100
AcDbEntity
  8
0
100
AcDbLine
 62
7
  6
CONTINUOUS
 10
143.7706994277
 20
36.9304963041
 11
143.7706994277
 21
37.2946973182
  0
LINE
  5
380
100
AcDbEntity
  8
0
100
AcDbLine
 62
7
  6
CONTINUOUS
 10
143.9373664122
 20
35.6055846392
 11
143.9373664122
 21
35.7191972106
  0
LINE
  5
381
100
AcDbEntity
  8
0
100
AcDbLine
 62
7
  6
CONTINUOUS
 10
144.2183754881
 20
76.9552106389
 11
144.2183754881
 21
75.7027099237
  0
LINE
  5
382
100
AcDbEntity
  8
0
100
AcDbLine
 62
7
  6
CONTINUOUS
 10
144.2707003813
 20
36.7967274535
 11
144.2707003813
 21
37.1943702748
  0
LINE
  5
383
100
AcDbEntity
  8
0
100
AcDbLine
 62
7
  6
CONTINUOUS
 10
144.6040324431
 20
36.6026550032
 11
144.6040324431
 21
37.0140276705
  0
LINE
  5
384
100
AcDbEntity
  8
0
100
AcDbLine
 62
7
  6
CONTINUOUS
 10
144.7707003813
 20
35.7516359858
 11
144.7707003813
 21
35.9350022736
  0
LINE
  5
385
100
AcDbEntity
  8
0
100
AcDbLine
 62
7
  6
CONTINUOUS
 10
144.7707003813
 20
36.2968008895
 11
144.7707003813
 21
36.7982225256
  0
LINE
  5
386
100
AcDbEntity
  8
0
100
AcDbLine
 62
7
  6
CONTINUOUS
 10
144.9843328436
 20
76.9552106389
 11
144.9843328436
 21
75.7027099237
  0
LINE
  5
387
100
AcDbEntity
  8
0
100
AcDbLine
 62
7
  6
CONTINUOUS
 10
145.2707003813
 20
38.7209300534
 11
145.2707003813
 21
38.2921201766
  0
LINE
  5
388
100
AcDbEntity
  8
0
100
AcDbLine
 62
7
  6
CONTINUOUS
 10
145.2707003813
 20
35.958988133
 11
145.2707003813
 21
36.2227423576
  0
LINE
  5
389
100
AcDbEntity
  8
0
100
AcDbLine
 62
7
  6
CONTINUOUS
 10
145.6040324431
 20
36.4776687013
 11
145.6040324431
 21
36.2382791508
  0
LINE
  5
38A
100
AcDbEntity
  8
0
100
AcDbLine
 62
7
  6
CONTINUOUS
 10
149.580077446
 20
76.5802099237
 11
149.4008434988
 21
75.7027099237
  0
LINE
  5
38B
100
AcDbEntity
  8
0
100
AcDbLine
 62
7
  6
CONTINUOUS
 10
134.466940906
 20
79.7927092084
 11
135.2328983285
 21
79.0427099237
  0
LINE
  5
38C
100
AcDbEntity
  8
0
100
AcDbLine
 62
7
  6
CONTINUOUS
 10
150.1873664122
 20
38.3831509393
 11
150.1873664122
 21
38.058934099
  0
LINE
  5
38D
100
AcDbEntity
  8
0
100
AcDbLine
 62
7
  6
CONTINUOUS
 10
150.6873664122
 20
37.7482163971
 11
150.6873664122
 21
38.1829717601
  0
LINE
  5
38E
100
AcDbEntity
  8
0
100
AcDbLine
 62
7
  6
CONTINUOUS
 10
151.1873664122
 20
37.7482163971
 11
151.1873664122
 21
38.1829717601
  0
LINE
  5
38F
100
AcDbEntity
  8
0
100
AcDbLine
 62
7
  6
CONTINUOUS
 10
150.3460348685
 20
76.5802099237
 11
150.1966731711
 21
75.7027099237
  0
LINE
  5
390
100
AcDbEntity
  8
0
100
AcDbLine
 62
7
  6
CONTINUOUS
 10
134.6584302449
 20
51.2927098343
 11
126.8073664122
 21
48.6677099237
  0
LINE
  5
391
100
AcDbEntity
  8
0
100
AcDbLine
 62
7
  6
CONTINUOUS
 10
135.8073664122
 20
50.5427100131
 11
126.8073664122
 21
47.5427099237
  0
LINE
  5
392
100
AcDbEntity
  8
BEZUGSACHSEN
100
AcDbLine
 62
7
  6
CONTINUOUS
 10
84.5573663122
 20
75.7027099237
 11
191.5573665122
 21
75.7027099237
  0
LINE
  5
393
100
AcDbEntity
  8
0
100
AcDbLine
 62
7
  6
CONTINUOUS
 10
149.580077446
 20
76.5802099237
 11
150.3460348685
 21
76.5802099237
  0
LINE
  5
394
100
AcDbEntity
  8
0
100
AcDbLine
 62
7
  6
CONTINUOUS
 10
144.2183754881
 20
76.9552106389
 11
144.9843328436
 21
76.9552106389
  0
LINE
  5
395
100
AcDbEntity
  8
0
100
AcDbLine
 62
7
  6
CONTINUOUS
 10
133.7009834164
 20
80.1677099237
 11
134.466940906
 21
79.7927092084
  0
LINE
  5
396
100
AcDbEntity
  8
0
100
AcDbLine
 62
7
  6
CONTINUOUS
 10
133.5094940775
 20
79.0427099237
 11
134.0839620941
 21
78.6677092084
  0
LINE
  5
397
100
AcDbEntity
  8
0
100
AcDbLine
 62
7
  6
CONTINUOUS
 10
151.6873664122
 20
38.3831509393
 11
151.6873664122
 21
38.058934099
  0
LINE
  5
398
100
AcDbEntity
  8
0
100
AcDbLine
 62
7
  6
CONTINUOUS
 10
149.1511412893
 20
53.2027099237
 11
148.8141200234
 21
52.9552099237
  0
LINE
  5
399
100
AcDbEntity
  8
0
100
AcDbLine
 62
7
  6
CONTINUOUS
 10
148.8141200234
 20
52.9552099237
 11
147.8566731949
 21
52.5802099293
  0
LINE
  5
39A
100
AcDbEntity
  8
0
100
AcDbLine
 62
7
  6
CONTINUOUS
 10
132.9350260609
 20
79.0427099237
 11
133.5094940775
 21
79.0427099237
  0
LINE
  5
39B
100
AcDbEntity
  8
0
100
AcDbLine
 62
7
  6
CONTINUOUS
 10
132.743536722
 20
80.1677099237
 11
133.7009834164
 21
80.1677099237
  0
LINE
  5
39C
100
AcDbEntity
  8
0
100
AcDbLine
 62
7
  6
CONTINUOUS
 10
145.2707003813
 20
36.2227423576
 11
145.5518091928
 21
36.5260670545
  0
LINE
  5
39D
100
AcDbEntity
  8
0
100
AcDbLine
 62
7
  6
CONTINUOUS
 10
132.7706999045
 20
37.0859626852
 11
135.6040329199
 21
38.452728166
  0
LINE
  5
39E
100
AcDbEntity
  8
KONSTRUKTIONSELEMENTE
100
AcDbLine
 62
7
  6
CONTINUOUS
 10
168.0573664122
 20
92.6867530783
 11
168.0573664122
 21
90.7307060555
  0
LINE
  5
39F
100
AcDbEntity
  8
0
100
AcDbLine
 62
7
  6
CONTINUOUS
 10
168.0573664122
 20
90.7307060555
 11
168.0573664122
 21
75.7027099237
  0
LINE
  5
3A0
100
AcDbEntity
  8
0
100
AcDbLine
 62
7
  6
CONTINUOUS
 10
168.0573664122
 20
53.2027099237
 11
168.0573664122
 21
36.218666769
  0
LINE
  5
3A1
100
AcDbEntity
  8
0
100
AcDbLine
 62
7
  6
CONTINUOUS
 10
144.7707003813
 20
35.9350022736
 11
145.2707003813
 21
36.2227423576
  0
LINE
  5
3A2
100
AcDbEntity
  8
0
100
AcDbLine
 62
7
  6
CONTINUOUS
 10
151.1873664122
 20
38.1829717601
 11
151.6209908558
 21
38.42731518
  0
LINE
  5
3A3
100
AcDbEntity
  8
KONSTRUKTIONSELEMENTE
100
AcDbLine
 62
7
  6
CONTINUOUS
 10
111.0573664122
 20
94.9527099237
 11
165.0573664122
 21
94.9527099237
  0
LINE
  5
3A4
100
AcDbEntity
  8
0
100
AcDbLine
 62
7
  6
CONTINUOUS
 10
181.7973664122
 20
53.2027099237
 11
181.7973664122
 21
52.7027099237
  0
LINE
  5
3A5
100
AcDbEntity
  8
0
100
AcDbLine
 62
7
  6
CONTINUOUS
 10
187.6157874822
 20
53.2027099237
 11
187.6157874822
 21
52.7027099237
  0
LINE
  5
3A6
100
AcDbEntity
  8
0
100
AcDbLine
 62
7
  6
CONTINUOUS
 10
188.4092085372
 20
53.2027099237
 11
188.4092085372
 21
52.7027099237
  0
LINE
  5
3A7
100
AcDbEntity
  8
0
100
AcDbLine
 62
7
  6
CONTINUOUS
 10
189.7315769622
 20
53.2027099237
 11
189.7315769622
 21
52.7027099237
  0
LINE
  5
3A8
100
AcDbEntity
  8
BEZUGSACHSEN
100
AcDbLine
 62
7
  6
CONTINUOUS
 10
195.5573665122
 20
71.7027099237
 11
195.5573665122
 21
57.2027099237
  0
ARC
  5
3A9
100
AcDbEntity
  8
0
100
AcDbCircle
 62
7
  6
CONTINUOUS
 10
6.3180527764
 20
-89.2271393973
 40
283.5868707356
100
AcDbArc
 50
60.776376783
 51
60.9691171181
  0
ARC
  5
3AA
100
AcDbEntity
  8
BEZUGSACHSEN
100
AcDbCircle
 62
7
  6
CONTINUOUS
 10
91.1363137122
 20
215.0149323904
 40
10.5789474
100
AcDbArc
 50
157.5
 51
180.0
  0
ARC
  5
3AB
100
AcDbEntity
  8
RUNDUNGEN
100
AcDbCircle
 62
7
  6
CONTINUOUS
 10
91.1363137122
 20
215.0149323904
 40
10.5789474
100
AcDbArc
 50
157.5
 51
180.0
  0
ARC
  5
3AC
100
AcDbEntity
  8
RUNDUNGEN
100
AcDbCircle
 62
7
  6
CONTINUOUS
 10
84.5573663122
 20
138.0149323904
 40
4.0
100
AcDbArc
 50
180.0
 51
270.0
  0
ARC
  5
3AD
100
AcDbEntity
  8
RUNDUNGEN
100
AcDbCircle
 62
7
  6
CONTINUOUS
 10
115.5573663122
 20
167.5149323904
 40
11.0
100
AcDbArc
 50
180.0
 51
227.0127508465
  0
ARC
  5
3AE
100
AcDbEntity
  8
RUNDUNGEN
100
AcDbCircle
 62
7
  6
CONTINUOUS
 10
118.2573664122
 20
183.4040164917
 40
3.8
100
AcDbArc
 50
270.0
 51
57.9383738092
  0
ARC
  5
3AF
100
AcDbEntity
  8
RUNDUNGEN
100
AcDbCircle
 62
7
  6
CONTINUOUS
 10
108.0573663122
 20
176.1040164917
 40
3.5
100
AcDbArc
 50
90.0
 51
180.0
  0
ARC
  5
3B0
100
AcDbEntity
  8
0
100
AcDbCircle
 62
7
  6
CONTINUOUS
 10
111.0573664122
 20
173.0149323904
 40
3.0
100
AcDbArc
 50
90.0
 51
180.0
  0
ARC
  5
3B1
100
AcDbEntity
  8
RUNDUNGEN
100
AcDbCircle
 62
7
  6
CONTINUOUS
 10
138.0573664122
 20
215.0149323904
 40
33.5000001
100
AcDbArc
 50
180.0
 51
237.9383740056
  0
ARC
  5
3B2
100
AcDbEntity
  8
BEZUGSACHSEN
100
AcDbCircle
 62
7
  6
CONTINUOUS
 10
138.0573664122
 20
215.0149323904
 40
33.5000001
100
AcDbArc
 50
302.0616259944
 51
180.0
  0
ARC
  5
3B3
100
AcDbEntity
  8
BEZUGSACHSEN
100
AcDbCircle
 62
7
  6
CONTINUOUS
 10
104.8791718676
 20
248.193126935
 40
10.5789474
100
AcDbArc
 50
112.5
 51
157.5
  0
ARC
  5
3B4
100
AcDbEntity
  8
RUNDUNGEN
100
AcDbCircle
 62
7
  6
CONTINUOUS
 10
104.8791718676
 20
248.193126935
 40
10.5789474
100
AcDbArc
 50
112.5
 51
157.5
  0
ARC
  5
3B5
100
AcDbEntity
  8
BEZUGSACHSEN
100
AcDbCircle
 62
7
  6
CONTINUOUS
 10
138.0573664122
 20
261.9359850904
 40
10.5789474
100
AcDbArc
 50
67.5
 51
112.5
  0
ARC
  5
3B6
100
AcDbEntity
  8
0
100
AcDbCircle
 62
7
  6
CONTINUOUS
 10
157.1430152703
 20
161.0321573888
 40
15.4548716283
100
AcDbArc
 50
92.8649116789
 51
93.2320477022
  0
ARC
  5
3B7
100
AcDbEntity
  8
0
100
AcDbCircle
 62
7
  6
CONTINUOUS
 10
160.9490798563
 20
161.0326246003
 40
15.4544037265
100
AcDbArc
 50
86.767951758
 51
87.1349253861
  0
ARC
  5
3B8
100
AcDbEntity
  8
BEZUGSACHSEN
100
AcDbCircle
 62
7
  6
CONTINUOUS
 10
160.5573665122
 20
167.5149323904
 40
11.0
100
AcDbArc
 50
312.9872491535
 51
360.0
  0
ARC
  5
3B9
100
AcDbEntity
  8
BEZUGSACHSEN
100
AcDbCircle
 62
7
  6
CONTINUOUS
 10
191.5573665122
 20
138.0149323904
 40
4.0
100
AcDbArc
 50
270.0
 51
360.0
  0
ARC
  5
3BA
100
AcDbEntity
  8
BEZUGSACHSEN
100
AcDbCircle
 62
7
  6
CONTINUOUS
 10
157.8573664122
 20
183.4040164917
 40
3.8
100
AcDbArc
 50
122.0616261908
 51
270.0
  0
ARC
  5
3BB
100
AcDbEntity
  8
BEZUGSACHSEN
100
AcDbCircle
 62
7
  6
CONTINUOUS
 10
168.0573665122
 20
176.1040164917
 40
3.5
100
AcDbArc
 50
1.4090868945
 51
90.0
  0
ARC
  5
3BC
100
AcDbEntity
  8
0
100
AcDbCircle
 62
7
  6
CONTINUOUS
 10
184.9710506322
 20
176.4370376204
 40
3.17368422
100
AcDbArc
 50
90.0
 51
270.0
  0
ARC
  5
3BD
100
AcDbEntity
  8
0
100
AcDbCircle
 62
7
  6
CONTINUOUS
 10
165.0573664122
 20
173.0149323904
 40
3.0
100
AcDbArc
 50
0.0
 51
90.0
  0
ARC
  5
3BE
100
AcDbEntity
  8
0
100
AcDbCircle
 62
7
  6
CONTINUOUS
 10
184.7065769472
 20
168.0973007534
 40
2.909210535
100
AcDbArc
 50
180.0
 51
270.0
  0
ARC
  5
3BF
100
AcDbEntity
  8
0
100
AcDbCircle
 62
7
  6
CONTINUOUS
 10
186.8223664272
 20
168.0973007534
 40
2.909210535
100
AcDbArc
 50
270.0
 51
360.0
  0
ARC
  5
3C0
100
AcDbEntity
  8
0
100
AcDbCircle
 62
7
  6
CONTINUOUS
 10
187.4218401132
 20
183.5073007994
 40
2.309736849
100
AcDbArc
 50
201.1872687082
 51
360.0
  0
ARC
  5
3C1
100
AcDbEntity
  8
0
100
AcDbCircle
 62
7
  6
CONTINUOUS
 10
186.7518401112
 20
168.4354585609
 40
1.657368426
100
AcDbArc
 50
270.01819492
 51
360.0
  0
ARC
  5
3C2
100
AcDbEntity
  8
0
100
AcDbCircle
 62
7
  6
CONTINUOUS
 10
184.7771032632
 20
168.4354586444
 40
1.657368426
100
AcDbArc
 50
180.0
 51
270.0
  0
ARC
  5
3C3
100
AcDbEntity
  8
0
100
AcDbCircle
 62
7
  6
CONTINUOUS
 10
184.9710506322
 20
176.4370376204
 40
1.58684211
100
AcDbArc
 50
90.0
 51
270.0
  0
ARC
  5
3C4
100
AcDbEntity
  8
0
100
AcDbCircle
 62
7
  6
CONTINUOUS
 10
183.7897348392
 20
184.8727900927
 40
1.322368425
100
AcDbArc
 50
300.0
 51
360.0
  0
ARC
  5
3C5
100
AcDbEntity
  8
0
100
AcDbCircle
 62
7
  6
CONTINUOUS
 10
187.4218401132
 20
184.0362481694
 40
0.987368424
100
AcDbArc
 50
180.0
 51
360.0
  0
ARC
  5
3C6
100
AcDbEntity
  8
BEZUGSACHSEN
100
AcDbCircle
 62
7
  6
CONTINUOUS
 10
184.9784191122
 20
215.0149323904
 40
10.5789474
100
AcDbArc
 50
0.0
 51
22.5
  0
ARC
  5
3C7
100
AcDbEntity
  8
BEZUGSACHSEN
100
AcDbCircle
 62
7
  6
CONTINUOUS
 10
171.2355609568
 20
248.193126935
 40
10.5789474
100
AcDbArc
 50
22.5
 51
67.5
  0
ARC
  5
3C8
100
AcDbEntity
  8
BEZUGSACHSEN
100
AcDbCircle
 62
7
  6
CONTINUOUS
 10
273.0342969799
 20
145.0149323904
 40
11.0
100
AcDbArc
 50
180.0
 51
270.0
  0
ARC
  5
3C9
100
AcDbEntity
  8
BEZUGSACHSEN
100
AcDbCircle
 62
7
  6
CONTINUOUS
 10
266.0342969799
 20
268.5149324904
 40
4.0
100
AcDbArc
 50
90.0
 51
180.0
  0
ARC
  5
3CA
100
AcDbEntity
  8
0
100
AcDbCircle
 62
7
  6
CONTINUOUS
 10
273.2842969799
 20
146.0149323904
 40
30.5
100
AcDbArc
 50
111.6471316135
 51
121.0138928096
  0
ARC
  5
3CB
100
AcDbEntity
  8
0
100
AcDbCircle
 62
7
  6
CONTINUOUS
 10
273.2842969799
 20
146.0149323904
 40
30.5
100
AcDbArc
 50
56.3287960145
 51
68.3536592875
  0
ARC
  5
3CC
100
AcDbEntity
  8
0
100
AcDbCircle
 62
7
  6
CONTINUOUS
 10
273.2842969799
 20
146.0149323904
 40
30.0
100
AcDbArc
 50
112.0337092081
 51
166.72
  0
ARC
  5
3CD
100
AcDbEntity
  8
0
100
AcDbCircle
 62
7
  6
CONTINUOUS
 10
273.2842969799
 20
146.0149323904
 40
30.0
100
AcDbArc
 50
13.28
 51
67.9662907919
  0
ARC
  5
3CE
100
AcDbEntity
  8
0
100
AcDbCircle
 62
7
  6
CONTINUOUS
 10
273.2842969799
 20
146.3849323904
 40
12.77
100
AcDbArc
 50
181.5974790851
 51
358.4025209149
  0
ARC
  5
3CF
100
AcDbEntity
  8
KONSTRUKTIONSELEMENTE
100
AcDbCircle
 62
7
  6
CONTINUOUS
 10
273.2842969799
 20
146.0149323904
 40
12.0
100
AcDbArc
 50
159.6678648501
 51
160.0
  0
ARC
  5
3D0
100
AcDbEntity
  8
KONSTRUKTIONSELEMENTE
100
AcDbCircle
 62
7
  6
CONTINUOUS
 10
273.2842969799
 20
146.0149323904
 40
12.0
100
AcDbArc
 50
20.0
 51
20.3321247293
  0
ARC
  5
3D1
100
AcDbEntity
  8
0
100
AcDbCircle
 62
7
  6
CONTINUOUS
 10
273.2842969799
 20
146.3849323904
 40
11.97
100
AcDbArc
 50
167.2820441698
 51
216.1441699627
  0
ARC
  5
3D2
100
AcDbEntity
  8
0
100
AcDbCircle
 62
7
  6
CONTINUOUS
 10
273.2842969799
 20
146.3849323904
 40
11.97
100
AcDbArc
 50
323.8507156416
 51
12.7179558302
  0
ARC
  5
3D3
100
AcDbEntity
  8
BEZUGSACHSEN
100
AcDbCircle
 62
7
  6
CONTINUOUS
 10
273.5342969799
 20
145.0149323904
 40
11.0
100
AcDbArc
 50
328.8577601017
 51
360.0
  0
ARC
  5
3D4
100
AcDbEntity
  8
RUNDUNGEN
100
AcDbCircle
 62
7
  6
CONTINUOUS
 10
273.5342969799
 20
145.0149323904
 40
11.0
100
AcDbArc
 50
270.0
 51
360.0
  0
ARC
  5
3D5
100
AcDbEntity
  8
BEZUGSACHSEN
100
AcDbCircle
 62
7
  6
CONTINUOUS
 10
280.5342969799
 20
268.5149324904
 40
4.0
100
AcDbArc
 50
0.0
 51
90.0
  0
ARC
  5
3D6
100
AcDbEntity
  8
0
100
AcDbCircle
 62
7
  6
CONTINUOUS
 10
168.290346188
 20
131.0518960674
 40
96.8823496403
100
AcDbArc
 50
255.4416090381
 51
255.9502081051
  0
ARC
  5
3D7
100
AcDbEntity
  8
RUNDUNGEN
100
AcDbCircle
 62
7
  6
CONTINUOUS
 10
84.5573663122
 20
57.2027099237
 40
4.0
100
AcDbArc
 50
180.0
 51
270.0
  0
ARC
  5
3D8
100
AcDbEntity
  8
BEZUGSACHSEN
100
AcDbCircle
 62
7
  6
CONTINUOUS
 10
191.5573665122
 20
57.2027099237
 40
4.0
100
AcDbArc
 50
270.0
 51
360.0
  0
ARC
  5
3D9
100
AcDbEntity
  8
BEZUGSACHSEN
100
AcDbCircle
 62
7
  6
CONTINUOUS
 10
84.5573663122
 20
71.7027099237
 40
4.0
100
AcDbArc
 50
90.0
 51
180.0
  0
ARC
  5
3DA
100
AcDbEntity
  8
BEZUGSACHSEN
100
AcDbCircle
 62
7
  6
CONTINUOUS
 10
191.5573665122
 20
71.7027099237
 40
4.0
100
AcDbArc
 50
0.0
 51
90.0
  0
SPLINE
  5
3DB
100
AcDbEntity
  8
0
100
AcDbSpline
 62
7
  6
CONTINUOUS
 70
0
 71
3
 72
11
 73
7
 74
0
 42
0.0000001
 43
0.0000001
 44
0.0000000001
 40
0.0
 40
0.0
 40
0.0
 40
0.0
 40
0.2322383349
 40
0.4999985277
 40
0.7677594807
 40
1.0
 40
1.0
 40
1.0
 40
1.0
 10
161.7215550651
 20
176.4677104955
 30
0.0
 10
161.3077692032
 20
176.48845055
 30
0.0
 10
160.4156576527
 20
176.5045510634
 30
0.0
 10
159.0460643679
 20
176.5091904015
 30
0.0
 10
157.6764671732
 20
176.5045515126
 30
0.0
 10
156.7843503801
 20
176.488451899
 30
0.0
 10
156.3705605688
 20
176.4677127976
 30
0.0
  0
SPLINE
  5
3DC
100
AcDbEntity
  8
0
100
AcDbSpline
 62
7
  6
CONTINUOUS
 70
0
 71
3
 72
27
 73
23
 74
0
 42
0.0000001
 43
0.0000001
 44
0.0000000001
 40
0.0
 40
0.0
 40
0.0
 40
0.0
 40
0.0043163112
 40
0.0124706909
 40
0.0249912325
 40
0.0419044007
 40
0.0883569571
 40
0.1502411262
 40
0.2253090677
 40
0.3108040265
 40
0.4035431407
 40
0.4999967678
 40
0.5964505247
 40
0.6891900029
 40
0.7746855501
 40
0.8497543527
 40
0.9116395506
 40
0.9580933017
 40
0.9750071111
 40
0.9875282877
 40
0.9956832663
 40
1.0
 40
1.0
 40
1.0
 40
1.0
 10
156.2460796964
 20
176.4404352161
 30
0.0
 10
156.2460817173
 20
176.4322625314
 30
0.0
 10
156.2653276067
 20
176.4127912306
 30
0.0
 10
156.3066788815
 20
176.3934892007
 30
0.0
 10
156.3744815061
 20
176.3688933568
 30
0.0
 10
156.5127538573
 20
176.3312953886
 30
0.0
 10
156.7456553592
 20
176.2839164038
 30
0.0
 10
157.0888210545
 20
176.231212179
 30
0.0
 10
157.5074070746
 20
176.183094283
 30
0.0
 10
157.9855345316
 20
176.144534243
 30
0.0
 10
158.5051377828
 20
176.1195841098
 30
0.0
 10
159.0460154453
 20
176.1109478146
 30
0.0
 10
159.5868938166
 20
176.1195828857
 30
0.0
 10
160.106499173
 20
176.1445319139
 30
0.0
 10
160.5846301416
 20
176.1830911161
 30
0.0
 10
161.003220952
 20
176.2312084503
 30
0.0
 10
161.34639256
 20
176.2839125962
 30
0.0
 10
161.5792996137
 20
176.331291531
 30
0.0
 10
161.7175766687
 20
176.3688899591
 30
0.0
 10
161.7853831285
 20
176.3934855907
 30
0.0
 10
161.8267373201
 20
176.4127888833
 30
0.0
 10
161.8459862465
 20
176.4322589168
 30
0.0
 10
161.8459899352
 20
176.4404324008
 30
0.0
  0
SPLINE
  5
3DD
100
AcDbEntity
  8
0
100
AcDbSpline
 62
7
  6
CONTINUOUS
 70
0
 71
3
 72
13
 73
9
 74
0
 42
0.0000001
 43
0.0000001
 44
0.0000000001
 40
0.0
 40
0.0
 40
0.0
 40
0.0
 40
0.0159235126
 40
0.0630700023
 40
0.141516912
 40
0.2512750753
 40
0.5643021305
 40
1.0
 40
1.0
 40
1.0
 40
1.0
 10
120.6873360362
 20
176.5148328643
 30
0.0
 10
120.6873368758
 20
176.514461564
 30
0.0
 10
120.685014895
 20
176.514879145
 30
0.0
 10
120.6825569702
 20
176.5139850701
 30
0.0
 10
120.6766200721
 20
176.5138667679
 30
0.0
 10
120.6652490625
 20
176.5127955012
 30
0.0
 10
120.6450618409
 20
176.511581815
 30
0.0
 10
120.6277162623
 20
176.5104094098
 30
0.0
 10
120.6175766426
 20
176.5097739171
 30
0.0
  0
SPLINE
  5
3DE
100
AcDbEntity
  8
0
100
AcDbSpline
 62
7
  6
CONTINUOUS
 70
0
 71
3
 72
9
 73
5
 74
0
 42
0.0000001
 43
0.0000001
 44
0.0000000001
 40
0.0
 40
0.0
 40
0.0
 40
0.0
 40
0.3755514282
 40
1.0
 40
1.0
 40
1.0
 40
1.0
 10
120.6175766426
 20
176.5097739171
 30
0.0
 10
120.410668362
 20
176.4968061036
 30
0.0
 10
119.8591402751
 20
176.4718750588
 30
0.0
 10
119.3070784313
 20
176.4617713068
 30
0.0
 10
118.9623664122
 20
176.4617713068
 30
0.0
  0
SPLINE
  5
3DF
100
AcDbEntity
  8
0
100
AcDbSpline
 62
7
  6
CONTINUOUS
 70
0
 71
3
 72
20
 73
16
 74
0
 42
0.0000001
 43
0.0000001
 44
0.0000000001
 40
0.0
 40
0.0
 40
0.0
 40
0.0
 40
0.0227242712
 40
0.0509340857
 40
0.088273815
 40
0.1358742524
 40
0.1935482082
 40
0.2603376145
 40
0.3347580595
 40
0.4149437245
 40
0.5839043456
 40
0.7488388057
 40
0.8920325289
 40
0.9510243098
 40
1.0
 40
1.0
 40
1.0
 40
1.0
 10
113.6673664122
 20
175.4402509953
 30
0.0
 10
113.6673664122
 20
175.479070635
 30
0.0
 10
113.6972549449
 20
175.5666939808
 30
0.0
 10
113.8118534619
 20
175.6699273748
 30
0.0
 10
113.9842772391
 20
175.7591956534
 30
0.0
 10
114.2160744296
 20
175.8364677208
 30
0.0
 10
114.5029927197
 20
175.9015258472
 30
0.0
 10
114.8388996324
 20
175.9538286496
 30
0.0
 10
115.2151727128
 20
175.9932011452
 30
0.0
 10
115.7668585524
 20
176.0289655989
 30
0.0
 10
116.4746684649
 20
176.0401142924
 30
0.0
 10
117.2892367941
 20
176.0063399134
 30
0.0
 10
117.9137689387
 20
175.9362015965
 30
0.0
 10
118.3335103821
 20
175.845856103
 30
0.0
 10
118.5099228074
 20
175.7901074883
 30
0.0
 10
118.5873664122
 20
175.7584489183
 30
0.0
  0
SPLINE
  5
3E0
100
AcDbEntity
  8
0
100
AcDbSpline
 62
7
  6
CONTINUOUS
 70
0
 71
3
 72
29
 73
25
 74
0
 42
0.0000001
 43
0.0000001
 44
0.0000000001
 40
0.0
 40
0.0
 40
0.0
 40
0.0
 40
0.0044544438
 40
0.0127858263
 40
0.0254825422
 40
0.0425521669
 40
0.0638634049
 40
0.0892311581
 40
0.1511662408
 40
0.2261196785
 40
0.3113891229
 40
0.4038503796
 40
0.5000164585
 40
0.596181915
 40
0.6886413091
 40
0.7739076631
 40
0.8488568346
 40
0.9107866432
 40
0.9361514736
 40
0.9574596052
 40
0.9745260387
 40
0.9872195157
 40
0.9955478153
 40
1.0
 40
1.0
 40
1.0
 40
1.0
 10
155.0460838016
 20
175.9390033433
 30
0.0
 10
155.0462127177
 20
175.9269074708
 30
0.0
 10
155.0737071118
 20
175.8980736122
 30
0.0
 10
155.1330105209
 20
175.867210091
 30
0.0
 10
155.2301337027
 20
175.8278245078
 30
0.0
 10
155.3620238405
 20
175.7862297781
 30
0.0
 10
155.5293605306
 20
175.7410397429
 30
0.0
 10
155.8166153274
 20
175.674230194
 30
0.0
 10
156.2499171678
 20
175.5928765321
 30
0.0
 10
156.847249465
 20
175.5072768516
 30
0.0
 10
157.5301175602
 20
175.4377876871
 30
0.0
 10
158.2727326287
 20
175.3924143512
 30
0.0
 10
159.0461768891
 20
175.3766475253
 30
0.0
 10
159.8196158562
 20
175.3924257556
 30
0.0
 10
160.5622151343
 20
175.4378091923
 30
0.0
 10
161.2450572839
 20
175.5073059805
 30
0.0
 10
161.842354318
 20
175.5929098928
 30
0.0
 10
162.2756215077
 20
175.6742647895
 30
0.0
 10
162.5628449767
 20
175.7410735629
 30
0.0
 10
162.7301561034
 20
175.7862623151
 30
0.0
 10
162.8620202879
 20
175.8278530775
 30
0.0
 10
162.9591159781
 20
175.8672388912
 30
0.0
 10
163.0183972587
 20
175.8980924699
 30
0.0
 10
163.0458701329
 20
175.9269340299
 30
0.0
 10
163.0459866804
 20
175.9390238928
 30
0.0
  0
SPLINE
  5
3E1
100
AcDbEntity
  8
0
100
AcDbSpline
 62
7
  6
CONTINUOUS
 70
0
 71
3
 72
9
 73
5
 74
0
 42
0.0000001
 43
0.0000001
 44
0.0000000001
 40
0.0
 40
0.0
 40
0.0
 40
0.0
 40
0.2178876751
 40
1.0
 40
1.0
 40
1.0
 40
1.0
 10
119.0858500464
 20
174.5952644866
 30
0.0
 10
119.1084225924
 20
174.6052466982
 30
0.0
 10
119.2140846805
 20
174.6463866445
 30
0.0
 10
119.3251388551
 20
174.6722171413
 30
0.0
 10
119.4123664122
 20
174.6877164512
 30
0.0
  0
SPLINE
  5
3E2
100
AcDbEntity
  8
0
100
AcDbSpline
 62
7
  6
CONTINUOUS
 70
0
 71
3
 72
9
 73
5
 74
0
 42
0.0000001
 43
0.0000001
 44
0.0000000001
 40
0.0
 40
0.0
 40
0.0
 40
0.0
 40
0.1785692308
 40
1.0
 40
1.0
 40
1.0
 40
1.0
 10
161.8459899352
 20
176.4404324008
 30
0.0
 10
161.8459910029
 20
176.4427982308
 30
0.0
 10
161.8418950234
 20
176.4560733025
 30
0.0
 10
161.8274429138
 20
176.4618429329
 30
0.0
 10
161.8173161606
 20
176.465828929
 30
0.0
  0
SPLINE
  5
3E3
100
AcDbEntity
  8
0
100
AcDbSpline
 62
7
  6
CONTINUOUS
 70
0
 71
3
 72
21
 73
17
 74
0
 42
0.0000001
 43
0.0000001
 44
0.0000000001
 40
0.0
 40
0.0
 40
0.0
 40
0.0
 40
0.0265380712
 40
0.0612539225
 40
0.1080595159
 40
0.1676600226
 40
0.2390484278
 40
0.3201957587
 40
0.4999930684
 40
0.679793821
 40
0.7609422732
 40
0.8323330264
 40
0.8919390007
 40
0.9387460042
 40
0.9734618435
 40
1.0
 40
1.0
 40
1.0
 40
1.0
 10
115.1673664122
 20
174.8367015069
 30
0.0
 10
115.1673664122
 20
174.8582437265
 30
0.0
 10
115.1870782172
 20
174.9078112444
 30
0.0
 10
115.2563393446
 20
174.9643607032
 30
0.0
 10
115.3597966545
 20
175.014561366
 30
0.0
 10
115.4979760993
 20
175.0576106625
 30
0.0
 10
115.6667162397
 20
175.0927638204
 30
0.0
 10
115.9343014595
 20
175.1284879711
 30
0.0
 10
116.2923523022
 20
175.1447500583
 30
0.0
 10
116.6504039048
 20
175.1284895787
 30
0.0
 10
116.9179953407
 20
175.0927687527
 30
0.0
 10
117.0867422603
 20
175.0576127033
 30
0.0
 10
117.2249297421
 20
175.0145643741
 30
0.0
 10
117.3283928447
 20
174.9643621269
 30
0.0
 10
117.3976540076
 20
174.90781111
 30
0.0
 10
117.4173664122
 20
174.8582437958
 30
0.0
 10
117.4173664122
 20
174.8367015069
 30
0.0
  0
SPLINE
  5
3E4
100
AcDbEntity
  8
0
100
AcDbSpline
 62
7
  6
CONTINUOUS
 70
0
 71
3
 72
19
 73
15
 74
0
 42
0.0000001
 43
0.0000001
 44
0.0000000001
 40
0.0
 40
0.0
 40
0.0
 40
0.0
 40
0.0261995133
 40
0.0607437382
 40
0.1075223001
 40
0.1671891253
 40
0.3198853012
 40
0.4999993921
 40
0.6801137853
 40
0.8328102218
 40
0.8924778492
 40
0.9392563854
 40
0.9738004389
 40
1.0
 40
1.0
 40
1.0
 40
1.0
 10
117.4173664122
 20
175.3567860299
 30
0.0
 10
117.4173664122
 20
175.3780038128
 30
0.0
 10
117.3974201024
 20
175.4269667362
 30
0.0
 10
117.3280886528
 20
175.4823392574
 30
0.0
 10
117.2246380756
 20
175.5316531971
 30
0.0
 10
117.0233505668
 20
175.5930018165
 30
0.0
 10
116.707806808
 20
175.6404817452
 30
0.0
 10
116.2923676705
 20
175.6596394112
 30
0.0
 10
115.876928296
 20
175.6404820737
 30
0.0
 10
115.5613834392
 20
175.5930018482
 30
0.0
 10
115.3600951095
 20
175.5316532748
 30
0.0
 10
115.2566438227
 20
175.4823394288
 30
0.0
 10
115.1873129463
 20
175.4269665544
 30
0.0
 10
115.1673664122
 20
175.3780038515
 30
0.0
 10
115.1673664122
 20
175.3567860299
 30
0.0
  0
SPLINE
  5
3E5
100
AcDbEntity
  8
0
100
AcDbSpline
 62
7
  6
CONTINUOUS
 70
0
 71
3
 72
13
 73
9
 74
0
 42
0.0000001
 43
0.0000001
 44
0.0000000001
 40
0.0
 40
0.0
 40
0.0
 40
0.0
 40
0.3573354192
 40
0.6408127533
 40
0.7533577508
 40
0.847830061
 40
0.9278702904
 40
1.0
 40
1.0
 40
1.0
 40
1.0
 10
119.4123664122
 20
175.2104550916
 30
0.0
 10
119.3378157494
 20
175.1974454968
 30
0.0
 10
119.2051829256
 20
175.1677207904
 30
0.0
 10
119.0548718831
 20
175.1105112835
 30
0.0
 10
118.9669199605
 20
175.0544926477
 30
0.0
 10
118.9221346327
 20
175.0126854099
 30
0.0
 10
118.8939550108
 20
174.9677598116
 30
0.0
 10
118.8873664122
 20
174.9352769384
 30
0.0
 10
118.8873664122
 20
174.9200011498
 30
0.0
  0
SPLINE
  5
3E6
100
AcDbEntity
  8
0
100
AcDbSpline
 62
7
  6
CONTINUOUS
 70
0
 71
3
 72
10
 73
6
 74
0
 42
0.0000001
 43
0.0000001
 44
0.0000000001
 40
0.0
 40
0.0
 40
0.0
 40
0.0
 40
0.63455643
 40
0.8644680133
 40
1.0
 40
1.0
 40
1.0
 40
1.0
 10
118.9623664122
 20
176.3017281932
 30
0.0
 10
119.6879271313
 20
176.3017281932
 30
0.0
 10
120.6769373085
 20
176.3378832137
 30
0.0
 10
121.8160762289
 20
176.437231318
 30
0.0
 10
122.2315287714
 20
176.4823254059
 30
0.0
 10
122.3853518739
 20
176.5011375829
 30
0.0
  0
SPLINE
  5
3E7
100
AcDbEntity
  8
0
100
AcDbSpline
 62
7
  6
CONTINUOUS
 70
0
 71
3
 72
14
 73
10
 74
0
 42
0.0000001
 43
0.0000001
 44
0.0000000001
 40
0.0
 40
0.0
 40
0.0
 40
0.0
 40
0.435763924
 40
0.6076418169
 40
0.7485246772
 40
0.8582095559
 40
0.9366594015
 40
0.9838884312
 40
1.0
 40
1.0
 40
1.0
 40
1.0
 10
122.3853518739
 20
176.5011375829
 30
0.0
 10
122.4001904144
 20
176.502952299
 30
0.0
 10
122.4209023259
 20
176.5055037352
 30
0.0
 10
122.4463158029
 20
176.5088152504
 30
0.0
 10
122.4607966329
 20
176.5106444388
 30
0.0
 10
122.4716854887
 20
176.5123617738
 30
0.0
 10
122.48034188
 20
176.5131039514
 30
0.0
 10
122.483970553
 20
176.5146141348
 30
0.0
 10
122.4873325794
 20
176.5142721721
 30
0.0
 10
122.4873323186
 20
176.5148248874
 30
0.0
  0
SPLINE
  5
3E8
100
AcDbEntity
  8
0
100
AcDbSpline
 62
7
  6
CONTINUOUS
 70
0
 71
3
 72
9
 73
5
 74
0
 42
0.0000001
 43
0.0000001
 44
0.0000000001
 40
0.0
 40
0.0
 40
0.0
 40
0.0
 40
0.3527559034
 40
1.0
 40
1.0
 40
1.0
 40
1.0
 10
156.2747535764
 20
176.465828929
 30
0.0
 10
156.2704655957
 20
176.4641411349
 30
0.0
 10
156.2590416965
 20
176.4592456815
 30
0.0
 10
156.2460776056
 20
176.4488904241
 30
0.0
 10
156.2460796964
 20
176.4404352161
 30
0.0
  0
SPLINE
  5
3E9
100
AcDbEntity
  8
0
100
AcDbSpline
 62
7
  6
CONTINUOUS
 70
0
 71
3
 72
29
 73
25
 74
0
 42
0.0000001
 43
0.0000001
 44
0.0000000001
 40
0.0
 40
0.0
 40
0.0
 40
0.0
 40
0.0043907215
 40
0.0126716309
 40
0.0253292651
 40
0.0423692983
 40
0.0636599776
 40
0.089015826
 40
0.1509517652
 40
0.2259338384
 40
0.3112515569
 40
0.4037722565
 40
0.5000025415
 40
0.5962327344
 40
0.6887531562
 40
0.7740704051
 40
0.849051821
 40
0.9109869421
 40
0.9363423356
 40
0.9576325327
 40
0.9746720694
 40
0.987329201
 40
0.9956096308
 40
1.0
 40
1.0
 40
1.0
 40
1.0
 10
163.0459865296
 20
176.4403902904
 30
0.0
 10
163.0459412731
 20
176.4284731179
 30
0.0
 10
163.0183888494
 20
176.3999959609
 30
0.0
 10
162.9593690444
 20
176.3698099006
 30
0.0
 10
162.8623487964
 20
176.3310395097
 30
0.0
 10
162.7305889247
 20
176.2901676552
 30
0.0
 10
162.5633149713
 20
176.2457158296
 30
0.0
 10
162.2760603209
 20
176.1799988997
 30
0.0
 10
161.8427007109
 20
176.0999763171
 30
0.0
 10
161.2452799952
 20
176.0157906262
 30
0.0
 10
160.5622914132
 20
175.9474544104
 30
0.0
 10
159.8195608122
 20
175.9028375976
 30
0.0
 10
159.0460129574
 20
175.8873315999
 30
0.0
 10
158.2724658915
 20
175.902839323
 30
0.0
 10
157.529737666
 20
175.9474576747
 30
0.0
 10
156.8467530333
 20
176.0157950602
 30
0.0
 10
156.2493377414
 20
176.0999814024
 30
0.0
 10
155.8159834928
 20
176.180004181
 30
0.0
 10
155.5287337005
 20
176.2457209887
 30
0.0
 10
155.3614637191
 20
176.290172627
 30
0.0
 10
155.2297078718
 20
176.3310438565
 30
0.0
 10
155.1326918971
 20
176.3698143219
 30
0.0
 10
155.0736755163
 20
176.399998793
 30
0.0
 10
155.0461264462
 20
176.4284772125
 30
0.0
 10
155.0460831165
 20
176.4403934357
 30
0.0
  0
SPLINE
  5
3EA
100
AcDbEntity
  8
0
100
AcDbSpline
 62
7
  6
CONTINUOUS
 70
0
 71
3
 72
13
 73
9
 74
0
 42
0.0000001
 43
0.0000001
 44
0.0000000001
 40
0.0
 40
0.0
 40
0.0
 40
0.0
 40
0.075871499
 40
0.2879349312
 40
0.4999983634
 40
0.7120617956
 40
0.9241252278
 40
1.0
 40
1.0
 40
1.0
 40
1.0
 10
114.5532763849
 20
75.7059799443
 30
0.0
 10
114.6773744211
 20
75.8182923679
 30
0.0
 10
115.1920935266
 20
76.2220975895
 30
0.0
 10
116.3457965052
 20
76.7465055384
 30
0.0
 10
118.0773664122
 20
76.9808121163
 30
0.0
 10
119.8089363192
 20
76.7465055384
 30
0.0
 10
120.9626468507
 20
76.2220941565
 30
0.0
 10
121.4773701061
 20
75.8182831869
 30
0.0
 10
121.6014725011
 20
75.7059654079
 30
0.0
  0
ELLIPSE
  5
3EB
100
AcDbEntity
  8
KONSTRUKTIONSELEMENTE
100
AcDbEllipse
 62
7
  6
CONTINUOUS
 10
116.0573664122
 20
137.8535218459
 30
0.0
 11
0.0
 21
8.3546604395
 31
0.0
 40
0.9575493891
 41
-4.7123889804
 42
-4.365725999
  0
ELLIPSE
  5
3EC
100
AcDbEntity
  8
0
100
AcDbEllipse
 62
7
  6
CONTINUOUS
 10
153.836504103
 20
146.0149323904
 30
0.0
 11
65.412773124
 21
0.0
 31
0.0
 40
0.4662697902
 41
1.638868219
 42
1.7480342838
  0
ELLIPSE
  5
3ED
100
AcDbEntity
  8
0
100
AcDbEllipse
 62
7
  6
CONTINUOUS
 10
153.836504103
 20
146.0149323904
 30
0.0
 11
65.412773124
 21
0.0
 31
0.0
 40
0.4662697902
 41
1.6241823496
 42
1.6335252503
  0
ELLIPSE
  5
3EE
100
AcDbEntity
  8
0
100
AcDbEllipse
 62
7
  6
CONTINUOUS
 10
146.1166737894
 20
146.0149323904
 30
0.0
 11
57.1063834429
 21
-0.0
 31
0.0
 40
0.5340909047
 41
1.4764762231
 42
1.5134698628
  0
ELLIPSE
  5
3EF
100
AcDbEntity
  8
0
100
AcDbEllipse
 62
7
  6
CONTINUOUS
 10
142.4107161291
 20
146.0149323904
 30
0.0
 11
0.0
 21
30.5
 31
0.0
 40
0.3404254913
 41
-0.3274603233
 42
-0.3080455024
  0
ELLIPSE
  5
3F0
100
AcDbEntity
  8
0
100
AcDbEllipse
 62
7
  6
CONTINUOUS
 10
139.0711420591
 20
146.0149323904
 30
0.0
 11
-0.0
 21
30.5
 31
0.0
 40
0.6808509827
 41
-0.3470040586
 42
-0.3274603233
  0
ELLIPSE
  5
3F1
100
AcDbEntity
  8
0
100
AcDbEllipse
 62
7
  6
CONTINUOUS
 10
135.5400799131
 20
146.0149323904
 30
0.0
 11
31.1489287437
 21
-0.0
 31
0.0
 40
0.9791669001
 41
1.2106864648
 42
1.2237922682
  0
ELLIPSE
  5
3F2
100
AcDbEntity
  8
0
100
AcDbEllipse
 62
7
  6
CONTINUOUS
 10
113.5877174795
 20
146.0149323904
 30
0.0
 11
93.446863281
 21
-0.0
 31
0.0
 40
0.3263886976
 41
1.2041093937
 42
1.2106864648
  0
ELLIPSE
  5
3F3
100
AcDbEntity
  8
0
100
AcDbEllipse
 62
7
  6
CONTINUOUS
 10
181.1681665733
 20
146.0149323904
 30
0.0
 11
93.4468196504
 21
0.0
 31
0.0
 40
0.32638885
 41
1.9309061888
 42
1.9374832599
  0
ELLIPSE
  5
3F4
100
AcDbEntity
  8
0
100
AcDbEllipse
 62
7
  6
CONTINUOUS
 10
164.7039071785
 20
146.0149323904
 30
0.0
 11
46.7234040232
 21
0.0
 31
0.0
 40
0.652777781
 41
1.9178003854
 42
1.9309061888
  0
ELLIPSE
  5
3F5
100
AcDbEntity
  8
0
100
AcDbEllipse
 62
7
  6
CONTINUOUS
 10
155.8762468411
 20
146.0149323904
 30
0.0
 11
-0.0
 21
30.5
 31
0.0
 40
0.6808509827
 41
0.3274603233
 42
0.3470040586
  0
ELLIPSE
  5
3F6
100
AcDbEntity
  8
0
100
AcDbEllipse
 62
7
  6
CONTINUOUS
 10
152.5366727711
 20
146.0149323904
 30
0.0
 11
-0.0
 21
30.5
 31
0.0
 40
0.3404254913
 41
0.3080455024
 42
0.3274603233
  0
ELLIPSE
  5
3F7
100
AcDbEntity
  8
0
100
AcDbEllipse
 62
7
  6
CONTINUOUS
 10
160.45666496
 20
146.0149323904
 30
0.0
 11
77.87229401
 21
0.0
 31
0.0
 40
0.3916669001
 41
1.7457863982
 42
1.7582863028
  0
ELLIPSE
  5
3F8
100
AcDbEntity
  8
0
100
AcDbEllipse
 62
7
  6
CONTINUOUS
 10
134.2992325683
 20
146.0149323904
 30
0.0
 11
77.8723049177
 21
-0.0
 31
0.0
 40
0.3916668453
 41
1.3833063507
 42
1.3958062554
  0
ELLIPSE
  5
3F9
100
AcDbEntity
  8
0
100
AcDbEllipse
 62
7
  6
CONTINUOUS
 10
141.0728434293
 20
146.0149323904
 30
0.0
 11
41.5319135785
 21
-0.0
 31
0.0
 40
0.7343750233
 41
1.3645001022
 42
1.3833063507
  0
ELLIPSE
  5
3FA
100
AcDbEntity
  8
0
100
AcDbEllipse
 62
7
  6
CONTINUOUS
 10
145.7518206781
 20
146.0149323904
 30
0.0
 11
0.0
 21
30.5
 31
0.0
 40
0.6127661718
 41
-0.2378089059
 42
-0.2062962246
  0
ELLIPSE
  5
3FB
100
AcDbEntity
  8
0
100
AcDbEllipse
 62
7
  6
CONTINUOUS
 10
148.6869714077
 20
146.0149323904
 30
0.0
 11
0.0
 21
30.5
 31
0.0
 40
0.2042552737
 41
-0.2695642782
 42
-0.2378089059
  0
ELLIPSE
  5
3FC
100
AcDbEntity
  8
0
100
AcDbEllipse
 62
7
  6
CONTINUOUS
 10
143.0433965485
 20
146.0149323904
 30
0.0
 11
-0.0
 21
30.5
 31
0.0
 40
0.2042553143
 41
0.2441393819
 42
0.2759478186
  0
ELLIPSE
  5
3FD
100
AcDbEntity
  8
0
100
AcDbEllipse
 62
7
  6
CONTINUOUS
 10
146.055139938
 20
146.0149323904
 30
0.0
 11
0.0
 21
30.5
 31
0.0
 40
0.6127657675
 41
0.2125811085
 42
0.2441393819
  0
ELLIPSE
  5
3FE
100
AcDbEntity
  8
0
100
AcDbEllipse
 62
7
  6
CONTINUOUS
 10
150.8745443709
 20
146.0149323904
 30
0.0
 11
41.5319099426
 21
0.0
 31
0.0
 40
0.7343750875
 41
1.7645472534
 42
1.7833774353
  0
ELLIPSE
  5
3FF
100
AcDbEntity
  8
0
100
AcDbEllipse
 62
7
  6
CONTINUOUS
 10
160.8703050191
 20
146.0149323904
 30
0.0
 11
93.4468864888
 21
0.0
 31
0.0
 40
0.3263886165
 41
1.7582863028
 42
1.7645472534
  0
ELLIPSE
  5
400
100
AcDbEntity
  8
0
100
AcDbEllipse
 62
7
  6
CONTINUOUS
 10
139.1553968318
 20
146.0149323904
 30
0.0
 11
0.0
 21
30.5
 31
0.0
 40
0.3404254913
 41
-0.3274603233
 42
-0.3080455024
  0
ELLIPSE
  5
401
100
AcDbEntity
  8
0
100
AcDbEllipse
 62
7
  6
CONTINUOUS
 10
135.8158227618
 20
146.0149323904
 30
0.0
 11
0.0
 21
30.5
 31
0.0
 40
0.6808509827
 41
-0.3470040586
 42
-0.3274603233
  0
ELLIPSE
  5
402
100
AcDbEntity
  8
0
100
AcDbEllipse
 62
7
  6
CONTINUOUS
 10
126.9881661339
 20
146.0149323904
 30
0.0
 11
46.7233931156
 21
-0.0
 31
0.0
 40
0.6527779334
 41
1.2106864648
 42
1.2237922682
  0
ELLIPSE
  5
403
100
AcDbEntity
  8
0
100
AcDbEllipse
 62
7
  6
CONTINUOUS
 10
110.5238721467
 20
146.0149323904
 30
0.0
 11
93.4469069116
 21
-0.0
 31
0.0
 40
0.3263885452
 41
1.2041093937
 42
1.2106864648
  0
ELLIPSE
  5
404
100
AcDbEntity
  8
0
100
AcDbEllipse
 62
7
  6
CONTINUOUS
 10
77.0209446779
 20
146.0149323904
 30
0.0
 11
186.8935724624
 21
-0.0
 31
0.0
 40
0.1631944834
 41
1.1975156643
 42
1.2041093937
  0
ELLIPSE
  5
405
100
AcDbEntity
  8
0
100
AcDbEllipse
 62
7
  6
CONTINUOUS
 10
146.2604174814
 20
146.0149323904
 30
0.0
 11
0.0
 21
30.5
 31
0.0
 40
0.2042552558
 41
0.2378089059
 42
0.2695642782
  0
ELLIPSE
  5
406
100
AcDbEntity
  8
0
100
AcDbEllipse
 62
7
  6
CONTINUOUS
 10
149.1955679541
 20
146.0149323904
 30
0.0
 11
0.0
 21
30.5
 31
0.0
 40
0.6127661182
 41
0.2062962246
 42
0.2378089059
  0
ELLIPSE
  5
407
100
AcDbEntity
  8
0
100
AcDbEllipse
 62
7
  6
CONTINUOUS
 10
134.0780866756
 20
146.0149323904
 30
0.0
 11
25.4736653124
 21
29.4739659208
 31
0.0
 40
0.2195730082
 41
1.2639145542
 42
1.3717691789
  0
ELLIPSE
  5
408
100
AcDbEntity
  8
0
100
AcDbEllipse
 62
7
  6
CONTINUOUS
 10
142.4967411736
 20
146.0149323904
 30
0.0
 11
38.680496111
 21
28.8432146429
 31
0.0
 40
0.2132959213
 41
1.440118458
 42
1.4571507103
  0
ELLIPSE
  5
409
100
AcDbEntity
  8
0
100
AcDbEllipse
 62
7
  6
CONTINUOUS
 10
144.6154906963
 20
146.0149323904
 30
0.0
 11
117.4663840121
 21
27.4850089854
 31
0.0
 40
0.1023603874
 41
1.5682261455
 42
1.5739015749
  0
ELLIPSE
  5
40A
100
AcDbEntity
  8
0
100
AcDbEllipse
 62
7
  6
CONTINUOUS
 10
140.5925796899
 20
146.0149323904
 30
0.0
 11
117.4662157905
 21
-27.4850097748
 31
0.0
 40
0.1023605186
 41
1.5676911443
 42
1.5733665738
  0
ELLIPSE
  5
40B
100
AcDbEntity
  8
0
100
AcDbEllipse
 62
7
  6
CONTINUOUS
 10
142.5789011162
 20
146.0149323904
 30
0.0
 11
43.670377408
 21
-28.6350944881
 31
0.0
 40
0.2048533938
 41
1.6659166598
 42
1.6772703171
  0
ELLIPSE
  5
40C
100
AcDbEntity
  8
0
100
AcDbEllipse
 62
7
  6
CONTINUOUS
 10
143.5187938993
 20
146.0149323904
 30
0.0
 11
-18.6443452719
 21
29.7643524772
 31
0.0
 40
0.201282219
 41
-1.3153301275
 42
-1.2982898896
  0
ELLIPSE
  5
40D
100
AcDbEntity
  8
0
100
AcDbEllipse
 62
7
  6
CONTINUOUS
 10
144.0614072147
 20
146.0149323904
 30
0.0
 11
-9.0255702938
 21
29.9782115831
 31
0.0
 40
0.1266586752
 41
-1.2450802244
 42
-1.2280238453
  0
ELLIPSE
  5
40E
100
AcDbEntity
  8
0
100
AcDbEllipse
 62
7
  6
CONTINUOUS
 10
138.2067695111
 20
146.0149323904
 30
0.0
 11
-13.7591565794
 21
29.9066951656
 31
0.0
 40
0.171829585
 41
-1.3314558428
 42
-1.3086305298
  0
ELLIPSE
  5
40F
100
AcDbEntity
  8
0
100
AcDbEllipse
 62
7
  6
CONTINUOUS
 10
137.3414683577
 20
146.0149323904
 30
0.0
 11
-21.1270067439
 21
29.6683384997
 31
0.0
 40
0.2105627442
 41
-1.4242879073
 42
-1.4014005963
  0
ELLIPSE
  5
410
100
AcDbEntity
  8
0
100
AcDbEllipse
 62
7
  6
CONTINUOUS
 10
133.5575955822
 20
146.0149323904
 30
0.0
 11
48.641383232
 21
-28.4535168586
 31
0.0
 40
0.195466349
 41
1.5264395138
 42
1.5436532553
  0
ELLIPSE
  5
411
100
AcDbEntity
  8
0
100
AcDbEllipse
 62
7
  6
CONTINUOUS
 10
118.1313614104
 20
146.0149323904
 30
0.0
 11
146.8573428011
 21
-27.3831804843
 31
0.0
 40
0.0834417736
 41
1.4224021333
 42
1.4281503097
  0
ELLIPSE
  5
412
100
AcDbEntity
  8
0
100
AcDbEllipse
 62
7
  6
CONTINUOUS
 10
167.0766779486
 20
146.0149323904
 30
0.0
 11
146.8571746571
 21
27.383180909
 31
0.0
 40
0.0834418627
 41
1.7134423092
 42
1.7191904856
  0
ELLIPSE
  5
413
100
AcDbEntity
  8
0
100
AcDbEllipse
 62
7
  6
CONTINUOUS
 10
151.6504790846
 20
146.0149323904
 30
0.0
 11
48.6414400252
 21
28.453514931
 31
0.0
 40
0.1954662394
 41
1.597939601
 42
1.6151533425
  0
ELLIPSE
  5
414
100
AcDbEntity
  8
0
100
AcDbEllipse
 62
7
  6
CONTINUOUS
 10
147.8665984358
 20
146.0149323904
 30
0.0
 11
21.1270067439
 21
29.6683384997
 31
0.0
 40
0.2105627442
 41
1.4014005963
 42
1.4242879073
  0
ELLIPSE
  5
415
100
AcDbEntity
  8
0
100
AcDbEllipse
 62
7
  6
CONTINUOUS
 10
146.6551739896
 20
146.0149323904
 30
0.0
 11
10.8984139326
 21
29.9574286892
 31
0.0
 40
0.1465941745
 41
1.277322971
 42
1.3058463717
  0
ELLIPSE
  5
416
100
AcDbEntity
  8
0
100
AcDbEllipse
 62
7
  6
CONTINUOUS
 10
151.5149602021
 20
146.0149323904
 30
0.0
 11
-21.6044862402
 21
29.6484038513
 31
0.0
 40
0.2119715253
 41
-1.2509241348
 42
-1.2286759259
  0
ELLIPSE
  5
417
100
AcDbEntity
  8
0
100
AcDbEllipse
 62
7
  6
CONTINUOUS
 10
150.3597726224
 20
146.0149323904
 30
0.0
 11
21.6044862402
 21
29.6484038513
 31
0.0
 40
0.2119715253
 41
1.2286759259
 42
1.2509241348
  0
ELLIPSE
  5
418
100
AcDbEntity
  8
0
100
AcDbEllipse
 62
7
  6
CONTINUOUS
 10
151.7477364753
 20
146.0149323904
 30
0.0
 11
31.148932457
 21
0.0
 31
0.0
 40
0.9791667834
 41
1.7582863028
 42
1.7770925514
  0
ELLIPSE
  5
419
100
AcDbEntity
  8
KONSTRUKTIONSELEMENTE
100
AcDbEllipse
 62
7
  6
CONTINUOUS
 10
160.0573664122
 20
142.2193569682
 30
0.0
 11
0.0
 21
15.7569240482
 31
0.0
 40
0.5077133059
 41
-2.2752468806
 42
-2.0456662618
  0
ELLIPSE
  5
41A
100
AcDbEntity
  8
KONSTRUKTIONSELEMENTE
100
AcDbEllipse
 62
7
  6
CONTINUOUS
 10
160.0573664122
 20
137.8535218459
 30
0.0
 11
-0.0
 21
8.3546604395
 31
0.0
 40
0.9575493891
 41
-1.9174593082
 42
-1.5707963268
  0
ELLIPSE
  5
41B
100
AcDbEntity
  8
KONSTRUKTIONSELEMENTE
100
AcDbEllipse
 62
7
  6
CONTINUOUS
 10
116.0573664122
 20
142.2193569682
 30
0.0
 11
-0.0
 21
15.7569240482
 31
0.0
 40
0.5077133059
 41
-4.2375190454
 42
-4.0079384265
  0
ELLIPSE
  5
41C
100
AcDbEntity
  8
0
100
AcDbEllipse
 62
7
  6
CONTINUOUS
 10
130.280085244
 20
146.0149323904
 30
0.0
 11
52.8275496308
 21
0.0
 31
0.0
 40
0.5773502692
 41
1.718849014
 42
1.7939821224
  0
ELLIPSE
  5
41D
100
AcDbEntity
  8
0
100
AcDbEllipse
 62
7
  6
CONTINUOUS
 10
98.5773641931
 20
146.0149323904
 30
0.0
 11
91.5000054538
 21
-0.0
 31
0.0
 40
0.3333333135
 41
1.1517546344
 42
1.2571547562
  0
ELLIPSE
  5
41E
100
AcDbEntity
  8
0
100
AcDbEllipse
 62
7
  6
CONTINUOUS
 10
174.0184318672
 20
146.0149323904
 30
0.0
 11
91.2218876386
 21
0.0
 31
0.0
 40
0.334349582
 41
2.0169239518
 42
2.114770942
  0
ELLIPSE
  5
41F
100
AcDbEntity
  8
0
100
AcDbEllipse
 62
7
  6
CONTINUOUS
 10
145.5911058379
 20
146.0149323904
 30
0.0
 11
9.0255746339
 21
29.9782115452
 31
0.0
 40
0.1266587245
 41
1.2564626139
 42
1.2735570669
  0
ELLIPSE
  5
420
100
AcDbEntity
  8
0
100
AcDbEllipse
 62
7
  6
CONTINUOUS
 10
146.5781561797
 20
146.0149323904
 30
0.0
 11
18.6443406553
 21
29.7643526425
 31
0.0
 40
0.2012821985
 41
1.3608632719
 42
1.3779873925
  0
ELLIPSE
  5
421
100
AcDbEntity
  8
0
100
AcDbEllipse
 62
7
  6
CONTINUOUS
 10
149.4625068474
 20
146.0149323904
 30
0.0
 11
43.670377408
 21
28.6350944881
 31
0.0
 40
0.2048533938
 41
1.5553735408
 42
1.5668086651
  0
ELLIPSE
  5
422
100
AcDbEntity
  8
0
100
AcDbEllipse
 62
7
  6
CONTINUOUS
 10
158.948809122
 20
146.0149323904
 30
0.0
 11
117.4662157905
 21
27.4850097748
 31
0.0
 40
0.1023605186
 41
1.6763878379
 42
1.6821116991
  0
ELLIPSE
  5
423
100
AcDbEntity
  8
0
100
AcDbEllipse
 62
7
  6
CONTINUOUS
 10
126.2592350054
 20
146.0149323904
 30
0.0
 11
117.4663840121
 21
-27.4850089854
 31
0.0
 40
0.1023603874
 41
1.4594808888
 42
1.46520475
  0
ELLIPSE
  5
424
100
AcDbEntity
  8
0
100
AcDbEllipse
 62
7
  6
CONTINUOUS
 10
135.7455698487
 20
146.0149323904
 30
0.0
 11
43.6702919194
 21
-28.6350978342
 31
0.0
 40
0.2048535495
 41
1.5747843625
 42
1.5862194868
  0
ELLIPSE
  5
425
100
AcDbEntity
  8
0
100
AcDbEllipse
 62
7
  6
CONTINUOUS
 10
139.2067695111
 20
146.0149323904
 30
0.0
 11
-13.7591565794
 21
29.9066951656
 31
0.0
 40
0.171829585
 41
-1.3314558428
 42
-1.3086305298
  0
ELLIPSE
  5
426
100
AcDbEntity
  8
0
100
AcDbEllipse
 62
7
  6
CONTINUOUS
 10
111.0573664122
 20
143.9295210431
 30
0.0
 11
0.0
 21
3.4593042348
 31
0.0
 40
0.8672264121
 41
0.0
 42
1.5707963268
  0
ELLIPSE
  5
427
100
AcDbEntity
  8
0
100
AcDbEllipse
 62
7
  6
CONTINUOUS
 10
134.6968148033
 20
146.0149323904
 30
0.0
 11
51.9615242271
 21
-0.0
 31
0.0
 40
0.5773502692
 41
1.8079850017
 42
1.8693616945
  0
ELLIPSE
  5
428
100
AcDbEntity
  8
0
100
AcDbEllipse
 62
7
  6
CONTINUOUS
 10
95.2984286225
 20
146.0149323904
 30
0.0
 11
89.7264468577
 21
-0.0
 31
0.0
 40
0.334349582
 41
1.1378858763
 42
1.2119794854
  0
ELLIPSE
  5
429
100
AcDbEntity
  8
0
100
AcDbEllipse
 62
7
  6
CONTINUOUS
 10
144.8195566185
 20
146.0149323904
 30
0.0
 11
-10.8984123469
 21
29.9574287108
 31
0.0
 40
0.1465941587
 41
-1.2545578695
 42
-1.2261488112
  0
ELLIPSE
  5
42A
100
AcDbEntity
  8
0
100
AcDbEllipse
 62
7
  6
CONTINUOUS
 10
144.4248023622
 20
146.0149323904
 30
0.0
 11
-21.1270087074
 21
29.6683384186
 31
0.0
 40
0.2105627502
 41
-1.3217030676
 42
-1.2989992399
  0
ELLIPSE
  5
42B
100
AcDbEntity
  8
0
100
AcDbEllipse
 62
7
  6
CONTINUOUS
 10
144.131379544
 20
146.0149323904
 30
0.0
 11
146.8571875197
 21
-27.3831808765
 31
0.0
 40
0.0834418559
 41
1.587674689
 42
1.5933485038
  0
ELLIPSE
  5
42C
100
AcDbEntity
  8
0
100
AcDbEllipse
 62
7
  6
CONTINUOUS
 10
141.0766860738
 20
146.0149323904
 30
0.0
 11
146.8573556637
 21
27.3831804518
 31
0.0
 40
0.0834417668
 41
1.5482441844
 42
1.5539179993
  0
ELLIPSE
  5
42D
100
AcDbEntity
  8
0
100
AcDbEllipse
 62
7
  6
CONTINUOUS
 10
141.2060283837
 20
146.0149323904
 30
0.0
 11
48.6413875765
 21
28.4535167111
 31
0.0
 40
0.1954663407
 41
1.455628808
 42
1.4726507281
  0
ELLIPSE
  5
42E
100
AcDbEntity
  8
0
100
AcDbEllipse
 62
7
  6
CONTINUOUS
 10
177.5373649003
 20
146.0149323904
 30
0.0
 11
89.9999973178
 21
-0.0
 31
0.0
 40
0.3333333433
 41
2.0529254667
 42
2.1696144892
  0
ELLIPSE
  5
42F
100
AcDbEntity
  8
0
100
AcDbEllipse
 62
7
  6
CONTINUOUS
 10
144.3613508899
 20
146.0149323904
 30
0.0
 11
57.1064106733
 21
-0.0
 31
0.0
 40
0.5340906501
 41
1.4455511163
 42
1.4826494241
  0
ELLIPSE
  5
430
100
AcDbEntity
  8
0
100
AcDbEllipse
 62
7
  6
CONTINUOUS
 10
153.5149605597
 20
146.0149323904
 30
0.0
 11
-21.6044862402
 21
29.6484038513
 31
0.0
 40
0.2119715253
 41
-1.2063983994
 42
-1.1840803616
  0
ELLIPSE
  5
431
100
AcDbEntity
  8
0
100
AcDbEllipse
 62
7
  6
CONTINUOUS
 10
148.3597722647
 20
146.0149323904
 30
0.0
 11
21.6044862402
 21
29.6484038513
 31
0.0
 40
0.2119715253
 41
1.1840803616
 42
1.2063983994
  0
ELLIPSE
  5
432
100
AcDbEntity
  8
0
100
AcDbEllipse
 62
7
  6
CONTINUOUS
 10
153.088158531
 20
146.0149323904
 30
0.0
 11
31.148917604
 21
-0.0
 31
0.0
 40
0.9791672503
 41
1.7833774353
 42
1.7959731187
  0
ELLIPSE
  5
433
100
AcDbEntity
  8
0
100
AcDbEllipse
 62
7
  6
CONTINUOUS
 10
150.7698641905
 20
146.0149323904
 30
0.0
 11
0.0
 21
30.5
 31
0.0
 40
0.6808509827
 41
0.2251767919
 42
0.2441393819
  0
ELLIPSE
  5
434
100
AcDbEntity
  8
0
100
AcDbEllipse
 62
7
  6
CONTINUOUS
 10
148.2600783916
 20
146.0149323904
 30
0.0
 11
0.0
 21
30.5
 31
0.0
 40
0.3404256537
 41
0.2441393819
 42
0.2631919769
  0
ELLIPSE
  5
435
100
AcDbEntity
  8
0
100
AcDbEllipse
 62
7
  6
CONTINUOUS
 10
165.0573664122
 20
143.9295210431
 30
0.0
 11
-0.0
 21
3.4593042348
 31
0.0
 40
0.8672264121
 41
-1.5707963268
 42
0.0
  0
ELLIPSE
  5
436
100
AcDbEntity
  8
0
100
AcDbEllipse
 62
7
  6
CONTINUOUS
 10
146.6873105087
 20
146.0149323904
 30
0.0
 11
-0.0
 21
30.5
 31
0.0
 40
0.3404256537
 41
-0.2631919769
 42
-0.2441393819
  0
ELLIPSE
  5
437
100
AcDbEntity
  8
0
100
AcDbEllipse
 62
7
  6
CONTINUOUS
 10
144.1775247097
 20
146.0149323904
 30
0.0
 11
-0.0
 21
30.5
 31
0.0
 40
0.6808509827
 41
-0.2441393819
 42
-0.2251767919
  0
ELLIPSE
  5
438
100
AcDbEntity
  8
0
100
AcDbEllipse
 62
7
  6
CONTINUOUS
 10
138.3817831067
 20
146.0149323904
 30
0.0
 11
46.7233873137
 21
-0.0
 31
0.0
 40
0.6527780145
 41
1.3456195349
 42
1.3582152183
  0
ELLIPSE
  5
439
100
AcDbEntity
  8
0
100
AcDbEllipse
 62
7
  6
CONTINUOUS
 10
128.5238907397
 20
146.0149323904
 30
0.0
 11
93.4468864888
 21
-0.0
 31
0.0
 40
0.3263886165
 41
1.3582152183
 42
1.3645001022
  0
ELLIPSE
  5
43A
100
AcDbEntity
  8
0
100
AcDbEllipse
 62
7
  6
CONTINUOUS
 10
142.7508013015
 20
146.0149323904
 30
0.0
 11
0.0
 21
30.0
 31
0.0
 40
0.2042552851
 41
-0.3249896547
 42
-0.3067899137
  0
ELLIPSE
  5
43B
100
AcDbEntity
  8
0
100
AcDbEllipse
 62
7
  6
CONTINUOUS
 10
166.2320178929
 20
146.0149323904
 30
0.0
 11
93.4469301194
 21
-0.0
 31
0.0
 40
0.3263884641
 41
1.7770925514
 42
1.7833774353
  0
ELLIPSE
  5
43C
100
AcDbEntity
  8
0
100
AcDbEllipse
 62
7
  6
CONTINUOUS
 10
145.0685876163
 20
146.0149323904
 30
0.0
 11
-0.0
 21
30.0
 31
0.0
 40
0.3404254913
 41
0.2547463988
 42
0.2635144788
  0
ELLIPSE
  5
43D
100
AcDbEntity
  8
0
100
AcDbEllipse
 62
7
  6
CONTINUOUS
 10
147.6422043307
 20
146.0149323904
 30
0.0
 11
-0.0
 21
30.0
 31
0.0
 40
0.6808509827
 41
0.2354185387
 42
0.2547463988
  0
ELLIPSE
  5
43E
100
AcDbEntity
  8
0
100
AcDbEllipse
 62
7
  6
CONTINUOUS
 10
153.5975176583
 20
146.0149323904
 30
0.0
 11
45.9574194158
 21
0.0
 31
0.0
 40
0.6527781669
 41
1.7933796945
 42
1.8062148655
  0
ELLIPSE
  5
43F
100
AcDbEntity
  8
0
100
AcDbEllipse
 62
7
  6
CONTINUOUS
 10
152.1965878949
 20
146.0149323904
 30
0.0
 11
0.0
 21
30.5
 31
0.0
 40
0.2042553029
 41
0.3016008496
 42
0.3339600828
  0
ELLIPSE
  5
440
100
AcDbEntity
  8
0
100
AcDbEllipse
 62
7
  6
CONTINUOUS
 10
139.4954820041
 20
146.0149323904
 30
0.0
 11
-0.0
 21
30.0
 31
0.0
 40
0.2042552851
 41
-0.3397485209
 42
-0.3067899137
  0
ELLIPSE
  5
441
100
AcDbEntity
  8
0
100
AcDbEllipse
 62
7
  6
CONTINUOUS
 10
135.4113975976
 20
146.0149323904
 30
0.0
 11
0.0
 21
30.0
 31
0.0
 40
0.6127658552
 41
-0.373095807
 42
-0.3397485209
  0
ELLIPSE
  5
442
100
AcDbEntity
  8
0
100
AcDbEllipse
 62
7
  6
CONTINUOUS
 10
127.2217812331
 20
146.0149323904
 30
0.0
 11
40.85105896
 21
0.0
 31
0.0
 40
0.7343750875
 41
1.1774839188
 42
1.1977005198
  0
ELLIPSE
  5
443
100
AcDbEntity
  8
0
100
AcDbEllipse
 62
7
  6
CONTINUOUS
 10
113.5226170453
 20
146.0149323904
 30
0.0
 11
76.5957796066
 21
-0.0
 31
0.0
 40
0.3916664881
 41
1.1639119448
 42
1.1774839188
  0
ELLIPSE
  5
444
100
AcDbEntity
  8
0
100
AcDbEllipse
 62
7
  6
CONTINUOUS
 10
58.9596648169
 20
146.0149323904
 30
0.0
 11
214.4680531481
 21
-0.0
 31
0.0
 40
0.1398809732
 41
1.15709626
 42
1.1639119448
  0
ELLIPSE
  5
445
100
AcDbEntity
  8
0
100
AcDbEllipse
 62
7
  6
CONTINUOUS
 10
232.7324221721
 20
146.0149323904
 30
0.0
 11
214.4680960635
 21
0.0
 31
0.0
 40
0.1398809452
 41
1.9776807088
 42
1.9844963936
  0
ELLIPSE
  5
446
100
AcDbEntity
  8
0
100
AcDbEllipse
 62
7
  6
CONTINUOUS
 10
178.1694402222
 20
146.0149323904
 30
0.0
 11
76.5957474201
 21
0.0
 31
0.0
 40
0.3916666527
 41
1.9641087348
 42
1.9776807088
  0
ELLIPSE
  5
447
100
AcDbEntity
  8
0
100
AcDbEllipse
 62
7
  6
CONTINUOUS
 10
164.4702897404
 20
146.0149323904
 30
0.0
 11
40.8510625362
 21
-0.0
 31
0.0
 40
0.7343750233
 41
1.9438921338
 42
1.9641087348
  0
ELLIPSE
  5
448
100
AcDbEntity
  8
0
100
AcDbEllipse
 62
7
  6
CONTINUOUS
 10
156.280672659
 20
146.0149323904
 30
0.0
 11
-0.0
 21
30.0
 31
0.0
 40
0.6127659088
 41
0.3397485209
 42
0.373095807
  0
ELLIPSE
  5
449
100
AcDbEntity
  8
0
100
AcDbEllipse
 62
7
  6
CONTINUOUS
 10
152.1965878949
 20
146.0149323904
 30
0.0
 11
-0.0
 21
30.0
 31
0.0
 40
0.2042553029
 41
0.3067899137
 42
0.3397485209
  0
ELLIPSE
  5
44A
100
AcDbEntity
  8
0
100
AcDbEllipse
 62
7
  6
CONTINUOUS
 10
156.280672659
 20
146.0149323904
 30
0.0
 11
0.0
 21
30.5
 31
0.0
 40
0.6127659088
 41
0.3339600828
 42
0.3666869331
  0
ELLIPSE
  5
44B
100
AcDbEntity
  8
0
100
AcDbEllipse
 62
7
  6
CONTINUOUS
 10
164.4702897404
 20
146.0149323904
 30
0.0
 11
41.5319135785
 21
0.0
 31
0.0
 40
0.7343750233
 41
1.9374832599
 42
1.9573160862
  0
ELLIPSE
  5
44C
100
AcDbEntity
  8
0
100
AcDbEllipse
 62
7
  6
CONTINUOUS
 10
178.1694402222
 20
146.0149323904
 30
0.0
 11
77.8723432105
 21
0.0
 31
0.0
 40
0.3916666527
 41
1.9573160862
 42
1.9706269115
  0
ELLIPSE
  5
44D
100
AcDbEntity
  8
0
100
AcDbEllipse
 62
7
  6
CONTINUOUS
 10
166.2320178929
 20
146.0149323904
 30
0.0
 11
91.9150132322
 21
0.0
 31
0.0
 40
0.3263884641
 41
1.7805817231
 42
1.7869762125
  0
ELLIPSE
  5
44E
100
AcDbEntity
  8
0
100
AcDbEllipse
 62
7
  6
CONTINUOUS
 10
134.6968148033
 20
146.0149323904
 30
0.0
 11
52.8275496308
 21
0.0
 31
0.0
 40
0.5773502692
 41
1.8040239524
 42
1.8643202558
  0
ELLIPSE
  5
44F
100
AcDbEntity
  8
0
100
AcDbEllipse
 62
7
  6
CONTINUOUS
 10
128.5238907397
 20
146.0149323904
 30
0.0
 11
91.9149703169
 21
-0.0
 31
0.0
 40
0.3263886165
 41
1.3546164411
 42
1.3610109305
  0
ELLIPSE
  5
450
100
AcDbEntity
  8
0
100
AcDbEllipse
 62
7
  6
CONTINUOUS
 10
138.3817831067
 20
146.0149323904
 30
0.0
 11
45.9574301446
 21
0.0
 31
0.0
 40
0.6527780145
 41
1.3418001643
 42
1.3546164411
  0
ELLIPSE
  5
451
100
AcDbEntity
  8
0
100
AcDbEllipse
 62
7
  6
CONTINUOUS
 10
144.1775247097
 20
146.0149323904
 30
0.0
 11
0.0
 21
30.0
 31
0.0
 40
0.6808509827
 41
-0.2482933506
 42
-0.2289961625
  0
ELLIPSE
  5
452
100
AcDbEntity
  8
0
100
AcDbEllipse
 62
7
  6
CONTINUOUS
 10
146.6873105087
 20
146.0149323904
 30
0.0
 11
0.0
 21
30.0
 31
0.0
 40
0.3404256537
 41
-0.2599518276
 42
-0.2482933506
  0
ELLIPSE
  5
453
100
AcDbEntity
  8
0
100
AcDbEllipse
 62
7
  6
CONTINUOUS
 10
232.7324221721
 20
146.0149323904
 30
0.0
 11
218.0425643312
 21
0.0
 31
0.0
 40
0.1398809452
 41
1.9706269115
 42
1.9773103342
  0
ELLIPSE
  5
454
100
AcDbEntity
  8
0
100
AcDbEllipse
 62
7
  6
CONTINUOUS
 10
58.9596648169
 20
146.0149323904
 30
0.0
 11
218.0425207006
 21
0.0
 31
0.0
 40
0.1398809732
 41
1.1642823194
 42
1.1709657421
  0
ELLIPSE
  5
455
100
AcDbEntity
  8
0
100
AcDbEllipse
 62
7
  6
CONTINUOUS
 10
113.5226170453
 20
146.0149323904
 30
0.0
 11
77.8723759334
 21
-0.0
 31
0.0
 40
0.3916664881
 41
1.1709657421
 42
1.1842765674
  0
ELLIPSE
  5
456
100
AcDbEntity
  8
0
100
AcDbEllipse
 62
7
  6
CONTINUOUS
 10
127.2217812331
 20
146.0149323904
 30
0.0
 11
41.5319099426
 21
0.0
 31
0.0
 40
0.7343750875
 41
1.1842765674
 42
1.2041093937
  0
ELLIPSE
  5
457
100
AcDbEntity
  8
0
100
AcDbEllipse
 62
7
  6
CONTINUOUS
 10
135.4113975976
 20
146.0149323904
 30
0.0
 11
-0.0
 21
30.5
 31
0.0
 40
0.6127658552
 41
-0.3666869331
 42
-0.3339600828
  0
ELLIPSE
  5
458
100
AcDbEntity
  8
0
100
AcDbEllipse
 62
7
  6
CONTINUOUS
 10
148.2600783916
 20
146.0149323904
 30
0.0
 11
0.0
 21
30.0
 31
0.0
 40
0.3404256537
 41
6.5314786578
 42
6.5431371348
  0
ELLIPSE
  5
459
100
AcDbEntity
  8
0
100
AcDbEllipse
 62
7
  6
CONTINUOUS
 10
150.7698641905
 20
146.0149323904
 30
0.0
 11
0.0
 21
30.0
 31
0.0
 40
0.6808509827
 41
0.2289961625
 42
0.2482933506
  0
ELLIPSE
  5
45A
100
AcDbEntity
  8
0
100
AcDbEllipse
 62
7
  6
CONTINUOUS
 10
153.088158531
 20
146.0149323904
 30
0.0
 11
30.6382796105
 21
-0.0
 31
0.0
 40
0.9791672503
 41
1.7869762125
 42
1.7997924893
  0
ELLIPSE
  5
45B
100
AcDbEntity
  8
0
100
AcDbEllipse
 62
7
  6
CONTINUOUS
 10
139.4954820041
 20
146.0149323904
 30
0.0
 11
-0.0
 21
30.5
 31
0.0
 40
0.2042552851
 41
-0.3339600828
 42
-0.3016008496
  0
ELLIPSE
  5
45C
100
AcDbEntity
  8
0
100
AcDbEllipse
 62
7
  6
CONTINUOUS
 10
144.3613508899
 20
146.0149323904
 30
0.0
 11
56.1702400066
 21
0.0
 31
0.0
 40
0.5340906501
 41
1.4434524337
 42
1.4806883311
  0
ELLIPSE
  5
45D
100
AcDbEntity
  8
0
100
AcDbEllipse
 62
7
  6
CONTINUOUS
 10
153.5975176583
 20
146.0149323904
 30
0.0
 11
46.723376406
 21
0.0
 31
0.0
 40
0.6527781669
 41
1.7896708567
 42
1.802284474
  0
ELLIPSE
  5
45E
100
AcDbEntity
  8
0
100
AcDbEllipse
 62
7
  6
CONTINUOUS
 10
147.6422043307
 20
146.0149323904
 30
0.0
 11
-0.0
 21
30.5
 31
0.0
 40
0.6808509827
 41
0.2314881472
 42
0.2504798387
  0
ELLIPSE
  5
45F
100
AcDbEntity
  8
0
100
AcDbEllipse
 62
7
  6
CONTINUOUS
 10
145.0685876163
 20
146.0149323904
 30
0.0
 11
0.0
 21
30.5
 31
0.0
 40
0.3404254913
 41
0.2504798387
 42
0.2695642782
  0
ELLIPSE
  5
460
100
AcDbEntity
  8
0
100
AcDbEllipse
 62
7
  6
CONTINUOUS
 10
137.9860362417
 20
146.0149323904
 30
0.0
 11
-0.0
 21
30.5
 31
0.0
 40
0.6808509421
 41
-0.3732806625
 42
-0.3339600828
  0
ELLIPSE
  5
461
100
AcDbEntity
  8
0
100
AcDbEllipse
 62
7
  6
CONTINUOUS
 10
142.7508013015
 20
146.0149323904
 30
0.0
 11
-0.0
 21
30.5
 31
0.0
 40
0.2042552851
 41
-0.3339600828
 42
-0.3016008496
  0
ELLIPSE
  5
462
100
AcDbEntity
  8
0
100
AcDbEllipse
 62
7
  6
CONTINUOUS
 10
132.9028750429
 20
146.0149323904
 30
0.0
 11
25.297531703
 21
29.4822961116
 31
0.0
 40
0.2193594896
 41
1.2168765511
 42
1.37027398
  0
ELLIPSE
  5
463
100
AcDbEntity
  8
0
100
AcDbEllipse
 62
7
  6
CONTINUOUS
 10
95.2984286225
 20
146.0149323904
 30
0.0
 11
91.2218876386
 21
-0.0
 31
0.0
 40
0.334349582
 41
1.1246687018
 42
1.2181208555
  0
ELLIPSE
  5
464
100
AcDbEntity
  8
0
100
AcDbEllipse
 62
7
  6
CONTINUOUS
 10
177.5373649003
 20
146.0149323904
 30
0.0
 11
91.4999972731
 21
0.0
 31
0.0
 40
0.3333333433
 41
2.0443655171
 42
2.1584696995
  0
ELLIPSE
  5
465
100
AcDbEntity
  8
0
100
AcDbEllipse
 62
7
  6
CONTINUOUS
 10
111.0573664122
 20
36.218666769
 30
0.0
 11
3.0
 21
0.0
 31
0.0
 40
0.7553189484
 41
3.1415926536
 42
4.7123889804
  0
ELLIPSE
  5
466
100
AcDbEntity
  8
KONSTRUKTIONSELEMENTE
100
AcDbEllipse
 62
7
  6
CONTINUOUS
 10
111.0573664122
 20
92.6867530783
 30
0.0
 11
3.0
 21
0.0
 31
0.0
 40
0.7553189484
 41
1.5707963268
 42
3.1415926536
  0
ELLIPSE
  5
467
100
AcDbEntity
  8
0
100
AcDbEllipse
 62
7
  6
CONTINUOUS
 10
132.9028750429
 20
64.4527099237
 30
0.0
 11
19.7838089105
 21
27.3507307587
 31
0.0
 40
0.623049595
 41
-2.3316085373
 42
-2.1782111084
  0
ELLIPSE
  5
468
100
AcDbEntity
  8
0
100
AcDbEllipse
 62
7
  6
CONTINUOUS
 10
145.5911058379
 20
64.4527099237
 30
0.0
 11
4.5218326985
 21
29.9713698822
 31
0.0
 40
0.2897804361
 41
-2.7625467186
 42
-2.7454522656
  0
ELLIPSE
  5
469
100
AcDbEntity
  8
0
100
AcDbEllipse
 62
7
  6
CONTINUOUS
 10
146.5781561797
 20
64.4527099237
 30
0.0
 11
11.8136884649
 21
29.3331299472
 31
0.0
 40
0.5324559971
 41
-2.6121194779
 42
-2.5949953572
  0
ELLIPSE
  5
46A
100
AcDbEntity
  8
0
100
AcDbEllipse
 62
7
  6
CONTINUOUS
 10
149.4625068474
 20
64.4527099237
 30
0.0
 11
42.8602247451
 21
18.6408740176
 31
0.0
 40
0.5484268377
 41
-1.9344818967
 42
-1.9230467724
  0
ELLIPSE
  5
46B
100
AcDbEntity
  8
0
100
AcDbEllipse
 62
7
  6
CONTINUOUS
 10
158.948809122
 20
64.4527099237
 30
0.0
 11
117.4600765212
 21
13.3820930942
 31
0.0
 40
0.2285878445
 41
-1.7320945341
 42
-1.7263706729
  0
ELLIPSE
  5
46C
100
AcDbEntity
  8
0
100
AcDbEllipse
 62
7
  6
CONTINUOUS
 10
126.2592350054
 20
64.4527099237
 30
0.0
 11
117.4602447867
 21
-13.3820910104
 31
0.0
 40
0.2285875259
 41
-1.4152220583
 42
-1.4094981971
  0
ELLIPSE
  5
46D
100
AcDbEntity
  8
0
100
AcDbEllipse
 62
7
  6
CONTINUOUS
 10
135.7455698487
 20
64.4527099237
 30
0.0
 11
42.8601318088
 21
-18.6408997396
 31
0.0
 40
0.5484275509
 41
-1.2185447869
 42
-1.2071096626
  0
ELLIPSE
  5
46E
100
AcDbEntity
  8
0
100
AcDbEllipse
 62
7
  6
CONTINUOUS
 10
139.2067695111
 20
64.4527099237
 30
0.0
 11
-7.5916717674
 21
29.8288439203
 31
0.0
 40
0.4215159841
 41
-3.5895182756
 42
-3.5666929627
  0
ELLIPSE
  5
46F
100
AcDbEntity
  8
0
100
AcDbEllipse
 62
7
  6
CONTINUOUS
 10
144.8195566185
 20
64.4527099237
 30
0.0
 11
-5.6450860127
 21
29.9370013618
 31
0.0
 40
0.3442250908
 41
-3.6043382129
 42
-3.5759291546
  0
ELLIPSE
  5
470
100
AcDbEntity
  8
0
100
AcDbEllipse
 62
7
  6
CONTINUOUS
 10
144.4248023622
 20
64.4527099237
 30
0.0
 11
-14.4982653896
 21
28.8156091152
 31
0.0
 40
0.5756755473
 41
-3.8441539104
 42
-3.8214500827
  0
ELLIPSE
  5
471
100
AcDbEntity
  8
0
100
AcDbEllipse
 62
7
  6
CONTINUOUS
 10
144.131379544
 20
64.4527099237
 30
0.0
 11
146.8551758899
 21
-13.123110198
 31
0.0
 40
0.1837011976
 41
-1.5613768534
 42
-1.5557030386
  0
ELLIPSE
  5
472
100
AcDbEntity
  8
0
100
AcDbEllipse
 62
7
  6
CONTINUOUS
 10
141.0766860738
 20
64.4527099237
 30
0.0
 11
146.8553440454
 21
13.1231091573
 31
0.0
 40
0.1837009907
 41
-1.5858895765
 42
-1.5802157616
  0
ELLIPSE
  5
473
100
AcDbEntity
  8
0
100
AcDbEllipse
 62
7
  6
CONTINUOUS
 10
141.2060283837
 20
64.4527099237
 30
0.0
 11
48.1567844493
 21
17.3707435511
 31
0.0
 40
0.5079097054
 41
-1.7676970467
 42
-1.7506751266
  0
ELLIPSE
  5
474
100
AcDbEntity
  8
0
100
AcDbEllipse
 62
7
  6
CONTINUOUS
 10
153.5149605597
 20
64.4527099237
 30
0.0
 11
-15.0578943652
 21
28.6878559789
 31
0.0
 40
0.5827746185
 41
-3.9784116106
 42
-3.9560935727
  0
ELLIPSE
  5
475
100
AcDbEntity
  8
0
100
AcDbEllipse
 62
7
  6
CONTINUOUS
 10
148.3597722647
 20
64.4527099237
 30
0.0
 11
15.0578943652
 21
28.6878559789
 31
0.0
 40
0.5827746185
 41
-2.3270917344
 42
-2.3047736966
  0
ELLIPSE
  5
476
100
AcDbEntity
  8
KONSTRUKTIONSELEMENTE
100
AcDbEllipse
 62
7
  6
CONTINUOUS
 10
165.0573664122
 20
92.6867530783
 30
0.0
 11
3.0
 21
-0.0
 31
0.0
 40
0.7553189484
 41
0.0
 42
1.5707963268
  0
ELLIPSE
  5
477
100
AcDbEntity
  8
0
100
AcDbEllipse
 62
7
  6
CONTINUOUS
 10
165.0573664122
 20
36.218666769
 30
0.0
 11
3.0
 21
0.0
 31
0.0
 40
0.7553189484
 41
-1.5707963268
 42
0.0
  0
ELLIPSE
  5
478
100
AcDbEntity
  8
0
100
AcDbEllipse
 62
7
  6
CONTINUOUS
 10
151.5149602021
 20
64.4527099237
 30
0.0
 11
-15.0578943652
 21
28.6878559789
 31
0.0
 40
0.5827746185
 41
-3.9338160463
 42
-3.9115678374
  0
ELLIPSE
  5
479
100
AcDbEntity
  8
0
100
AcDbEllipse
 62
7
  6
CONTINUOUS
 10
150.3597726224
 20
64.4527099237
 30
0.0
 11
15.0578943652
 21
28.6878559789
 31
0.0
 40
0.5827746185
 41
-2.3716174698
 42
-2.3493692609
  0
ELLIPSE
  5
47A
100
AcDbEntity
  8
0
100
AcDbEllipse
 62
7
  6
CONTINUOUS
 10
134.0780866756
 20
64.4527099237
 30
0.0
 11
20.0228480699
 21
27.2716397044
 31
0.0
 40
0.6243021305
 41
-2.3252370822
 42
-2.2173824574
  0
ELLIPSE
  5
47B
100
AcDbEntity
  8
0
100
AcDbEllipse
 62
7
  6
CONTINUOUS
 10
142.4967411736
 20
64.4527099237
 30
0.0
 11
37.2695735795
 21
20.4238700437
 31
0.0
 40
0.589601635
 41
-1.9273957782
 42
-1.9103635259
  0
ELLIPSE
  5
47C
100
AcDbEntity
  8
0
100
AcDbEllipse
 62
7
  6
CONTINUOUS
 10
144.6154906963
 20
64.4527099237
 30
0.0
 11
117.4602447867
 21
13.3820910104
 31
0.0
 40
0.2285875259
 41
-1.6238842666
 42
-1.6182088372
  0
ELLIPSE
  5
47D
100
AcDbEntity
  8
0
100
AcDbEllipse
 62
7
  6
CONTINUOUS
 10
140.5925796899
 20
64.4527099237
 30
0.0
 11
117.4600765212
 21
-13.3820930942
 31
0.0
 40
0.2285878445
 41
-1.5233837388
 42
-1.5177083094
  0
ELLIPSE
  5
47E
100
AcDbEntity
  8
0
100
AcDbEllipse
 62
7
  6
CONTINUOUS
 10
142.5789011162
 20
64.4527099237
 30
0.0
 11
42.8602247451
 21
-18.6408740176
 31
0.0
 40
0.5484268377
 41
-1.3095970856
 42
-1.2982434282
  0
ELLIPSE
  5
47F
100
AcDbEntity
  8
0
100
AcDbEllipse
 62
7
  6
CONTINUOUS
 10
143.5187938993
 20
64.4527099237
 30
0.0
 11
-11.8136931008
 21
29.3331291909
 31
0.0
 40
0.5324560867
 41
-3.7507634965
 42
-3.7337232586
  0
ELLIPSE
  5
480
100
AcDbEntity
  8
0
100
AcDbEllipse
 62
7
  6
CONTINUOUS
 10
144.0614072147
 20
64.4527099237
 30
0.0
 11
-4.5218302088
 21
29.9713699393
 31
0.0
 40
0.2897803069
 41
-3.5661717334
 42
-3.5491153542
  0
ELLIPSE
  5
481
100
AcDbEntity
  8
0
100
AcDbEllipse
 62
7
  6
CONTINUOUS
 10
138.2067695111
 20
64.4527099237
 30
0.0
 11
-7.5916717674
 21
29.8288439203
 31
0.0
 40
0.4215159841
 41
-3.5895182756
 42
-3.5666929627
  0
ELLIPSE
  5
482
100
AcDbEntity
  8
0
100
AcDbEllipse
 62
7
  6
CONTINUOUS
 10
137.3414683577
 20
64.4527099237
 30
0.0
 11
-14.4982631163
 21
28.8156096204
 31
0.0
 40
0.5756755172
 41
-3.7417524752
 42
-3.7188651642
  0
ELLIPSE
  5
483
100
AcDbEntity
  8
0
100
AcDbEllipse
 62
7
  6
CONTINUOUS
 10
133.5575955822
 20
64.4527099237
 30
0.0
 11
48.156779896
 21
-17.3707444867
 31
0.0
 40
0.5079097396
 41
-1.248606883
 42
-1.2313931415
  0
ELLIPSE
  5
484
100
AcDbEntity
  8
0
100
AcDbEllipse
 62
7
  6
CONTINUOUS
 10
118.1313614104
 20
64.4527099237
 30
0.0
 11
146.8553311819
 21
-13.1231092369
 31
0.0
 40
0.1837010066
 41
-1.396178727
 42
-1.3904305506
  0
ELLIPSE
  5
485
100
AcDbEntity
  8
0
100
AcDbEllipse
 62
7
  6
CONTINUOUS
 10
167.0766779486
 20
64.4527099237
 30
0.0
 11
146.8551630264
 21
13.1231102776
 31
0.0
 40
0.1837012135
 41
-1.7511621416
 42
-1.7454139652
  0
ELLIPSE
  5
486
100
AcDbEntity
  8
0
100
AcDbEllipse
 62
7
  6
CONTINUOUS
 10
151.6504790846
 20
64.4527099237
 30
0.0
 11
48.1568394189
 21
17.3707322558
 31
0.0
 40
0.5079092922
 41
-1.910199012
 42
-1.8929852706
  0
ELLIPSE
  5
487
100
AcDbEntity
  8
0
100
AcDbEllipse
 62
7
  6
CONTINUOUS
 10
147.8665984358
 20
64.4527099237
 30
0.0
 11
14.4982631163
 21
28.8156096204
 31
0.0
 40
0.5756755172
 41
-2.564320143
 42
-2.541432832
  0
ELLIPSE
  5
488
100
AcDbEntity
  8
0
100
AcDbEllipse
 62
7
  6
CONTINUOUS
 10
146.6551739896
 20
64.4527099237
 30
0.0
 11
5.6450870087
 21
29.937001323
 31
0.0
 40
0.3442251357
 41
-2.7585446213
 42
-2.7300212206
  0
ENDSEC
  0
SECTION
  2
OBJECTS
  0
DICTIONARY
  5
C
100
AcDbDictionary
280
0
281
1
  3
ACAD_GROUP
350
D
  3
ACAD_MLINESTYLE
350
17
  3
ACAD_LAYOUT
350
1A
  3
ACAD_PLOTSETTINGS
350
19
  3
ACAD_PLOTSTYLENAME
350
E
  0
DICTIONARY
  5
D
102
{ACAD_REACTORS
330
C
102
}
100
AcDbDictionary
280
0
281
1
  0
ACDBDICTIONARYWDFLT
  5
E
102
{ACAD_REACTORS
330
C
102
}
100
AcDbDictionary
281
1
  3
Normal
350
F
100
AcDbDictionaryWithDefault
340
F
  0
DICTIONARY
  5
17
102
{ACAD_REACTORS
330
C
102
}
100
AcDbDictionary
280
0
281
1
  3
Standard
350
18
  0
DICTIONARY
  5
19
102
{ACAD_REACTORS
330
C
102
}
100
AcDbDictionary
281
1
  0
DICTIONARY
  5
1A
102
{ACAD_REACTORS
330
C
102
}
100
AcDbDictionary
281
1
  3
Model
350
489
  3
Layout1
350
48A
  0
ACDBPLACEHOLDER
  5
F
102
{ACAD_REACTORS
330
E
102
}
  0
MLINESTYLE
  5
18
102
{ACAD_REACTORS
330
17
102
}
100
AcDbMlineStyle
  2
STANDARD
 70
0
  3

 62
256
 51
90.0
 52
90.0
 71
2
 49
0.5
 62
256
  6
BYLAYER
 49
-0.5
 62
256
  6
BYLAYER
  0
LAYOUT
  5
489
102
{ACAD_REACTORS
330
1A
102
}
100
AcDbPlotSettings
  1

  2
none_device
  4
ISO_A3_(420.00_x_297.00_MM)
  6

 40
0.0
 41
0.0
 42
0.0
 43
0.0
 44
420.0
 45
297.0
 46
0.0
 47
0.0
 48
0.0
 49
0.0
140
0.0
141
0.0
142
1.0
143
1.0
 70
1024
 72
1
 73
0
 74
0
  7

 75
0
147
1.0
148
0.0
149
0.0
100
AcDbLayout
  1
Model
 70
0
 71
0
 10
0.0
 20
0.0
 11
420.0
 21
297.0
 12
0.0
 22
0.0
 32
0.0
 14
0.0
 24
0.0
 34
0.0
 15
0.0
 25
0.0
 35
0.0
146
0.0
 13
0.0
 23
0.0
 33
0.0
 16
1.0
 26
0.0
 36
0.0
 17
0.0
 27
1.0
 37
0.0
 76
0
330
20D
345
0
346
0
  0
LAYOUT
  5
48A
102
{ACAD_REACTORS
330
1A
102
}
100
AcDbPlotSettings
  1

  2
none_device
  4
ISO_A3_(420.00_x_297.00_MM)
  6

 40
0.0
 41
0.0
 42
0.0
 43
0.0
 44
420.0
 45
297.0
 46
0.0
 47
0.0
 48
0.0
 49
0.0
140
0.0
141
0.0
142
1.0
143
1.0
 70
0
 72
1
 73
0
 74
0
  7

 75
0
147
1.0
148
0.0
149
0.0
100
AcDbLayout
  1
Layout1
 70
0
 71
1
 10
0.0
 20
0.0
 11
420.0
 21
297.0
 12
0.0
 22
0.0
 32
0.0
 14
0.0
 24
0.0
 34
0.0
 15
0.0
 25
0.0
 35
0.0
146
0.0
 13
0.0
 23
0.0
 33
0.0
 16
1.0
 26
0.0
 36
0.0
 17
0.0
 27
1.0
 37
0.0
 76
0
330
20E
345
0
346
0
  0
ENDSEC
  0
EOF
