999
DXF file: 001-m32119-p6.dxf
999
Pro/ENGINEER 2011490 by Parametric Technology Corporation
  0
SECTION
  2
HEADER
  9
$ACADVER
  1
AC1015
  9
$DWGCODEPAGE
  3
ANSI_1252
  9
$EXTMAX
 10
420.0
 20
297.0
 30
0.0
  9
$EXTMIN
 10
0.0
 20
0.0
 30
0.0
  9
$LIMMIN
 10
0.0
 20
0.0
  9
$LIMMAX
 10
420.0
 20
297.0
  9
$VIEWCTR
 10
210.0
 20
148.5
  9
$VIEWSIZE
 40
297.0
  9
$CLAYER
  8
0
  9
$LTSCALE
 40
23.1
  9
$CELTYPE
  6
BYLAYER
  9
$DIMSCALE
 40
1.0
  9
$DIMASZ
 40
3.5
  9
$DIMEXO
 40
2.625
  9
$DIMDLI
 40
15.96
  9
$DIMEXE
 40
7.56
  9
$DIMCEN
 40
3.78
  9
$DIMLFAC
 40
1.0
  9
$DIMBLK
  1
_FILLED
  9
$DIMTXT
 40
3.5
  9
$DIMTOL
 70
1
  9
$DIMLIM
 70
0
  9
$DIMTFAC
 40
1.0
  9
$DIMTP
 40
0.005
  9
$DIMTM
 40
0.005
  9
$PDMODE
 70
3
  9
$PDSIZE
 40
0.3125
  9
$HANDSEED
  5
49F
  9
$TILEMODE
 70
1
  9
$MEASUREMENT
 70
1
  9
$INSUNITS
 70
4
  0
ENDSEC
  0
SECTION
  2
CLASSES
  0
CLASS
  1
ACDBDICTIONARYWDFLT
  2
AcDbDictionaryWithDefault
  3
AutoCAD 2000
 90
0
280
0
281
0
  0
CLASS
  1
ACDBPLACEHOLDER
  2
AcDbPlaceHolder
  3
AutoCAD 2000
 90
0
280
0
281
0
  0
CLASS
  1
LAYOUT
  2
AcDbLayout
  3
AutoCAD 2000
 90
0
280
0
281
0
  0
ENDSEC
  0
SECTION
  2
TABLES
  0
TABLE
  2
VPORT
  5
8
100
AcDbSymbolTable
 70
2
  0
VPORT
  5
1F4
100
AcDbSymbolTableRecord
100
AcDbViewportTableRecord
  2
*ACTIVE
 70
0
 10
0.0
 20
0.0
 11
1.0
 21
1.0
 12
210.0
 22
148.5
 13
0.0
 23
0.0
 14
1.0
 24
1.0
 15
0.0
 25
0.0
 16
0.0
 26
0.0
 36
1.0
 17
0.0
 27
0.0
 37
0.0
 40
297.0
 41
1.4141414141
 42
50.0
 43
0.0
 44
0.0
 50
0.0
 51
0.0
 71
0
 72
100
 73
1
 74
1
 75
0
 76
0
 77
0
 78
0
  0
ENDTAB
  0
TABLE
  2
LTYPE
  5
5
100
AcDbSymbolTable
 70
6
  0
LTYPE
  5
14
100
AcDbSymbolTableRecord
100
AcDbLinetypeTableRecord
  2
BYBLOCK
 70
0
  3

 72
65
 73
0
 40
0.0
  0
LTYPE
  5
15
100
AcDbSymbolTableRecord
100
AcDbLinetypeTableRecord
  2
BYLAYER
 70
0
  3

 72
65
 73
0
 40
0.0
  0
LTYPE
  5
16
100
AcDbSymbolTableRecord
100
AcDbLinetypeTableRecord
  2
CONTINUOUS
 70
64
  3
Solid line
 72
65
 73
0
 40
0.0
  0
LTYPE
  5
1F5
100
AcDbSymbolTableRecord
100
AcDbLinetypeTableRecord
  2
CENTER
 70
64
  3
____ _ ____ _ ____ _ ____ _ ____ _ ____ _ ____
 72
65
 73
4
 40
0.6
 49
0.375
 74
0
 49
-0.075
 74
0
 49
0.075
 74
0
 49
-0.075
 74
0
  0
LTYPE
  5
1F6
100
AcDbSymbolTableRecord
100
AcDbLinetypeTableRecord
  2
HIDDEN
 70
64
  3
- - - - - - - - - - - - - - - - - - - -
 72
65
 73
2
 40
0.2
 49
0.1
 74
0
 49
-0.1
 74
0
  0
LTYPE
  5
1F7
100
AcDbSymbolTableRecord
100
AcDbLinetypeTableRecord
  2
PHANTOM
 70
64
  3
_____ _ _ _____ _ _ _____ _ _ _____
 72
65
 73
6
 40
0.8
 49
0.45
 74
0
 49
-0.05
 74
0
 49
0.1
 74
0
 49
-0.05
 74
0
 49
0.1
 74
0
 49
-0.05
 74
0
  0
LTYPE
  5
1F8
100
AcDbSymbolTableRecord
100
AcDbLinetypeTableRecord
  2
DOT
 70
64
  3
. . . . . . . . . . . . . . . . . . . .
 72
65
 73
2
 40
0.2
 49
0.1
 74
0
 49
-0.1
 74
0
  0
LTYPE
  5
1F9
100
AcDbSymbolTableRecord
100
AcDbLinetypeTableRecord
  2
DASHED
 70
64
  3
- - - - - - - - - - - - - - - - - - - -
 72
65
 73
2
 40
0.2
 49
0.1
 74
0
 49
-0.1
 74
0
  0
ENDTAB
  0
TABLE
  2
LAYER
  5
2
100
AcDbSymbolTable
 70
36
  0
LAYER
  5
10
100
AcDbSymbolTableRecord
100
AcDbLayerTableRecord
  2
0
 70
0
 62
7
  6
CONTINUOUS
370
-3
390
F
  0
LAYER
  5
1FA
100
AcDbSymbolTableRecord
100
AcDbLayerTableRecord
  2
DEFAULT_1
 70
0
 62
7
  6
CENTER
370
-3
390
F
  0
LAYER
  5
1FB
100
AcDbSymbolTableRecord
100
AcDbLayerTableRecord
  2
DEFAULT_2
 70
0
 62
8
  6
HIDDEN
370
-3
390
F
  0
LAYER
  5
1FC
100
AcDbSymbolTableRecord
100
AcDbLayerTableRecord
  2
DEFAULT_3
 70
0
 62
7
  6
PHANTOM
370
-3
390
F
  0
LAYER
  5
1FD
100
AcDbSymbolTableRecord
100
AcDbLayerTableRecord
  2
AUSFORMSCHRAEGEN
 70
0
 62
7
  6
CONTINUOUS
370
-3
390
F
  0
LAYER
  5
1FE
100
AcDbSymbolTableRecord
100
AcDbLayerTableRecord
  2
BEZUGSACHSEN
 70
0
 62
7
  6
CONTINUOUS
370
-3
390
F
  0
LAYER
  5
1FF
100
AcDbSymbolTableRecord
100
AcDbLayerTableRecord
  2
BEZUGSEBENEN
 70
0
 62
7
  6
CONTINUOUS
370
-3
390
F
  0
LAYER
  5
200
100
AcDbSymbolTableRecord
100
AcDbLayerTableRecord
  2
BG_STARTBEZUEGE
 70
0
 62
7
  6
CONTINUOUS
370
-3
390
F
  0
LAYER
  5
201
100
AcDbSymbolTableRecord
100
AcDbLayerTableRecord
  2
FASEN
 70
0
 62
7
  6
CONTINUOUS
370
-3
390
F
  0
LAYER
  5
202
100
AcDbSymbolTableRecord
100
AcDbLayerTableRecord
  2
FLAECHENVERBUND
 70
0
 62
7
  6
CONTINUOUS
370
-3
390
F
  0
LAYER
  5
203
100
AcDbSymbolTableRecord
100
AcDbLayerTableRecord
  2
HILFEN
 70
0
 62
7
  6
CONTINUOUS
370
-3
390
F
  0
LAYER
  5
204
100
AcDbSymbolTableRecord
100
AcDbLayerTableRecord
  2
KONSTRUKTIONSELEMENTE
 70
0
 62
7
  6
CONTINUOUS
370
-3
390
F
  0
LAYER
  5
205
100
AcDbSymbolTableRecord
100
AcDbLayerTableRecord
  2
KURVEN
 70
0
 62
7
  6
CONTINUOUS
370
-3
390
F
  0
LAYER
  5
206
100
AcDbSymbolTableRecord
100
AcDbLayerTableRecord
  2
NORM
 70
0
 62
7
  6
CONTINUOUS
370
-3
390
F
  0
LAYER
  5
207
100
AcDbSymbolTableRecord
100
AcDbLayerTableRecord
  2
PLATZIERUNG
 70
0
 62
7
  6
CONTINUOUS
370
-3
390
F
  0
LAYER
  5
208
100
AcDbSymbolTableRecord
100
AcDbLayerTableRecord
  2
RUNDUNGEN
 70
0
 62
7
  6
CONTINUOUS
370
-3
390
F
  0
LAYER
  5
209
100
AcDbSymbolTableRecord
100
AcDbLayerTableRecord
  2
TEIL_STARTBEZUEGE
 70
0
 62
7
  6
CONTINUOUS
370
-3
390
F
  0
LAYER
  5
20A
100
AcDbSymbolTableRecord
100
AcDbLayerTableRecord
  2
T_STARTBEZUEGE
 70
0
 62
7
  6
CONTINUOUS
370
-3
390
F
  0
LAYER
  5
20B
100
AcDbSymbolTableRecord
100
AcDbLayerTableRecord
  2
ZEICHNUNGSBEMASSUNGEN
 70
0
 62
7
  6
CONTINUOUS
370
-3
390
F
  0
ENDTAB
  0
TABLE
  2
STYLE
  5
3
100
AcDbSymbolTable
 70
1
  0
STYLE
  5
11
100
AcDbSymbolTableRecord
100
AcDbTextStyleTableRecord
  2
STANDARD
 70
0
 40
0.0
 41
0.7
 50
0.0
 71
0
 42
0.2
  3
txt
  4

  0
STYLE
  5
20C
100
AcDbSymbolTableRecord
100
AcDbTextStyleTableRecord
  2
TEXTSTYLE_1
 70
0
 40
0.0
 41
0.8
 50
0.0
 71
0
 42
0.2
  3
gdt
  4

  0
ENDTAB
  0
TABLE
  2
VIEW
  5
6
100
AcDbSymbolTable
 70
0
  0
ENDTAB
  0
TABLE
  2
UCS
  5
7
100
AcDbSymbolTable
 70
0
  0
ENDTAB
  0
TABLE
  2
APPID
  5
9
100
AcDbSymbolTable
 70
1
  0
APPID
  5
20D
100
AcDbSymbolTableRecord
100
AcDbRegAppTableRecord
  2
ACAD
 70
0
  0
ENDTAB
  0
TABLE
  2
BLOCK_RECORD
  5
1
100
AcDbSymbolTable
 70
0
  0
BLOCK_RECORD
  5
20E
100
AcDbSymbolTableRecord
100
AcDbBlockTableRecord
  2
*Model_Space
  0
BLOCK_RECORD
  5
20F
100
AcDbSymbolTableRecord
100
AcDbBlockTableRecord
  2
*Paper_Space
  0
ENDTAB
  0
TABLE
  2
DIMSTYLE
  5
A
100
AcDbSymbolTable
 70
1
100
AcDbDimStyleTable
 71
0
  0
DIMSTYLE
105
210
100
AcDbSymbolTableRecord
100
AcDbDimStyleTableRecord
  2
STANDARD
 70
0
  3

  4

 40
1.0
 41
3.5
 42
0.0625
 43
0.38
 44
0.18
 45
0.0
 46
0.0
 47
0.005
 48
0.005
140
3.5
141
0.09
142
0.0
143
25.4
144
1.0
145
0.0
146
1.0
147
0.09
 71
1.0
 72
0.0
 73
0
 74
0
 75
0
 76
0
 77
1
 78
8
170
0
171
2
172
0
173
0
174
0
175
0
176
0
177
0
178
5
270
2
271
3
272
3
273
2
274
2
275
0
280
0
281
0
282
0
283
1
284
8
285
0
286
0
287
3
288
0
340
11
  0
ENDTAB
  0
ENDSEC
  0
SECTION
  2
BLOCKS
  0
BLOCK
  5
20
100
AcDbEntity
  8
0
100
AcDbBlockBegin
  2
*Model_Space
 70
0
 10
0.0
 20
0.0
 30
0.0
  3
*Model_Space
  1

  0
ENDBLK
  5
21
100
AcDbEntity
  8
0
100
AcDbBlockEnd
  0
BLOCK
  5
1C
100
AcDbEntity
  8
0
100
AcDbBlockBegin
  2
*Paper_Space
 70
0
 10
0.0
 20
0.0
 30
0.0
  3
*Paper_Space
  1

  0
ENDBLK
  5
1D
100
AcDbEntity
  8
0
100
AcDbBlockEnd
  0
ENDSEC
  0
SECTION
  2
ENTITIES
  0
MTEXT
  5
211
100
AcDbEntity
  8
0
100
AcDbMText
 62
5
  6
CONTINUOUS
  7
STANDARD
 71
2
 72
1
 10
144.1309764769
 20
111.3801769434
 30
0.0
 11
1.0
 21
0.0
 31
0.0
 44
0.9
  1
VLBS-U-LT-4t\PRUD
 40
5.0
 41
45.119047619
  0
MTEXT
  5
212
100
AcDbEntity
  8
0
100
AcDbMText
 62
5
  6
CONTINUOUS
  7
STANDARD
 71
2
 72
1
 10
256.5483267238
 20
218.9862344185
 30
0.0
 11
0.0
 21
1.0
 31
0.0
 44
0.9
  1
VLBS-U-LT-4t\PRUD
 40
5.0
 41
45.119047619
  0
MTEXT
  5
213
100
AcDbEntity
  8
0
100
AcDbMText
 62
5
  6
CONTINUOUS
  7
STANDARD
 71
2
 72
1
 10
144.9304239797
 20
264.1753191257
 30
0.0
 11
1.0
 21
0.0
 31
0.0
 44
0.9
  1
RUD\PVLBS-U-LT-4t
 40
5.0
 41
44.1666666667
  0
LINE
  5
214
100
AcDbEntity
  8
0
100
AcDbLine
 62
7
  6
CONTINUOUS
 10
0.0
 20
0.0
 11
0.0
 21
297.0
  0
LINE
  5
215
100
AcDbEntity
  8
0
100
AcDbLine
 62
7
  6
CONTINUOUS
 10
0.0
 20
0.0
 11
420.0
 21
0.0
  0
LINE
  5
216
100
AcDbEntity
  8
0
100
AcDbLine
 62
7
  6
CONTINUOUS
 10
0.0
 20
297.0
 11
420.0
 21
297.0
  0
LINE
  5
217
100
AcDbEntity
  8
0
100
AcDbLine
 62
7
  6
CONTINUOUS
 10
420.0
 20
0.0
 11
420.0
 21
297.0
  0
LINE
  5
218
100
AcDbEntity
  8
RUNDUNGEN
100
AcDbLine
 62
7
  6
CONTINUOUS
 10
166.9318026871
 20
168.4464860502
 11
121.8069759388
 21
168.4464860502
  0
LINE
  5
219
100
AcDbEntity
  8
BEZUGSACHSEN
100
AcDbLine
 62
7
  6
CONTINUOUS
 10
182.869390013
 20
169.9464860502
 11
167.1300106017
 21
169.9464860502
  0
LINE
  5
21A
100
AcDbEntity
  8
BEZUGSACHSEN
100
AcDbLine
 62
7
  6
CONTINUOUS
 10
121.6087680243
 20
169.9464860502
 11
105.869388613
 21
169.9464860502
  0
LINE
  5
21B
100
AcDbEntity
  8
BEZUGSACHSEN
100
AcDbLine
 62
7
  6
CONTINUOUS
 10
141.2877805362
 20
268.8335166531
 11
116.2227056118
 21
258.4512226775
  0
LINE
  5
21C
100
AcDbEntity
  8
KONSTRUKTIONSELEMENTE
100
AcDbLine
 62
7
  6
CONTINUOUS
 10
121.369389313
 20
170.7464860502
 11
167.369389313
 21
170.7464860502
  0
LINE
  5
21D
100
AcDbEntity
  8
BEZUGSACHSEN
100
AcDbLine
 62
7
  6
CONTINUOUS
 10
100.869388613
 20
174.9464860502
 11
100.869388613
 21
225.9464860502
  0
LINE
  5
21E
100
AcDbEntity
  8
BEZUGSACHSEN
100
AcDbLine
 62
7
  6
CONTINUOUS
 10
111.8646526857
 20
254.0931697514
 11
101.4823587101
 21
229.028094827
  0
LINE
  5
21F
100
AcDbEntity
  8
KONSTRUKTIONSELEMENTE
100
AcDbLine
 62
7
  6
CONTINUOUS
 10
165.369389313
 20
180.2837479843
 11
123.369389313
 21
180.2837479843
  0
LINE
  5
220
100
AcDbEntity
  8
0
100
AcDbLine
 62
7
  6
CONTINUOUS
 10
148.1848057611
 20
186.5288581545
 11
147.7264728649
 21
186.4228008729
  0
LINE
  5
221
100
AcDbEntity
  8
0
100
AcDbLine
 62
7
  6
CONTINUOUS
 10
147.7264728649
 20
186.0856418108
 11
147.0389728649
 21
186.0856418108
  0
LINE
  5
222
100
AcDbEntity
  8
0
100
AcDbLine
 62
7
  6
CONTINUOUS
 10
143.2577228649
 20
186.0856418108
 11
142.570222537
 21
186.0856418108
  0
LINE
  5
223
100
AcDbEntity
  8
0
100
AcDbLine
 62
7
  6
CONTINUOUS
 10
147.7264728649
 20
186.4228008729
 11
147.0389728649
 21
186.4228008729
  0
LINE
  5
224
100
AcDbEntity
  8
0
100
AcDbLine
 62
7
  6
CONTINUOUS
 10
147.7264728649
 20
186.6283202891
 11
147.0389728649
 21
186.6283202891
  0
LINE
  5
225
100
AcDbEntity
  8
0
100
AcDbLine
 62
7
  6
CONTINUOUS
 10
146.0077228649
 20
187.1652019182
 11
145.43420924
 21
187.1652019182
  0
LINE
  5
226
100
AcDbEntity
  8
0
100
AcDbLine
 62
7
  6
CONTINUOUS
 10
146.0077228649
 20
187.3764739359
 11
145.3202228649
 21
187.3764739359
  0
LINE
  5
227
100
AcDbEntity
  8
0
100
AcDbLine
 62
7
  6
CONTINUOUS
 10
144.4035557611
 20
187.5877512347
 11
143.2577228649
 21
187.5877512347
  0
LINE
  5
228
100
AcDbEntity
  8
0
100
AcDbLine
 62
7
  6
CONTINUOUS
 10
142.570222537
 20
187.5877512347
 11
139.8202227009
 21
187.5877512347
  0
LINE
  5
229
100
AcDbEntity
  8
0
100
AcDbLine
 62
7
  6
CONTINUOUS
 10
138.903555925
 20
187.9025993961
 11
137.299389313
 21
187.9025993961
  0
LINE
  5
22A
100
AcDbEntity
  8
0
100
AcDbLine
 62
7
  6
CONTINUOUS
 10
144.4035557611
 20
188.0136603195
 11
143.2577228649
 21
188.0136603195
  0
LINE
  5
22B
100
AcDbEntity
  8
0
100
AcDbLine
 62
7
  6
CONTINUOUS
 10
142.570222537
 20
188.0136603195
 11
140.6223060889
 21
188.0136603195
  0
LINE
  5
22C
100
AcDbEntity
  8
0
100
AcDbLine
 62
7
  6
CONTINUOUS
 10
144.4035557611
 20
188.2149637233
 11
143.2577228649
 21
188.2149637233
  0
LINE
  5
22D
100
AcDbEntity
  8
0
100
AcDbLine
 62
7
  6
CONTINUOUS
 10
142.570222537
 20
188.2149637233
 11
140.6223060889
 21
188.2149637233
  0
LINE
  5
22E
100
AcDbEntity
  8
0
100
AcDbLine
 62
7
  6
CONTINUOUS
 10
138.903555925
 20
188.2257748826
 11
137.299389313
 21
188.2257748826
  0
LINE
  5
22F
100
AcDbEntity
  8
0
100
AcDbLine
 62
7
  6
CONTINUOUS
 10
146.1223057611
 20
188.3185323377
 11
145.3202228649
 21
188.3185323377
  0
LINE
  5
230
100
AcDbEntity
  8
0
100
AcDbLine
 62
7
  6
CONTINUOUS
 10
138.903555925
 20
188.4218241957
 11
137.299389313
 21
188.4218241957
  0
LINE
  5
231
100
AcDbEntity
  8
0
100
AcDbLine
 62
7
  6
CONTINUOUS
 10
147.0389728649
 20
186.4228008729
 11
146.580639313
 21
186.5288581545
  0
LINE
  5
232
100
AcDbEntity
  8
0
100
AcDbLine
 62
7
  6
CONTINUOUS
 10
147.0389728649
 20
189.0742331353
 11
146.4660557611
 21
188.9681758537
  0
LINE
  5
233
100
AcDbEntity
  8
0
100
AcDbLine
 62
7
  6
CONTINUOUS
 10
147.7264728649
 20
188.7300365079
 11
147.0389728649
 21
188.7300365079
  0
LINE
  5
234
100
AcDbEntity
  8
0
100
AcDbLine
 62
7
  6
CONTINUOUS
 10
147.7264728649
 20
189.0742331353
 11
147.0389728649
 21
189.0742331353
  0
LINE
  5
235
100
AcDbEntity
  8
0
100
AcDbLine
 62
7
  6
CONTINUOUS
 10
147.7264728649
 20
189.2381591563
 11
147.0389728649
 21
189.2381591563
  0
LINE
  5
236
100
AcDbEntity
  8
0
100
AcDbLine
 62
7
  6
CONTINUOUS
 10
153.283764313
 20
189.7641502859
 11
152.940014313
 21
189.7641502859
  0
LINE
  5
237
100
AcDbEntity
  8
0
100
AcDbLine
 62
7
  6
CONTINUOUS
 10
149.2160564167
 20
190.4289463381
 11
145.893139313
 21
190.4289463381
  0
LINE
  5
238
100
AcDbEntity
  8
0
100
AcDbLine
 62
7
  6
CONTINUOUS
 10
153.283764313
 20
190.8772072194
 11
152.940014313
 21
190.8772072194
  0
LINE
  5
239
100
AcDbEntity
  8
0
100
AcDbLine
 62
7
  6
CONTINUOUS
 10
149.2160564167
 20
190.8772072194
 11
145.3202228649
 21
190.8772072194
  0
LINE
  5
23A
100
AcDbEntity
  8
0
100
AcDbLine
 62
7
  6
CONTINUOUS
 10
143.2577228649
 20
190.8772072194
 11
142.570222537
 21
190.8772072194
  0
LINE
  5
23B
100
AcDbEntity
  8
0
100
AcDbLine
 62
7
  6
CONTINUOUS
 10
153.283764313
 20
190.9129396589
 11
152.940014313
 21
190.9129396589
  0
LINE
  5
23C
100
AcDbEntity
  8
0
100
AcDbLine
 62
7
  6
CONTINUOUS
 10
149.2160564167
 20
190.9129396589
 11
145.3202228649
 21
190.9129396589
  0
LINE
  5
23D
100
AcDbEntity
  8
0
100
AcDbLine
 62
7
  6
CONTINUOUS
 10
143.2577228649
 20
190.9129396589
 11
142.570222537
 21
190.9129396589
  0
LINE
  5
23E
100
AcDbEntity
  8
0
100
AcDbLine
 62
7
  6
CONTINUOUS
 10
148.299389313
 20
188.9681758537
 11
147.7264728649
 21
189.0742331353
  0
LINE
  5
23F
100
AcDbEntity
  8
0
100
AcDbLine
 62
7
  6
CONTINUOUS
 10
146.580639313
 20
186.5288581545
 11
146.236889313
 21
186.7409727176
  0
LINE
  5
240
100
AcDbEntity
  8
BEZUGSACHSEN
100
AcDbLine
 62
7
  6
CONTINUOUS
 10
118.869388613
 20
194.4464860502
 11
118.869388613
 21
198.137012292
  0
LINE
  5
241
100
AcDbEntity
  8
BEZUGSACHSEN
100
AcDbLine
 62
7
  6
CONTINUOUS
 10
118.869388613
 20
223.3351666365
 11
118.869388613
 21
225.9464860502
  0
LINE
  5
242
100
AcDbEntity
  8
KONSTRUKTIONSELEMENTE
100
AcDbLine
 62
7
  6
CONTINUOUS
 10
121.369389313
 20
170.7464860502
 11
121.369389313
 21
181.7458014259
  0
LINE
  5
243
100
AcDbEntity
  8
0
100
AcDbLine
 62
7
  6
CONTINUOUS
 10
121.369389313
 20
181.7458014259
 11
121.369389313
 21
197.4464860502
  0
LINE
  5
244
100
AcDbEntity
  8
0
100
AcDbLine
 62
7
  6
CONTINUOUS
 10
148.2221552004
 20
196.0682479868
 11
147.5306659211
 21
196.0682479868
  0
LINE
  5
245
100
AcDbEntity
  8
0
100
AcDbLine
 62
7
  6
CONTINUOUS
 10
148.2221552004
 20
197.2487862752
 11
147.5306659211
 21
197.2487862752
  0
LINE
  5
246
100
AcDbEntity
  8
0
100
AcDbLine
 62
7
  6
CONTINUOUS
 10
148.8723064167
 20
188.650004009
 11
148.299389313
 21
188.9681758537
  0
LINE
  5
247
100
AcDbEntity
  8
0
100
AcDbLine
 62
7
  6
CONTINUOUS
 10
131.1228878955
 20
200.4134541825
 11
131.1078502821
 21
200.4280692507
  0
LINE
  5
248
100
AcDbEntity
  8
0
100
AcDbLine
 62
7
  6
CONTINUOUS
 10
125.1379256594
 20
200.0418559244
 11
125.1228879869
 21
200.0983325797
  0
LINE
  5
249
100
AcDbEntity
  8
0
100
AcDbLine
 62
7
  6
CONTINUOUS
 10
125.1230076911
 20
199.0815052697
 11
125.1379256594
 21
199.0221998896
  0
LINE
  5
24A
100
AcDbEntity
  8
0
100
AcDbLine
 62
7
  6
CONTINUOUS
 10
125.1228879707
 20
199.0784290145
 11
125.1228879707
 21
200.0418559244
  0
LINE
  5
24B
100
AcDbEntity
  8
0
100
AcDbLine
 62
7
  6
CONTINUOUS
 10
125.1228879707
 20
200.0983325797
 11
125.1228879707
 21
200.411206686
  0
LINE
  5
24C
100
AcDbEntity
  8
0
100
AcDbLine
 62
7
  6
CONTINUOUS
 10
125.1379256594
 20
200.4280692507
 11
125.1379256594
 21
200.1403234155
  0
LINE
  5
24D
100
AcDbEntity
  8
0
100
AcDbLine
 62
7
  6
CONTINUOUS
 10
125.1379256594
 20
200.0418559244
 11
125.1379256594
 21
199.0221998896
  0
LINE
  5
24E
100
AcDbEntity
  8
0
100
AcDbLine
 62
7
  6
CONTINUOUS
 10
126.0444270017
 20
200.4280692507
 11
126.0444270017
 21
200.3774541326
  0
LINE
  5
24F
100
AcDbEntity
  8
0
100
AcDbLine
 62
7
  6
CONTINUOUS
 10
126.0444270017
 20
200.0418559244
 11
126.0444270017
 21
199.0221998896
  0
LINE
  5
250
100
AcDbEntity
  8
0
100
AcDbLine
 62
7
  6
CONTINUOUS
 10
156.489389313
 20
200.4462831615
 11
156.4899248258
 21
200.4463442369
  0
LINE
  5
251
100
AcDbEntity
  8
0
100
AcDbLine
 62
7
  6
CONTINUOUS
 10
148.0838573445
 20
197.7189508641
 11
147.6689637769
 21
197.7189508641
  0
LINE
  5
252
100
AcDbEntity
  8
0
100
AcDbLine
 62
7
  6
CONTINUOUS
 10
150.8498146553
 20
198.0110043105
 11
150.5732189436
 21
198.0110043105
  0
LINE
  5
253
100
AcDbEntity
  8
0
100
AcDbLine
 62
7
  6
CONTINUOUS
 10
148.2221552004
 20
198.7591526265
 11
147.8072616328
 21
198.7591526265
  0
LINE
  5
254
100
AcDbEntity
  8
0
100
AcDbLine
 62
7
  6
CONTINUOUS
 10
140.3731436225
 20
198.9137770288
 11
139.819952199
 21
198.9137770288
  0
LINE
  5
255
100
AcDbEntity
  8
0
100
AcDbLine
 62
7
  6
CONTINUOUS
 10
136.5008033195
 20
198.9740889388
 11
135.9476118477
 21
198.9740889388
  0
LINE
  5
256
100
AcDbEntity
  8
0
100
AcDbLine
 62
7
  6
CONTINUOUS
 10
131.1078502821
 20
199.0221998896
 11
130.2013489398
 21
199.0221998896
  0
LINE
  5
257
100
AcDbEntity
  8
0
100
AcDbLine
 62
7
  6
CONTINUOUS
 10
126.0444270017
 20
199.0221998896
 11
125.1379256594
 21
199.0221998896
  0
LINE
  5
258
100
AcDbEntity
  8
0
100
AcDbLine
 62
7
  6
CONTINUOUS
 10
150.8498146553
 20
199.0806900512
 11
150.5732189436
 21
199.0806900512
  0
LINE
  5
259
100
AcDbEntity
  8
0
100
AcDbLine
 62
7
  6
CONTINUOUS
 10
128.579389313
 20
199.1356136297
 11
127.6728879707
 21
199.1356136297
  0
LINE
  5
25A
100
AcDbEntity
  8
0
100
AcDbLine
 62
7
  6
CONTINUOUS
 10
141.4795268567
 20
199.199635767
 11
140.3731436225
 21
199.199635767
  0
LINE
  5
25B
100
AcDbEntity
  8
0
100
AcDbLine
 62
7
  6
CONTINUOUS
 10
139.819952199
 20
199.199635767
 11
137.3305906
 21
199.199635767
  0
LINE
  5
25C
100
AcDbEntity
  8
0
100
AcDbLine
 62
7
  6
CONTINUOUS
 10
160.169389313
 20
199.2693100662
 11
158.689389313
 21
199.2693100662
  0
LINE
  5
25D
100
AcDbEntity
  8
0
100
AcDbLine
 62
7
  6
CONTINUOUS
 10
150.9881128986
 20
199.3632334913
 11
150.4349210877
 21
199.3632334913
  0
LINE
  5
25E
100
AcDbEntity
  8
KONSTRUKTIONSELEMENTE
100
AcDbLine
 62
7
  6
CONTINUOUS
 10
165.369389313
 20
199.4464860502
 11
162.369389313
 21
199.4464860502
  0
LINE
  5
25F
100
AcDbEntity
  8
KONSTRUKTIONSELEMENTE
100
AcDbLine
 62
7
  6
CONTINUOUS
 10
156.489389313
 20
199.4464860502
 11
152.509389313
 21
199.4464860502
  0
LINE
  5
260
100
AcDbEntity
  8
KONSTRUKTIONSELEMENTE
100
AcDbLine
 62
7
  6
CONTINUOUS
 10
146.009389313
 20
199.4464860502
 11
141.4795268567
 21
199.4464860502
  0
LINE
  5
261
100
AcDbEntity
  8
KONSTRUKTIONSELEMENTE
100
AcDbLine
 62
7
  6
CONTINUOUS
 10
135.9476118477
 20
199.4464860502
 11
131.1228879707
 21
199.4464860502
  0
LINE
  5
262
100
AcDbEntity
  8
KONSTRUKTIONSELEMENTE
100
AcDbLine
 62
7
  6
CONTINUOUS
 10
125.1228879707
 20
199.4464860502
 11
123.369389313
 21
199.4464860502
  0
LINE
  5
263
100
AcDbEntity
  8
0
100
AcDbLine
 62
7
  6
CONTINUOUS
 10
150.9881128986
 20
199.7913782598
 11
150.4349210877
 21
199.7913782598
  0
LINE
  5
264
100
AcDbEntity
  8
0
100
AcDbLine
 62
7
  6
CONTINUOUS
 10
148.2221552004
 20
199.7913782598
 11
147.5306659211
 21
199.7913782598
  0
LINE
  5
265
100
AcDbEntity
  8
0
100
AcDbLine
 62
7
  6
CONTINUOUS
 10
160.969389313
 20
199.938577619
 11
157.489389313
 21
199.938577619
  0
LINE
  5
266
100
AcDbEntity
  8
0
100
AcDbLine
 62
7
  6
CONTINUOUS
 10
140.3731436225
 20
199.938577619
 11
139.819952199
 21
199.938577619
  0
LINE
  5
267
100
AcDbEntity
  8
0
100
AcDbLine
 62
7
  6
CONTINUOUS
 10
150.8498146553
 20
199.97793946
 11
150.5732189436
 21
199.97793946
  0
LINE
  5
268
100
AcDbEntity
  8
0
100
AcDbLine
 62
7
  6
CONTINUOUS
 10
148.0838573445
 20
199.97793946
 11
147.6689637769
 21
199.97793946
  0
LINE
  5
269
100
AcDbEntity
  8
0
100
AcDbLine
 62
7
  6
CONTINUOUS
 10
136.5008033195
 20
199.9960215522
 11
135.9476118477
 21
199.9960215522
  0
LINE
  5
26A
100
AcDbEntity
  8
0
100
AcDbLine
 62
7
  6
CONTINUOUS
 10
131.1078502821
 20
200.0418559244
 11
130.2013489398
 21
200.0418559244
  0
LINE
  5
26B
100
AcDbEntity
  8
0
100
AcDbLine
 62
7
  6
CONTINUOUS
 10
126.0444270017
 20
200.0418559244
 11
125.1379256594
 21
200.0418559244
  0
LINE
  5
26C
100
AcDbEntity
  8
0
100
AcDbLine
 62
7
  6
CONTINUOUS
 10
128.579389313
 20
200.1499419962
 11
127.6728879707
 21
200.1499419962
  0
LINE
  5
26D
100
AcDbEntity
  8
0
100
AcDbLine
 62
7
  6
CONTINUOUS
 10
162.369389313
 20
200.1662926792
 11
161.369389313
 21
200.1662926792
  0
LINE
  5
26E
100
AcDbEntity
  8
0
100
AcDbLine
 62
7
  6
CONTINUOUS
 10
160.969389313
 20
200.1662926792
 11
156.489389313
 21
200.1662926792
  0
LINE
  5
26F
100
AcDbEntity
  8
0
100
AcDbLine
 62
7
  6
CONTINUOUS
 10
141.4795268567
 20
200.2109806037
 11
140.3731436225
 21
200.2109806037
  0
LINE
  5
270
100
AcDbEntity
  8
0
100
AcDbLine
 62
7
  6
CONTINUOUS
 10
139.819952199
 20
200.2109806037
 11
137.3305906
 21
200.2109806037
  0
LINE
  5
271
100
AcDbEntity
  8
0
100
AcDbLine
 62
7
  6
CONTINUOUS
 10
141.4795268567
 20
200.3001407453
 11
140.3731436225
 21
200.3001407453
  0
LINE
  5
272
100
AcDbEntity
  8
0
100
AcDbLine
 62
7
  6
CONTINUOUS
 10
139.819952199
 20
200.3001407453
 11
137.0539947914
 21
200.3001407453
  0
LINE
  5
273
100
AcDbEntity
  8
0
100
AcDbLine
 62
7
  6
CONTINUOUS
 10
162.369389313
 20
200.3259284563
 11
158.839389313
 21
200.3259284563
  0
LINE
  5
274
100
AcDbEntity
  8
0
100
AcDbLine
 62
7
  6
CONTINUOUS
 10
140.3731436225
 20
200.3986499527
 11
139.819952199
 21
200.3986499527
  0
LINE
  5
275
100
AcDbEntity
  8
0
100
AcDbLine
 62
7
  6
CONTINUOUS
 10
151.6796021779
 20
200.4174035278
 11
149.7434318085
 21
200.4174035278
  0
LINE
  5
276
100
AcDbEntity
  8
0
100
AcDbLine
 62
7
  6
CONTINUOUS
 10
148.9136446733
 20
200.4174035278
 11
146.839176545
 21
200.4174035278
  0
LINE
  5
277
100
AcDbEntity
  8
0
100
AcDbLine
 62
7
  6
CONTINUOUS
 10
162.369389313
 20
200.4189688412
 11
158.839389313
 21
200.4189688412
  0
LINE
  5
278
100
AcDbEntity
  8
0
100
AcDbLine
 62
7
  6
CONTINUOUS
 10
142.4476118477
 20
200.4243122337
 11
138.7135693522
 21
200.4243122337
  0
LINE
  5
279
100
AcDbEntity
  8
0
100
AcDbLine
 62
7
  6
CONTINUOUS
 10
137.8837820234
 20
200.4243122337
 11
135.9476118477
 21
200.4243122337
  0
LINE
  5
27A
100
AcDbEntity
  8
0
100
AcDbLine
 62
7
  6
CONTINUOUS
 10
131.1078502821
 20
200.4280692507
 11
130.2013489398
 21
200.4280692507
  0
LINE
  5
27B
100
AcDbEntity
  8
0
100
AcDbLine
 62
7
  6
CONTINUOUS
 10
126.0444270017
 20
200.4280692507
 11
125.1379256594
 21
200.4280692507
  0
LINE
  5
27C
100
AcDbEntity
  8
0
100
AcDbLine
 62
7
  6
CONTINUOUS
 10
138.7135693522
 20
200.4434302846
 11
137.8837820234
 21
200.4434302846
  0
LINE
  5
27D
100
AcDbEntity
  8
0
100
AcDbLine
 62
7
  6
CONTINUOUS
 10
152.509389313
 20
200.44418284
 11
146.009389313
 21
200.44418284
  0
LINE
  5
27E
100
AcDbEntity
  8
0
100
AcDbLine
 62
7
  6
CONTINUOUS
 10
157.689389313
 20
200.4464860502
 11
156.5132204729
 21
200.4464860502
  0
LINE
  5
27F
100
AcDbEntity
  8
BEZUGSACHSEN
100
AcDbLine
 62
7
  6
CONTINUOUS
 10
166.369390013
 20
201.4464860502
 11
159.8937001465
 21
201.4464860502
  0
LINE
  5
280
100
AcDbEntity
  8
BEZUGSACHSEN
100
AcDbLine
 62
7
  6
CONTINUOUS
 10
122.369388613
 20
201.4464860502
 11
128.8450784795
 21
201.4464860502
  0
LINE
  5
281
100
AcDbEntity
  8
0
100
AcDbLine
 62
7
  6
CONTINUOUS
 10
127.6728879707
 20
199.1356136297
 11
127.6728879707
 21
200.3686668124
  0
LINE
  5
282
100
AcDbEntity
  8
0
100
AcDbLine
 62
7
  6
CONTINUOUS
 10
128.579389313
 20
199.1356136297
 11
128.579389313
 21
200.3685455703
  0
LINE
  5
283
100
AcDbEntity
  8
0
100
AcDbLine
 62
7
  6
CONTINUOUS
 10
130.2013489398
 20
200.4280692507
 11
130.2013489398
 21
200.3774213435
  0
LINE
  5
284
100
AcDbEntity
  8
0
100
AcDbLine
 62
7
  6
CONTINUOUS
 10
130.2013489398
 20
200.0418559244
 11
130.2013489398
 21
199.0221998896
  0
LINE
  5
285
100
AcDbEntity
  8
0
100
AcDbLine
 62
7
  6
CONTINUOUS
 10
131.1078502821
 20
200.4280692507
 11
131.1078502821
 21
200.1404865641
  0
LINE
  5
286
100
AcDbEntity
  8
0
100
AcDbLine
 62
7
  6
CONTINUOUS
 10
131.1078502821
 20
200.0418559244
 11
131.1078502821
 21
199.0221998896
  0
LINE
  5
287
100
AcDbEntity
  8
0
100
AcDbLine
 62
7
  6
CONTINUOUS
 10
131.1228879707
 20
199.078410122
 11
131.1228879707
 21
200.0418559244
  0
LINE
  5
288
100
AcDbEntity
  8
0
100
AcDbLine
 62
7
  6
CONTINUOUS
 10
131.1228879707
 20
200.095419367
 11
131.1228879707
 21
200.4112098953
  0
LINE
  5
289
100
AcDbEntity
  8
0
100
AcDbLine
 62
7
  6
CONTINUOUS
 10
149.2160564167
 20
188.2257748826
 11
148.8723064167
 21
188.650004009
  0
LINE
  5
28A
100
AcDbEntity
  8
0
100
AcDbLine
 62
7
  6
CONTINUOUS
 10
146.236889313
 20
186.7409727176
 11
146.0077228649
 21
187.1652019182
  0
LINE
  5
28B
100
AcDbEntity
  8
0
100
AcDbLine
 62
7
  6
CONTINUOUS
 10
135.9476118477
 20
200.4243122337
 11
135.9476118477
 21
198.9740889388
  0
LINE
  5
28C
100
AcDbEntity
  8
0
100
AcDbLine
 62
7
  6
CONTINUOUS
 10
153.627514313
 20
190.4618162494
 11
153.283764313
 21
190.8772072194
  0
LINE
  5
28D
100
AcDbEntity
  8
0
100
AcDbLine
 62
7
  6
CONTINUOUS
 10
136.5008033195
 20
199.9960215522
 11
136.5008033195
 21
198.9740889388
  0
LINE
  5
28E
100
AcDbEntity
  8
0
100
AcDbLine
 62
7
  6
CONTINUOUS
 10
136.6391012238
 20
200.1241674899
 11
136.6391012238
 21
199.1085738585
  0
LINE
  5
28F
100
AcDbEntity
  8
0
100
AcDbLine
 62
7
  6
CONTINUOUS
 10
136.9156969355
 20
200.1905749259
 11
136.9156969355
 21
199.1782346748
  0
LINE
  5
290
100
AcDbEntity
  8
0
100
AcDbLine
 62
7
  6
CONTINUOUS
 10
137.299389313
 20
187.9025993961
 11
137.299389313
 21
188.4218241957
  0
LINE
  5
291
100
AcDbEntity
  8
0
100
AcDbLine
 62
7
  6
CONTINUOUS
 10
137.3305906
 20
200.2109806037
 11
137.3305906
 21
199.199635767
  0
LINE
  5
292
100
AcDbEntity
  8
0
100
AcDbLine
 62
7
  6
CONTINUOUS
 10
137.8837820234
 20
200.4434302846
 11
137.8837820234
 21
200.3001407453
  0
LINE
  5
293
100
AcDbEntity
  8
0
100
AcDbLine
 62
7
  6
CONTINUOUS
 10
138.7135693522
 20
200.4434302846
 11
138.7135693522
 21
200.3001407453
  0
LINE
  5
294
100
AcDbEntity
  8
0
100
AcDbLine
 62
7
  6
CONTINUOUS
 10
138.903555925
 20
187.9025993961
 11
138.903555925
 21
188.4218241957
  0
LINE
  5
295
100
AcDbEntity
  8
0
100
AcDbLine
 62
7
  6
CONTINUOUS
 10
139.819952199
 20
198.9137770288
 11
139.819952199
 21
200.2109806037
  0
LINE
  5
296
100
AcDbEntity
  8
0
100
AcDbLine
 62
7
  6
CONTINUOUS
 10
139.819952199
 20
200.3001407453
 11
139.819952199
 21
200.3986499527
  0
LINE
  5
297
100
AcDbEntity
  8
0
100
AcDbLine
 62
7
  6
CONTINUOUS
 10
139.8202227009
 20
187.5877512347
 11
139.8202227009
 21
188.2149637233
  0
LINE
  5
298
100
AcDbEntity
  8
0
100
AcDbLine
 62
7
  6
CONTINUOUS
 10
140.3731436225
 20
198.9137770288
 11
140.3731436225
 21
200.2109806037
  0
LINE
  5
299
100
AcDbEntity
  8
0
100
AcDbLine
 62
7
  6
CONTINUOUS
 10
140.3731436225
 20
200.3001407453
 11
140.3731436225
 21
200.3986499527
  0
LINE
  5
29A
100
AcDbEntity
  8
0
100
AcDbLine
 62
7
  6
CONTINUOUS
 10
131.1078502821
 20
199.0221998896
 11
131.1226851076
 21
199.0815515294
  0
LINE
  5
29B
100
AcDbEntity
  8
0
100
AcDbLine
 62
7
  6
CONTINUOUS
 10
131.1228879545
 20
200.0983314747
 11
131.1078502821
 21
200.0418559244
  0
LINE
  5
29C
100
AcDbEntity
  8
0
100
AcDbLine
 62
7
  6
CONTINUOUS
 10
149.4452222092
 20
187.6954883262
 11
149.2160564167
 21
188.2257748826
  0
LINE
  5
29D
100
AcDbEntity
  8
0
100
AcDbLine
 62
7
  6
CONTINUOUS
 10
140.6223060889
 20
188.2149637233
 11
140.6223060889
 21
188.0136603195
  0
LINE
  5
29E
100
AcDbEntity
  8
0
100
AcDbLine
 62
7
  6
CONTINUOUS
 10
141.4795268567
 20
199.199635767
 11
141.4795268567
 21
200.3001407453
  0
LINE
  5
29F
100
AcDbEntity
  8
0
100
AcDbLine
 62
7
  6
CONTINUOUS
 10
142.4476118477
 20
200.4243122337
 11
142.4476118477
 21
199.4464860502
  0
LINE
  5
2A0
100
AcDbEntity
  8
0
100
AcDbLine
 62
7
  6
CONTINUOUS
 10
142.570222537
 20
190.9129396589
 11
142.570222537
 21
190.8772072194
  0
LINE
  5
2A1
100
AcDbEntity
  8
0
100
AcDbLine
 62
7
  6
CONTINUOUS
 10
142.570222537
 20
186.0856418108
 11
142.570222537
 21
187.5877512347
  0
LINE
  5
2A2
100
AcDbEntity
  8
0
100
AcDbLine
 62
7
  6
CONTINUOUS
 10
142.570222537
 20
188.0136603195
 11
142.570222537
 21
190.1350871107
  0
LINE
  5
2A3
100
AcDbEntity
  8
0
100
AcDbLine
 62
7
  6
CONTINUOUS
 10
143.2577228649
 20
186.0856418108
 11
143.2577228649
 21
187.5877512347
  0
LINE
  5
2A4
100
AcDbEntity
  8
0
100
AcDbLine
 62
7
  6
CONTINUOUS
 10
143.2577228649
 20
188.0136603195
 11
143.2577228649
 21
190.9129396589
  0
LINE
  5
2A5
100
AcDbEntity
  8
0
100
AcDbLine
 62
7
  6
CONTINUOUS
 10
144.4035557611
 20
187.5877512347
 11
144.4035557611
 21
188.2149637233
  0
LINE
  5
2A6
100
AcDbEntity
  8
0
100
AcDbLine
 62
7
  6
CONTINUOUS
 10
125.1379256594
 20
200.4280692507
 11
125.1228880566
 21
200.4134491786
  0
LINE
  5
2A7
100
AcDbEntity
  8
0
100
AcDbLine
 62
7
  6
CONTINUOUS
 10
145.3202228649
 20
188.3185323377
 11
145.3202228649
 21
190.9129396589
  0
LINE
  5
2A8
100
AcDbEntity
  8
0
100
AcDbLine
 62
7
  6
CONTINUOUS
 10
145.893139313
 20
188.650004009
 11
145.893139313
 21
190.4289463381
  0
LINE
  5
2A9
100
AcDbEntity
  8
0
100
AcDbLine
 62
7
  6
CONTINUOUS
 10
146.0077228649
 20
187.3764739359
 11
146.0077228649
 21
187.1652019182
  0
LINE
  5
2AA
100
AcDbEntity
  8
0
100
AcDbLine
 62
7
  6
CONTINUOUS
 10
146.009389313
 20
197.2295748121
 11
146.009389313
 21
198.8175078519
  0
LINE
  5
2AB
100
AcDbEntity
  8
0
100
AcDbLine
 62
7
  6
CONTINUOUS
 10
146.009389313
 20
199.1410987196
 11
146.009389313
 21
200.44418284
  0
LINE
  5
2AC
100
AcDbEntity
  8
0
100
AcDbLine
 62
7
  6
CONTINUOUS
 10
146.1476871809
 20
200.03297353
 11
146.1476871809
 21
199.0806900512
  0
LINE
  5
2AD
100
AcDbEntity
  8
0
100
AcDbLine
 62
7
  6
CONTINUOUS
 10
146.1476871809
 20
198.00738208
 11
146.1476871809
 21
196.8755026677
  0
LINE
  5
2AE
100
AcDbEntity
  8
0
100
AcDbLine
 62
7
  6
CONTINUOUS
 10
146.236889313
 20
186.9506121233
 11
146.236889313
 21
186.7409727176
  0
LINE
  5
2AF
100
AcDbEntity
  8
0
100
AcDbLine
 62
7
  6
CONTINUOUS
 10
146.424282929
 20
197.7189508641
 11
146.424282929
 21
196.5690658887
  0
LINE
  5
2B0
100
AcDbEntity
  8
0
100
AcDbLine
 62
7
  6
CONTINUOUS
 10
146.4660557611
 20
189.1370929126
 11
146.4660557611
 21
188.9681758537
  0
LINE
  5
2B1
100
AcDbEntity
  8
0
100
AcDbLine
 62
7
  6
CONTINUOUS
 10
146.5625807848
 20
199.9193486497
 11
146.5625807848
 21
199.3186052751
  0
LINE
  5
2B2
100
AcDbEntity
  8
0
100
AcDbLine
 62
7
  6
CONTINUOUS
 10
146.580639313
 20
186.7360268961
 11
146.580639313
 21
186.5288581545
  0
LINE
  5
2B3
100
AcDbEntity
  8
0
100
AcDbLine
 62
7
  6
CONTINUOUS
 10
146.839176545
 20
198.3413201395
 11
146.839176545
 21
198.8175078519
  0
LINE
  5
2B4
100
AcDbEntity
  8
0
100
AcDbLine
 62
7
  6
CONTINUOUS
 10
146.839176545
 20
200.1324777485
 11
146.839176545
 21
200.4174035278
  0
LINE
  5
2B5
100
AcDbEntity
  8
0
100
AcDbLine
 62
7
  6
CONTINUOUS
 10
146.9774744008
 20
199.0301048025
 11
146.9774744008
 21
198.0764930995
  0
LINE
  5
2B6
100
AcDbEntity
  8
0
100
AcDbLine
 62
7
  6
CONTINUOUS
 10
146.9774744008
 20
197.4106718244
 11
146.9774744008
 21
196.2408767978
  0
LINE
  5
2B7
100
AcDbEntity
  8
0
100
AcDbLine
 62
7
  6
CONTINUOUS
 10
147.0389728649
 20
189.2381591563
 11
147.0389728649
 21
189.0742331353
  0
LINE
  5
2B8
100
AcDbEntity
  8
0
100
AcDbLine
 62
7
  6
CONTINUOUS
 10
147.0389728649
 20
186.6283202891
 11
147.0389728649
 21
186.4228008729
  0
LINE
  5
2B9
100
AcDbEntity
  8
0
100
AcDbLine
 62
7
  6
CONTINUOUS
 10
147.1157722567
 20
199.8247292784
 11
147.1157722567
 21
199.4240410794
  0
LINE
  5
2BA
100
AcDbEntity
  8
0
100
AcDbLine
 62
7
  6
CONTINUOUS
 10
147.3923680652
 20
199.1788375811
 11
147.3923680652
 21
198.1144905245
  0
LINE
  5
2BB
100
AcDbEntity
  8
0
100
AcDbLine
 62
7
  6
CONTINUOUS
 10
147.5306659211
 20
199.7913782598
 11
147.5306659211
 21
199.4705744914
  0
LINE
  5
2BC
100
AcDbEntity
  8
0
100
AcDbLine
 62
7
  6
CONTINUOUS
 10
147.5306659211
 20
197.2487862752
 11
147.5306659211
 21
196.0682479868
  0
LINE
  5
2BD
100
AcDbEntity
  8
0
100
AcDbLine
 62
7
  6
CONTINUOUS
 10
147.7264728649
 20
189.2381591563
 11
147.7264728649
 21
189.0742331353
  0
LINE
  5
2BE
100
AcDbEntity
  8
0
100
AcDbLine
 62
7
  6
CONTINUOUS
 10
147.7264728649
 20
186.6283202891
 11
147.7264728649
 21
186.4228008729
  0
LINE
  5
2BF
100
AcDbEntity
  8
0
100
AcDbLine
 62
7
  6
CONTINUOUS
 10
147.8072616328
 20
198.1646347513
 11
147.8072616328
 21
199.4913234386
  0
LINE
  5
2C0
100
AcDbEntity
  8
0
100
AcDbLine
 62
7
  6
CONTINUOUS
 10
148.1848057611
 20
186.7360267844
 11
148.1848057611
 21
186.5288581545
  0
LINE
  5
2C1
100
AcDbEntity
  8
0
100
AcDbLine
 62
7
  6
CONTINUOUS
 10
148.2221552004
 20
199.7913782598
 11
148.2221552004
 21
198.7591526265
  0
LINE
  5
2C2
100
AcDbEntity
  8
0
100
AcDbLine
 62
7
  6
CONTINUOUS
 10
148.2221552004
 20
197.2487862752
 11
148.2221552004
 21
196.0682479868
  0
LINE
  5
2C3
100
AcDbEntity
  8
0
100
AcDbLine
 62
7
  6
CONTINUOUS
 10
148.299389313
 20
189.1370929126
 11
148.299389313
 21
188.9681758537
  0
LINE
  5
2C4
100
AcDbEntity
  8
0
100
AcDbLine
 62
7
  6
CONTINUOUS
 10
148.5285564167
 20
186.9506119492
 11
148.5285564167
 21
186.7409727176
  0
LINE
  5
2C5
100
AcDbEntity
  8
0
100
AcDbLine
 62
7
  6
CONTINUOUS
 10
148.6370489616
 20
199.8247292784
 11
148.6370489616
 21
198.7941955902
  0
LINE
  5
2C6
100
AcDbEntity
  8
0
100
AcDbLine
 62
7
  6
CONTINUOUS
 10
148.7577222092
 20
187.2704218844
 11
148.7577222092
 21
187.0591446367
  0
LINE
  5
2C7
100
AcDbEntity
  8
0
100
AcDbLine
 62
7
  6
CONTINUOUS
 10
148.7753468175
 20
197.4106718244
 11
148.7753468175
 21
196.2408767978
  0
LINE
  5
2C8
100
AcDbEntity
  8
0
100
AcDbLine
 62
7
  6
CONTINUOUS
 10
148.8723064167
 20
188.8322184843
 11
148.8723064167
 21
188.650004009
  0
LINE
  5
2C9
100
AcDbEntity
  8
0
100
AcDbLine
 62
7
  6
CONTINUOUS
 10
148.8723064167
 20
187.3773164814
 11
148.8723064167
 21
187.7979260235
  0
LINE
  5
2CA
100
AcDbEntity
  8
0
100
AcDbLine
 62
7
  6
CONTINUOUS
 10
148.9136446733
 20
198.3413201395
 11
148.9136446733
 21
198.7049422707
  0
LINE
  5
2CB
100
AcDbEntity
  8
0
100
AcDbLine
 62
7
  6
CONTINUOUS
 10
148.9136446733
 20
200.1324777485
 11
148.9136446733
 21
200.4174035278
  0
LINE
  5
2CC
100
AcDbEntity
  8
0
100
AcDbLine
 62
7
  6
CONTINUOUS
 10
149.190240385
 20
199.9193486497
 11
149.190240385
 21
199.0301017239
  0
LINE
  5
2CD
100
AcDbEntity
  8
0
100
AcDbLine
 62
7
  6
CONTINUOUS
 10
149.2160564167
 20
188.4218241957
 11
149.2160564167
 21
188.2257748826
  0
LINE
  5
2CE
100
AcDbEntity
  8
0
100
AcDbLine
 62
7
  6
CONTINUOUS
 10
149.2160564167
 20
190.4289463381
 11
149.2160564167
 21
190.9129396589
  0
LINE
  5
2CF
100
AcDbEntity
  8
0
100
AcDbLine
 62
7
  6
CONTINUOUS
 10
149.3285382409
 20
199.97793946
 11
149.3285382409
 21
199.1302656066
  0
LINE
  5
2D0
100
AcDbEntity
  8
0
100
AcDbLine
 62
7
  6
CONTINUOUS
 10
149.3285382409
 20
197.7189508641
 11
149.3285382409
 21
196.5690658887
  0
LINE
  5
2D1
100
AcDbEntity
  8
0
100
AcDbLine
 62
7
  6
CONTINUOUS
 10
149.4452222092
 20
187.4822503796
 11
149.4452222092
 21
187.9026001159
  0
LINE
  5
2D2
100
AcDbEntity
  8
0
100
AcDbLine
 62
7
  6
CONTINUOUS
 10
149.4668360968
 20
199.9193486497
 11
149.4668360968
 21
199.1788364194
  0
LINE
  5
2D3
100
AcDbEntity
  8
0
100
AcDbLine
 62
7
  6
CONTINUOUS
 10
149.6051339526
 20
198.00738208
 11
149.6051339526
 21
196.8755026677
  0
LINE
  5
2D4
100
AcDbEntity
  8
0
100
AcDbLine
 62
7
  6
CONTINUOUS
 10
149.7434318085
 20
197.2295748121
 11
149.7434318085
 21
198.7049422707
  0
LINE
  5
2D5
100
AcDbEntity
  8
0
100
AcDbLine
 62
7
  6
CONTINUOUS
 10
149.7434318085
 20
200.1324777485
 11
149.7434318085
 21
200.4174035278
  0
LINE
  5
2D6
100
AcDbEntity
  8
0
100
AcDbLine
 62
7
  6
CONTINUOUS
 10
149.8817296643
 20
198.8722110986
 11
149.8817296643
 21
197.7910006151
  0
LINE
  5
2D7
100
AcDbEntity
  8
0
100
AcDbLine
 62
7
  6
CONTINUOUS
 10
150.0200275202
 20
199.8247292784
 11
150.0200275202
 21
199.3298535786
  0
LINE
  5
2D8
100
AcDbEntity
  8
0
100
AcDbLine
 62
7
  6
CONTINUOUS
 10
150.158325376
 20
199.0301048025
 11
150.158325376
 21
197.9576459578
  0
LINE
  5
2D9
100
AcDbEntity
  8
0
100
AcDbLine
 62
7
  6
CONTINUOUS
 10
150.4349210877
 20
199.7913782598
 11
150.4349210877
 21
199.3632334913
  0
LINE
  5
2DA
100
AcDbEntity
  8
0
100
AcDbLine
 62
7
  6
CONTINUOUS
 10
150.5732189436
 20
199.0806900512
 11
150.5732189436
 21
198.0110043105
  0
LINE
  5
2DB
100
AcDbEntity
  8
0
100
AcDbLine
 62
7
  6
CONTINUOUS
 10
150.8498146553
 20
199.0806900512
 11
150.8498146553
 21
198.0110043105
  0
LINE
  5
2DC
100
AcDbEntity
  8
0
100
AcDbLine
 62
7
  6
CONTINUOUS
 10
150.9881128986
 20
199.7913782598
 11
150.9881128986
 21
199.3632334913
  0
LINE
  5
2DD
100
AcDbEntity
  8
0
100
AcDbLine
 62
7
  6
CONTINUOUS
 10
150.9881128986
 20
196.3250272642
 11
150.9881128986
 21
197.9370859881
  0
LINE
  5
2DE
100
AcDbEntity
  8
0
100
AcDbLine
 62
7
  6
CONTINUOUS
 10
151.2647086103
 20
199.0301048025
 11
151.2647086103
 21
198.00738208
  0
LINE
  5
2DF
100
AcDbEntity
  8
0
100
AcDbLine
 62
7
  6
CONTINUOUS
 10
151.4030064661
 20
199.8247292784
 11
151.4030064661
 21
199.3298535786
  0
LINE
  5
2E0
100
AcDbEntity
  8
0
100
AcDbLine
 62
7
  6
CONTINUOUS
 10
151.4030064661
 20
197.5673504327
 11
151.4030064661
 21
196.4077625842
  0
LINE
  5
2E1
100
AcDbEntity
  8
0
100
AcDbLine
 62
7
  6
CONTINUOUS
 10
151.541304322
 20
198.8722110986
 11
151.541304322
 21
198.1444299467
  0
LINE
  5
2E2
100
AcDbEntity
  8
0
100
AcDbLine
 62
7
  6
CONTINUOUS
 10
151.6796021779
 20
198.3413201395
 11
151.6796021779
 21
198.7049422707
  0
LINE
  5
2E3
100
AcDbEntity
  8
0
100
AcDbLine
 62
7
  6
CONTINUOUS
 10
151.6796021779
 20
200.1324777485
 11
151.6796021779
 21
200.4174035278
  0
LINE
  5
2E4
100
AcDbEntity
  8
0
100
AcDbLine
 62
7
  6
CONTINUOUS
 10
151.9561978896
 20
199.9193486497
 11
151.9561978896
 21
199.1788364194
  0
LINE
  5
2E5
100
AcDbEntity
  8
0
100
AcDbLine
 62
7
  6
CONTINUOUS
 10
151.9561978896
 20
197.7928834712
 11
151.9561978896
 21
196.6476698901
  0
LINE
  5
2E6
100
AcDbEntity
  8
0
100
AcDbLine
 62
7
  6
CONTINUOUS
 10
152.3710914571
 20
200.03297353
 11
152.3710914571
 21
199.0128771219
  0
LINE
  5
2E7
100
AcDbEntity
  8
0
100
AcDbLine
 62
7
  6
CONTINUOUS
 10
152.3710914571
 20
198.0764930995
 11
152.3710914571
 21
196.9488420287
  0
LINE
  5
2E8
100
AcDbEntity
  8
0
100
AcDbLine
 62
7
  6
CONTINUOUS
 10
152.509389313
 20
197.2966727799
 11
152.509389313
 21
198.7049422707
  0
LINE
  5
2E9
100
AcDbEntity
  8
0
100
AcDbLine
 62
7
  6
CONTINUOUS
 10
152.509389313
 20
199.1410987196
 11
152.509389313
 21
200.44418284
  0
LINE
  5
2EA
100
AcDbEntity
  8
0
100
AcDbLine
 62
7
  6
CONTINUOUS
 10
152.596264313
 20
190.151480066
 11
152.596264313
 21
190.5344263889
  0
LINE
  5
2EB
100
AcDbEntity
  8
0
100
AcDbLine
 62
7
  6
CONTINUOUS
 10
152.940014313
 20
190.9129396589
 11
152.940014313
 21
190.8772072194
  0
LINE
  5
2EC
100
AcDbEntity
  8
0
100
AcDbLine
 62
7
  6
CONTINUOUS
 10
153.283764313
 20
190.9129396589
 11
153.283764313
 21
190.8772072194
  0
LINE
  5
2ED
100
AcDbEntity
  8
0
100
AcDbLine
 62
7
  6
CONTINUOUS
 10
153.627514313
 20
190.151480066
 11
153.627514313
 21
190.5344263889
  0
LINE
  5
2EE
100
AcDbEntity
  8
0
100
AcDbLine
 62
7
  6
CONTINUOUS
 10
156.489389313
 20
198.47920928
 11
156.489389313
 21
200.4438966717
  0
LINE
  5
2EF
100
AcDbEntity
  8
0
100
AcDbLine
 62
7
  6
CONTINUOUS
 10
157.489389313
 20
199.6405890037
 11
157.489389313
 21
199.938577619
  0
LINE
  5
2F0
100
AcDbEntity
  8
0
100
AcDbLine
 62
7
  6
CONTINUOUS
 10
160.969389313
 20
199.3717651735
 11
160.969389313
 21
200.1662926792
  0
LINE
  5
2F1
100
AcDbEntity
  8
0
100
AcDbLine
 62
7
  6
CONTINUOUS
 10
161.369389313
 20
199.6405890037
 11
161.369389313
 21
200.1662926792
  0
LINE
  5
2F2
100
AcDbEntity
  8
0
100
AcDbLine
 62
7
  6
CONTINUOUS
 10
162.369389313
 20
198.47920928
 11
162.369389313
 21
200.4189688412
  0
LINE
  5
2F3
100
AcDbEntity
  8
0
100
AcDbLine
 62
7
  6
CONTINUOUS
 10
148.8723064167
 20
187.3773164814
 11
148.7577222092
 21
187.0591446367
  0
LINE
  5
2F4
100
AcDbEntity
  8
0
100
AcDbLine
 62
7
  6
CONTINUOUS
 10
142.570222537
 20
190.8772072194
 11
139.8202227009
 21
188.0136603195
  0
LINE
  5
2F5
100
AcDbEntity
  8
0
100
AcDbLine
 62
7
  6
CONTINUOUS
 10
148.7577222092
 20
187.0591446367
 11
148.5285564167
 21
186.7409727176
  0
LINE
  5
2F6
100
AcDbEntity
  8
0
100
AcDbLine
 62
7
  6
CONTINUOUS
 10
167.369389313
 20
197.4464860502
 11
167.369389313
 21
181.7458014259
  0
LINE
  5
2F7
100
AcDbEntity
  8
KONSTRUKTIONSELEMENTE
100
AcDbLine
 62
7
  6
CONTINUOUS
 10
167.369389313
 20
181.7458014259
 11
167.369389313
 21
170.7464860502
  0
LINE
  5
2F8
100
AcDbEntity
  8
BEZUGSACHSEN
100
AcDbLine
 62
7
  6
CONTINUOUS
 10
169.869390013
 20
194.4464860502
 11
169.869390013
 21
198.137012292
  0
LINE
  5
2F9
100
AcDbEntity
  8
BEZUGSACHSEN
100
AcDbLine
 62
7
  6
CONTINUOUS
 10
169.869390013
 20
223.3351666365
 11
169.869390013
 21
225.9464860502
  0
LINE
  5
2FA
100
AcDbEntity
  8
0
100
AcDbLine
 62
7
  6
CONTINUOUS
 10
152.940014313
 20
190.8772072194
 11
152.596264313
 21
190.4618162494
  0
LINE
  5
2FB
100
AcDbEntity
  8
0
100
AcDbLine
 62
7
  6
CONTINUOUS
 10
146.4660557611
 20
188.9681758537
 11
145.893139313
 21
188.650004009
  0
LINE
  5
2FC
100
AcDbEntity
  8
0
100
AcDbLine
 62
7
  6
CONTINUOUS
 10
148.5285564167
 20
186.7409727176
 11
148.1848057611
 21
186.5288581545
  0
LINE
  5
2FD
100
AcDbEntity
  8
BEZUGSACHSEN
100
AcDbLine
 62
7
  6
CONTINUOUS
 10
187.869390013
 20
225.9464860502
 11
187.869390013
 21
174.9464860502
  0
LINE
  5
2FE
100
AcDbEntity
  8
BEZUGSACHSEN
100
AcDbLine
 62
7
  6
CONTINUOUS
 10
176.8741259403
 20
254.0931697514
 11
187.2564199158
 21
229.028094827
  0
LINE
  5
2FF
100
AcDbEntity
  8
BEZUGSACHSEN
100
AcDbLine
 62
7
  6
CONTINUOUS
 10
147.4509980898
 20
268.8335166531
 11
172.5160730142
 21
258.4512226775
  0
LINE
  5
300
100
AcDbEntity
  8
RUNDUNGEN
100
AcDbLine
 62
7
  6
CONTINUOUS
 10
276.365795607
 20
168.4464860502
 11
273.365795607
 21
168.4464860502
  0
LINE
  5
301
100
AcDbEntity
  8
RUNDUNGEN
100
AcDbLine
 62
7
  6
CONTINUOUS
 10
251.5615769789
 20
168.4464860502
 11
248.5615769789
 21
168.4464860502
  0
LINE
  5
302
100
AcDbEntity
  8
RUNDUNGEN
100
AcDbLine
 62
7
  6
CONTINUOUS
 10
278.3913476626
 20
170.7464860502
 11
276.7713476626
 21
170.7464860502
  0
LINE
  5
303
100
AcDbEntity
  8
RUNDUNGEN
100
AcDbLine
 62
7
  6
CONTINUOUS
 10
246.5360249232
 20
170.7464860502
 11
248.1560249232
 21
170.7464860502
  0
LINE
  5
304
100
AcDbEntity
  8
0
100
AcDbLine
 62
7
  6
CONTINUOUS
 10
241.4636862929
 20
180.2837479843
 11
246.5360249232
 21
170.7464860502
  0
LINE
  5
305
100
AcDbEntity
  8
0
100
AcDbLine
 62
7
  6
CONTINUOUS
 10
254.4636862929
 20
185.2985908462
 11
253.9636862929
 21
185.2985908462
  0
LINE
  5
306
100
AcDbEntity
  8
0
100
AcDbLine
 62
7
  6
CONTINUOUS
 10
254.5999817363
 20
190.2375383502
 11
253.9636862929
 21
190.2375383502
  0
LINE
  5
307
100
AcDbEntity
  8
0
100
AcDbLine
 62
7
  6
CONTINUOUS
 10
254.5999817363
 20
191.4454331202
 11
253.9636862929
 21
191.4454331202
  0
LINE
  5
308
100
AcDbEntity
  8
0
100
AcDbLine
 62
7
  6
CONTINUOUS
 10
254.5999817363
 20
192.6533278902
 11
253.9636862929
 21
192.6533278902
  0
LINE
  5
309
100
AcDbEntity
  8
0
100
AcDbLine
 62
7
  6
CONTINUOUS
 10
254.5999817363
 20
195.0691174302
 11
253.9636862929
 21
195.0691174302
  0
LINE
  5
30A
100
AcDbEntity
  8
0
100
AcDbLine
 62
7
  6
CONTINUOUS
 10
254.5999817363
 20
196.2770122002
 11
253.9636862929
 21
196.2770122002
  0
LINE
  5
30B
100
AcDbEntity
  8
0
100
AcDbLine
 62
7
  6
CONTINUOUS
 10
254.4636862929
 20
197.0822753802
 11
253.9636862929
 21
197.0822753802
  0
LINE
  5
30C
100
AcDbEntity
  8
0
100
AcDbLine
 62
7
  6
CONTINUOUS
 10
254.4636862929
 20
197.4849069702
 11
253.9636862929
 21
197.4849069702
  0
LINE
  5
30D
100
AcDbEntity
  8
RUNDUNGEN
100
AcDbLine
 62
7
  6
CONTINUOUS
 10
248.5615769789
 20
168.4464860502
 11
248.1560249232
 21
170.7464860502
  0
LINE
  5
30E
100
AcDbEntity
  8
0
100
AcDbLine
 62
7
  6
CONTINUOUS
 10
254.5999817363
 20
202.3164860502
 11
253.9636862929
 21
202.3164860502
  0
LINE
  5
30F
100
AcDbEntity
  8
0
100
AcDbLine
 62
7
  6
CONTINUOUS
 10
250.3236862929
 20
196.793703823
 11
250.3236862929
 21
195.5818413136
  0
LINE
  5
310
100
AcDbEntity
  8
0
100
AcDbLine
 62
7
  6
CONTINUOUS
 10
241.4636862929
 20
180.2837479843
 11
241.7827234797
 21
182.0930977812
  0
LINE
  5
311
100
AcDbEntity
  8
0
100
AcDbLine
 62
7
  6
CONTINUOUS
 10
252.4903530242
 20
198.0559894481
 11
252.4903530242
 21
196.9270873259
  0
LINE
  5
312
100
AcDbEntity
  8
0
100
AcDbLine
 62
7
  6
CONTINUOUS
 10
253.5736862929
 20
198.570300301
 11
253.5736862929
 21
197.4719400527
  0
LINE
  5
313
100
AcDbEntity
  8
0
100
AcDbLine
 62
7
  6
CONTINUOUS
 10
253.9636862929
 20
185.2985908462
 11
253.9636862929
 21
190.2375383502
  0
LINE
  5
314
100
AcDbEntity
  8
0
100
AcDbLine
 62
7
  6
CONTINUOUS
 10
253.9636862929
 20
191.4454331202
 11
253.9636862929
 21
196.2770122002
  0
LINE
  5
315
100
AcDbEntity
  8
0
100
AcDbLine
 62
7
  6
CONTINUOUS
 10
253.9636862929
 20
197.0822753802
 11
253.9636862929
 21
202.3164860502
  0
LINE
  5
316
100
AcDbEntity
  8
BEZUGSACHSEN
100
AcDbLine
 62
7
  6
CONTINUOUS
 10
254.4636862929
 20
264.4464867502
 11
254.4636862929
 21
225.9464860502
  0
LINE
  5
317
100
AcDbEntity
  8
0
100
AcDbLine
 62
7
  6
CONTINUOUS
 10
254.4636862929
 20
225.9464860502
 11
254.4636862929
 21
202.3164860502
  0
LINE
  5
318
100
AcDbEntity
  8
0
100
AcDbLine
 62
7
  6
CONTINUOUS
 10
254.4636862929
 20
197.5899781426
 11
254.4636862929
 21
196.2770122002
  0
LINE
  5
319
100
AcDbEntity
  8
0
100
AcDbLine
 62
7
  6
CONTINUOUS
 10
254.4636862929
 20
195.0691174302
 11
254.4636862929
 21
192.6533278902
  0
LINE
  5
31A
100
AcDbEntity
  8
0
100
AcDbLine
 62
7
  6
CONTINUOUS
 10
254.4636862929
 20
191.4454331202
 11
254.4636862929
 21
190.2375383502
  0
LINE
  5
31B
100
AcDbEntity
  8
0
100
AcDbLine
 62
7
  6
CONTINUOUS
 10
254.4636862929
 20
185.5660495138
 11
254.4636862929
 21
177.9464860502
  0
LINE
  5
31C
100
AcDbEntity
  8
BEZUGSACHSEN
100
AcDbLine
 62
7
  6
CONTINUOUS
 10
254.4636862929
 20
192.6533278902
 11
254.4636862929
 21
195.0691174302
  0
LINE
  5
31D
100
AcDbEntity
  8
0
100
AcDbLine
 62
7
  6
CONTINUOUS
 10
254.5999817363
 20
187.5130645912
 11
254.5999817363
 21
190.2375383502
  0
LINE
  5
31E
100
AcDbEntity
  8
0
100
AcDbLine
 62
7
  6
CONTINUOUS
 10
254.5999817363
 20
191.4454331202
 11
254.5999817363
 21
192.6533278902
  0
LINE
  5
31F
100
AcDbEntity
  8
0
100
AcDbLine
 62
7
  6
CONTINUOUS
 10
254.5999817363
 20
195.0691174302
 11
254.5999817363
 21
196.2770122002
  0
LINE
  5
320
100
AcDbEntity
  8
0
100
AcDbLine
 62
7
  6
CONTINUOUS
 10
254.5999817363
 20
199.2430649132
 11
254.5999817363
 21
202.3164860502
  0
LINE
  5
321
100
AcDbEntity
  8
RUNDUNGEN
100
AcDbLine
 62
7
  6
CONTINUOUS
 10
251.5615769789
 20
168.4464860502
 11
253.6004165158
 21
180.0093196492
  0
LINE
  5
322
100
AcDbEntity
  8
RUNDUNGEN
100
AcDbLine
 62
7
  6
CONTINUOUS
 10
271.32695607
 20
180.0093196492
 11
273.365795607
 21
168.4464860502
  0
LINE
  5
323
100
AcDbEntity
  8
BEZUGSACHSEN
100
AcDbLine
 62
7
  6
CONTINUOUS
 10
270.4636862929
 20
264.4464867502
 11
270.4636862929
 21
177.9464860502
  0
LINE
  5
324
100
AcDbEntity
  8
0
100
AcDbLine
 62
7
  6
CONTINUOUS
 10
270.771602443
 20
198.8175078519
 11
270.771602443
 21
197.7332309607
  0
LINE
  5
325
100
AcDbEntity
  8
0
100
AcDbLine
 62
7
  6
CONTINUOUS
 10
271.8549362929
 20
198.3413201395
 11
271.8549362929
 21
197.2295748121
  0
LINE
  5
326
100
AcDbEntity
  8
0
100
AcDbLine
 62
7
  6
CONTINUOUS
 10
272.5320201428
 20
198.00738208
 11
272.5320201428
 21
196.8755026677
  0
LINE
  5
327
100
AcDbEntity
  8
0
100
AcDbLine
 62
7
  6
CONTINUOUS
 10
273.0736862929
 20
197.7189508641
 11
273.0736862929
 21
196.5690658887
  0
LINE
  5
328
100
AcDbEntity
  8
0
100
AcDbLine
 62
7
  6
CONTINUOUS
 10
273.615352443
 20
197.4106718244
 11
273.615352443
 21
196.2408767978
  0
LINE
  5
329
100
AcDbEntity
  8
0
100
AcDbLine
 62
7
  6
CONTINUOUS
 10
273.8861862929
 20
197.2487862752
 11
273.8861862929
 21
196.0682479868
  0
LINE
  5
32A
100
AcDbEntity
  8
KONSTRUKTIONSELEMENTE
100
AcDbLine
 62
7
  6
CONTINUOUS
 10
283.4636862929
 20
180.2837479843
 11
283.1446491062
 21
182.0930977812
  0
LINE
  5
32B
100
AcDbEntity
  8
RUNDUNGEN
100
AcDbLine
 62
7
  6
CONTINUOUS
 10
276.7713476626
 20
170.7464860502
 11
276.365795607
 21
168.4464860502
  0
LINE
  5
32C
100
AcDbEntity
  8
KONSTRUKTIONSELEMENTE
100
AcDbLine
 62
7
  6
CONTINUOUS
 10
283.4636862929
 20
180.2837479843
 11
278.3913476626
 21
170.7464860502
  0
LINE
  5
32D
100
AcDbEntity
  8
AUSFORMSCHRAEGEN
100
AcDbLine
 62
7
  6
CONTINUOUS
 10
265.4636862929
 20
269.4464867502
 11
259.4636862929
 21
269.4464867502
  0
LINE
  5
32E
100
AcDbEntity
  8
BEZUGSACHSEN
100
AcDbLine
 62
7
  6
CONTINUOUS
 10
100.869388613
 20
108.03
 11
100.869388613
 21
102.03
  0
LINE
  5
32F
100
AcDbEntity
  8
0
100
AcDbLine
 62
7
  6
CONTINUOUS
 10
104.709915463
 20
112.8937045567
 11
104.709915463
 21
113.53
  0
LINE
  5
330
100
AcDbEntity
  8
0
100
AcDbLine
 62
7
  6
CONTINUOUS
 10
105.716494438
 20
113.0276617904
 11
105.716494438
 21
113.53
  0
LINE
  5
331
100
AcDbEntity
  8
0
100
AcDbLine
 62
7
  6
CONTINUOUS
 10
106.320441823
 20
113.03
 11
106.320441823
 21
113.53
  0
LINE
  5
332
100
AcDbEntity
  8
0
100
AcDbLine
 62
7
  6
CONTINUOUS
 10
110.749389313
 20
113.03
 11
110.749389313
 21
113.53
  0
LINE
  5
333
100
AcDbEntity
  8
KONSTRUKTIONSELEMENTE
100
AcDbLine
 62
7
  6
CONTINUOUS
 10
121.369389313
 20
85.5551927789
 11
121.369389313
 21
86.3186526928
  0
LINE
  5
334
100
AcDbEntity
  8
0
100
AcDbLine
 62
7
  6
CONTINUOUS
 10
121.369389313
 20
86.3186526928
 11
121.369389313
 21
97.03
  0
LINE
  5
335
100
AcDbEntity
  8
0
100
AcDbLine
 62
7
  6
CONTINUOUS
 10
121.369389313
 20
113.03
 11
121.369389313
 21
124.5048072211
  0
LINE
  5
336
100
AcDbEntity
  8
0
100
AcDbLine
 62
7
  6
CONTINUOUS
 10
148.8316964238
 20
86.0701974045
 11
148.8723064167
 21
86.080714007
  0
LINE
  5
337
100
AcDbEntity
  8
KONSTRUKTIONSELEMENTE
100
AcDbLine
 62
7
  6
CONTINUOUS
 10
165.369389313
 20
84.03
 11
123.369389313
 21
84.03
  0
LINE
  5
338
100
AcDbEntity
  8
0
100
AcDbLine
 62
7
  6
CONTINUOUS
 10
147.7264728649
 20
85.4687296101
 11
147.0389728649
 21
85.4687296101
  0
LINE
  5
339
100
AcDbEntity
  8
0
100
AcDbLine
 62
7
  6
CONTINUOUS
 10
143.2577228649
 20
85.4687296101
 11
142.570222537
 21
85.4687296101
  0
LINE
  5
33A
100
AcDbEntity
  8
0
100
AcDbLine
 62
7
  6
CONTINUOUS
 10
147.7264728649
 20
85.6894315366
 11
147.0389728649
 21
85.6894315366
  0
LINE
  5
33B
100
AcDbEntity
  8
0
100
AcDbLine
 62
7
  6
CONTINUOUS
 10
142.570222537
 20
85.8828926993
 11
143.2577228649
 21
85.8828926993
  0
LINE
  5
33C
100
AcDbEntity
  8
0
100
AcDbLine
 62
7
  6
CONTINUOUS
 10
146.0077228649
 20
86.0232823359
 11
145.3202228649
 21
86.0232823359
  0
LINE
  5
33D
100
AcDbEntity
  8
0
100
AcDbLine
 62
7
  6
CONTINUOUS
 10
144.4035557611
 20
86.1239885003
 11
143.2577228649
 21
86.1239885003
  0
LINE
  5
33E
100
AcDbEntity
  8
0
100
AcDbLine
 62
7
  6
CONTINUOUS
 10
142.570222537
 20
86.1239885003
 11
139.8202227009
 21
86.1239885003
  0
LINE
  5
33F
100
AcDbEntity
  8
0
100
AcDbLine
 62
7
  6
CONTINUOUS
 10
138.903555925
 20
86.2794821301
 11
137.299389313
 21
86.2794821301
  0
LINE
  5
340
100
AcDbEntity
  8
0
100
AcDbLine
 62
7
  6
CONTINUOUS
 10
144.4035557611
 20
86.4403027472
 11
143.2577228649
 21
86.4403027472
  0
LINE
  5
341
100
AcDbEntity
  8
0
100
AcDbLine
 62
7
  6
CONTINUOUS
 10
142.570222537
 20
86.4403027472
 11
140.6223060889
 21
86.4403027472
  0
LINE
  5
342
100
AcDbEntity
  8
0
100
AcDbLine
 62
7
  6
CONTINUOUS
 10
146.1223057611
 20
86.495095034
 11
145.3202228649
 21
86.495095034
  0
LINE
  5
343
100
AcDbEntity
  8
0
100
AcDbLine
 62
7
  6
CONTINUOUS
 10
138.903555925
 20
86.5504808265
 11
137.299389313
 21
86.5504808265
  0
LINE
  5
344
100
AcDbEntity
  8
0
100
AcDbLine
 62
7
  6
CONTINUOUS
 10
140.0634065333
 20
86.575267285
 11
140.6223060889
 21
86.575267285
  0
LINE
  5
345
100
AcDbEntity
  8
0
100
AcDbLine
 62
7
  6
CONTINUOUS
 10
147.7264728649
 20
86.7202050808
 11
147.0389728649
 21
86.7202050808
  0
LINE
  5
346
100
AcDbEntity
  8
0
100
AcDbLine
 62
7
  6
CONTINUOUS
 10
145.3202228649
 20
86.9214546125
 11
145.893139313
 21
86.9214546125
  0
LINE
  5
347
100
AcDbEntity
  8
0
100
AcDbLine
 62
7
  6
CONTINUOUS
 10
147.7264728649
 20
87.0150120296
 11
147.0389728649
 21
87.0150120296
  0
LINE
  5
348
100
AcDbEntity
  8
0
100
AcDbLine
 62
7
  6
CONTINUOUS
 10
153.283764313
 20
87.3407242588
 11
152.940014313
 21
87.3407242588
  0
LINE
  5
349
100
AcDbEntity
  8
0
100
AcDbLine
 62
7
  6
CONTINUOUS
 10
152.940014313
 20
87.6261930289
 11
153.283764313
 21
87.6261930289
  0
LINE
  5
34A
100
AcDbEntity
  8
0
100
AcDbLine
 62
7
  6
CONTINUOUS
 10
149.2160564167
 20
87.7841122162
 11
145.893139313
 21
87.7841122162
  0
LINE
  5
34B
100
AcDbEntity
  8
0
100
AcDbLine
 62
7
  6
CONTINUOUS
 10
145.893139313
 20
87.9600165258
 11
149.2160564167
 21
87.9600165258
  0
LINE
  5
34C
100
AcDbEntity
  8
0
100
AcDbLine
 62
7
  6
CONTINUOUS
 10
153.283764313
 20
88.1306646751
 11
152.940014313
 21
88.1306646751
  0
LINE
  5
34D
100
AcDbEntity
  8
0
100
AcDbLine
 62
7
  6
CONTINUOUS
 10
149.2160564167
 20
88.1306646751
 11
145.3202228649
 21
88.1306646751
  0
LINE
  5
34E
100
AcDbEntity
  8
0
100
AcDbLine
 62
7
  6
CONTINUOUS
 10
143.2577228649
 20
88.1306646751
 11
142.570222537
 21
88.1306646751
  0
LINE
  5
34F
100
AcDbEntity
  8
0
100
AcDbLine
 62
7
  6
CONTINUOUS
 10
148.2221552004
 20
93.6075
 11
147.5306659211
 21
93.6075
  0
LINE
  5
350
100
AcDbEntity
  8
0
100
AcDbLine
 62
7
  6
CONTINUOUS
 10
148.0838573445
 20
94.42
 11
147.6689637769
 21
94.42
  0
LINE
  5
351
100
AcDbEntity
  8
0
100
AcDbLine
 62
7
  6
CONTINUOUS
 10
152.596264313
 20
87.8198930194
 11
152.940014313
 21
87.6261930289
  0
LINE
  5
352
100
AcDbEntity
  8
0
100
AcDbLine
 62
7
  6
CONTINUOUS
 10
137.299389313
 20
86.2794821301
 11
137.299389313
 21
86.5504808265
  0
LINE
  5
353
100
AcDbEntity
  8
0
100
AcDbLine
 62
7
  6
CONTINUOUS
 10
146.839176545
 20
114.4616667312
 11
152.509389313
 21
116.3575
  0
LINE
  5
354
100
AcDbEntity
  8
0
100
AcDbLine
 62
7
  6
CONTINUOUS
 10
146.009389313
 20
115.0033332688
 11
152.509389313
 21
117.17
  0
LINE
  5
355
100
AcDbEntity
  8
BEZUGSACHSEN
100
AcDbLine
 62
7
  6
CONTINUOUS
 10
105.869388613
 20
97.03
 11
182.869390013
 21
97.03
  0
LINE
  5
356
100
AcDbEntity
  8
0
100
AcDbLine
 62
7
  6
CONTINUOUS
 10
147.5306659211
 20
93.6075
 11
146.9774744008
 21
93.8783338499
  0
LINE
  5
357
100
AcDbEntity
  8
0
100
AcDbLine
 62
7
  6
CONTINUOUS
 10
147.6689637769
 20
94.42
 11
147.2540702094
 21
94.6908338499
  0
LINE
  5
358
100
AcDbEntity
  8
0
100
AcDbLine
 62
7
  6
CONTINUOUS
 10
146.9774744008
 20
93.8783338499
 11
146.424282929
 21
94.42
  0
LINE
  5
359
100
AcDbEntity
  8
0
100
AcDbLine
 62
7
  6
CONTINUOUS
 10
148.7674227441
 20
86.8099835111
 11
148.8723064167
 21
86.6741779302
  0
LINE
  5
35A
100
AcDbEntity
  8
0
100
AcDbLine
 62
7
  6
CONTINUOUS
 10
138.903555925
 20
86.2794821301
 11
138.903555925
 21
86.5504808265
  0
LINE
  5
35B
100
AcDbEntity
  8
0
100
AcDbLine
 62
7
  6
CONTINUOUS
 10
139.8202227009
 20
86.1239885003
 11
139.8202227009
 21
86.4403027472
  0
LINE
  5
35C
100
AcDbEntity
  8
0
100
AcDbLine
 62
7
  6
CONTINUOUS
 10
140.6223060889
 20
86.4403027472
 11
140.6223060889
 21
86.8719992899
  0
LINE
  5
35D
100
AcDbEntity
  8
0
100
AcDbLine
 62
7
  6
CONTINUOUS
 10
147.2540702094
 20
94.6908338499
 11
146.9774744008
 21
95.0970838499
  0
LINE
  5
35E
100
AcDbEntity
  8
0
100
AcDbLine
 62
7
  6
CONTINUOUS
 10
146.424282929
 20
94.42
 11
146.1476871809
 21
94.9616661501
  0
LINE
  5
35F
100
AcDbEntity
  8
0
100
AcDbLine
 62
7
  6
CONTINUOUS
 10
142.570222537
 20
85.4687296101
 11
142.570222537
 21
87.811650558
  0
LINE
  5
360
100
AcDbEntity
  8
0
100
AcDbLine
 62
7
  6
CONTINUOUS
 10
143.2577228649
 20
85.4687296101
 11
143.2577228649
 21
88.1306646751
  0
LINE
  5
361
100
AcDbEntity
  8
0
100
AcDbLine
 62
7
  6
CONTINUOUS
 10
144.4035557611
 20
86.1239885003
 11
144.4035557611
 21
86.4403027472
  0
LINE
  5
362
100
AcDbEntity
  8
0
100
AcDbLine
 62
7
  6
CONTINUOUS
 10
146.9774744008
 20
95.0970838499
 11
146.839176545
 21
95.63875
  0
LINE
  5
363
100
AcDbEntity
  8
0
100
AcDbLine
 62
7
  6
CONTINUOUS
 10
146.1476871809
 20
94.9616661501
 11
146.009389313
 21
95.63875
  0
LINE
  5
364
100
AcDbEntity
  8
0
100
AcDbLine
 62
7
  6
CONTINUOUS
 10
145.3202228649
 20
86.495095034
 11
145.3202228649
 21
88.1306646751
  0
LINE
  5
365
100
AcDbEntity
  8
0
100
AcDbLine
 62
7
  6
CONTINUOUS
 10
145.549389313
 20
85.8289624705
 11
145.549389313
 21
86.0232823359
  0
LINE
  5
366
100
AcDbEntity
  8
0
100
AcDbLine
 62
7
  6
CONTINUOUS
 10
145.893139313
 20
85.6441051091
 11
145.893139313
 21
86.0232823359
  0
LINE
  5
367
100
AcDbEntity
  8
0
100
AcDbLine
 62
7
  6
CONTINUOUS
 10
145.893139313
 20
86.7779710222
 11
145.893139313
 21
87.9600165258
  0
LINE
  5
368
100
AcDbEntity
  8
0
100
AcDbLine
 62
7
  6
CONTINUOUS
 10
146.009389313
 20
95.63875
 11
146.009389313
 21
96.7220838499
  0
LINE
  5
369
100
AcDbEntity
  8
0
100
AcDbLine
 62
7
  6
CONTINUOUS
 10
146.009389313
 20
113.92
 11
146.009389313
 21
115.0033332688
  0
LINE
  5
36A
100
AcDbEntity
  8
0
100
AcDbLine
 62
7
  6
CONTINUOUS
 10
146.1223057611
 20
86.495095034
 11
146.1223057611
 21
86.8481184638
  0
LINE
  5
36B
100
AcDbEntity
  8
0
100
AcDbLine
 62
7
  6
CONTINUOUS
 10
146.4660557611
 20
85.5116829652
 11
146.4660557611
 21
85.7663077934
  0
LINE
  5
36C
100
AcDbEntity
  8
0
100
AcDbLine
 62
7
  6
CONTINUOUS
 10
146.580639313
 20
86.6630352091
 11
146.580639313
 21
86.9668401432
  0
LINE
  5
36D
100
AcDbEntity
  8
0
100
AcDbLine
 62
7
  6
CONTINUOUS
 10
146.839176545
 20
95.63875
 11
146.839176545
 21
96.7220838499
  0
LINE
  5
36E
100
AcDbEntity
  8
0
100
AcDbLine
 62
7
  6
CONTINUOUS
 10
147.0389728649
 20
85.4687296101
 11
147.0389728649
 21
85.6894315366
  0
LINE
  5
36F
100
AcDbEntity
  8
0
100
AcDbLine
 62
7
  6
CONTINUOUS
 10
147.0389728649
 20
86.7202050808
 11
147.0389728649
 21
87.0150120296
  0
LINE
  5
370
100
AcDbEntity
  8
0
100
AcDbLine
 62
7
  6
CONTINUOUS
 10
147.7264728649
 20
85.4687296101
 11
147.7264728649
 21
85.6894315366
  0
LINE
  5
371
100
AcDbEntity
  8
0
100
AcDbLine
 62
7
  6
CONTINUOUS
 10
147.7264728649
 20
86.7202050808
 11
147.7264728649
 21
87.0150120296
  0
LINE
  5
372
100
AcDbEntity
  8
0
100
AcDbLine
 62
7
  6
CONTINUOUS
 10
146.009389313
 20
96.7220838499
 11
146.0722829185
 21
97.03
  0
LINE
  5
373
100
AcDbEntity
  8
0
100
AcDbLine
 62
7
  6
CONTINUOUS
 10
151.541304322
 20
96.8575
 11
151.4238575275
 21
97.03
  0
LINE
  5
374
100
AcDbEntity
  8
0
100
AcDbLine
 62
7
  6
CONTINUOUS
 10
152.3710914571
 20
96.9929161501
 11
152.3521550615
 21
97.03
  0
LINE
  5
375
100
AcDbEntity
  8
0
100
AcDbLine
 62
7
  6
CONTINUOUS
 10
148.1848057611
 20
86.6630352091
 11
148.1848057611
 21
86.9668401569
  0
LINE
  5
376
100
AcDbEntity
  8
0
100
AcDbLine
 62
7
  6
CONTINUOUS
 10
148.299389313
 20
85.5116829652
 11
148.299389313
 21
85.7663077341
  0
LINE
  5
377
100
AcDbEntity
  8
0
100
AcDbLine
 62
7
  6
CONTINUOUS
 10
148.5285564167
 20
86.5504808265
 11
148.5285564167
 21
86.8834945871
  0
LINE
  5
378
100
AcDbEntity
  8
0
100
AcDbLine
 62
7
  6
CONTINUOUS
 10
148.7577222092
 20
86.3861034665
 11
148.7577222092
 21
86.8129442986
  0
LINE
  5
379
100
AcDbEntity
  8
0
100
AcDbLine
 62
7
  6
CONTINUOUS
 10
148.8723064167
 20
85.6441051091
 11
148.8723064167
 21
86.080714007
  0
LINE
  5
37A
100
AcDbEntity
  8
0
100
AcDbLine
 62
7
  6
CONTINUOUS
 10
148.8723064167
 20
86.1239885736
 11
148.8723064167
 21
86.6741779302
  0
LINE
  5
37B
100
AcDbEntity
  8
0
100
AcDbLine
 62
7
  6
CONTINUOUS
 10
148.9136446733
 20
95.63875
 11
148.9136446733
 21
96.45125
  0
LINE
  5
37C
100
AcDbEntity
  8
0
100
AcDbLine
 62
7
  6
CONTINUOUS
 10
149.2160564167
 20
85.8289620512
 11
149.2160564167
 21
86.2785353147
  0
LINE
  5
37D
100
AcDbEntity
  8
0
100
AcDbLine
 62
7
  6
CONTINUOUS
 10
149.2160564167
 20
87.7841122162
 11
149.2160564167
 21
88.1306646751
  0
LINE
  5
37E
100
AcDbEntity
  8
0
100
AcDbLine
 62
7
  6
CONTINUOUS
 10
149.4452222092
 20
86.0733399172
 11
149.4452222092
 21
86.2794805864
  0
LINE
  5
37F
100
AcDbEntity
  8
0
100
AcDbLine
 62
7
  6
CONTINUOUS
 10
149.7434318085
 20
95.63875
 11
149.7434318085
 21
96.45125
  0
LINE
  5
380
100
AcDbEntity
  8
0
100
AcDbLine
 62
7
  6
CONTINUOUS
 10
150.9881128986
 20
94.01375
 11
150.9881128986
 21
94.82625
  0
LINE
  5
381
100
AcDbEntity
  8
0
100
AcDbLine
 62
7
  6
CONTINUOUS
 10
146.839176545
 20
96.7220838499
 11
146.9177934999
 21
97.03
  0
LINE
  5
382
100
AcDbEntity
  8
0
100
AcDbLine
 62
7
  6
CONTINUOUS
 10
148.9136446733
 20
96.45125
 11
149.0519425292
 21
96.9929161501
  0
LINE
  5
383
100
AcDbEntity
  8
0
100
AcDbLine
 62
7
  6
CONTINUOUS
 10
148.7753468175
 20
95.0970838499
 11
148.9136446733
 21
95.63875
  0
LINE
  5
384
100
AcDbEntity
  8
0
100
AcDbLine
 62
7
  6
CONTINUOUS
 10
151.6796021779
 20
96.45125
 11
151.541304322
 21
96.8575
  0
LINE
  5
385
100
AcDbEntity
  8
0
100
AcDbLine
 62
7
  6
CONTINUOUS
 10
152.509389313
 20
96.45125
 11
152.3710914571
 21
96.9929161501
  0
LINE
  5
386
100
AcDbEntity
  8
0
100
AcDbLine
 62
7
  6
CONTINUOUS
 10
151.6796021779
 20
95.63875
 11
151.6796021779
 21
96.45125
  0
LINE
  5
387
100
AcDbEntity
  8
0
100
AcDbLine
 62
7
  6
CONTINUOUS
 10
152.509389313
 20
95.7741661501
 11
152.509389313
 21
96.45125
  0
LINE
  5
388
100
AcDbEntity
  8
0
100
AcDbLine
 62
7
  6
CONTINUOUS
 10
152.509389313
 20
116.3575
 11
152.509389313
 21
117.17
  0
LINE
  5
389
100
AcDbEntity
  8
0
100
AcDbLine
 62
7
  6
CONTINUOUS
 10
152.596264313
 20
87.5946016652
 11
152.596264313
 21
87.8578802016
  0
LINE
  5
38A
100
AcDbEntity
  8
0
100
AcDbLine
 62
7
  6
CONTINUOUS
 10
152.940014313
 20
87.3407242588
 11
152.940014313
 21
87.6261930289
  0
LINE
  5
38B
100
AcDbEntity
  8
0
100
AcDbLine
 62
7
  6
CONTINUOUS
 10
153.283764313
 20
87.3407242588
 11
153.283764313
 21
87.6261930289
  0
LINE
  5
38C
100
AcDbEntity
  8
0
100
AcDbLine
 62
7
  6
CONTINUOUS
 10
153.627514313
 20
87.5946016652
 11
153.627514313
 21
87.8578802016
  0
LINE
  5
38D
100
AcDbEntity
  8
0
100
AcDbLine
 62
7
  6
CONTINUOUS
 10
149.6051339526
 20
94.9616661501
 11
149.7434318085
 21
95.63875
  0
LINE
  5
38E
100
AcDbEntity
  8
0
100
AcDbLine
 62
7
  6
CONTINUOUS
 10
152.3710914571
 20
95.0970838499
 11
152.509389313
 21
95.7741661501
  0
LINE
  5
38F
100
AcDbEntity
  8
0
100
AcDbLine
 62
7
  6
CONTINUOUS
 10
149.7434318085
 20
96.45125
 11
149.8817296643
 21
96.8575
  0
LINE
  5
390
100
AcDbEntity
  8
0
100
AcDbLine
 62
7
  6
CONTINUOUS
 10
151.541304322
 20
95.2325
 11
151.6796021779
 21
95.63875
  0
LINE
  5
391
100
AcDbEntity
  8
0
100
AcDbLine
 62
7
  6
CONTINUOUS
 10
149.0519425292
 20
96.9929161501
 11
149.0708789248
 21
97.03
  0
LINE
  5
392
100
AcDbEntity
  8
0
100
AcDbLine
 62
7
  6
CONTINUOUS
 10
149.3285382409
 20
94.42
 11
149.6051339526
 21
94.9616661501
  0
LINE
  5
393
100
AcDbEntity
  8
0
100
AcDbLine
 62
7
  6
CONTINUOUS
 10
149.8817296643
 20
96.8575
 11
149.9991764588
 21
97.03
  0
LINE
  5
394
100
AcDbEntity
  8
0
100
AcDbLine
 62
7
  6
CONTINUOUS
 10
148.4987511058
 20
94.6908338499
 11
148.7753468175
 21
95.0970838499
  0
LINE
  5
395
100
AcDbEntity
  8
BEZUGSACHSEN
100
AcDbLine
 62
7
  6
CONTINUOUS
 10
145.5375809279
 20
113.03
 11
105.869388613
 21
113.03
  0
LINE
  5
396
100
AcDbEntity
  8
RUNDUNGEN
100
AcDbLine
 62
7
  6
CONTINUOUS
 10
145.5375809279
 20
113.03
 11
182.869390013
 21
113.03
  0
LINE
  5
397
100
AcDbEntity
  8
0
100
AcDbLine
 62
7
  6
CONTINUOUS
 10
162.369389313
 20
113.33
 11
161.369389313
 21
113.33
  0
LINE
  5
398
100
AcDbEntity
  8
0
100
AcDbLine
 62
7
  6
CONTINUOUS
 10
160.969389313
 20
113.33
 11
156.489389313
 21
113.33
  0
LINE
  5
399
100
AcDbEntity
  8
0
100
AcDbLine
 62
7
  6
CONTINUOUS
 10
104.709915463
 20
113.53
 11
110.749389313
 21
113.53
  0
LINE
  5
39A
100
AcDbEntity
  8
0
100
AcDbLine
 62
7
  6
CONTINUOUS
 10
148.6793894721
 20
113.03
 11
146.009389313
 21
113.92
  0
LINE
  5
39B
100
AcDbEntity
  8
0
100
AcDbLine
 62
7
  6
CONTINUOUS
 10
151.1211221742
 20
113.03
 11
146.839176545
 21
114.4616667312
  0
LINE
  5
39C
100
AcDbEntity
  8
0
100
AcDbLine
 62
7
  6
CONTINUOUS
 10
156.489389313
 20
113.03
 11
156.489389313
 21
113.33
  0
LINE
  5
39D
100
AcDbEntity
  8
0
100
AcDbLine
 62
7
  6
CONTINUOUS
 10
151.9561978896
 20
94.5554161501
 11
152.3710914571
 21
95.0970838499
  0
LINE
  5
39E
100
AcDbEntity
  8
0
100
AcDbLine
 62
7
  6
CONTINUOUS
 10
148.7753468175
 20
93.8783338499
 11
149.3285382409
 21
94.42
  0
LINE
  5
39F
100
AcDbEntity
  8
0
100
AcDbLine
 62
7
  6
CONTINUOUS
 10
151.2647086103
 20
94.9616661501
 11
151.541304322
 21
95.2325
  0
LINE
  5
3A0
100
AcDbEntity
  8
0
100
AcDbLine
 62
7
  6
CONTINUOUS
 10
151.4030064661
 20
94.1491661501
 11
151.9561978896
 21
94.5554161501
  0
LINE
  5
3A1
100
AcDbEntity
  8
0
100
AcDbLine
 62
7
  6
CONTINUOUS
 10
148.0838573445
 20
94.42
 11
148.4987511058
 21
94.6908338499
  0
LINE
  5
3A2
100
AcDbEntity
  8
0
100
AcDbLine
 62
7
  6
CONTINUOUS
 10
148.2221552004
 20
93.6075
 11
148.7753468175
 21
93.8783338499
  0
LINE
  5
3A3
100
AcDbEntity
  8
0
100
AcDbLine
 62
7
  6
CONTINUOUS
 10
150.9881128986
 20
94.82625
 11
151.2647086103
 21
94.9616661501
  0
LINE
  5
3A4
100
AcDbEntity
  8
0
100
AcDbLine
 62
7
  6
CONTINUOUS
 10
150.9881128986
 20
94.01375
 11
151.4030064661
 21
94.1491661501
  0
LINE
  5
3A5
100
AcDbEntity
  8
0
100
AcDbLine
 62
7
  6
CONTINUOUS
 10
149.2160564167
 20
86.2785353147
 11
149.3355009546
 21
86.4074194932
  0
LINE
  5
3A6
100
AcDbEntity
  8
0
100
AcDbLine
 62
7
  6
CONTINUOUS
 10
140.6223060889
 20
86.8719992899
 11
142.570222537
 21
87.811650558
  0
LINE
  5
3A7
100
AcDbEntity
  8
0
100
AcDbLine
 62
7
  6
CONTINUOUS
 10
160.969389313
 20
113.03
 11
160.969389313
 21
113.33
  0
LINE
  5
3A8
100
AcDbEntity
  8
0
100
AcDbLine
 62
7
  6
CONTINUOUS
 10
161.369389313
 20
113.03
 11
161.369389313
 21
113.33
  0
LINE
  5
3A9
100
AcDbEntity
  8
0
100
AcDbLine
 62
7
  6
CONTINUOUS
 10
162.369389313
 20
113.03
 11
162.369389313
 21
113.33
  0
LINE
  5
3AA
100
AcDbEntity
  8
0
100
AcDbLine
 62
7
  6
CONTINUOUS
 10
148.8723064167
 20
86.080714007
 11
149.2160564167
 21
86.2785353147
  0
LINE
  5
3AB
100
AcDbEntity
  8
0
100
AcDbLine
 62
7
  6
CONTINUOUS
 10
153.283764313
 20
87.6261930289
 11
153.627514313
 21
87.8198930194
  0
LINE
  5
3AC
100
AcDbEntity
  8
0
100
AcDbLine
 62
7
  6
CONTINUOUS
 10
165.369389313
 20
126.03
 11
123.369389313
 21
126.03
  0
LINE
  5
3AD
100
AcDbEntity
  8
0
100
AcDbLine
 62
7
  6
CONTINUOUS
 10
167.369389313
 20
124.5048072211
 11
167.369389313
 21
113.03
  0
LINE
  5
3AE
100
AcDbEntity
  8
0
100
AcDbLine
 62
7
  6
CONTINUOUS
 10
167.369389313
 20
97.03
 11
167.369389313
 21
86.3186526928
  0
LINE
  5
3AF
100
AcDbEntity
  8
KONSTRUKTIONSELEMENTE
100
AcDbLine
 62
7
  6
CONTINUOUS
 10
167.369389313
 20
86.3186526928
 11
167.369389313
 21
85.5551927789
  0
LINE
  5
3B0
100
AcDbEntity
  8
BEZUGSACHSEN
100
AcDbLine
 62
7
  6
CONTINUOUS
 10
187.869390013
 20
102.03
 11
187.869390013
 21
108.03
  0
ARC
  5
3B1
100
AcDbEntity
  8
0
100
AcDbCircle
 62
7
  6
CONTINUOUS
 10
53.5063348148
 20
38.0202318501
 40
175.4400577234
100
AcDbArc
 50
57.9594638207
 51
58.0918049498
  0
ARC
  5
3B2
100
AcDbEntity
  8
0
100
AcDbCircle
 62
7
  6
CONTINUOUS
 10
47.5746014677
 20
134.1326612406
 40
111.9106026179
100
AcDbArc
 50
28.1619614869
 51
28.4095577819
  0
ARC
  5
3B3
100
AcDbEntity
  8
0
100
AcDbCircle
 62
7
  6
CONTINUOUS
 10
46.887102717
 20
134.1326619129
 40
111.9106011993
100
AcDbArc
 50
28.1619614853
 51
28.4095577834
  0
ARC
  5
3B4
100
AcDbEntity
  8
0
100
AcDbCircle
 62
7
  6
CONTINUOUS
 10
128.1228305583
 20
129.3779845302
 40
71.050095498
100
AcDbArc
 50
89.6309501199
 51
90.363699388
  0
ARC
  5
3B5
100
AcDbEntity
  8
BEZUGSACHSEN
100
AcDbCircle
 62
7
  6
CONTINUOUS
 10
144.369389313
 20
225.9464860502
 40
25.5000007
100
AcDbArc
 50
0.0
 51
180.0
  0
ARC
  5
3B6
100
AcDbEntity
  8
0
100
AcDbCircle
 62
7
  6
CONTINUOUS
 10
158.8407588196
 20
223.3806088528
 40
22.9616400525
100
AcDbArc
 50
269.4988194832
 51
269.9965826941
  0
ARC
  5
3B7
100
AcDbEntity
  8
0
100
AcDbCircle
 62
7
  6
CONTINUOUS
 10
158.8400216511
 20
222.7453642177
 40
22.4194357703
100
AcDbArc
 50
267.5058200382
 51
269.9983839777
  0
ARC
  5
3B8
100
AcDbEntity
  8
BEZUGSACHSEN
100
AcDbCircle
 62
7
  6
CONTINUOUS
 10
148.569390013
 20
225.9464860502
 40
21.3
100
AcDbArc
 50
297.7763190034
 51
360.0
  0
ARC
  5
3B9
100
AcDbEntity
  8
BEZUGSACHSEN
100
AcDbCircle
 62
7
  6
CONTINUOUS
 10
140.169388613
 20
225.9464860502
 40
21.3
100
AcDbArc
 50
180.0
 51
242.2236809966
  0
ARC
  5
3BA
100
AcDbEntity
  8
BEZUGSACHSEN
100
AcDbCircle
 62
7
  6
CONTINUOUS
 10
144.369389313
 20
261.3938549502
 40
8.0526318
100
AcDbArc
 50
67.5
 51
112.5
  0
ARC
  5
3BB
100
AcDbEntity
  8
BEZUGSACHSEN
100
AcDbCircle
 62
7
  6
CONTINUOUS
 10
108.922020413
 20
225.9464860502
 40
8.0526318
100
AcDbArc
 50
157.5
 51
180.0
  0
ARC
  5
3BC
100
AcDbEntity
  8
BEZUGSACHSEN
100
AcDbCircle
 62
7
  6
CONTINUOUS
 10
119.3043143886
 20
251.0115609747
 40
8.0526318
100
AcDbArc
 50
112.5
 51
157.5
  0
ARC
  5
3BD
100
AcDbEntity
  8
BEZUGSACHSEN
100
AcDbCircle
 62
7
  6
CONTINUOUS
 10
126.869388613
 20
194.4464860502
 40
8.0
100
AcDbArc
 50
180.0
 51
226.5649838881
  0
ARC
  5
3BE
100
AcDbEntity
  8
BEZUGSACHSEN
100
AcDbCircle
 62
7
  6
CONTINUOUS
 10
105.869388613
 20
174.9464860502
 40
5.0
100
AcDbArc
 50
180.0
 51
270.0
  0
ARC
  5
3BF
100
AcDbEntity
  8
BEZUGSACHSEN
100
AcDbCircle
 62
7
  6
CONTINUOUS
 10
122.369388613
 20
197.9464860502
 40
3.5
100
AcDbArc
 50
90.0
 51
180.0
  0
ARC
  5
3C0
100
AcDbEntity
  8
RUNDUNGEN
100
AcDbCircle
 62
7
  6
CONTINUOUS
 10
159.8937001465
 20
204.4464860502
 40
3.0
100
AcDbArc
 50
119.1750491172
 51
270.0
  0
ARC
  5
3C1
100
AcDbEntity
  8
BEZUGSACHSEN
100
AcDbCircle
 62
7
  6
CONTINUOUS
 10
159.8937001465
 20
204.4464860502
 40
3.0
100
AcDbArc
 50
117.7763190034
 51
270.0
  0
ARC
  5
3C2
100
AcDbEntity
  8
BEZUGSACHSEN
100
AcDbCircle
 62
7
  6
CONTINUOUS
 10
128.8450784795
 20
204.4464860502
 40
3.0
100
AcDbArc
 50
270.0
 51
62.2236809966
  0
ARC
  5
3C3
100
AcDbEntity
  8
0
100
AcDbCircle
 62
7
  6
CONTINUOUS
 10
123.369389313
 20
197.4464860502
 40
2.0
100
AcDbArc
 50
90.0
 51
180.0
  0
ARC
  5
3C4
100
AcDbEntity
  8
0
100
AcDbCircle
 62
7
  6
CONTINUOUS
 10
130.1550817872
 20
200.0980392982
 40
0.0677974505
100
AcDbArc
 50
0.0006353175
 51
13.8094333981
  0
ARC
  5
3C5
100
AcDbEntity
  8
0
100
AcDbCircle
 62
7
  6
CONTINUOUS
 10
241.2591886597
 20
38.0198229258
 40
175.4404459505
100
AcDbArc
 50
121.9081460159
 51
122.0404870338
  0
ARC
  5
3C6
100
AcDbEntity
  8
0
100
AcDbCircle
 62
7
  6
CONTINUOUS
 10
275.8988155704
 20
141.5405025475
 40
135.1150737101
100
AcDbArc
 50
160.0743638613
 51
160.2174318643
  0
ARC
  5
3C7
100
AcDbEntity
  8
0
100
AcDbCircle
 62
7
  6
CONTINUOUS
 10
262.4819817591
 20
138.4418789164
 40
123.2163424463
100
AcDbArc
 50
156.5466563428
 51
156.8158583738
  0
ARC
  5
3C8
100
AcDbEntity
  8
0
100
AcDbCircle
 62
7
  6
CONTINUOUS
 10
235.7198005132
 20
124.7140821639
 40
107.124687641
100
AcDbArc
 50
144.2705743654
 51
144.4810065479
  0
ARC
  5
3C9
100
AcDbEntity
  8
RUNDUNGEN
100
AcDbCircle
 62
7
  6
CONTINUOUS
 10
169.4344642374
 20
251.0115609747
 40
8.0526318
100
AcDbArc
 50
66.452326898
 51
67.5
  0
ARC
  5
3CA
100
AcDbEntity
  8
BEZUGSACHSEN
100
AcDbCircle
 62
7
  6
CONTINUOUS
 10
179.816758213
 20
225.9464860502
 40
8.0526318
100
AcDbArc
 50
0.0
 51
22.5
  0
ARC
  5
3CB
100
AcDbEntity
  8
BEZUGSACHSEN
100
AcDbCircle
 62
7
  6
CONTINUOUS
 10
169.4344642374
 20
251.0115609747
 40
8.0526318
100
AcDbArc
 50
22.5
 51
67.5
  0
ARC
  5
3CC
100
AcDbEntity
  8
BEZUGSACHSEN
100
AcDbCircle
 62
7
  6
CONTINUOUS
 10
161.869390013
 20
194.4464860502
 40
8.0
100
AcDbArc
 50
313.4350161119
 51
360.0
  0
ARC
  5
3CD
100
AcDbEntity
  8
BEZUGSACHSEN
100
AcDbCircle
 62
7
  6
CONTINUOUS
 10
182.869390013
 20
174.9464860502
 40
5.0
100
AcDbArc
 50
270.0
 51
360.0
  0
ARC
  5
3CE
100
AcDbEntity
  8
BEZUGSACHSEN
100
AcDbCircle
 62
7
  6
CONTINUOUS
 10
166.369390013
 20
197.9464860502
 40
3.5
100
AcDbArc
 50
1.3258896893
 51
90.0
  0
ARC
  5
3CF
100
AcDbEntity
  8
0
100
AcDbCircle
 62
7
  6
CONTINUOUS
 10
165.369389313
 20
197.4464860502
 40
2.0
100
AcDbArc
 50
0.0
 51
90.0
  0
ARC
  5
3D0
100
AcDbEntity
  8
0
100
AcDbCircle
 62
7
  6
CONTINUOUS
 10
262.4636862929
 20
178.4464860502
 40
22.0
100
AcDbArc
 50
58.7210909076
 51
68.6762002675
  0
ARC
  5
3D1
100
AcDbEntity
  8
0
100
AcDbCircle
 62
7
  6
CONTINUOUS
 10
262.4636862929
 20
178.4464860502
 40
22.0
100
AcDbArc
 50
112.7288840726
 51
123.4918374702
  0
ARC
  5
3D2
100
AcDbEntity
  8
0
100
AcDbCircle
 62
7
  6
CONTINUOUS
 10
262.4636862929
 20
178.4464860502
 40
21.0
100
AcDbArc
 50
113.8922597713
 51
170.0
  0
ARC
  5
3D3
100
AcDbEntity
  8
0
100
AcDbCircle
 62
7
  6
CONTINUOUS
 10
262.4636862929
 20
178.4464860502
 40
21.0
100
AcDbArc
 50
10.0
 51
67.5847921773
  0
ARC
  5
3D4
100
AcDbEntity
  8
0
100
AcDbCircle
 62
7
  6
CONTINUOUS
 10
262.4636862929
 20
178.7964860502
 40
9.5
100
AcDbArc
 50
189.7847565028
 51
350.2152434972
  0
ARC
  5
3D5
100
AcDbEntity
  8
RUNDUNGEN
100
AcDbCircle
 62
7
  6
CONTINUOUS
 10
262.4636862929
 20
178.4464860502
 40
9.0
100
AcDbArc
 50
152.7444578585
 51
170.0
  0
ARC
  5
3D6
100
AcDbEntity
  8
RUNDUNGEN
100
AcDbCircle
 62
7
  6
CONTINUOUS
 10
262.4636862929
 20
178.4464860502
 40
9.0
100
AcDbArc
 50
10.0
 51
27.2555422301
  0
ARC
  5
3D7
100
AcDbEntity
  8
0
100
AcDbCircle
 62
7
  6
CONTINUOUS
 10
262.4636862929
 20
178.7964860502
 40
8.9
100
AcDbArc
 50
164.4751375388
 51
15.5248624612
  0
ARC
  5
3D8
100
AcDbEntity
  8
BEZUGSACHSEN
100
AcDbCircle
 62
7
  6
CONTINUOUS
 10
262.4636862929
 20
177.9464860502
 40
8.0
100
AcDbArc
 50
180.0
 51
360.0
  0
ARC
  5
3D9
100
AcDbEntity
  8
BEZUGSACHSEN
100
AcDbCircle
 62
7
  6
CONTINUOUS
 10
265.4636862929
 20
264.4464867502
 40
5.0
100
AcDbArc
 50
0.0
 51
90.0
  0
ARC
  5
3DA
100
AcDbEntity
  8
BEZUGSACHSEN
100
AcDbCircle
 62
7
  6
CONTINUOUS
 10
259.4636862929
 20
264.4464867502
 40
5.0
100
AcDbArc
 50
90.0
 51
180.0
  0
ARC
  5
3DB
100
AcDbEntity
  8
0
100
AcDbCircle
 62
7
  6
CONTINUOUS
 10
133.7487265583
 20
139.4233390127
 40
55.5949688462
100
AcDbArc
 50
285.0501977628
 51
285.4173670409
  0
ARC
  5
3DC
100
AcDbEntity
  8
0
100
AcDbCircle
 62
7
  6
CONTINUOUS
 10
161.0166947827
 20
139.4231483474
 40
55.5947785584
100
AcDbArc
 50
254.5826049506
 51
254.9497748335
  0
ARC
  5
3DD
100
AcDbEntity
  8
0
100
AcDbCircle
 62
7
  6
CONTINUOUS
 10
139.9107074426
 20
99.716548841
 40
16.3441849534
100
AcDbArc
 50
301.8213932736
 51
302.7717935464
  0
ARC
  5
3DE
100
AcDbEntity
  8
0
100
AcDbCircle
 62
7
  6
CONTINUOUS
 10
154.1751149547
 20
95.4229929709
 40
12.4523432963
100
AcDbArc
 50
229.0126808113
 51
230.3952028633
  0
ARC
  5
3DF
100
AcDbEntity
  8
0
100
AcDbCircle
 62
7
  6
CONTINUOUS
 10
153.4876148689
 20
95.4229928697
 40
12.4523431637
100
AcDbArc
 50
229.012680804
 51
230.3952028707
  0
ARC
  5
3E0
100
AcDbEntity
  8
0
100
AcDbCircle
 62
7
  6
CONTINUOUS
 10
140.0248516108
 20
92.75594316
 40
11.0571370828
100
AcDbArc
 50
322.1663497401
 51
323.1451765814
  0
ARC
  5
3E1
100
AcDbEntity
  8
0
100
AcDbCircle
 62
7
  6
CONTINUOUS
 10
141.2965109831
 20
93.4851716047
 40
11.0152959381
100
AcDbArc
 50
315.9685949221
 51
317.7112528063
  0
ARC
  5
3E2
100
AcDbEntity
  8
BEZUGSACHSEN
100
AcDbCircle
 62
7
  6
CONTINUOUS
 10
182.869390013
 20
102.03
 40
5.0
100
AcDbArc
 50
270.0
 51
360.0
  0
ARC
  5
3E3
100
AcDbEntity
  8
RUNDUNGEN
100
AcDbCircle
 62
7
  6
CONTINUOUS
 10
182.869390013
 20
108.03
 40
5.0
100
AcDbArc
 50
0.0
 51
90.0
  0
ARC
  5
3E4
100
AcDbEntity
  8
BEZUGSACHSEN
100
AcDbCircle
 62
7
  6
CONTINUOUS
 10
105.869388613
 20
108.03
 40
5.0
100
AcDbArc
 50
90.0
 51
180.0
  0
ARC
  5
3E5
100
AcDbEntity
  8
BEZUGSACHSEN
100
AcDbCircle
 62
7
  6
CONTINUOUS
 10
105.869388613
 20
102.03
 40
5.0
100
AcDbArc
 50
180.0
 51
270.0
  0
SPLINE
  5
3E6
100
AcDbEntity
  8
0
100
AcDbSpline
 62
7
  6
CONTINUOUS
 70
0
 71
3
 72
9
 73
5
 74
0
 42
0.0000001
 43
0.0000001
 44
0.0000000001
 40
0.0
 40
0.0
 40
0.0
 40
0.0
 40
0.2265800131
 40
1.0
 40
1.0
 40
1.0
 40
1.0
 10
126.0228966572
 20
200.0980528359
 30
0.0
 10
126.02289848
 20
200.0934600167
 30
0.0
 10
126.0249763496
 20
200.0731571273
 30
0.0
 10
126.0350839613
 20
200.0544451057
 30
0.0
 10
126.0444270017
 20
200.0418559244
 30
0.0
  0
SPLINE
  5
3E7
100
AcDbEntity
  8
0
100
AcDbSpline
 62
7
  6
CONTINUOUS
 70
0
 71
3
 72
16
 73
12
 74
0
 42
0.0000001
 43
0.0000001
 44
0.0000000001
 40
0.0
 40
0.0
 40
0.0
 40
0.0
 40
0.0934306335
 40
0.1342961591
 40
0.1827158368
 40
0.2385805839
 40
0.3016054497
 40
0.4474279256
 40
0.6160041407
 40
0.8021437804
 40
1.0
 40
1.0
 40
1.0
 40
1.0
 10
125.1229273993
 20
200.0980950016
 30
0.0
 10
125.1230110839
 20
200.1797403381
 30
0.0
 10
125.2691338572
 20
200.2511882366
 30
0.0
 10
125.4146890791
 20
200.2924333469
 30
0.0
 10
125.5407070715
 20
200.3194773473
 30
0.0
 10
125.6845780135
 20
200.3419295035
 30
0.0
 10
125.9146045895
 20
200.3690796385
 30
0.0
 10
126.2435179264
 20
200.3931558191
 30
0.0
 10
126.6806237955
 20
200.4113429575
 30
0.0
 10
127.1633806227
 20
200.4220336274
 30
0.0
 10
127.4989299743
 20
200.425536331
 30
0.0
 10
127.6718252149
 20
200.4266485883
 30
0.0
  0
SPLINE
  5
3E8
100
AcDbEntity
  8
0
100
AcDbSpline
 62
7
  6
CONTINUOUS
 70
0
 71
3
 72
16
 73
12
 74
0
 42
0.0000001
 43
0.0000001
 44
0.0000000001
 40
0.0
 40
0.0
 40
0.0
 40
0.0
 40
0.1979418195
 40
0.3841085012
 40
0.5526705235
 40
0.6984552959
 40
0.7614578257
 40
0.8173009332
 40
0.8657013027
 40
0.9065519376
 40
1.0
 40
1.0
 40
1.0
 40
1.0
 10
128.580470687
 20
200.426606162
 30
0.0
 10
128.7530131875
 20
200.425478472
 30
0.0
 10
129.0878311774
 20
200.4219462897
 30
0.0
 10
129.5694794271
 20
200.4112067251
 30
0.0
 10
130.0054796028
 20
200.3929710565
 30
0.0
 10
130.3335094513
 20
200.3688611304
 30
0.0
 10
130.5628856021
 20
200.3416964199
 30
0.0
 10
130.7063384494
 20
200.31924314
 30
0.0
 10
130.8319769431
 20
200.2922070854
 30
0.0
 10
130.9771555145
 20
200.2509773124
 30
0.0
 10
131.1227658771
 20
200.179553882
 30
0.0
 10
131.1228488335
 20
200.0980951059
 30
0.0
  0
SPLINE
  5
3E9
100
AcDbEntity
  8
0
100
AcDbSpline
 62
7
  6
CONTINUOUS
 70
0
 71
3
 72
9
 73
5
 74
0
 42
0.0000001
 43
0.0000001
 44
0.0000000001
 40
0.0
 40
0.0
 40
0.0
 40
0.0
 40
0.2078473434
 40
1.0
 40
1.0
 40
1.0
 40
1.0
 10
130.2013598771
 20
200.3952952814
 30
0.0
 10
130.1987657512
 20
200.3940649258
 30
0.0
 10
130.1861148471
 20
200.3885042821
 30
0.0
 10
130.1730175406
 20
200.3840260848
 30
0.0
 10
130.1625848879
 20
200.3807250754
 30
0.0
  0
SPLINE
  5
3EA
100
AcDbEntity
  8
0
100
AcDbSpline
 62
7
  6
CONTINUOUS
 70
0
 71
3
 72
9
 73
5
 74
0
 42
0.0000001
 43
0.0000001
 44
0.0000000001
 40
0.0
 40
0.0
 40
0.0
 40
0.0
 40
0.2922846884
 40
1.0
 40
1.0
 40
1.0
 40
1.0
 10
126.083146025
 20
200.3807393002
 30
0.0
 10
126.0793017737
 20
200.3819560077
 30
0.0
 10
126.066201305
 20
200.3862644538
 30
0.0
 10
126.0532405607
 20
200.3911101802
 30
0.0
 10
126.044419112
 20
200.3952938651
 30
0.0
  0
SPLINE
  5
3EB
100
AcDbEntity
  8
0
100
AcDbSpline
 62
7
  6
CONTINUOUS
 70
0
 71
3
 72
13
 73
9
 74
0
 42
0.0000001
 43
0.0000001
 44
0.0000000001
 40
0.0
 40
0.0
 40
0.0
 40
0.0
 40
0.1208825096
 40
0.2163948517
 40
0.3366756371
 40
0.4796727139
 40
0.6416068388
 40
1.0
 40
1.0
 40
1.0
 40
1.0
 10
157.489389313
 20
199.6405890037
 30
0.0
 10
157.489389313
 20
199.5878487496
 30
0.0
 10
157.568120845
 20
199.507348414
 30
0.0
 10
157.693337877
 20
199.4395853079
 30
0.0
 10
157.8411539279
 20
199.3824022556
 30
0.0
 10
158.0202397928
 20
199.3349337809
 30
0.0
 10
158.3055402361
 20
199.2838789201
 30
0.0
 10
158.5330247038
 20
199.2693100662
 30
0.0
 10
158.689389313
 20
199.2693100662
 30
0.0
  0
SPLINE
  5
3EC
100
AcDbEntity
  8
0
100
AcDbSpline
 62
7
  6
CONTINUOUS
 70
0
 71
3
 72
14
 73
10
 74
0
 42
0.0000001
 43
0.0000001
 44
0.0000000001
 40
0.0
 40
0.0
 40
0.0
 40
0.0
 40
0.0158555627
 40
0.063039058
 40
0.1415953093
 40
0.2515304946
 40
0.3927663725
 40
0.564906585
 40
1.0
 40
1.0
 40
1.0
 40
1.0
 10
157.6894394368
 20
200.4464187483
 30
0.0
 10
157.6894380593
 20
200.4460519936
 30
0.0
 10
157.6917575607
 20
200.4465574191
 30
0.0
 10
157.6941860994
 20
200.4456571831
 30
0.0
 10
157.7000998502
 20
200.4456336468
 30
0.0
 10
157.7075001922
 20
200.4449740452
 30
0.0
 10
157.7173542135
 20
200.4444246069
 30
0.0
 10
157.7345966346
 20
200.4433561799
 30
0.0
 10
157.7486378977
 20
200.4425728576
 30
0.0
 10
157.7586866908
 20
200.4420160382
 30
0.0
  0
SPLINE
  5
3ED
100
AcDbEntity
  8
0
100
AcDbSpline
 62
7
  6
CONTINUOUS
 70
0
 71
3
 72
13
 73
9
 74
0
 42
0.0000001
 43
0.0000001
 44
0.0000000001
 40
0.0
 40
0.0
 40
0.0
 40
0.0
 40
0.3840865351
 40
0.7004222264
 40
0.8219043215
 40
0.9138880911
 40
0.9738749076
 40
1.0
 40
1.0
 40
1.0
 40
1.0
 10
158.6399101712
 20
200.4198472427
 30
0.0
 10
158.5183131745
 20
200.4209036611
 30
0.0
 10
158.2965791196
 20
200.4245576032
 30
0.0
 10
158.0364816033
 20
200.4326224905
 30
0.0
 10
157.868873803
 20
200.4390861902
 30
0.0
 10
157.7823758685
 20
200.4428755303
 30
0.0
 10
157.7260430972
 20
200.4450308559
 30
0.0
 10
157.6988030211
 20
200.4464834332
 30
0.0
 10
157.690531834
 20
200.44647674
 30
0.0
  0
SPLINE
  5
3EE
100
AcDbEntity
  8
0
100
AcDbSpline
 62
7
  6
CONTINUOUS
 70
0
 71
3
 72
13
 73
9
 74
0
 42
0.0000001
 43
0.0000001
 44
0.0000000001
 40
0.0
 40
0.0
 40
0.0
 40
0.0
 40
0.3584023511
 40
0.5203386333
 40
0.6633354436
 40
0.7836130353
 40
0.879121473
 40
1.0
 40
1.0
 40
1.0
 40
1.0
 10
160.169389313
 20
199.2693100662
 30
0.0
 10
160.325757962
 20
199.2693100662
 30
0.0
 10
160.5532474724
 20
199.283879744
 30
0.0
 10
160.8385524698
 20
199.3349369426
 30
0.0
 10
161.017637577
 20
199.3824062909
 30
0.0
 10
161.1654501043
 20
199.4395894256
 30
0.0
 10
161.2906622828
 20
199.5073522557
 30
0.0
 10
161.369389313
 20
199.587850477
 30
0.0
 10
161.369389313
 20
199.6405890037
 30
0.0
  0
SPLINE
  5
3EF
100
AcDbEntity
  8
0
100
AcDbSpline
 62
7
  6
CONTINUOUS
 70
0
 71
3
 72
9
 73
5
 74
0
 42
0.0000001
 43
0.0000001
 44
0.0000000001
 40
0.0
 40
0.0
 40
0.0
 40
0.0
 40
0.2826878252
 40
1.0
 40
1.0
 40
1.0
 40
1.0
 10
130.2013489398
 20
200.0418559244
 30
0.0
 10
130.204758173
 20
200.0464496597
 30
0.0
 10
130.2159503362
 20
200.0632291413
 30
0.0
 10
130.2228707645
 20
200.083524193
 30
0.0
 10
130.2228792376
 20
200.0980400499
 30
0.0
  0
SPLINE
  5
3F0
100
AcDbEntity
  8
0
100
AcDbSpline
 62
7
  6
CONTINUOUS
 70
0
 71
3
 72
25
 73
21
 74
0
 42
0.0000001
 43
0.0000001
 44
0.0000000001
 40
0.0
 40
0.0
 40
0.0
 40
0.0
 40
0.0277382571
 40
0.0473610901
 40
0.0708417156
 40
0.0977039279
 40
0.1274256931
 40
0.1934245728
 40
0.2656478628
 40
0.3418424396
 40
0.499995496
 40
0.6581492528
 40
0.7343445262
 40
0.8065683577
 40
0.8725678412
 40
0.9022908166
 40
0.9291538364
 40
0.9526363816
 40
0.9722602691
 40
1.0
 40
1.0
 40
1.0
 40
1.0
 10
156.489389313
 20
198.47920928
 30
0.0
 10
156.489389313
 20
198.421297327
 30
0.0
 10
156.5556083887
 20
198.3299294525
 30
0.0
 10
156.6727097889
 20
198.2438977333
 30
0.0
 10
156.8012476578
 20
198.1720480599
 30
0.0
 10
156.9543025295
 20
198.1051015263
 30
0.0
 10
157.1953687048
 20
198.0184175885
 30
0.0
 10
157.5343971143
 20
197.9270727625
 30
0.0
 10
157.9743074191
 20
197.8425358635
 30
0.0
 10
158.6093800291
 20
197.7602650911
 30
0.0
 10
159.4293621655
 20
197.7206960995
 30
0.0
 10
160.2493460288
 20
197.7602605444
 30
0.0
 10
160.8844230473
 20
197.8425282898
 30
0.0
 10
161.3243379559
 20
197.9270621689
 30
0.0
 10
161.6633712123
 20
198.018407146
 30
0.0
 10
161.9044444157
 20
198.1050880067
 30
0.0
 10
162.0575070081
 20
198.17203697
 30
0.0
 10
162.1860545261
 20
198.2438862648
 30
0.0
 10
162.3031623657
 20
198.3299237886
 30
0.0
 10
162.369389313
 20
198.4212942501
 30
0.0
 10
162.369389313
 20
198.47920928
 30
0.0
  0
SPLINE
  5
3F1
100
AcDbEntity
  8
0
100
AcDbSpline
 62
7
  6
CONTINUOUS
 70
0
 71
3
 72
14
 73
10
 74
0
 42
0.0000001
 43
0.0000001
 44
0.0000000001
 40
0.0
 40
0.0
 40
0.0
 40
0.0
 40
0.021889268
 40
0.0770744974
 40
0.1642893807
 40
0.2818491403
 40
0.4272923341
 40
0.5978175314
 40
1.0
 40
1.0
 40
1.0
 40
1.0
 10
156.4899661953
 20
200.4464679847
 30
0.0
 10
156.5000217108
 20
200.4464793926
 30
0.0
 10
156.5352513676
 20
200.4419343975
 30
0.0
 10
156.6104074336
 20
200.4359056169
 30
0.0
 10
156.7292940378
 20
200.4241630164
 30
0.0
 10
156.8895473947
 20
200.4101157851
 30
0.0
 10
157.0880389276
 20
200.3937762137
 30
0.0
 10
157.4170768888
 20
200.369861621
 30
0.0
 10
157.6797941464
 20
200.3551957075
 30
0.0
 10
157.8643747753
 20
200.3471675619
 30
0.0
  0
SPLINE
  5
3F2
100
AcDbEntity
  8
0
100
AcDbSpline
 62
7
  6
CONTINUOUS
 70
0
 71
3
 72
9
 73
5
 74
0
 42
0.0000001
 43
0.0000001
 44
0.0000000001
 40
0.0
 40
0.0
 40
0.0
 40
0.0
 40
0.2085184441
 40
1.0
 40
1.0
 40
1.0
 40
1.0
 10
126.0438937629
 20
199.1349636662
 30
0.0
 10
126.04864328
 20
199.140768933
 30
0.0
 10
126.0740032541
 20
199.1665076441
 30
0.0
 10
126.1061962843
 20
199.184318551
 30
0.0
 10
126.1320208133
 20
199.1963040936
 30
0.0
  0
SPLINE
  5
3F3
100
AcDbEntity
  8
0
100
AcDbSpline
 62
7
  6
CONTINUOUS
 70
0
 71
3
 72
12
 73
8
 74
0
 42
0.0000001
 43
0.0000001
 44
0.0000000001
 40
0.0
 40
0.0
 40
0.0
 40
0.0
 40
0.0695891771
 40
0.1575481168
 40
0.3855635299
 40
0.6723822626
 40
1.0
 40
1.0
 40
1.0
 40
1.0
 10
126.1320208133
 20
199.1963040936
 30
0.0
 10
126.164766771
 20
199.2115019728
 30
0.0
 10
126.2423604407
 20
199.2382913515
 30
0.0
 10
126.4373132421
 20
199.2835892697
 30
0.0
 10
126.7482184045
 20
199.3226729994
 30
0.0
 10
127.1842686673
 20
199.3518558148
 30
0.0
 10
127.5029611886
 20
199.3616523045
 30
0.0
 10
127.6728879707
 20
199.3649470206
 30
0.0
  0
SPLINE
  5
3F4
100
AcDbEntity
  8
0
100
AcDbSpline
 62
7
  6
CONTINUOUS
 70
0
 71
3
 72
15
 73
11
 74
0
 42
0.0000001
 43
0.0000001
 44
0.0000000001
 40
0.0
 40
0.0
 40
0.0
 40
0.0
 40
0.0417044342
 40
0.0705954465
 40
0.1060053077
 40
0.1973416574
 40
0.315699788
 40
0.4589128218
 40
0.6235954096
 40
1.0
 40
1.0
 40
1.0
 40
1.0
 10
130.2209195519
 20
200.1142220984
 30
0.0
 10
130.2152921892
 20
200.1370880726
 30
0.0
 10
130.1856145312
 20
200.1692788154
 30
0.0
 10
130.1344994647
 20
200.1993094102
 30
0.0
 10
130.0531616779
 20
200.2338493407
 30
0.0
 10
129.9188861644
 20
200.2687415176
 30
0.0
 10
129.7222183376
 20
200.3016415006
 30
0.0
 10
129.4828407204
 20
200.3275634583
 30
0.0
 10
129.0973735152
 20
200.3548946591
 30
0.0
 10
128.7918871786
 20
200.3645513642
 30
0.0
 10
128.579389313
 20
200.3685455703
 30
0.0
  0
SPLINE
  5
3F5
100
AcDbEntity
  8
0
100
AcDbSpline
 62
7
  6
CONTINUOUS
 70
0
 71
3
 72
23
 73
19
 74
0
 42
0.0000001
 43
0.0000001
 44
0.0000000001
 40
0.0
 40
0.0
 40
0.0
 40
0.0
 40
0.0268967182
 40
0.0463244947
 40
0.0697318713
 40
0.1263226933
 40
0.1924950365
 40
0.2649427193
 40
0.3413749695
 40
0.4999988413
 40
0.6586229001
 40
0.7350553739
 40
0.8075032941
 40
0.8736759552
 40
0.9302671916
 40
0.9536749436
 40
0.9731029022
 40
1.0
 40
1.0
 40
1.0
 40
1.0
 10
162.369389313
 20
199.5251482469
 30
0.0
 10
162.369389313
 20
199.4692880002
 30
0.0
 10
162.3013432228
 20
199.3818531679
 30
0.0
 10
162.1848625488
 20
199.3008571227
 30
0.0
 10
162.0007347104
 20
199.2037337682
 30
0.0
 10
161.7146195805
 20
199.1011913032
 30
0.0
 10
161.3214034271
 20
199.0003110051
 30
0.0
 10
160.8816514172
 20
198.9206539702
 30
0.0
 10
160.2474764869
 20
198.8429561349
 30
0.0
 10
159.42939629
 20
198.8057389513
 30
0.0
 10
158.6113155898
 20
198.8429550732
 30
0.0
 10
157.9771391995
 20
198.9206521626
 30
0.0
 10
157.5373854991
 20
199.0003087155
 30
0.0
 10
157.1441670563
 20
199.1011886629
 30
0.0
 10
156.8580499752
 20
199.2037317821
 30
0.0
 10
156.6739191897
 20
199.3008542818
 30
0.0
 10
156.5574378152
 20
199.3818522963
 30
0.0
 10
156.489389313
 20
199.4692872119
 30
0.0
 10
156.489389313
 20
199.5251482469
 30
0.0
  0
SPLINE
  5
3F6
100
AcDbEntity
  8
0
100
AcDbSpline
 62
7
  6
CONTINUOUS
 70
0
 71
3
 72
12
 73
8
 74
0
 42
0.0000001
 43
0.0000001
 44
0.0000000001
 40
0.0
 40
0.0
 40
0.0
 40
0.0
 40
0.3280314109
 40
0.6149592783
 40
0.8428106438
 40
0.9306066441
 40
1.0
 40
1.0
 40
1.0
 40
1.0
 10
128.579389313
 20
199.364819961
 30
0.0
 10
128.7490165953
 20
199.361478581
 30
0.0
 10
129.0670164386
 20
199.3515974454
 30
0.0
 10
129.5019203497
 20
199.3222632062
 30
0.0
 10
129.8117523758
 20
199.2830445587
 30
0.0
 10
130.0057794518
 20
199.2376196672
 30
0.0
 10
130.0829003185
 20
199.2107687629
 30
0.0
 10
130.1153988915
 20
199.1955376129
 30
0.0
  0
SPLINE
  5
3F7
100
AcDbEntity
  8
0
100
AcDbSpline
 62
7
  6
CONTINUOUS
 70
0
 71
3
 72
9
 73
5
 74
0
 42
0.0000001
 43
0.0000001
 44
0.0000000001
 40
0.0
 40
0.0
 40
0.0
 40
0.0
 40
0.295184366
 40
1.0
 40
1.0
 40
1.0
 40
1.0
 10
130.1153988915
 20
199.1955376129
 30
0.0
 10
130.1248546874
 20
199.1911059523
 30
0.0
 10
130.1562561778
 20
199.1750901921
 30
0.0
 10
130.186199771
 20
199.1541753427
 30
0.0
 10
130.2019674464
 20
199.1348594639
 30
0.0
  0
SPLINE
  5
3F8
100
AcDbEntity
  8
0
100
AcDbSpline
 62
7
  6
CONTINUOUS
 70
0
 71
3
 72
15
 73
11
 74
0
 42
0.0000001
 43
0.0000001
 44
0.0000000001
 40
0.0
 40
0.0
 40
0.0
 40
0.0
 40
0.1995942115
 40
0.3858667057
 40
0.5534945732
 40
0.6979371425
 40
0.8155913654
 40
0.8636562603
 40
0.9043834756
 40
1.0
 40
1.0
 40
1.0
 40
1.0
 10
127.6728879707
 20
200.3686668124
 30
0.0
 10
127.5591895468
 20
200.3665632443
 30
0.0
 10
127.3394138988
 20
200.3608364093
 30
0.0
 10
127.0243337689
 20
200.3464002248
 30
0.0
 10
126.7412112558
 20
200.3257971865
 30
0.0
 10
126.4975355879
 20
200.2980407113
 30
0.0
 10
126.3240688575
 20
200.2678400817
 30
0.0
 10
126.2089787385
 20
200.2369428407
 30
0.0
 10
126.1142647875
 20
200.2041848384
 30
0.0
 10
126.0228750362
 20
200.1525299055
 30
0.0
 10
126.0228966572
 20
200.0980528359
 30
0.0
  0
SPLINE
  5
3F9
100
AcDbEntity
  8
0
100
AcDbSpline
 62
7
  6
CONTINUOUS
 70
0
 71
3
 72
17
 73
13
 74
0
 42
0.0000001
 43
0.0000001
 44
0.0000000001
 40
0.0
 40
0.0
 40
0.0
 40
0.0
 40
0.0305515993
 40
0.0668367754
 40
0.1086501408
 40
0.1557239173
 40
0.2643909339
 40
0.3900848917
 40
0.5298012192
 40
0.680339222
 40
0.8382828649
 40
1.0
 40
1.0
 40
1.0
 40
1.0
 10
254.4636862929
 20
197.5899781426
 30
0.0
 10
254.4636862929
 20
197.606882858
 30
0.0
 10
254.4650462458
 20
197.6438625928
 30
0.0
 10
254.4697055492
 20
197.7038062778
 30
0.0
 10
254.4768508233
 20
197.7727023312
 30
0.0
 10
254.4898250484
 20
197.8812415633
 30
0.0
 10
254.5101857084
 20
198.035629096
 30
0.0
 10
254.536370906
 20
198.240951678
 30
0.0
 10
254.5617418159
 20
198.4697176158
 30
0.0
 10
254.5828207106
 20
198.7168508116
 30
0.0
 10
254.5967497019
 20
198.9766937096
 30
0.0
 10
254.5999817363
 20
199.1535840939
 30
0.0
 10
254.5999817363
 20
199.2430649132
 30
0.0
  0
SPLINE
  5
3FA
100
AcDbEntity
  8
0
100
AcDbSpline
 62
7
  6
CONTINUOUS
 70
0
 71
3
 72
17
 73
13
 74
0
 42
0.0000001
 43
0.0000001
 44
0.0000000001
 40
0.0
 40
0.0
 40
0.0
 40
0.0
 40
0.038578561
 40
0.0815307129
 40
0.1286673586
 40
0.17976203
 40
0.2928074529
 40
0.4185025505
 40
0.5545437023
 40
0.6985180648
 40
0.8478898086
 40
1.0
 40
1.0
 40
1.0
 40
1.0
 10
254.4636862929
 20
185.5660495138
 30
0.0
 10
254.4636862929
 20
185.5911616642
 30
0.0
 10
254.4650178895
 20
185.6442339105
 30
0.0
 10
254.4698755737
 20
185.7278552915
 30
0.0
 10
254.4772843162
 20
185.819463179
 30
0.0
 10
254.4904250947
 20
185.9563643784
 30
0.0
 10
254.5109299671
 20
186.1439139252
 30
0.0
 10
254.5372578518
 20
186.3864478077
 30
0.0
 10
254.5624593869
 20
186.6493470942
 30
0.0
 10
254.5832062409
 20
186.9281082624
 30
0.0
 10
254.5968283344
 20
187.2177912657
 30
0.0
 10
254.5999817363
 20
187.4140506852
 30
0.0
 10
254.5999817363
 20
187.5130645912
 30
0.0
  0
SPLINE
  5
3FB
100
AcDbEntity
  8
0
100
AcDbSpline
 62
7
  6
CONTINUOUS
 70
0
 71
3
 72
11
 73
7
 74
0
 42
0.0000001
 43
0.0000001
 44
0.0000000001
 40
0.0
 40
0.0
 40
0.0
 40
0.0
 40
0.1445279717
 40
0.5000166121
 40
0.8555052525
 40
1.0
 40
1.0
 40
1.0
 40
1.0
 10
160.9718863731
 20
97.0275156199
 30
0.0
 10
160.8387044365
 20
96.971645063
 30
0.0
 10
160.3554180597
 20
96.8032370214
 30
0.0
 10
159.429389313
 20
96.6779318716
 30
0.0
 10
158.5033965293
 20
96.8032321551
 30
0.0
 10
158.0201384148
 20
96.9716226833
 30
0.0
 10
157.8869841018
 20
97.0274770903
 30
0.0
  0
ELLIPSE
  5
3FC
100
AcDbEntity
  8
0
100
AcDbEllipse
 62
7
  6
CONTINUOUS
 10
136.701512577
 20
178.4464860502
 30
0.0
 11
0.0
 21
22.0
 31
0.0
 40
0.1702127606
 41
0.1651435718
 42
0.2027112158
  0
ELLIPSE
  5
3FD
100
AcDbEntity
  8
0
100
AcDbEllipse
 62
7
  6
CONTINUOUS
 10
137.3171154384
 20
178.4464860502
 30
0.0
 11
-0.0
 21
22.0
 31
0.0
 40
0.3404255211
 41
0.1464509918
 42
0.1651435718
  0
ELLIPSE
  5
3FE
100
AcDbEntity
  8
0
100
AcDbEllipse
 62
7
  6
CONTINUOUS
 10
138.4100232931
 20
178.4464860502
 30
0.0
 11
-0.0
 21
22.0
 31
0.0
 40
0.6808510423
 41
0.1278098185
 42
0.1464509918
  0
ELLIPSE
  5
3FF
100
AcDbEntity
  8
0
100
AcDbEllipse
 62
7
  6
CONTINUOUS
 10
142.2284523156
 20
178.4464860502
 30
0.0
 11
44.9360830811
 21
-0.0
 31
0.0
 40
0.4895842826
 41
1.6862038431
 42
1.6986061453
  0
ELLIPSE
  5
400
100
AcDbEntity
  8
0
100
AcDbEllipse
 62
7
  6
CONTINUOUS
 10
171.8298920468
 20
178.4464860502
 30
0.0
 11
44.9363362745
 21
0.0
 31
0.0
 40
0.4895815241
 41
2.0461484266
 42
2.0530836594
  0
ELLIPSE
  5
401
100
AcDbEntity
  8
0
100
AcDbEllipse
 62
7
  6
CONTINUOUS
 10
161.5472414912
 20
178.4464860502
 30
0.0
 11
22.4680395736
 21
-0.0
 31
0.0
 40
0.979168651
 41
2.032351302
 42
2.0461484266
  0
ELLIPSE
  5
402
100
AcDbEntity
  8
0
100
AcDbEllipse
 62
7
  6
CONTINUOUS
 10
154.8766230733
 20
178.4464860502
 30
0.0
 11
0.0
 21
22.0
 31
0.0
 40
0.3404254913
 41
0.441034276
 42
0.4615549752
  0
ELLIPSE
  5
403
100
AcDbEntity
  8
0
100
AcDbEllipse
 62
7
  6
CONTINUOUS
 10
149.0449075455
 20
178.4464860502
 30
0.0
 11
-6.3178992057
 21
20.9847481082
 31
0.0
 40
0.1266586752
 41
-1.1473943944
 42
-1.1306674566
  0
ELLIPSE
  5
404
100
AcDbEntity
  8
0
100
AcDbEllipse
 62
7
  6
CONTINUOUS
 10
145.2502390371
 20
178.4464860502
 30
0.0
 11
-14.7889047208
 21
20.7678369498
 31
0.0
 40
0.2105627442
 41
-1.3249978813
 42
-1.3026972478
  0
ELLIPSE
  5
405
100
AcDbEntity
  8
0
100
AcDbEllipse
 62
7
  6
CONTINUOUS
 10
144.4644725782
 20
178.4464860502
 30
0.0
 11
34.0489682624
 21
-19.917461801
 31
0.0
 40
0.195466349
 41
1.6262047851
 42
1.6429432814
  0
ELLIPSE
  5
406
100
AcDbEntity
  8
0
100
AcDbEllipse
 62
7
  6
CONTINUOUS
 10
140.4612993406
 20
178.4464860502
 30
0.0
 11
102.8001399608
 21
-19.168226339
 31
0.0
 40
0.0834417736
 41
1.5223326701
 42
1.527915581
  0
ELLIPSE
  5
407
100
AcDbEntity
  8
0
100
AcDbEllipse
 62
7
  6
CONTINUOUS
 10
154.3041388615
 20
178.4464860502
 30
0.0
 11
102.80002226
 21
19.1682266363
 31
0.0
 40
0.0834418627
 41
1.6136770379
 42
1.6192599488
  0
ELLIPSE
  5
408
100
AcDbEntity
  8
0
100
AcDbEllipse
 62
7
  6
CONTINUOUS
 10
150.3009747865
 20
178.4464860502
 30
0.0
 11
34.0490080176
 21
19.9174604517
 31
0.0
 40
0.1954662394
 41
1.4986495749
 42
1.5153880712
  0
ELLIPSE
  5
409
100
AcDbEntity
  8
0
100
AcDbEllipse
 62
7
  6
CONTINUOUS
 10
149.5152066926
 20
178.4464860502
 30
0.0
 11
14.7889047208
 21
20.7678369498
 31
0.0
 40
0.2105627442
 41
1.3026972478
 42
1.3249978813
  0
ELLIPSE
  5
40A
100
AcDbEntity
  8
0
100
AcDbEllipse
 62
7
  6
CONTINUOUS
 10
144.6680163948
 20
178.4464860502
 30
0.0
 11
27.0763472777
 21
20.19025025
 31
0.0
 40
0.2132959213
 41
1.3432493201
 42
1.3599984452
  0
ELLIPSE
  5
40B
100
AcDbEntity
  8
0
100
AcDbEllipse
 62
7
  6
CONTINUOUS
 10
140.8427705583
 20
178.4464860502
 30
0.0
 11
82.2264688085
 21
19.2395062898
 31
0.0
 40
0.1023603874
 41
1.4714452661
 42
1.477032437
  0
ELLIPSE
  5
40C
100
AcDbEntity
  8
0
100
AcDbEllipse
 62
7
  6
CONTINUOUS
 10
153.9226663077
 20
178.4464860502
 30
0.0
 11
82.2263510533
 21
-19.2395068424
 31
0.0
 40
0.1023605186
 41
1.6645602823
 42
1.6701474531
  0
ELLIPSE
  5
40D
100
AcDbEntity
  8
0
100
AcDbEllipse
 62
7
  6
CONTINUOUS
 10
150.3365096221
 20
178.4464860502
 30
0.0
 11
30.5692641856
 21
-20.0445661417
 31
0.0
 40
0.2048533938
 41
1.7629714834
 42
1.7741394551
  0
ELLIPSE
  5
40E
100
AcDbEntity
  8
0
100
AcDbEllipse
 62
7
  6
CONTINUOUS
 10
149.3320865768
 20
178.4464860502
 30
0.0
 11
-13.0510416903
 21
20.835046734
 31
0.0
 40
0.201282219
 41
-1.2179737389
 42
-1.2012350661
  0
ELLIPSE
  5
40F
100
AcDbEntity
  8
0
100
AcDbEllipse
 62
7
  6
CONTINUOUS
 10
139.7489240045
 20
178.4464860502
 30
0.0
 11
17.8315657187
 21
20.6317761445
 31
0.0
 40
0.2195730082
 41
1.1680503859
 42
1.2745163953
  0
ELLIPSE
  5
410
100
AcDbEntity
  8
0
100
AcDbEllipse
 62
7
  6
CONTINUOUS
 10
155.0261220073
 20
178.4464860502
 30
0.0
 11
-15.1231403682
 21
20.7538826959
 31
0.0
 40
0.2119715253
 41
-1.1548727581
 42
-1.1328190826
  0
ELLIPSE
  5
411
100
AcDbEntity
  8
0
100
AcDbEllipse
 62
7
  6
CONTINUOUS
 10
151.1976566186
 20
178.4464860502
 30
0.0
 11
15.1231403682
 21
20.7538826959
 31
0.0
 40
0.2119715253
 41
1.1328190826
 42
1.1548727581
  0
ELLIPSE
  5
412
100
AcDbEntity
  8
RUNDUNGEN
100
AcDbEllipse
 62
7
  6
CONTINUOUS
 10
162.369389313
 20
174.3364895287
 30
0.0
 11
0.0
 21
14.3969262079
 31
0.0
 40
0.3472963553
 41
-1.9922806782
 42
-1.8228146421
  0
ELLIPSE
  5
413
100
AcDbEntity
  8
RUNDUNGEN
100
AcDbEllipse
 62
7
  6
CONTINUOUS
 10
126.369389313
 20
174.3364895287
 30
0.0
 11
0.0
 21
14.3969262079
 31
0.0
 40
0.3472963553
 41
-4.4603706651
 42
-4.290904629
  0
ELLIPSE
  5
414
100
AcDbEntity
  8
0
100
AcDbEllipse
 62
7
  6
CONTINUOUS
 10
147.7063279133
 20
178.4464860502
 30
0.0
 11
-0.0
 21
22.0
 31
0.0
 40
0.2042556244
 41
0.3542170027
 42
0.3872381975
  0
ELLIPSE
  5
415
100
AcDbEntity
  8
0
100
AcDbEllipse
 62
7
  6
CONTINUOUS
 10
150.8235986756
 20
178.4464860502
 30
0.0
 11
0.0
 21
22.0
 31
0.0
 40
0.6127654705
 41
0.3215943203
 42
0.3542170027
  0
ELLIPSE
  5
416
100
AcDbEntity
  8
0
100
AcDbEllipse
 62
7
  6
CONTINUOUS
 10
158.3987520735
 20
178.4464860502
 30
0.0
 11
37.4468119144
 21
-0.0
 31
0.0
 40
0.5874999466
 41
1.8729883726
 42
1.8923906471
  0
ELLIPSE
  5
417
100
AcDbEntity
  8
0
100
AcDbEllipse
 62
7
  6
CONTINUOUS
 10
174.0014030964
 20
178.4464860502
 30
0.0
 11
89.872672549
 21
0.0
 31
0.0
 40
0.244790762
 41
1.8665473585
 42
1.8729883726
  0
ELLIPSE
  5
418
100
AcDbEntity
  8
0
100
AcDbEllipse
 62
7
  6
CONTINUOUS
 10
144.4414085867
 20
178.4464860502
 30
0.0
 11
0.0
 21
22.0
 31
0.0
 40
0.255319362
 41
-0.4684414573
 42
-0.441034276
  0
ELLIPSE
  5
419
100
AcDbEntity
  8
0
100
AcDbEllipse
 62
7
  6
CONTINUOUS
 10
140.2146363111
 20
178.4464860502
 30
0.0
 11
0.0
 21
22.0
 31
0.0
 40
0.6808512211
 41
-0.4892478379
 42
-0.4684414573
  0
ELLIPSE
  5
41A
100
AcDbEntity
  8
0
100
AcDbEllipse
 62
7
  6
CONTINUOUS
 10
131.4153796945
 20
178.4464860502
 30
0.0
 11
33.7020593604
 21
-0.0
 31
0.0
 40
0.6527791007
 41
1.0675490866
 42
1.0815484889
  0
ELLIPSE
  5
41B
100
AcDbEntity
  8
0
100
AcDbEllipse
 62
7
  6
CONTINUOUS
 10
164.3374490158
 20
178.4464860502
 30
0.0
 11
33.702075096
 21
-0.0
 31
0.0
 40
0.6527787959
 41
2.0600441647
 42
2.074043567
  0
ELLIPSE
  5
41C
100
AcDbEntity
  8
0
100
AcDbEllipse
 62
7
  6
CONTINUOUS
 10
155.538182539
 20
178.4464860502
 30
0.0
 11
0.0
 21
22.0
 31
0.0
 40
0.6808509827
 41
0.4684414573
 42
0.4892478379
  0
ELLIPSE
  5
41D
100
AcDbEntity
  8
0
100
AcDbEllipse
 62
7
  6
CONTINUOUS
 10
151.3114126316
 20
178.4464860502
 30
0.0
 11
-0.0
 21
22.0
 31
0.0
 40
0.255319362
 41
0.441034276
 42
0.4684414573
  0
ELLIPSE
  5
41E
100
AcDbEntity
  8
0
100
AcDbEllipse
 62
7
  6
CONTINUOUS
 10
151.10396565
 20
178.4464860502
 30
0.0
 11
0.0
 21
22.0
 31
0.0
 40
0.255319362
 41
0.3739786811
 42
0.4005698893
  0
ELLIPSE
  5
41F
100
AcDbEntity
  8
0
100
AcDbEllipse
 62
7
  6
CONTINUOUS
 10
153.1559770291
 20
178.4464860502
 30
0.0
 11
0.0
 21
22.0
 31
0.0
 40
0.510637263
 41
0.3476621226
 42
0.3739786811
  0
ELLIPSE
  5
420
100
AcDbEntity
  8
0
100
AcDbEllipse
 62
7
  6
CONTINUOUS
 10
156.9834377181
 20
178.4464860502
 30
0.0
 11
22.4681038552
 21
0.0
 31
0.0
 40
0.9791658496
 41
1.8923906471
 42
1.9184584493
  0
ELLIPSE
  5
421
100
AcDbEntity
  8
0
100
AcDbEllipse
 62
7
  6
CONTINUOUS
 10
178.2886431524
 20
178.4464860502
 30
0.0
 11
89.872672549
 21
0.0
 31
0.0
 40
0.244790762
 41
1.8859097019
 42
1.8923906471
  0
ELLIPSE
  5
422
100
AcDbEntity
  8
0
100
AcDbEllipse
 62
7
  6
CONTINUOUS
 10
123.1343908339
 20
178.4464860502
 30
0.0
 11
89.872672549
 21
0.0
 31
0.0
 40
0.244790762
 41
1.2492020065
 42
1.2556829517
  0
ELLIPSE
  5
423
100
AcDbEntity
  8
0
100
AcDbEllipse
 62
7
  6
CONTINUOUS
 10
144.4395962682
 20
178.4464860502
 30
0.0
 11
22.4681038552
 21
-0.0
 31
0.0
 40
0.9791658496
 41
1.2231342042
 42
1.2492020065
  0
ELLIPSE
  5
424
100
AcDbEntity
  8
0
100
AcDbEllipse
 62
7
  6
CONTINUOUS
 10
148.2670569572
 20
178.4464860502
 30
0.0
 11
0.0
 21
22.0
 31
0.0
 40
0.510637263
 41
-0.3739786811
 42
-0.3476621226
  0
ELLIPSE
  5
425
100
AcDbEntity
  8
0
100
AcDbEllipse
 62
7
  6
CONTINUOUS
 10
150.3190683363
 20
178.4464860502
 30
0.0
 11
0.0
 21
22.0
 31
0.0
 40
0.255319362
 41
-0.4005698893
 42
-0.3739786811
  0
ELLIPSE
  5
426
100
AcDbEntity
  8
0
100
AcDbEllipse
 62
7
  6
CONTINUOUS
 10
161.9209362164
 20
178.4464860502
 30
0.0
 11
67.4045358831
 21
-0.0
 31
0.0
 40
0.3263875303
 41
1.771265175
 42
1.7775502982
  0
ELLIPSE
  5
427
100
AcDbEntity
  8
0
100
AcDbEllipse
 62
7
  6
CONTINUOUS
 10
152.9727851196
 20
178.4464860502
 30
0.0
 11
22.4680395736
 21
0.0
 31
0.0
 40
0.979168651
 41
1.7587186301
 42
1.771265175
  0
ELLIPSE
  5
428
100
AcDbEntity
  8
0
100
AcDbEllipse
 62
7
  6
CONTINUOUS
 10
150.1744955869
 20
178.4464860502
 30
0.0
 11
-0.0
 21
22.0
 31
0.0
 40
0.3404254913
 41
0.1691578437
 42
0.1879223033
  0
ELLIPSE
  5
429
100
AcDbEntity
  8
0
100
AcDbEllipse
 62
7
  6
CONTINUOUS
 10
145.5783256314
 20
178.4464860502
 30
0.0
 11
-0.0
 21
22.0
 31
0.0
 40
0.3404254913
 41
-0.1879223033
 42
-0.1691578437
  0
ELLIPSE
  5
42A
100
AcDbEntity
  8
0
100
AcDbEllipse
 62
7
  6
CONTINUOUS
 10
142.7800346288
 20
178.4464860502
 30
0.0
 11
22.4680474414
 21
-0.0
 31
0.0
 40
0.9791683081
 41
1.3703274786
 42
1.3828740235
  0
ELLIPSE
  5
42B
100
AcDbEntity
  8
0
100
AcDbEllipse
 62
7
  6
CONTINUOUS
 10
133.8318913656
 20
178.4464860502
 30
0.0
 11
67.4045044117
 21
0.0
 31
0.0
 40
0.3263876827
 41
1.3640423553
 42
1.3703274786
  0
ELLIPSE
  5
42C
100
AcDbEntity
  8
0
100
AcDbEllipse
 62
7
  6
CONTINUOUS
 10
148.4825808949
 20
178.4464860502
 30
0.0
 11
0.0
 21
22.0
 31
0.0
 40
0.3404254913
 41
-0.1879223033
 42
-0.1691578437
  0
ELLIPSE
  5
42D
100
AcDbEntity
  8
0
100
AcDbEllipse
 62
7
  6
CONTINUOUS
 10
145.6842913622
 20
178.4464860502
 30
0.0
 11
22.4680395736
 21
-0.0
 31
0.0
 40
0.979168651
 41
1.3703274786
 42
1.3828740235
  0
ELLIPSE
  5
42E
100
AcDbEntity
  8
0
100
AcDbEllipse
 62
7
  6
CONTINUOUS
 10
136.7361465323
 20
178.4464860502
 30
0.0
 11
67.4045044117
 21
0.0
 31
0.0
 40
0.3263876827
 41
1.3640423553
 42
1.3703274786
  0
ELLIPSE
  5
42F
100
AcDbEntity
  8
0
100
AcDbEllipse
 62
7
  6
CONTINUOUS
 10
164.6868999878
 20
178.4464860502
 30
0.0
 11
67.4045673545
 21
-0.0
 31
0.0
 40
0.3263873779
 41
1.771265175
 42
1.7775502982
  0
ELLIPSE
  5
430
100
AcDbEntity
  8
0
100
AcDbEllipse
 62
7
  6
CONTINUOUS
 10
155.7387426242
 20
178.4464860502
 30
0.0
 11
22.4680395736
 21
0.0
 31
0.0
 40
0.979168651
 41
1.7587186301
 42
1.771265175
  0
ELLIPSE
  5
431
100
AcDbEntity
  8
0
100
AcDbEllipse
 62
7
  6
CONTINUOUS
 10
152.9404530914
 20
178.4464860502
 30
0.0
 11
-0.0
 21
22.0
 31
0.0
 40
0.3404254913
 41
0.1691578437
 42
0.1879223033
  0
ELLIPSE
  5
432
100
AcDbEntity
  8
0
100
AcDbEllipse
 62
7
  6
CONTINUOUS
 10
149.6981743777
 20
178.4464860502
 30
0.0
 11
-7.6288886428
 21
20.9702000975
 31
0.0
 40
0.1465941587
 41
-1.1569849693
 42
-1.1290939877
  0
ELLIPSE
  5
433
100
AcDbEntity
  8
0
100
AcDbEllipse
 62
7
  6
CONTINUOUS
 10
150.1200312952
 20
178.4464860502
 30
0.0
 11
-14.7889060952
 21
20.767836893
 31
0.0
 40
0.2105627502
 41
-1.224648244
 42
-1.2023035712
  0
ELLIPSE
  5
434
100
AcDbEntity
  8
0
100
AcDbEllipse
 62
7
  6
CONTINUOUS
 10
151.6450304844
 20
178.4464860502
 30
0.0
 11
34.0490110588
 21
-19.9174603485
 31
0.0
 40
0.195466231
 41
1.7656373915
 42
1.7824219208
  0
ELLIPSE
  5
435
100
AcDbEntity
  8
0
100
AcDbEllipse
 62
7
  6
CONTINUOUS
 10
158.3363013408
 20
178.4464860502
 30
0.0
 11
102.8000312638
 21
-19.1682266135
 31
0.0
 40
0.0834418559
 41
1.6841329669
 42
1.6897337207
  0
ELLIPSE
  5
436
100
AcDbEntity
  8
0
100
AcDbEllipse
 62
7
  6
CONTINUOUS
 10
136.4291322469
 20
178.4464860502
 30
0.0
 11
102.8001489646
 21
19.1682263163
 31
0.0
 40
0.0834417668
 41
1.4518589675
 42
1.4574597214
  0
ELLIPSE
  5
437
100
AcDbEntity
  8
0
100
AcDbEllipse
 62
7
  6
CONTINUOUS
 10
143.1204184185
 20
178.4464860502
 30
0.0
 11
34.0489713036
 21
19.9174616978
 31
0.0
 40
0.1954663407
 41
1.3591705301
 42
1.3759550594
  0
ELLIPSE
  5
438
100
AcDbEntity
  8
0
100
AcDbEllipse
 62
7
  6
CONTINUOUS
 10
164.5486061361
 20
178.4464860502
 30
0.0
 11
64.3406933429
 21
-0.0
 31
0.0
 40
0.3263875303
 41
1.820690697
 42
1.8273515134
  0
ELLIPSE
  5
439
100
AcDbEntity
  8
0
100
AcDbEllipse
 62
7
  6
CONTINUOUS
 10
155.7088218717
 20
178.4464860502
 30
0.0
 11
28.595741272
 21
0.0
 31
0.0
 40
0.7343750875
 41
1.8072140468
 42
1.820690697
  0
ELLIPSE
  5
43A
100
AcDbEntity
  8
0
100
AcDbEllipse
 62
7
  6
CONTINUOUS
 10
156.4011222532
 20
178.4464860502
 30
0.0
 11
-15.1231403682
 21
20.7538826959
 31
0.0
 40
0.2119715253
 41
-1.110689169
 42
-1.088471292
  0
ELLIPSE
  5
43B
100
AcDbEntity
  8
0
100
AcDbEllipse
 62
7
  6
CONTINUOUS
 10
149.8226563728
 20
178.4464860502
 30
0.0
 11
15.1231403682
 21
20.7538826959
 31
0.0
 40
0.2119715253
 41
1.088471292
 42
1.110689169
  0
ELLIPSE
  5
43C
100
AcDbEntity
  8
0
100
AcDbEllipse
 62
7
  6
CONTINUOUS
 10
127.4701303732
 20
178.4464860502
 30
0.0
 11
67.4045673545
 21
-0.0
 31
0.0
 40
0.3263873779
 41
1.2100085907
 42
1.2165793241
  0
ELLIPSE
  5
43D
100
AcDbEntity
  8
0
100
AcDbEllipse
 62
7
  6
CONTINUOUS
 10
173.9528813936
 20
178.4464860502
 30
0.0
 11
67.4045044117
 21
-0.0
 31
0.0
 40
0.3263876827
 41
1.9250133295
 42
1.9315840629
  0
ELLIPSE
  5
43E
100
AcDbEntity
  8
0
100
AcDbEllipse
 62
7
  6
CONTINUOUS
 10
155.4459843202
 20
178.4464860502
 30
0.0
 11
-0.0
 21
22.0
 31
0.0
 40
0.6808509827
 41
0.3607877361
 42
0.380599646
  0
ELLIPSE
  5
43F
100
AcDbEntity
  8
0
100
AcDbEllipse
 62
7
  6
CONTINUOUS
 10
152.6638569922
 20
178.4464860502
 30
0.0
 11
0.0
 21
22.0
 31
0.0
 40
0.3404254913
 41
0.380599646
 42
0.4005698893
  0
ELLIPSE
  5
440
100
AcDbEntity
  8
0
100
AcDbEllipse
 62
7
  6
CONTINUOUS
 10
184.7401525225
 20
178.4464860502
 30
0.0
 11
64.3406633021
 21
0.0
 31
0.0
 40
0.3263876827
 41
2.1154652453
 42
2.1230219525
  0
ELLIPSE
  5
441
100
AcDbEntity
  8
KONSTRUKTIONSELEMENTE
100
AcDbEllipse
 62
7
  6
CONTINUOUS
 10
123.369389313
 20
177.4160050964
 30
0.0
 11
0.0
 21
2.8677428879
 31
0.0
 40
0.6974125918
 41
0.0
 42
1.5707963268
  0
ELLIPSE
  5
442
100
AcDbEntity
  8
0
100
AcDbEllipse
 62
7
  6
CONTINUOUS
 10
166.219459304
 20
178.4464860502
 30
0.0
 11
28.595741272
 21
-0.0
 31
0.0
 40
0.7343750875
 41
2.0929981395
 42
2.1154652453
  0
ELLIPSE
  5
443
100
AcDbEntity
  8
0
100
AcDbEllipse
 62
7
  6
CONTINUOUS
 10
159.9792671324
 20
178.4464860502
 30
0.0
 11
0.0
 21
21.0
 31
0.0
 40
0.7659558946
 41
0.4926881264
 42
0.5222018127
  0
ELLIPSE
  5
444
100
AcDbEntity
  8
0
100
AcDbEllipse
 62
7
  6
CONTINUOUS
 10
151.6616428823
 20
178.4464860502
 30
0.0
 11
-0.0
 21
22.0
 31
0.0
 40
0.204255139
 41
0.441034276
 42
0.4753520998
  0
ELLIPSE
  5
445
100
AcDbEntity
  8
0
100
AcDbEllipse
 62
7
  6
CONTINUOUS
 10
154.7464151024
 20
178.4464860502
 30
0.0
 11
-0.0
 21
22.0
 31
0.0
 40
0.510638724
 41
0.4753520998
 42
0.5032472402
  0
ELLIPSE
  5
446
100
AcDbEntity
  8
0
100
AcDbEllipse
 62
7
  6
CONTINUOUS
 10
154.3999452694
 20
178.4464860502
 30
0.0
 11
-0.0
 21
21.0
 31
0.0
 40
0.2042556065
 41
0.4564384841
 42
0.4926881264
  0
ELLIPSE
  5
447
100
AcDbEntity
  8
0
100
AcDbEllipse
 62
7
  6
CONTINUOUS
 10
160.1642919638
 20
178.4464860502
 30
0.0
 11
22.4681038552
 21
-0.0
 31
0.0
 40
0.9791658496
 41
2.074043567
 42
2.1023739731
  0
ELLIPSE
  5
448
100
AcDbEntity
  8
0
100
AcDbEllipse
 62
7
  6
CONTINUOUS
 10
171.5531799185
 20
178.4464860502
 30
0.0
 11
44.9360948828
 21
-0.0
 31
0.0
 40
0.4895841541
 41
2.1023739731
 42
2.1167162769
  0
ELLIPSE
  5
449
100
AcDbEntity
  8
0
100
AcDbEllipse
 62
7
  6
CONTINUOUS
 10
124.199645288
 20
178.4464860502
 30
0.0
 11
44.936087015
 21
0.0
 31
0.0
 40
0.4895842398
 41
1.0248763767
 42
1.0392186805
  0
ELLIPSE
  5
44A
100
AcDbEntity
  8
0
100
AcDbEllipse
 62
7
  6
CONTINUOUS
 10
135.5885282574
 20
178.4464860502
 30
0.0
 11
22.4681058222
 21
0.0
 31
0.0
 40
0.9791657639
 41
1.0392186805
 42
1.0675490866
  0
ELLIPSE
  5
44B
100
AcDbEntity
  8
0
100
AcDbEllipse
 62
7
  6
CONTINUOUS
 10
141.0064053561
 20
178.4464860502
 30
0.0
 11
0.0
 21
22.0
 31
0.0
 40
0.510638791
 41
-0.5032472402
 42
-0.4753520998
  0
ELLIPSE
  5
44C
100
AcDbEntity
  8
0
100
AcDbEllipse
 62
7
  6
CONTINUOUS
 10
144.0911780712
 20
178.4464860502
 30
0.0
 11
0.0
 21
22.0
 31
0.0
 40
0.2042551568
 41
-0.4753520998
 42
-0.441034276
  0
ELLIPSE
  5
44D
100
AcDbEntity
  8
KONSTRUKTIONSELEMENTE
100
AcDbEllipse
 62
7
  6
CONTINUOUS
 10
165.369389313
 20
177.4160050964
 30
0.0
 11
0.0
 21
2.8677428879
 31
0.0
 40
0.6974125918
 41
-1.5707963268
 42
-0.0
  0
ELLIPSE
  5
44E
100
AcDbEntity
  8
0
100
AcDbEllipse
 62
7
  6
CONTINUOUS
 10
169.9422386321
 20
178.4464860502
 30
0.0
 11
67.4045044117
 21
-0.0
 31
0.0
 40
0.3263876827
 41
1.9053950516
 42
1.9119191776
  0
ELLIPSE
  5
44F
100
AcDbEntity
  8
0
100
AcDbEllipse
 62
7
  6
CONTINUOUS
 10
154.9089646686
 20
178.4464860502
 30
0.0
 11
22.4680876732
 21
0.0
 31
0.0
 40
0.9791665548
 41
1.9119191776
 42
1.9315840629
  0
ELLIPSE
  5
450
100
AcDbEntity
  8
0
100
AcDbEllipse
 62
7
  6
CONTINUOUS
 10
148.9603483959
 20
178.4464860502
 30
0.0
 11
-0.0
 21
22.0
 31
0.0
 40
0.255319362
 41
0.3607877361
 42
0.3872381975
  0
ELLIPSE
  5
451
100
AcDbEntity
  8
0
100
AcDbEllipse
 62
7
  6
CONTINUOUS
 10
154.9089646686
 20
178.4464860502
 30
0.0
 11
21.4468109608
 21
0.0
 31
0.0
 40
0.9791665548
 41
1.9288758221
 42
1.9444323731
  0
ELLIPSE
  5
452
100
AcDbEntity
  8
0
100
AcDbEllipse
 62
7
  6
CONTINUOUS
 10
169.9422386321
 20
178.4464860502
 30
0.0
 11
64.3406633021
 21
0.0
 31
0.0
 40
0.3263876827
 41
1.9219995163
 42
1.9288758221
  0
ELLIPSE
  5
453
100
AcDbEntity
  8
0
100
AcDbEllipse
 62
7
  6
CONTINUOUS
 10
144.0911780712
 20
178.4464860502
 30
0.0
 11
-0.0
 21
21.0
 31
0.0
 40
0.2042551568
 41
-0.5000215712
 42
-0.4636350708
  0
ELLIPSE
  5
454
100
AcDbEntity
  8
0
100
AcDbEllipse
 62
7
  6
CONTINUOUS
 10
141.0064053561
 20
178.4464860502
 30
0.0
 11
-0.0
 21
21.0
 31
0.0
 40
0.510638791
 41
-0.529657842
 42
-0.5000215712
  0
ELLIPSE
  5
455
100
AcDbEntity
  8
0
100
AcDbEllipse
 62
7
  6
CONTINUOUS
 10
135.5885282574
 20
178.4464860502
 30
0.0
 11
21.4468282848
 21
0.0
 31
0.0
 40
0.9791657639
 41
1.0109786422
 42
1.0411384848
  0
ELLIPSE
  5
456
100
AcDbEntity
  8
0
100
AcDbEllipse
 62
7
  6
CONTINUOUS
 10
124.199645288
 20
178.4464860502
 30
0.0
 11
42.8935376052
 21
0.0
 31
0.0
 40
0.4895842398
 41
0.9956845716
 42
1.0109786422
  0
ELLIPSE
  5
457
100
AcDbEntity
  8
0
100
AcDbEllipse
 62
7
  6
CONTINUOUS
 10
171.5531799185
 20
178.4464860502
 30
0.0
 11
42.8935451154
 21
0.0
 31
0.0
 40
0.4895841541
 41
2.1306140114
 42
2.145908082
  0
ELLIPSE
  5
458
100
AcDbEntity
  8
0
100
AcDbEllipse
 62
7
  6
CONTINUOUS
 10
160.1642919638
 20
178.4464860502
 30
0.0
 11
21.4468264073
 21
-0.0
 31
0.0
 40
0.9791658496
 41
2.1004541687
 42
2.1306140114
  0
ELLIPSE
  5
459
100
AcDbEntity
  8
0
100
AcDbEllipse
 62
7
  6
CONTINUOUS
 10
154.7464151024
 20
178.4464860502
 30
0.0
 11
0.0
 21
21.0
 31
0.0
 40
0.510638724
 41
0.5000215712
 42
0.529657842
  0
ELLIPSE
  5
45A
100
AcDbEntity
  8
0
100
AcDbEllipse
 62
7
  6
CONTINUOUS
 10
151.6616428823
 20
178.4464860502
 30
0.0
 11
-0.0
 21
21.0
 31
0.0
 40
0.204255139
 41
0.4636350708
 42
0.5000215712
  0
ELLIPSE
  5
45B
100
AcDbEntity
  8
0
100
AcDbEllipse
 62
7
  6
CONTINUOUS
 10
152.6638569922
 20
178.4464860502
 30
0.0
 11
-0.0
 21
21.0
 31
0.0
 40
0.3404254913
 41
0.3997267704
 42
0.4208231289
  0
ELLIPSE
  5
45C
100
AcDbEntity
  8
0
100
AcDbEllipse
 62
7
  6
CONTINUOUS
 10
155.4459843202
 20
178.4464860502
 30
0.0
 11
0.0
 21
21.0
 31
0.0
 40
0.6808509827
 41
0.3788168156
 42
0.3997267704
  0
ELLIPSE
  5
45D
100
AcDbEntity
  8
0
100
AcDbEllipse
 62
7
  6
CONTINUOUS
 10
173.9528813936
 20
178.4464860502
 30
0.0
 11
64.3406633021
 21
0.0
 31
0.0
 40
0.3263876827
 41
1.9426822015
 42
1.9496131424
  0
ELLIPSE
  5
45E
100
AcDbEntity
  8
0
100
AcDbEllipse
 62
7
  6
CONTINUOUS
 10
127.4701303732
 20
178.4464860502
 30
0.0
 11
64.3407233838
 21
0.0
 31
0.0
 40
0.3263873779
 41
7.4773390714
 42
7.4820957592
  0
ELLIPSE
  5
45F
100
AcDbEntity
  8
0
100
AcDbEllipse
 62
7
  6
CONTINUOUS
 10
154.3999452694
 20
178.4464860502
 30
0.0
 11
-0.0
 21
22.0
 31
0.0
 40
0.2042556065
 41
0.4342385251
 42
0.4684414573
  0
ELLIPSE
  5
460
100
AcDbEntity
  8
0
100
AcDbEllipse
 62
7
  6
CONTINUOUS
 10
159.9792671324
 20
178.4464860502
 30
0.0
 11
0.0
 21
22.0
 31
0.0
 40
0.7659558946
 41
0.4684414573
 42
0.496234315
  0
ELLIPSE
  5
461
100
AcDbEntity
  8
0
100
AcDbEllipse
 62
7
  6
CONTINUOUS
 10
166.219459304
 20
178.4464860502
 30
0.0
 11
29.9574432373
 21
-0.0
 31
0.0
 40
0.7343750875
 41
2.0670306418
 42
2.0881517135
  0
ELLIPSE
  5
462
100
AcDbEntity
  8
0
100
AcDbEllipse
 62
7
  6
CONTINUOUS
 10
147.1668002499
 20
178.4464860502
 30
0.0
 11
67.4045201474
 21
0.0
 31
0.0
 40
0.3263876065
 41
1.7172473186
 42
1.7234721001
  0
ELLIPSE
  5
463
100
AcDbEntity
  8
0
100
AcDbEllipse
 62
7
  6
CONTINUOUS
 10
139.1937106725
 20
178.4464860502
 30
0.0
 11
-0.0
 21
22.0
 31
0.0
 40
0.6808509827
 41
0.1526757733
 42
0.1713870393
  0
ELLIPSE
  5
464
100
AcDbEntity
  8
0
100
AcDbEllipse
 62
7
  6
CONTINUOUS
 10
137.4054837421
 20
178.4464860502
 30
0.0
 11
-0.0
 21
22.0
 31
0.0
 40
0.2042552105
 41
0.1713870393
 42
0.2027112158
  0
ELLIPSE
  5
465
100
AcDbEntity
  8
0
100
AcDbEllipse
 62
7
  6
CONTINUOUS
 10
184.7401525225
 20
178.4464860502
 30
0.0
 11
67.4045044117
 21
-0.0
 31
0.0
 40
0.3263876827
 41
2.0881517135
 42
2.0952482164
  0
ELLIPSE
  5
466
100
AcDbEntity
  8
0
100
AcDbEllipse
 62
7
  6
CONTINUOUS
 10
137.4054837421
 20
178.4464860502
 30
0.0
 11
-0.0
 21
21.0
 31
0.0
 40
0.2042552105
 41
0.1796351667
 42
0.2125085806
  0
ELLIPSE
  5
467
100
AcDbEntity
  8
0
100
AcDbEllipse
 62
7
  6
CONTINUOUS
 10
139.1937106725
 20
178.4464860502
 30
0.0
 11
-0.0
 21
21.0
 31
0.0
 40
0.6808509827
 41
0.1600072708
 42
0.1796351667
  0
ELLIPSE
  5
468
100
AcDbEntity
  8
0
100
AcDbEllipse
 62
7
  6
CONTINUOUS
 10
147.1668002499
 20
178.4464860502
 30
0.0
 11
64.3406783225
 21
-0.0
 31
0.0
 40
0.3263876065
 41
1.7242751656
 42
1.7308035976
  0
ELLIPSE
  5
469
100
AcDbEntity
  8
0
100
AcDbEllipse
 62
7
  6
CONTINUOUS
 10
148.7591769941
 20
178.4464860502
 30
0.0
 11
-0.0
 21
22.0
 31
0.0
 40
0.3404254913
 41
-0.4005698893
 42
-0.380599646
  0
ELLIPSE
  5
46A
100
AcDbEntity
  8
0
100
AcDbEllipse
 62
7
  6
CONTINUOUS
 10
145.9770496662
 20
178.4464860502
 30
0.0
 11
0.0
 21
22.0
 31
0.0
 40
0.6808509827
 41
-0.380599646
 42
-0.3607877361
  0
ELLIPSE
  5
46B
100
AcDbEntity
  8
0
100
AcDbEllipse
 62
7
  6
CONTINUOUS
 10
138.9525489126
 20
178.4464860502
 30
0.0
 11
17.7082721921
 21
20.6376072781
 31
0.0
 40
0.2193594896
 41
1.1212674815
 42
1.2730211963
  0
ELLIPSE
  5
46C
100
AcDbEntity
  8
0
100
AcDbEllipse
 62
7
  6
CONTINUOUS
 10
150.6969383097
 20
178.4464860502
 30
0.0
 11
82.2263510533
 21
19.2395068424
 31
0.0
 40
0.1023605186
 41
1.5773977812
 42
1.5829733271
  0
ELLIPSE
  5
46D
100
AcDbEntity
  8
0
100
AcDbEllipse
 62
7
  6
CONTINUOUS
 10
144.0685031707
 20
178.4464860502
 30
0.0
 11
82.2264688085
 21
-19.2395062898
 31
0.0
 40
0.1023603874
 41
1.5586192609
 42
1.5641948068
  0
ELLIPSE
  5
46E
100
AcDbEntity
  8
0
100
AcDbEllipse
 62
7
  6
CONTINUOUS
 10
151.6347037801
 20
178.4464860502
 30
0.0
 11
-0.0
 21
22.0
 31
0.0
 40
0.510637263
 41
0.2067539714
 42
0.2193494639
  0
ELLIPSE
  5
46F
100
AcDbEntity
  8
0
100
AcDbEllipse
 62
7
  6
CONTINUOUS
 10
155.7088218717
 20
178.4464860502
 30
0.0
 11
29.9574432373
 21
-0.0
 31
0.0
 40
0.7343750875
 41
1.7901457907
 42
1.8091062269
  0
ELLIPSE
  5
470
100
AcDbEntity
  8
0
100
AcDbEllipse
 62
7
  6
CONTINUOUS
 10
155.6228929821
 20
178.4464860502
 30
0.0
 11
-0.0
 21
21.0
 31
0.0
 40
0.7659558946
 41
0.2035656898
 42
0.208918667
  0
ELLIPSE
  5
471
100
AcDbEntity
  8
0
100
AcDbEllipse
 62
7
  6
CONTINUOUS
 10
147.0223727017
 20
178.4464860502
 30
0.0
 11
-0.0
 21
22.0
 31
0.0
 40
0.510637263
 41
-0.2193494639
 42
-0.2067539714
  0
ELLIPSE
  5
472
100
AcDbEntity
  8
0
100
AcDbEllipse
 62
7
  6
CONTINUOUS
 10
142.9482546101
 20
178.4464860502
 30
0.0
 11
29.9574432373
 21
-0.0
 31
0.0
 40
0.7343750875
 41
1.3324864267
 42
1.3514468629
  0
ELLIPSE
  5
473
100
AcDbEntity
  8
0
100
AcDbEllipse
 62
7
  6
CONTINUOUS
 10
134.1084777748
 20
178.4464860502
 30
0.0
 11
67.4045044117
 21
0.0
 31
0.0
 40
0.3263876827
 41
1.3261472058
 42
1.3324864267
  0
ELLIPSE
  5
474
100
AcDbEntity
  8
0
100
AcDbEllipse
 62
7
  6
CONTINUOUS
 10
167.3145562115
 20
178.4464860502
 30
0.0
 11
67.4045044117
 21
-0.0
 31
0.0
 40
0.3263876827
 41
1.8091062269
 42
1.8154454478
  0
ELLIPSE
  5
475
100
AcDbEntity
  8
0
100
AcDbEllipse
 62
7
  6
CONTINUOUS
 10
158.4747793762
 20
178.4464860502
 30
0.0
 11
29.9574432373
 21
0.0
 31
0.0
 40
0.7343750875
 41
1.7901457907
 42
1.8091062269
  0
ELLIPSE
  5
476
100
AcDbEntity
  8
0
100
AcDbEllipse
 62
7
  6
CONTINUOUS
 10
155.6228929821
 20
178.4464860502
 30
0.0
 11
-0.0
 21
22.0
 31
0.0
 40
0.7659558946
 41
0.1941916699
 42
0.2193494639
  0
ELLIPSE
  5
477
100
AcDbEntity
  8
0
100
AcDbEllipse
 62
7
  6
CONTINUOUS
 10
153.2382415076
 20
178.4464860502
 30
0.0
 11
0.0
 21
22.0
 31
0.0
 40
0.2042556065
 41
0.1629167228
 42
0.1941916699
  0
ELLIPSE
  5
478
100
AcDbEntity
  8
0
100
AcDbEllipse
 62
7
  6
CONTINUOUS
 10
153.2382415076
 20
178.4464860502
 30
0.0
 11
-0.0
 21
21.0
 31
0.0
 40
0.2042556065
 41
0.1707491573
 42
0.2035656898
  0
ELLIPSE
  5
479
100
AcDbEntity
  8
0
100
AcDbEllipse
 62
7
  6
CONTINUOUS
 10
164.5486061361
 20
178.4464860502
 30
0.0
 11
67.4045358831
 21
-0.0
 31
0.0
 40
0.3263875303
 41
1.8091062269
 42
1.8154454478
  0
ELLIPSE
  5
47A
100
AcDbEntity
  8
0
100
AcDbEllipse
 62
7
  6
CONTINUOUS
 10
145.2805370546
 20
178.4464860502
 30
0.0
 11
-0.0
 21
22.0
 31
0.0
 40
0.2042556244
 41
-0.1941916699
 42
-0.1629167228
  0
ELLIPSE
  5
47B
100
AcDbEntity
  8
0
100
AcDbEllipse
 62
7
  6
CONTINUOUS
 10
145.2805370546
 20
178.4464860502
 30
0.0
 11
0.0
 21
21.0
 31
0.0
 40
0.2042556244
 41
6.0853326854
 42
6.1124361499
  0
ELLIPSE
  5
47C
100
AcDbEntity
  8
0
100
AcDbEllipse
 62
7
  6
CONTINUOUS
 10
142.8958853713
 20
178.4464860502
 30
0.0
 11
0.0
 21
22.0
 31
0.0
 40
0.7659559616
 41
-0.2193494639
 42
-0.1941916699
  0
ELLIPSE
  5
47D
100
AcDbEntity
  8
0
100
AcDbEllipse
 62
7
  6
CONTINUOUS
 10
140.0439987275
 20
178.4464860502
 30
0.0
 11
29.9574458599
 21
0.0
 31
0.0
 40
0.7343750233
 41
1.3324864267
 42
1.3514468629
  0
ELLIPSE
  5
47E
100
AcDbEntity
  8
0
100
AcDbEllipse
 62
7
  6
CONTINUOUS
 10
131.2042187967
 20
178.4464860502
 30
0.0
 11
67.4045201474
 21
-0.0
 31
0.0
 40
0.3263876065
 41
1.3261472058
 42
1.3324864267
  0
ELLIPSE
  5
47F
100
AcDbEntity
  8
0
100
AcDbEllipse
 62
7
  6
CONTINUOUS
 10
165.369389313
 20
124.5048072211
 30
0.0
 11
2.0
 21
0.0
 31
0.0
 40
0.7625963894
 41
-0.0
 42
1.5707963268
  0
ELLIPSE
  5
480
100
AcDbEntity
  8
KONSTRUKTIONSELEMENTE
100
AcDbEllipse
 62
7
  6
CONTINUOUS
 10
165.369389313
 20
85.5551927789
 30
0.0
 11
2.0
 21
-0.0
 31
0.0
 40
0.7625963894
 41
-1.5707963268
 42
-0.0
  0
ELLIPSE
  5
481
100
AcDbEntity
  8
0
100
AcDbEllipse
 62
7
  6
CONTINUOUS
 10
138.9525489126
 20
105.03
 30
0.0
 11
13.8486662374
 21
19.1455115311
 31
0.0
 40
0.623049595
 41
4.0488295535
 42
4.2005832683
  0
ELLIPSE
  5
482
100
AcDbEntity
  8
0
100
AcDbEllipse
 62
7
  6
CONTINUOUS
 10
150.6969383097
 20
105.03
 30
0.0
 11
82.2220535648
 21
9.367465166
 31
0.0
 40
0.2285878445
 41
-1.632956162
 42
-1.6273806161
  0
ELLIPSE
  5
483
100
AcDbEntity
  8
0
100
AcDbEllipse
 62
7
  6
CONTINUOUS
 10
144.0685031707
 20
105.03
 30
0.0
 11
82.2221713507
 21
-9.3674637073
 31
0.0
 40
0.2285875259
 41
-1.5142121151
 42
-1.5086365692
  0
ELLIPSE
  5
484
100
AcDbEntity
  8
0
100
AcDbEllipse
 62
7
  6
CONTINUOUS
 10
149.6981743777
 20
105.03
 30
0.0
 11
-3.9515602089
 21
20.9559009532
 31
0.0
 40
0.3442250908
 41
-3.7013930365
 42
-3.6735020548
  0
ELLIPSE
  5
485
100
AcDbEntity
  8
0
100
AcDbEllipse
 62
7
  6
CONTINUOUS
 10
150.1200312952
 20
105.03
 30
0.0
 11
-10.1487857727
 21
20.1709263806
 31
0.0
 40
0.5756755473
 41
-3.9408495791
 42
-3.9185049063
  0
ELLIPSE
  5
486
100
AcDbEntity
  8
0
100
AcDbEllipse
 62
7
  6
CONTINUOUS
 10
151.6450304844
 20
105.03
 30
0.0
 11
33.7097907806
 21
-12.1595119241
 31
0.0
 40
0.507909258
 41
-1.487376305
 42
-1.4705917757
  0
ELLIPSE
  5
487
100
AcDbEntity
  8
0
100
AcDbEllipse
 62
7
  6
CONTINUOUS
 10
158.3363013408
 20
105.03
 30
0.0
 11
102.7986231229
 21
-9.1861771386
 31
0.0
 40
0.1837011976
 41
-1.6577620703
 42
-1.6521613165
  0
ELLIPSE
  5
488
100
AcDbEntity
  8
0
100
AcDbEllipse
 62
7
  6
CONTINUOUS
 10
136.4291322469
 20
105.03
 30
0.0
 11
102.7987408318
 21
9.1861764101
 31
0.0
 40
0.1837009907
 41
-1.4894312985
 42
-1.4838305447
  0
ELLIPSE
  5
489
100
AcDbEntity
  8
0
100
AcDbEllipse
 62
7
  6
CONTINUOUS
 10
143.1204184185
 20
105.03
 30
0.0
 11
33.7097491145
 21
12.1595204858
 31
0.0
 40
0.5079097054
 41
-1.671001378
 42
-1.6542168487
  0
ELLIPSE
  5
48A
100
AcDbEntity
  8
0
100
AcDbEllipse
 62
7
  6
CONTINUOUS
 10
156.4011222532
 20
105.03
 30
0.0
 11
-10.5405260557
 21
20.0814991852
 31
0.0
 40
0.5827746185
 41
-4.0740206802
 42
-4.0518028032
  0
ELLIPSE
  5
48B
100
AcDbEntity
  8
0
100
AcDbEllipse
 62
7
  6
CONTINUOUS
 10
149.8226563728
 20
105.03
 30
0.0
 11
10.5405260557
 21
20.0814991852
 31
0.0
 40
0.5827746185
 41
-2.231382504
 42
-2.209164627
  0
ELLIPSE
  5
48C
100
AcDbEntity
  8
KONSTRUKTIONSELEMENTE
100
AcDbEllipse
 62
7
  6
CONTINUOUS
 10
123.369389313
 20
85.5551927789
 30
0.0
 11
2.0
 21
-0.0
 31
0.0
 40
0.7625963894
 41
3.1415926536
 42
4.7123889804
  0
ELLIPSE
  5
48D
100
AcDbEntity
  8
0
100
AcDbEllipse
 62
7
  6
CONTINUOUS
 10
123.369389313
 20
124.5048072211
 30
0.0
 11
2.0
 21
0.0
 31
0.0
 40
0.7625963894
 41
1.5707963268
 42
3.1415926536
  0
ELLIPSE
  5
48E
100
AcDbEntity
  8
0
100
AcDbEllipse
 62
7
  6
CONTINUOUS
 10
144.6680163948
 20
105.03
 30
0.0
 11
26.0887015056
 21
14.2967090306
 31
0.0
 40
0.589601635
 41
-1.8302435131
 42
-1.8134943879
  0
ELLIPSE
  5
48F
100
AcDbEntity
  8
0
100
AcDbEllipse
 62
7
  6
CONTINUOUS
 10
140.8427705583
 20
105.03
 30
0.0
 11
82.2221713507
 21
9.3674637073
 31
0.0
 40
0.2285875259
 41
-1.5270151287
 42
-1.5214279578
  0
ELLIPSE
  5
490
100
AcDbEntity
  8
0
100
AcDbEllipse
 62
7
  6
CONTINUOUS
 10
153.9226663077
 20
105.03
 30
0.0
 11
82.2220535648
 21
-9.367465166
 31
0.0
 40
0.2285878445
 41
-1.6201646182
 42
-1.6145774473
  0
ELLIPSE
  5
491
100
AcDbEntity
  8
0
100
AcDbEllipse
 62
7
  6
CONTINUOUS
 10
150.3365096221
 20
105.03
 30
0.0
 11
30.0021573216
 21
-13.0486118123
 31
0.0
 40
0.5484268377
 41
-1.4064662235
 42
-1.3952982518
  0
ELLIPSE
  5
492
100
AcDbEntity
  8
0
100
AcDbEllipse
 62
7
  6
CONTINUOUS
 10
149.3320865768
 20
105.03
 30
0.0
 11
-8.2695851706
 21
20.5331904336
 31
0.0
 40
0.5324560867
 41
-3.8478183201
 42
-3.8310796472
  0
ELLIPSE
  5
493
100
AcDbEntity
  8
0
100
AcDbEllipse
 62
7
  6
CONTINUOUS
 10
139.7489240045
 20
105.03
 30
0.0
 11
14.0159936489
 21
19.0901477931
 31
0.0
 40
0.6243021305
 41
-2.2279842985
 42
-2.1215182891
  0
ELLIPSE
  5
494
100
AcDbEntity
  8
0
100
AcDbEllipse
 62
7
  6
CONTINUOUS
 10
155.0261220073
 20
105.03
 30
0.0
 11
-10.5405260557
 21
20.0814991852
 31
0.0
 40
0.5827746185
 41
-4.0296728895
 42
-4.0076192141
  0
ELLIPSE
  5
495
100
AcDbEntity
  8
0
100
AcDbEllipse
 62
7
  6
CONTINUOUS
 10
151.1976566186
 20
105.03
 30
0.0
 11
10.5405260557
 21
20.0814991852
 31
0.0
 40
0.5827746185
 41
-2.2755660931
 42
-2.2535124177
  0
ELLIPSE
  5
496
100
AcDbEntity
  8
0
100
AcDbEllipse
 62
7
  6
CONTINUOUS
 10
149.0449075455
 20
105.03
 30
0.0
 11
-3.1652811461
 21
20.9799589575
 31
0.0
 40
0.2897803069
 41
-3.663528122
 42
-3.6468011842
  0
ELLIPSE
  5
497
100
AcDbEntity
  8
0
100
AcDbEllipse
 62
7
  6
CONTINUOUS
 10
145.2502390371
 20
105.03
 30
0.0
 11
-10.1487841814
 21
20.1709267343
 31
0.0
 40
0.5756755172
 41
-3.8404558237
 42
-3.8181551902
  0
ELLIPSE
  5
498
100
AcDbEntity
  8
0
100
AcDbEllipse
 62
7
  6
CONTINUOUS
 10
144.4644725782
 20
105.03
 30
0.0
 11
33.7097459272
 21
-12.1595211407
 31
0.0
 40
0.5079097396
 41
-1.347896909
 42
-1.3311584128
  0
ELLIPSE
  5
499
100
AcDbEntity
  8
0
100
AcDbEllipse
 62
7
  6
CONTINUOUS
 10
140.4612993406
 20
105.03
 30
0.0
 11
102.7987318273
 21
-9.1861764658
 31
0.0
 40
0.1837010066
 41
-1.4959439982
 42
-1.4903610873
  0
ELLIPSE
  5
49A
100
AcDbEntity
  8
0
100
AcDbEllipse
 62
7
  6
CONTINUOUS
 10
154.3041388615
 20
105.03
 30
0.0
 11
102.7986141185
 21
9.1861771943
 31
0.0
 40
0.1837012135
 41
-1.6512316048
 42
-1.645648694
  0
ELLIPSE
  5
49B
100
AcDbEntity
  8
0
100
AcDbEllipse
 62
7
  6
CONTINUOUS
 10
150.3009747865
 20
105.03
 30
0.0
 11
33.7097875932
 21
12.1595125791
 31
0.0
 40
0.5079092922
 41
-1.8104337408
 42
-1.7936952445
  0
ELLIPSE
  5
49C
100
AcDbEntity
  8
0
100
AcDbEllipse
 62
7
  6
CONTINUOUS
 10
149.5152066926
 20
105.03
 30
0.0
 11
10.1487841814
 21
20.1709267343
 31
0.0
 40
0.5756755172
 41
-2.4650301169
 42
-2.4427294834
  0
ENDSEC
  0
SECTION
  2
OBJECTS
  0
DICTIONARY
  5
C
100
AcDbDictionary
280
0
281
1
  3
ACAD_GROUP
350
D
  3
ACAD_MLINESTYLE
350
17
  3
ACAD_LAYOUT
350
1A
  3
ACAD_PLOTSETTINGS
350
19
  3
ACAD_PLOTSTYLENAME
350
E
  0
DICTIONARY
  5
D
102
{ACAD_REACTORS
330
C
102
}
100
AcDbDictionary
280
0
281
1
  0
ACDBDICTIONARYWDFLT
  5
E
102
{ACAD_REACTORS
330
C
102
}
100
AcDbDictionary
281
1
  3
Normal
350
F
100
AcDbDictionaryWithDefault
340
F
  0
DICTIONARY
  5
17
102
{ACAD_REACTORS
330
C
102
}
100
AcDbDictionary
280
0
281
1
  3
Standard
350
18
  0
DICTIONARY
  5
19
102
{ACAD_REACTORS
330
C
102
}
100
AcDbDictionary
281
1
  0
DICTIONARY
  5
1A
102
{ACAD_REACTORS
330
C
102
}
100
AcDbDictionary
281
1
  3
Model
350
49D
  3
Layout1
350
49E
  0
ACDBPLACEHOLDER
  5
F
102
{ACAD_REACTORS
330
E
102
}
  0
MLINESTYLE
  5
18
102
{ACAD_REACTORS
330
17
102
}
100
AcDbMlineStyle
  2
STANDARD
 70
0
  3

 62
256
 51
90.0
 52
90.0
 71
2
 49
0.5
 62
256
  6
BYLAYER
 49
-0.5
 62
256
  6
BYLAYER
  0
LAYOUT
  5
49D
102
{ACAD_REACTORS
330
1A
102
}
100
AcDbPlotSettings
  1

  2
none_device
  4
ISO_A3_(420.00_x_297.00_MM)
  6

 40
0.0
 41
0.0
 42
0.0
 43
0.0
 44
420.0
 45
297.0
 46
0.0
 47
0.0
 48
0.0
 49
0.0
140
0.0
141
0.0
142
1.0
143
1.0
 70
1024
 72
1
 73
0
 74
0
  7

 75
0
147
1.0
148
0.0
149
0.0
100
AcDbLayout
  1
Model
 70
0
 71
0
 10
0.0
 20
0.0
 11
420.0
 21
297.0
 12
0.0
 22
0.0
 32
0.0
 14
0.0
 24
0.0
 34
0.0
 15
0.0
 25
0.0
 35
0.0
146
0.0
 13
0.0
 23
0.0
 33
0.0
 16
1.0
 26
0.0
 36
0.0
 17
0.0
 27
1.0
 37
0.0
 76
0
330
20E
345
0
346
0
  0
LAYOUT
  5
49E
102
{ACAD_REACTORS
330
1A
102
}
100
AcDbPlotSettings
  1

  2
none_device
  4
ISO_A3_(420.00_x_297.00_MM)
  6

 40
0.0
 41
0.0
 42
0.0
 43
0.0
 44
420.0
 45
297.0
 46
0.0
 47
0.0
 48
0.0
 49
0.0
140
0.0
141
0.0
142
1.0
143
1.0
 70
0
 72
1
 73
0
 74
0
  7

 75
0
147
1.0
148
0.0
149
0.0
100
AcDbLayout
  1
Layout1
 70
0
 71
1
 10
0.0
 20
0.0
 11
420.0
 21
297.0
 12
0.0
 22
0.0
 32
0.0
 14
0.0
 24
0.0
 34
0.0
 15
0.0
 25
0.0
 35
0.0
146
0.0
 13
0.0
 23
0.0
 33
0.0
 16
1.0
 26
0.0
 36
0.0
 17
0.0
 27
1.0
 37
0.0
 76
0
330
20F
345
0
346
0
  0
ENDSEC
  0
EOF
