999
DXF file: 001-m32632-p1.dxf
999
Pro/ENGINEER 2011490 by Parametric Technology Corporation
  0
SECTION
  2
HEADER
  9
$ACADVER
  1
AC1015
  9
$DWGCODEPAGE
  3
ANSI_1252
  9
$EXTMAX
 10
297.0
 20
210.0
 30
0.0
  9
$EXTMIN
 10
0.0
 20
0.0
 30
0.0
  9
$LIMMIN
 10
0.0
 20
0.0
  9
$LIMMAX
 10
297.0
 20
210.0
  9
$VIEWCTR
 10
148.5
 20
105.0
  9
$VIEWSIZE
 40
210.0
  9
$CLAYER
  8
0
  9
$LTSCALE
 40
16.335
  9
$CELTYPE
  6
BYLAYER
  9
$DIMSCALE
 40
1.0
  9
$DIMASZ
 40
3.5
  9
$DIMEXO
 40
1.85625
  9
$DIMDLI
 40
11.286
  9
$DIMEXE
 40
5.346
  9
$DIMCEN
 40
2.673
  9
$DIMLFAC
 40
1.0
  9
$DIMBLK
  1
_FILLED
  9
$DIMTXT
 40
3.5
  9
$DIMTOL
 70
1
  9
$DIMLIM
 70
0
  9
$DIMTFAC
 40
1.0
  9
$DIMTP
 40
0.005
  9
$DIMTM
 40
0.005
  9
$PDMODE
 70
3
  9
$PDSIZE
 40
0.3125
  9
$HANDSEED
  5
4F7
  9
$TILEMODE
 70
1
  9
$MEASUREMENT
 70
1
  9
$INSUNITS
 70
4
  0
ENDSEC
  0
SECTION
  2
CLASSES
  0
CLASS
  1
ACDBDICTIONARYWDFLT
  2
AcDbDictionaryWithDefault
  3
AutoCAD 2000
 90
0
280
0
281
0
  0
CLASS
  1
ACDBPLACEHOLDER
  2
AcDbPlaceHolder
  3
AutoCAD 2000
 90
0
280
0
281
0
  0
CLASS
  1
LAYOUT
  2
AcDbLayout
  3
AutoCAD 2000
 90
0
280
0
281
0
  0
ENDSEC
  0
SECTION
  2
TABLES
  0
TABLE
  2
VPORT
  5
8
100
AcDbSymbolTable
 70
2
  0
VPORT
  5
1F4
100
AcDbSymbolTableRecord
100
AcDbViewportTableRecord
  2
*ACTIVE
 70
0
 10
0.0
 20
0.0
 11
1.0
 21
1.0
 12
148.5
 22
105.0
 13
0.0
 23
0.0
 14
1.0
 24
1.0
 15
0.0
 25
0.0
 16
0.0
 26
0.0
 36
1.0
 17
0.0
 27
0.0
 37
0.0
 40
210.0
 41
1.4142857143
 42
50.0
 43
0.0
 44
0.0
 50
0.0
 51
0.0
 71
0
 72
100
 73
1
 74
1
 75
0
 76
0
 77
0
 78
0
  0
ENDTAB
  0
TABLE
  2
LTYPE
  5
5
100
AcDbSymbolTable
 70
6
  0
LTYPE
  5
14
100
AcDbSymbolTableRecord
100
AcDbLinetypeTableRecord
  2
BYBLOCK
 70
0
  3

 72
65
 73
0
 40
0.0
  0
LTYPE
  5
15
100
AcDbSymbolTableRecord
100
AcDbLinetypeTableRecord
  2
BYLAYER
 70
0
  3

 72
65
 73
0
 40
0.0
  0
LTYPE
  5
16
100
AcDbSymbolTableRecord
100
AcDbLinetypeTableRecord
  2
CONTINUOUS
 70
64
  3
Solid line
 72
65
 73
0
 40
0.0
  0
LTYPE
  5
1F5
100
AcDbSymbolTableRecord
100
AcDbLinetypeTableRecord
  2
CENTER
 70
64
  3
____ _ ____ _ ____ _ ____ _ ____ _ ____ _ ____
 72
65
 73
4
 40
0.6
 49
0.375
 74
0
 49
-0.075
 74
0
 49
0.075
 74
0
 49
-0.075
 74
0
  0
LTYPE
  5
1F6
100
AcDbSymbolTableRecord
100
AcDbLinetypeTableRecord
  2
HIDDEN
 70
64
  3
- - - - - - - - - - - - - - - - - - - -
 72
65
 73
2
 40
0.2
 49
0.1
 74
0
 49
-0.1
 74
0
  0
LTYPE
  5
1F7
100
AcDbSymbolTableRecord
100
AcDbLinetypeTableRecord
  2
PHANTOM
 70
64
  3
_____ _ _ _____ _ _ _____ _ _ _____
 72
65
 73
6
 40
0.8
 49
0.45
 74
0
 49
-0.05
 74
0
 49
0.1
 74
0
 49
-0.05
 74
0
 49
0.1
 74
0
 49
-0.05
 74
0
  0
LTYPE
  5
1F8
100
AcDbSymbolTableRecord
100
AcDbLinetypeTableRecord
  2
DOT
 70
64
  3
. . . . . . . . . . . . . . . . . . . .
 72
65
 73
2
 40
0.2
 49
0.1
 74
0
 49
-0.1
 74
0
  0
LTYPE
  5
1F9
100
AcDbSymbolTableRecord
100
AcDbLinetypeTableRecord
  2
DASHED
 70
64
  3
- - - - - - - - - - - - - - - - - - - -
 72
65
 73
2
 40
0.2
 49
0.1
 74
0
 49
-0.1
 74
0
  0
ENDTAB
  0
TABLE
  2
LAYER
  5
2
100
AcDbSymbolTable
 70
36
  0
LAYER
  5
10
100
AcDbSymbolTableRecord
100
AcDbLayerTableRecord
  2
0
 70
0
 62
7
  6
CONTINUOUS
370
-3
390
F
  0
LAYER
  5
1FA
100
AcDbSymbolTableRecord
100
AcDbLayerTableRecord
  2
DEFAULT_1
 70
0
 62
7
  6
CENTER
370
-3
390
F
  0
LAYER
  5
1FB
100
AcDbSymbolTableRecord
100
AcDbLayerTableRecord
  2
DEFAULT_2
 70
0
 62
8
  6
HIDDEN
370
-3
390
F
  0
LAYER
  5
1FC
100
AcDbSymbolTableRecord
100
AcDbLayerTableRecord
  2
DEFAULT_3
 70
0
 62
7
  6
PHANTOM
370
-3
390
F
  0
LAYER
  5
1FD
100
AcDbSymbolTableRecord
100
AcDbLayerTableRecord
  2
AUSFORMSCHRAEGEN
 70
0
 62
7
  6
CONTINUOUS
370
-3
390
F
  0
LAYER
  5
1FE
100
AcDbSymbolTableRecord
100
AcDbLayerTableRecord
  2
BEZUGSACHSEN
 70
0
 62
7
  6
CONTINUOUS
370
-3
390
F
  0
LAYER
  5
1FF
100
AcDbSymbolTableRecord
100
AcDbLayerTableRecord
  2
BEZUGSEBENEN
 70
0
 62
7
  6
CONTINUOUS
370
-3
390
F
  0
LAYER
  5
200
100
AcDbSymbolTableRecord
100
AcDbLayerTableRecord
  2
BG_STARTBEZUEGE
 70
0
 62
7
  6
CONTINUOUS
370
-3
390
F
  0
LAYER
  5
201
100
AcDbSymbolTableRecord
100
AcDbLayerTableRecord
  2
FASEN
 70
0
 62
7
  6
CONTINUOUS
370
-3
390
F
  0
LAYER
  5
202
100
AcDbSymbolTableRecord
100
AcDbLayerTableRecord
  2
HILFEN
 70
0
 62
7
  6
CONTINUOUS
370
-3
390
F
  0
LAYER
  5
203
100
AcDbSymbolTableRecord
100
AcDbLayerTableRecord
  2
KONSTRUKTIONSELEMENTE
 70
0
 62
7
  6
CONTINUOUS
370
-3
390
F
  0
LAYER
  5
204
100
AcDbSymbolTableRecord
100
AcDbLayerTableRecord
  2
KURVEN
 70
0
 62
7
  6
CONTINUOUS
370
-3
390
F
  0
LAYER
  5
205
100
AcDbSymbolTableRecord
100
AcDbLayerTableRecord
  2
NORM
 70
0
 62
7
  6
CONTINUOUS
370
-3
390
F
  0
LAYER
  5
206
100
AcDbSymbolTableRecord
100
AcDbLayerTableRecord
  2
PLATZIERUNG
 70
0
 62
7
  6
CONTINUOUS
370
-3
390
F
  0
LAYER
  5
207
100
AcDbSymbolTableRecord
100
AcDbLayerTableRecord
  2
RUNDUNGEN
 70
0
 62
7
  6
CONTINUOUS
370
-3
390
F
  0
LAYER
  5
208
100
AcDbSymbolTableRecord
100
AcDbLayerTableRecord
  2
TEIL_STARTBEZUEGE
 70
0
 62
7
  6
CONTINUOUS
370
-3
390
F
  0
LAYER
  5
209
100
AcDbSymbolTableRecord
100
AcDbLayerTableRecord
  2
T_STARTBEZUEGE
 70
0
 62
7
  6
CONTINUOUS
370
-3
390
F
  0
LAYER
  5
20A
100
AcDbSymbolTableRecord
100
AcDbLayerTableRecord
  2
ZEICHNUNGSBEMASSUNGEN
 70
0
 62
7
  6
CONTINUOUS
370
-3
390
F
  0
ENDTAB
  0
TABLE
  2
STYLE
  5
3
100
AcDbSymbolTable
 70
1
  0
STYLE
  5
11
100
AcDbSymbolTableRecord
100
AcDbTextStyleTableRecord
  2
STANDARD
 70
0
 40
0.0
 41
0.7
 50
0.0
 71
0
 42
0.2
  3
txt
  4

  0
STYLE
  5
20B
100
AcDbSymbolTableRecord
100
AcDbTextStyleTableRecord
  2
TEXTSTYLE_1
 70
0
 40
0.0
 41
0.8
 50
0.0
 71
0
 42
0.2
  3
gdt
  4

  0
ENDTAB
  0
TABLE
  2
VIEW
  5
6
100
AcDbSymbolTable
 70
0
  0
ENDTAB
  0
TABLE
  2
UCS
  5
7
100
AcDbSymbolTable
 70
0
  0
ENDTAB
  0
TABLE
  2
APPID
  5
9
100
AcDbSymbolTable
 70
1
  0
APPID
  5
20C
100
AcDbSymbolTableRecord
100
AcDbRegAppTableRecord
  2
ACAD
 70
0
  0
ENDTAB
  0
TABLE
  2
BLOCK_RECORD
  5
1
100
AcDbSymbolTable
 70
0
  0
BLOCK_RECORD
  5
20D
100
AcDbSymbolTableRecord
100
AcDbBlockTableRecord
  2
*Model_Space
  0
BLOCK_RECORD
  5
20E
100
AcDbSymbolTableRecord
100
AcDbBlockTableRecord
  2
*Paper_Space
  0
ENDTAB
  0
TABLE
  2
DIMSTYLE
  5
A
100
AcDbSymbolTable
 70
1
100
AcDbDimStyleTable
 71
0
  0
DIMSTYLE
105
20F
100
AcDbSymbolTableRecord
100
AcDbDimStyleTableRecord
  2
STANDARD
 70
0
  3

  4

 40
1.0
 41
3.5
 42
0.0625
 43
0.38
 44
0.18
 45
0.0
 46
0.0
 47
0.005
 48
0.005
140
3.5
141
0.09
142
0.0
143
25.4
144
1.0
145
0.0
146
1.0
147
0.09
 71
1.0
 72
0.0
 73
0
 74
0
 75
0
 76
0
 77
1
 78
8
170
0
171
2
172
0
173
0
174
0
175
0
176
0
177
0
178
5
270
2
271
3
272
3
273
2
274
2
275
0
280
0
281
0
282
0
283
1
284
8
285
0
286
0
287
3
288
0
340
11
  0
ENDTAB
  0
ENDSEC
  0
SECTION
  2
BLOCKS
  0
BLOCK
  5
20
100
AcDbEntity
  8
0
100
AcDbBlockBegin
  2
*Model_Space
 70
0
 10
0.0
 20
0.0
 30
0.0
  3
*Model_Space
  1

  0
ENDBLK
  5
21
100
AcDbEntity
  8
0
100
AcDbBlockEnd
  0
BLOCK
  5
1C
100
AcDbEntity
  8
0
100
AcDbBlockBegin
  2
*Paper_Space
 70
0
 10
0.0
 20
0.0
 30
0.0
  3
*Paper_Space
  1

  0
ENDBLK
  5
1D
100
AcDbEntity
  8
0
100
AcDbBlockEnd
  0
ENDSEC
  0
SECTION
  2
ENTITIES
  0
MTEXT
  5
210
100
AcDbEntity
  8
0
100
AcDbMText
 62
5
  6
CONTINUOUS
  7
STANDARD
 71
2
 72
1
 10
95.6116744078
 20
41.4909553748
 30
0.0
 11
1.0
 21
0.0
 31
0.0
 44
0.9
  1
VLBS-U-LT 2,5t\PRUD
 40
4.0
 41
41.5238095238
  0
MTEXT
  5
211
100
AcDbEntity
  8
0
100
AcDbMText
 62
5
  6
CONTINUOUS
  7
STANDARD
 71
2
 72
1
 10
95.7018976244
 20
183.5581261436
 30
0.0
 11
1.0
 21
0.0
 31
0.0
 44
0.9
  1
RUD\PVLBS-U-LT 2,5t\P 
 40
4.0
 41
40.7619047619
  0
MTEXT
  5
212
100
AcDbEntity
  8
0
100
AcDbMText
 62
5
  6
CONTINUOUS
  7
STANDARD
 71
2
 72
1
 10
207.5038244876
 20
147.3713460686
 30
0.0
 11
0.0
 21
1.0
 31
0.0
 44
0.9
  1
VLBS-U-LT 2,5t\PRUD
 40
4.0
 41
41.5238095238
  0
LINE
  5
213
100
AcDbEntity
  8
0
100
AcDbLine
 62
7
  6
CONTINUOUS
 10
0.0
 20
0.0
 11
0.0
 21
210.0
  0
LINE
  5
214
100
AcDbEntity
  8
0
100
AcDbLine
 62
7
  6
CONTINUOUS
 10
0.0
 20
0.0
 11
297.0
 21
0.0
  0
LINE
  5
215
100
AcDbEntity
  8
0
100
AcDbLine
 62
7
  6
CONTINUOUS
 10
0.0
 20
210.0
 11
297.0
 21
210.0
  0
LINE
  5
216
100
AcDbEntity
  8
0
100
AcDbLine
 62
7
  6
CONTINUOUS
 10
297.0
 20
0.0
 11
297.0
 21
210.0
  0
LINE
  5
217
100
AcDbEntity
  8
RUNDUNGEN
100
AcDbLine
 62
7
  6
CONTINUOUS
 10
115.160373133
 20
98.3482893065
 11
75.4982521548
 21
98.3482893065
  0
LINE
  5
218
100
AcDbEntity
  8
BEZUGSACHSEN
100
AcDbLine
 62
7
  6
CONTINUOUS
 10
129.8293121439
 20
99.5982893065
 11
115.2645440053
 21
99.5982893065
  0
LINE
  5
219
100
AcDbEntity
  8
BEZUGSACHSEN
100
AcDbLine
 62
7
  6
CONTINUOUS
 10
75.3940812826
 20
99.5982893065
 11
60.8293131439
 21
99.5982893065
  0
LINE
  5
21A
100
AcDbEntity
  8
BEZUGSACHSEN
100
AcDbLine
 62
7
  6
CONTINUOUS
 10
92.6102462112
 20
187.8074328653
 11
70.4108151385
 21
178.6121274381
  0
LINE
  5
21B
100
AcDbEntity
  8
RUNDUNGEN
100
AcDbLine
 62
7
  6
CONTINUOUS
 10
75.3305704699
 20
101.3482893065
 11
115.3280548179
 21
101.3482893065
  0
LINE
  5
21C
100
AcDbEntity
  8
BEZUGSACHSEN
100
AcDbLine
 62
7
  6
CONTINUOUS
 10
56.8293131439
 20
103.5982893065
 11
56.8293131439
 21
149.8482893065
  0
LINE
  5
21D
100
AcDbEntity
  8
BEZUGSACHSEN
100
AcDbLine
 62
7
  6
CONTINUOUS
 10
66.5654745124
 20
174.766786812
 11
57.3701690851
 21
152.5673557392
  0
LINE
  5
21E
100
AcDbEntity
  8
KONSTRUKTIONSELEMENTE
100
AcDbLine
 62
7
  6
CONTINUOUS
 10
113.8293126439
 20
110.0212685063
 11
76.8293126439
 21
110.0212685063
  0
LINE
  5
21F
100
AcDbEntity
  8
0
100
AcDbLine
 62
7
  6
CONTINUOUS
 10
97.1547294497
 20
111.9480571462
 11
96.7172294497
 21
111.9480571462
  0
LINE
  5
220
100
AcDbEntity
  8
0
100
AcDbLine
 62
7
  6
CONTINUOUS
 10
94.3109794497
 20
111.9480571462
 11
93.8734792411
 21
111.9480571462
  0
LINE
  5
221
100
AcDbEntity
  8
0
100
AcDbLine
 62
7
  6
CONTINUOUS
 10
97.1547294497
 20
112.1740832764
 11
96.7172294497
 21
112.1740832764
  0
LINE
  5
222
100
AcDbEntity
  8
0
100
AcDbLine
 62
7
  6
CONTINUOUS
 10
97.4463958382
 20
112.2440603781
 11
97.1547294497
 21
112.1740832764
  0
LINE
  5
223
100
AcDbEntity
  8
0
100
AcDbLine
 62
7
  6
CONTINUOUS
 10
96.7172294497
 20
113.9235109664
 11
96.3526458382
 21
113.8535338646
  0
LINE
  5
224
100
AcDbEntity
  8
0
100
AcDbLine
 62
7
  6
CONTINUOUS
 10
97.1547294497
 20
112.3055550556
 11
96.7172294497
 21
112.3055550556
  0
LINE
  5
225
100
AcDbEntity
  8
0
100
AcDbLine
 62
7
  6
CONTINUOUS
 10
96.0609794497
 20
112.6639230374
 11
95.6946200275
 21
112.6639230374
  0
LINE
  5
226
100
AcDbEntity
  8
0
100
AcDbLine
 62
7
  6
CONTINUOUS
 10
96.0609794497
 20
112.8017312501
 11
95.6234794497
 21
112.8017312501
  0
LINE
  5
227
100
AcDbEntity
  8
0
100
AcDbLine
 62
7
  6
CONTINUOUS
 10
95.0401458382
 20
112.9425719775
 11
94.3109794497
 21
112.9425719775
  0
LINE
  5
228
100
AcDbEntity
  8
0
100
AcDbLine
 62
7
  6
CONTINUOUS
 10
93.8734792411
 20
112.9425719775
 11
92.1234793454
 21
112.9425719775
  0
LINE
  5
229
100
AcDbEntity
  8
0
100
AcDbLine
 62
7
  6
CONTINUOUS
 10
91.5401459425
 20
113.1530639611
 11
90.5193126439
 21
113.1530639611
  0
LINE
  5
22A
100
AcDbEntity
  8
0
100
AcDbLine
 62
7
  6
CONTINUOUS
 10
95.0401458382
 20
113.2237399492
 11
94.3109794497
 21
113.2237399492
  0
LINE
  5
22B
100
AcDbEntity
  8
0
100
AcDbLine
 62
7
  6
CONTINUOUS
 10
93.8734792411
 20
113.2237399492
 11
92.6338960468
 21
113.2237399492
  0
LINE
  5
22C
100
AcDbEntity
  8
0
100
AcDbLine
 62
7
  6
CONTINUOUS
 10
95.0401458382
 20
113.3626333017
 11
94.3109794497
 21
113.3626333017
  0
LINE
  5
22D
100
AcDbEntity
  8
0
100
AcDbLine
 62
7
  6
CONTINUOUS
 10
93.8734792411
 20
113.3626333017
 11
92.6338960468
 21
113.3626333017
  0
LINE
  5
22E
100
AcDbEntity
  8
0
100
AcDbLine
 62
7
  6
CONTINUOUS
 10
91.5401459425
 20
113.3636941526
 11
90.5193126439
 21
113.3636941526
  0
LINE
  5
22F
100
AcDbEntity
  8
0
100
AcDbLine
 62
7
  6
CONTINUOUS
 10
96.1338958382
 20
113.4322846466
 11
95.6234794497
 21
113.4322846466
  0
LINE
  5
230
100
AcDbEntity
  8
0
100
AcDbLine
 62
7
  6
CONTINUOUS
 10
91.5401459425
 20
113.5018334347
 11
90.5193126439
 21
113.5018334347
  0
LINE
  5
231
100
AcDbEntity
  8
0
100
AcDbLine
 62
7
  6
CONTINUOUS
 10
97.1547294497
 20
113.7098642244
 11
96.7172294497
 21
113.7098642244
  0
LINE
  5
232
100
AcDbEntity
  8
0
100
AcDbLine
 62
7
  6
CONTINUOUS
 10
97.1547294497
 20
113.9235109664
 11
96.7172294497
 21
113.9235109664
  0
LINE
  5
233
100
AcDbEntity
  8
0
100
AcDbLine
 62
7
  6
CONTINUOUS
 10
97.1547294497
 20
114.0545281411
 11
96.7172294497
 21
114.0545281411
  0
LINE
  5
234
100
AcDbEntity
  8
0
100
AcDbLine
 62
7
  6
CONTINUOUS
 10
100.6911876439
 20
114.4136555941
 11
100.4724376439
 21
114.4136555941
  0
LINE
  5
235
100
AcDbEntity
  8
0
100
AcDbLine
 62
7
  6
CONTINUOUS
 10
98.1026462554
 20
114.8712035513
 11
95.9880626439
 21
114.8712035513
  0
LINE
  5
236
100
AcDbEntity
  8
0
100
AcDbLine
 62
7
  6
CONTINUOUS
 10
100.6911876439
 20
115.1131218916
 11
100.4724376439
 21
115.1131218916
  0
LINE
  5
237
100
AcDbEntity
  8
0
100
AcDbLine
 62
7
  6
CONTINUOUS
 10
98.1026462554
 20
115.1131218916
 11
95.6234794497
 21
115.1131218916
  0
LINE
  5
238
100
AcDbEntity
  8
0
100
AcDbLine
 62
7
  6
CONTINUOUS
 10
94.3109794497
 20
115.1131218916
 11
93.8734792411
 21
115.1131218916
  0
LINE
  5
239
100
AcDbEntity
  8
0
100
AcDbLine
 62
7
  6
CONTINUOUS
 10
100.6911876439
 20
115.2070728367
 11
100.4724376439
 21
115.2070728367
  0
LINE
  5
23A
100
AcDbEntity
  8
0
100
AcDbLine
 62
7
  6
CONTINUOUS
 10
98.1026462554
 20
115.2070728367
 11
95.6234794497
 21
115.2070728367
  0
LINE
  5
23B
100
AcDbEntity
  8
0
100
AcDbLine
 62
7
  6
CONTINUOUS
 10
94.3109794497
 20
115.2070728367
 11
93.8734792411
 21
115.2070728367
  0
LINE
  5
23C
100
AcDbEntity
  8
0
100
AcDbLine
 62
7
  6
CONTINUOUS
 10
97.5193126439
 20
113.8535338646
 11
97.1547294497
 21
113.9235109664
  0
LINE
  5
23D
100
AcDbEntity
  8
0
100
AcDbLine
 62
7
  6
CONTINUOUS
 10
96.7172294497
 20
112.1740832764
 11
96.4255626439
 21
112.2440603781
  0
LINE
  5
23E
100
AcDbEntity
  8
0
100
AcDbLine
 62
7
  6
CONTINUOUS
 10
97.8838962554
 20
113.6436025595
 11
97.5193126439
 21
113.8535338646
  0
LINE
  5
23F
100
AcDbEntity
  8
0
100
AcDbLine
 62
7
  6
CONTINUOUS
 10
96.4255626439
 20
112.2440603781
 11
96.2068126439
 21
112.3840145816
  0
LINE
  5
240
100
AcDbEntity
  8
BEZUGSACHSEN
100
AcDbLine
 62
7
  6
CONTINUOUS
 10
72.8293131439
 20
121.5982893065
 11
72.8293131439
 21
125.9753073157
  0
LINE
  5
241
100
AcDbEntity
  8
BEZUGSACHSEN
100
AcDbLine
 62
7
  6
CONTINUOUS
 10
72.8293131439
 20
147.5906801165
 11
72.8293131439
 21
149.8482893065
  0
LINE
  5
242
100
AcDbEntity
  8
0
100
AcDbLine
 62
7
  6
CONTINUOUS
 10
75.3293126439
 20
123.8482893065
 11
75.3293126439
 21
110.6048546018
  0
LINE
  5
243
100
AcDbEntity
  8
RUNDUNGEN
100
AcDbLine
 62
7
  6
CONTINUOUS
 10
75.3293126439
 20
107.8192805152
 11
75.3293126439
 21
101.482364193
  0
LINE
  5
244
100
AcDbEntity
  8
KONSTRUKTIONSELEMENTE
100
AcDbLine
 62
7
  6
CONTINUOUS
 10
75.3293126439
 20
107.8192805152
 11
75.3293126439
 21
110.6048546018
  0
LINE
  5
245
100
AcDbEntity
  8
0
100
AcDbLine
 62
7
  6
CONTINUOUS
 10
98.7216530102
 20
122.4142776706
 11
98.1365466969
 21
122.4142776706
  0
LINE
  5
246
100
AcDbEntity
  8
KONSTRUKTIONSELEMENTE
100
AcDbLine
 62
7
  6
CONTINUOUS
 10
98.7216530102
 20
123.0053309216
 11
98.1365466969
 21
123.0053309216
  0
LINE
  5
247
100
AcDbEntity
  8
KONSTRUKTIONSELEMENTE
100
AcDbLine
 62
7
  6
CONTINUOUS
 10
98.6046317475
 20
123.4110155314
 11
98.2535679596
 21
123.4110155314
  0
LINE
  5
248
100
AcDbEntity
  8
0
100
AcDbLine
 62
7
  6
CONTINUOUS
 10
90.6685755912
 20
123.6557475142
 11
90.2004905406
 21
123.6557475142
  0
LINE
  5
249
100
AcDbEntity
  8
0
100
AcDbLine
 62
7
  6
CONTINUOUS
 10
87.3919799503
 20
123.7592694212
 11
86.9238948587
 21
123.7592694212
  0
LINE
  5
24A
100
AcDbEntity
  8
0
100
AcDbLine
 62
7
  6
CONTINUOUS
 10
100.9450571644
 20
124.057508058
 11
100.7110146391
 21
124.057508058
  0
LINE
  5
24B
100
AcDbEntity
  8
KONSTRUKTIONSELEMENTE
100
AcDbLine
 62
7
  6
CONTINUOUS
 10
83.6338948448
 20
125.8215872352
 11
83.6213634515
 21
125.8334809042
  0
LINE
  5
24C
100
AcDbEntity
  8
KONSTRUKTIONSELEMENTE
100
AcDbLine
 62
7
  6
CONTINUOUS
 10
78.646426266
 20
125.5231387035
 11
78.633894862
 21
125.5685724791
  0
LINE
  5
24D
100
AcDbEntity
  8
0
100
AcDbLine
 62
7
  6
CONTINUOUS
 10
78.6338948587
 20
125.0572582377
 11
78.6338948587
 21
125.5231387035
  0
LINE
  5
24E
100
AcDbEntity
  8
0
100
AcDbLine
 62
7
  6
CONTINUOUS
 10
78.6338948587
 20
125.5685724791
 11
78.6338948587
 21
125.8190721767
  0
LINE
  5
24F
100
AcDbEntity
  8
KONSTRUKTIONSELEMENTE
100
AcDbLine
 62
7
  6
CONTINUOUS
 10
78.646426266
 20
125.8334809042
 11
78.646426266
 21
125.6007030364
  0
LINE
  5
250
100
AcDbEntity
  8
KONSTRUKTIONSELEMENTE
100
AcDbLine
 62
7
  6
CONTINUOUS
 10
78.646426266
 20
125.5231387035
 11
78.646426266
 21
125.0141914311
  0
LINE
  5
251
100
AcDbEntity
  8
KONSTRUKTIONSELEMENTE
100
AcDbLine
 62
7
  6
CONTINUOUS
 10
79.4018440512
 20
125.8334809042
 11
79.4018440512
 21
125.7920845339
  0
LINE
  5
252
100
AcDbEntity
  8
KONSTRUKTIONSELEMENTE
100
AcDbLine
 62
7
  6
CONTINUOUS
 10
79.4018440512
 20
125.5231387035
 11
79.4018440512
 21
125.0141914311
  0
LINE
  5
253
100
AcDbEntity
  8
KONSTRUKTIONSELEMENTE
100
AcDbLine
 62
7
  6
CONTINUOUS
 10
104.9898481114
 20
125.8481275057
 11
104.989312644
 21
125.8480568684
  0
LINE
  5
254
100
AcDbEntity
  8
0
100
AcDbLine
 62
7
  6
CONTINUOUS
 10
91.6047460202
 20
124.180026092
 11
90.6685755912
 21
124.180026092
  0
LINE
  5
255
100
AcDbEntity
  8
0
100
AcDbLine
 62
7
  6
CONTINUOUS
 10
90.2004905406
 20
124.180026092
 11
88.0941076491
 21
124.180026092
  0
LINE
  5
256
100
AcDbEntity
  8
KONSTRUKTIONSELEMENTE
100
AcDbLine
 62
7
  6
CONTINUOUS
 10
90.6685755912
 20
124.2045749519
 11
90.2004905406
 21
124.2045749519
  0
LINE
  5
257
100
AcDbEntity
  8
KONSTRUKTIONSELEMENTE
100
AcDbLine
 62
7
  6
CONTINUOUS
 10
87.3919799503
 20
124.3048424725
 11
86.9238948587
 21
124.3048424725
  0
LINE
  5
258
100
AcDbEntity
  8
KONSTRUKTIONSELEMENTE
100
AcDbLine
 62
7
  6
CONTINUOUS
 10
108.6693126439
 20
124.4718530778
 11
107.1893126439
 21
124.4718530778
  0
LINE
  5
259
100
AcDbEntity
  8
KONSTRUKTIONSELEMENTE
100
AcDbLine
 62
7
  6
CONTINUOUS
 10
100.9450571644
 20
124.5939144022
 11
100.7110146391
 21
124.5939144022
  0
LINE
  5
25A
100
AcDbEntity
  8
0
100
AcDbLine
 62
7
  6
CONTINUOUS
 10
98.7216530102
 20
124.7036049979
 11
98.3705892222
 21
124.7036049979
  0
LINE
  5
25B
100
AcDbEntity
  8
KONSTRUKTIONSELEMENTE
100
AcDbLine
 62
7
  6
CONTINUOUS
 10
91.6047460202
 20
124.712754034
 11
90.6685755912
 21
124.712754034
  0
LINE
  5
25C
100
AcDbEntity
  8
KONSTRUKTIONSELEMENTE
100
AcDbLine
 62
7
  6
CONTINUOUS
 10
90.2004905406
 20
124.712754034
 11
88.0941076491
 21
124.712754034
  0
LINE
  5
25D
100
AcDbEntity
  8
0
100
AcDbLine
 62
7
  6
CONTINUOUS
 10
109.4693126439
 20
124.7413047036
 11
106.0955094088
 21
124.7413047036
  0
LINE
  5
25E
100
AcDbEntity
  8
KONSTRUKTIONSELEMENTE
100
AcDbLine
 62
7
  6
CONTINUOUS
 10
101.0620787548
 20
124.8418897955
 11
100.5939933764
 21
124.8418897955
  0
LINE
  5
25F
100
AcDbEntity
  8
KONSTRUKTIONSELEMENTE
100
AcDbLine
 62
7
  6
CONTINUOUS
 10
91.6047460202
 20
124.9099728747
 11
90.6685755912
 21
124.9099728747
  0
LINE
  5
260
100
AcDbEntity
  8
KONSTRUKTIONSELEMENTE
100
AcDbLine
 62
7
  6
CONTINUOUS
 10
90.2004905406
 20
124.9099728747
 11
87.8600650419
 21
124.9099728747
  0
LINE
  5
261
100
AcDbEntity
  8
0
100
AcDbLine
 62
7
  6
CONTINUOUS
 10
92.4238948587
 20
124.9465205464
 11
91.8387885455
 21
124.9465205464
  0
LINE
  5
262
100
AcDbEntity
  8
0
100
AcDbLine
 62
7
  6
CONTINUOUS
 10
83.6213634515
 20
125.0141914311
 11
82.8659456663
 21
125.0141914311
  0
LINE
  5
263
100
AcDbEntity
  8
0
100
AcDbLine
 62
7
  6
CONTINUOUS
 10
79.4018440512
 20
125.0141914311
 11
78.646426266
 21
125.0141914311
  0
LINE
  5
264
100
AcDbEntity
  8
0
100
AcDbLine
 62
7
  6
CONTINUOUS
 10
81.5093126439
 20
125.1034255701
 11
80.7538948587
 21
125.1034255701
  0
LINE
  5
265
100
AcDbEntity
  8
KONSTRUKTIONSELEMENTE
100
AcDbLine
 62
7
  6
CONTINUOUS
 10
90.6685755912
 20
125.1839225237
 11
90.2004905406
 21
125.1839225237
  0
LINE
  5
266
100
AcDbEntity
  8
0
100
AcDbLine
 62
7
  6
CONTINUOUS
 10
109.8693126439
 20
125.2047595555
 11
109.4693126439
 21
125.2047595555
  0
LINE
  5
267
100
AcDbEntity
  8
KONSTRUKTIONSELEMENTE
100
AcDbLine
 62
7
  6
CONTINUOUS
 10
101.0620787548
 20
125.2211578479
 11
100.5939933764
 21
125.2211578479
  0
LINE
  5
268
100
AcDbEntity
  8
KONSTRUKTIONSELEMENTE
100
AcDbLine
 62
7
  6
CONTINUOUS
 10
98.7216530102
 20
125.2211578479
 11
98.1365466969
 21
125.2211578479
  0
LINE
  5
269
100
AcDbEntity
  8
KONSTRUKTIONSELEMENTE
100
AcDbLine
 62
7
  6
CONTINUOUS
 10
109.4693126439
 20
125.2577977193
 11
105.9893126439
 21
125.2577977193
  0
LINE
  5
26A
100
AcDbEntity
  8
0
100
AcDbLine
 62
7
  6
CONTINUOUS
 10
91.8387885455
 20
125.3412122082
 11
90.4345330659
 21
125.3412122082
  0
LINE
  5
26B
100
AcDbEntity
  8
KONSTRUKTIONSELEMENTE
100
AcDbLine
 62
7
  6
CONTINUOUS
 10
113.8293126439
 20
125.3482893065
 11
110.8693126439
 21
125.3482893065
  0
LINE
  5
26C
100
AcDbEntity
  8
KONSTRUKTIONSELEMENTE
100
AcDbLine
 62
7
  6
CONTINUOUS
 10
104.9893126439
 20
125.3482893065
 11
102.3493126439
 21
125.3482893065
  0
LINE
  5
26D
100
AcDbEntity
  8
KONSTRUKTIONSELEMENTE
100
AcDbLine
 62
7
  6
CONTINUOUS
 10
96.8493126439
 20
125.3482893065
 11
92.4238948587
 21
125.3482893065
  0
LINE
  5
26E
100
AcDbEntity
  8
KONSTRUKTIONSELEMENTE
100
AcDbLine
 62
7
  6
CONTINUOUS
 10
86.9238948587
 20
125.3482893065
 11
83.6338948587
 21
125.3482893065
  0
LINE
  5
26F
100
AcDbEntity
  8
KONSTRUKTIONSELEMENTE
100
AcDbLine
 62
7
  6
CONTINUOUS
 10
78.6338948587
 20
125.3482893065
 11
76.8293126439
 21
125.3482893065
  0
LINE
  5
270
100
AcDbEntity
  8
KONSTRUKTIONSELEMENTE
100
AcDbLine
 62
7
  6
CONTINUOUS
 10
100.9450571644
 20
125.3886873858
 11
100.7110146391
 21
125.3886873858
  0
LINE
  5
271
100
AcDbEntity
  8
KONSTRUKTIONSELEMENTE
100
AcDbLine
 62
7
  6
CONTINUOUS
 10
98.6046317475
 20
125.3886873858
 11
98.2535679596
 21
125.3886873858
  0
LINE
  5
272
100
AcDbEntity
  8
KONSTRUKTIONSELEMENTE
100
AcDbLine
 62
7
  6
CONTINUOUS
 10
88.9132564876
 20
125.4086216295
 11
88.445171437
 21
125.4086216295
  0
LINE
  5
273
100
AcDbEntity
  8
KONSTRUKTIONSELEMENTE
100
AcDbLine
 62
7
  6
CONTINUOUS
 10
92.4238948587
 20
125.4573186743
 11
91.8387885455
 21
125.4573186743
  0
LINE
  5
274
100
AcDbEntity
  8
KONSTRUKTIONSELEMENTE
100
AcDbLine
 62
7
  6
CONTINUOUS
 10
110.8693126439
 20
125.5231387035
 11
109.8693126439
 21
125.5231387035
  0
LINE
  5
275
100
AcDbEntity
  8
KONSTRUKTIONSELEMENTE
100
AcDbLine
 62
7
  6
CONTINUOUS
 10
109.4693126439
 20
125.5231387035
 11
104.9893126439
 21
125.5231387035
  0
LINE
  5
276
100
AcDbEntity
  8
KONSTRUKTIONSELEMENTE
100
AcDbLine
 62
7
  6
CONTINUOUS
 10
83.6213634515
 20
125.5231387035
 11
82.8659456663
 21
125.5231387035
  0
LINE
  5
277
100
AcDbEntity
  8
KONSTRUKTIONSELEMENTE
100
AcDbLine
 62
7
  6
CONTINUOUS
 10
79.4018440512
 20
125.5231387035
 11
78.646426266
 21
125.5231387035
  0
LINE
  5
278
100
AcDbEntity
  8
KONSTRUKTIONSELEMENTE
100
AcDbLine
 62
7
  6
CONTINUOUS
 10
88.796235225
 20
125.524854331
 11
88.5621926997
 21
125.524854331
  0
LINE
  5
279
100
AcDbEntity
  8
KONSTRUKTIONSELEMENTE
100
AcDbLine
 62
7
  6
CONTINUOUS
 10
81.5093126439
 20
125.6099523458
 11
80.7538948587
 21
125.6099523458
  0
LINE
  5
27A
100
AcDbEntity
  8
KONSTRUKTIONSELEMENTE
100
AcDbLine
 62
7
  6
CONTINUOUS
 10
110.8693126439
 20
125.7085650203
 11
107.3393126439
 21
125.7085650203
  0
LINE
  5
27B
100
AcDbEntity
  8
KONSTRUKTIONSELEMENTE
100
AcDbLine
 62
7
  6
CONTINUOUS
 10
101.6471850681
 20
125.8045032792
 11
100.0088870632
 21
125.8045032792
  0
LINE
  5
27C
100
AcDbEntity
  8
KONSTRUKTIONSELEMENTE
100
AcDbLine
 62
7
  6
CONTINUOUS
 10
99.3067594873
 20
125.8045032792
 11
97.5514403018
 21
125.8045032792
  0
LINE
  5
27D
100
AcDbEntity
  8
KONSTRUKTIONSELEMENTE
100
AcDbLine
 62
7
  6
CONTINUOUS
 10
110.8693126439
 20
125.8164204744
 11
107.3393126439
 21
125.8164204744
  0
LINE
  5
27E
100
AcDbEntity
  8
KONSTRUKTIONSELEMENTE
100
AcDbLine
 62
7
  6
CONTINUOUS
 10
83.6213634515
 20
125.8334809042
 11
82.8659456663
 21
125.8334809042
  0
LINE
  5
27F
100
AcDbEntity
  8
KONSTRUKTIONSELEMENTE
100
AcDbLine
 62
7
  6
CONTINUOUS
 10
79.4018440512
 20
125.8334809042
 11
78.646426266
 21
125.8334809042
  0
LINE
  5
280
100
AcDbEntity
  8
KONSTRUKTIONSELEMENTE
100
AcDbLine
 62
7
  6
CONTINUOUS
 10
102.3493126439
 20
125.8387605352
 11
96.8493126439
 21
125.8387605352
  0
LINE
  5
281
100
AcDbEntity
  8
KONSTRUKTIONSELEMENTE
100
AcDbLine
 62
7
  6
CONTINUOUS
 10
91.8387885455
 20
125.8413985161
 11
89.9664480153
 21
125.8413985161
  0
LINE
  5
282
100
AcDbEntity
  8
KONSTRUKTIONSELEMENTE
100
AcDbLine
 62
7
  6
CONTINUOUS
 10
97.5514403018
 20
125.8456779429
 11
96.8493126439
 21
125.8456779429
  0
LINE
  5
283
100
AcDbEntity
  8
KONSTRUKTIONSELEMENTE
100
AcDbLine
 62
7
  6
CONTINUOUS
 10
106.189312644
 20
125.8482893065
 11
105.0131107488
 21
125.8482893065
  0
LINE
  5
284
100
AcDbEntity
  8
KONSTRUKTIONSELEMENTE
100
AcDbLine
 62
7
  6
CONTINUOUS
 10
92.4238948587
 20
125.8482893065
 11
91.8387885455
 21
125.8482893065
  0
LINE
  5
285
100
AcDbEntity
  8
KONSTRUKTIONSELEMENTE
100
AcDbLine
 62
7
  6
CONTINUOUS
 10
89.9664480153
 20
125.8482893065
 11
89.3813417021
 21
125.8482893065
  0
LINE
  5
286
100
AcDbEntity
  8
KONSTRUKTIONSELEMENTE
100
AcDbLine
 62
7
  6
CONTINUOUS
 10
88.3281501744
 20
125.8482893065
 11
88.2030436407
 21
125.8482893065
  0
LINE
  5
287
100
AcDbEntity
  8
0
100
AcDbLine
 62
7
  6
CONTINUOUS
 10
98.1026462554
 20
113.3636941526
 11
97.8838962554
 21
113.6436025595
  0
LINE
  5
288
100
AcDbEntity
  8
KONSTRUKTIONSELEMENTE
100
AcDbLine
 62
7
  6
CONTINUOUS
 10
80.7538948587
 20
125.1034255701
 11
80.7538948587
 21
125.7856331181
  0
LINE
  5
289
100
AcDbEntity
  8
KONSTRUKTIONSELEMENTE
100
AcDbLine
 62
7
  6
CONTINUOUS
 10
81.5093126439
 20
125.1034255701
 11
81.5093126439
 21
125.7857155521
  0
LINE
  5
28A
100
AcDbEntity
  8
KONSTRUKTIONSELEMENTE
100
AcDbLine
 62
7
  6
CONTINUOUS
 10
82.8659456663
 20
125.8334809042
 11
82.8659456663
 21
125.79206144
  0
LINE
  5
28B
100
AcDbEntity
  8
KONSTRUKTIONSELEMENTE
100
AcDbLine
 62
7
  6
CONTINUOUS
 10
82.8659456663
 20
125.5231387035
 11
82.8659456663
 21
125.0141914311
  0
LINE
  5
28C
100
AcDbEntity
  8
KONSTRUKTIONSELEMENTE
100
AcDbLine
 62
7
  6
CONTINUOUS
 10
83.6213634515
 20
125.8334809042
 11
83.6213634515
 21
125.6006498595
  0
LINE
  5
28D
100
AcDbEntity
  8
KONSTRUKTIONSELEMENTE
100
AcDbLine
 62
7
  6
CONTINUOUS
 10
83.6213634515
 20
125.5231387035
 11
83.6213634515
 21
125.0141914311
  0
LINE
  5
28E
100
AcDbEntity
  8
0
100
AcDbLine
 62
7
  6
CONTINUOUS
 10
83.6338948587
 20
125.0598100271
 11
83.6338948587
 21
125.5231387035
  0
LINE
  5
28F
100
AcDbEntity
  8
0
100
AcDbLine
 62
7
  6
CONTINUOUS
 10
83.6338948587
 20
125.5651131279
 11
83.6338948587
 21
125.8190706212
  0
LINE
  5
290
100
AcDbEntity
  8
BEZUGSACHSEN
100
AcDbLine
 62
7
  6
CONTINUOUS
 10
115.3293121439
 20
128.3482893065
 11
109.6293126439
 21
128.3482893065
  0
LINE
  5
291
100
AcDbEntity
  8
BEZUGSACHSEN
100
AcDbLine
 62
7
  6
CONTINUOUS
 10
75.3293131439
 20
128.3482893065
 11
81.0293126439
 21
128.3482893065
  0
LINE
  5
292
100
AcDbEntity
  8
0
100
AcDbLine
 62
7
  6
CONTINUOUS
 10
100.9099376439
 20
114.8390449425
 11
100.6911876439
 21
115.1131218916
  0
LINE
  5
293
100
AcDbEntity
  8
0
100
AcDbLine
 62
7
  6
CONTINUOUS
 10
96.2068126439
 20
112.3840145816
 11
96.0609794497
 21
112.6639230374
  0
LINE
  5
294
100
AcDbEntity
  8
KONSTRUKTIONSELEMENTE
100
AcDbLine
 62
7
  6
CONTINUOUS
 10
86.2217672009
 20
125.7751587797
 11
86.2217672009
 21
125.3482893065
  0
LINE
  5
295
100
AcDbEntity
  8
KONSTRUKTIONSELEMENTE
100
AcDbLine
 62
7
  6
CONTINUOUS
 10
86.9238948587
 20
124.3048424725
 11
86.9238948587
 21
123.7592694212
  0
LINE
  5
296
100
AcDbEntity
  8
KONSTRUKTIONSELEMENTE
100
AcDbLine
 62
7
  6
CONTINUOUS
 10
86.9238948587
 20
125.1990651757
 11
86.9238948587
 21
125.7758536969
  0
LINE
  5
297
100
AcDbEntity
  8
KONSTRUKTIONSELEMENTE
100
AcDbLine
 62
7
  6
CONTINUOUS
 10
87.0409161316
 20
125.6228935261
 11
87.0409161316
 21
125.1167255725
  0
LINE
  5
298
100
AcDbEntity
  8
KONSTRUKTIONSELEMENTE
100
AcDbLine
 62
7
  6
CONTINUOUS
 10
87.3919799503
 20
125.524854331
 11
87.3919799503
 21
125.0159551201
  0
LINE
  5
299
100
AcDbEntity
  8
KONSTRUKTIONSELEMENTE
100
AcDbLine
 62
7
  6
CONTINUOUS
 10
87.3919799503
 20
124.3048424725
 11
87.3919799503
 21
123.7592694212
  0
LINE
  5
29A
100
AcDbEntity
  8
KONSTRUKTIONSELEMENTE
100
AcDbLine
 62
7
  6
CONTINUOUS
 10
87.5090012539
 20
124.5400445411
 11
87.5090012539
 21
124.0019537337
  0
LINE
  5
29B
100
AcDbEntity
  8
KONSTRUKTIONSELEMENTE
100
AcDbLine
 62
7
  6
CONTINUOUS
 10
87.5090012539
 20
125.7030227971
 11
87.5090012539
 21
125.7758536969
  0
LINE
  5
29C
100
AcDbEntity
  8
KONSTRUKTIONSELEMENTE
100
AcDbLine
 62
7
  6
CONTINUOUS
 10
87.6260225166
 20
125.8104094367
 11
87.6260225166
 21
125.6403440371
  0
LINE
  5
29D
100
AcDbEntity
  8
KONSTRUKTIONSELEMENTE
100
AcDbLine
 62
7
  6
CONTINUOUS
 10
87.7430437792
 20
124.6708387337
 11
87.7430437792
 21
124.1368192638
  0
LINE
  5
29E
100
AcDbEntity
  8
KONSTRUKTIONSELEMENTE
100
AcDbLine
 62
7
  6
CONTINUOUS
 10
87.8600650419
 20
125.8290232939
 11
87.8600650419
 21
125.5858415778
  0
LINE
  5
29F
100
AcDbEntity
  8
KONSTRUKTIONSELEMENTE
100
AcDbLine
 62
7
  6
CONTINUOUS
 10
87.8600650419
 20
125.4573186743
 11
87.8600650419
 21
124.9465205464
  0
LINE
  5
2A0
100
AcDbEntity
  8
0
100
AcDbLine
 62
7
  6
CONTINUOUS
 10
98.2484790324
 20
113.013808546
 11
98.1026462554
 21
113.3636941526
  0
LINE
  5
2A1
100
AcDbEntity
  8
KONSTRUKTIONSELEMENTE
100
AcDbLine
 62
7
  6
CONTINUOUS
 10
88.0941076491
 20
124.712754034
 11
88.0941076491
 21
124.180026092
  0
LINE
  5
2A2
100
AcDbEntity
  8
KONSTRUKTIONSELEMENTE
100
AcDbLine
 62
7
  6
CONTINUOUS
 10
88.3281501744
 20
125.8379657371
 11
88.3281501744
 21
125.538965594
  0
LINE
  5
2A3
100
AcDbEntity
  8
KONSTRUKTIONSELEMENTE
100
AcDbLine
 62
7
  6
CONTINUOUS
 10
88.445171437
 20
125.4086216295
 11
88.445171437
 21
124.9099728747
  0
LINE
  5
2A4
100
AcDbEntity
  8
KONSTRUKTIONSELEMENTE
100
AcDbLine
 62
7
  6
CONTINUOUS
 10
88.9132564876
 20
125.4086216295
 11
88.9132564876
 21
124.9099728747
  0
LINE
  5
2A5
100
AcDbEntity
  8
KONSTRUKTIONSELEMENTE
100
AcDbLine
 62
7
  6
CONTINUOUS
 10
89.3813417021
 20
125.8338408036
 11
89.3813417021
 21
125.5728313381
  0
LINE
  5
2A6
100
AcDbEntity
  8
KONSTRUKTIONSELEMENTE
100
AcDbLine
 62
7
  6
CONTINUOUS
 10
89.4983629648
 20
125.4573186743
 11
89.4983629648
 21
124.9465205464
  0
LINE
  5
2A7
100
AcDbEntity
  8
KONSTRUKTIONSELEMENTE
100
AcDbLine
 62
7
  6
CONTINUOUS
 10
89.7324054901
 20
125.8104094367
 11
89.7324054901
 21
125.6403440371
  0
LINE
  5
2A8
100
AcDbEntity
  8
KONSTRUKTIONSELEMENTE
100
AcDbLine
 62
7
  6
CONTINUOUS
 10
89.8494267527
 20
125.7030227971
 11
89.8494267527
 21
125.7758536969
  0
LINE
  5
2A9
100
AcDbEntity
  8
KONSTRUKTIONSELEMENTE
100
AcDbLine
 62
7
  6
CONTINUOUS
 10
89.9664480153
 20
125.524854331
 11
89.9664480153
 21
125.0159551201
  0
LINE
  5
2AA
100
AcDbEntity
  8
KONSTRUKTIONSELEMENTE
100
AcDbLine
 62
7
  6
CONTINUOUS
 10
90.2004905406
 20
123.6557475142
 11
90.2004905406
 21
124.712754034
  0
LINE
  5
2AB
100
AcDbEntity
  8
KONSTRUKTIONSELEMENTE
100
AcDbLine
 62
7
  6
CONTINUOUS
 10
90.2004905406
 20
124.9099728747
 11
90.2004905406
 21
125.1839225237
  0
LINE
  5
2AC
100
AcDbEntity
  8
KONSTRUKTIONSELEMENTE
100
AcDbLine
 62
7
  6
CONTINUOUS
 10
90.3175118033
 20
125.6228935261
 11
90.3175118033
 21
125.1839225237
  0
LINE
  5
2AD
100
AcDbEntity
  8
KONSTRUKTIONSELEMENTE
100
AcDbLine
 62
7
  6
CONTINUOUS
 10
90.4345330659
 20
125.1990651757
 11
90.4345330659
 21
125.7758536969
  0
LINE
  5
2AE
100
AcDbEntity
  8
0
100
AcDbLine
 62
7
  6
CONTINUOUS
 10
90.5193126439
 20
113.1530639611
 11
90.5193126439
 21
113.5018334347
  0
LINE
  5
2AF
100
AcDbEntity
  8
KONSTRUKTIONSELEMENTE
100
AcDbLine
 62
7
  6
CONTINUOUS
 10
90.6685755912
 20
123.6557475142
 11
90.6685755912
 21
124.712754034
  0
LINE
  5
2B0
100
AcDbEntity
  8
KONSTRUKTIONSELEMENTE
100
AcDbLine
 62
7
  6
CONTINUOUS
 10
90.6685755912
 20
124.9099728747
 11
90.6685755912
 21
125.1839225237
  0
LINE
  5
2B1
100
AcDbEntity
  8
0
100
AcDbLine
 62
7
  6
CONTINUOUS
 10
91.5401459425
 20
113.1530639611
 11
91.5401459425
 21
113.5018334347
  0
LINE
  5
2B2
100
AcDbEntity
  8
KONSTRUKTIONSELEMENTE
100
AcDbLine
 62
7
  6
CONTINUOUS
 10
91.6047460202
 20
124.180026092
 11
91.6047460202
 21
124.9099728747
  0
LINE
  5
2B3
100
AcDbEntity
  8
KONSTRUKTIONSELEMENTE
100
AcDbLine
 62
7
  6
CONTINUOUS
 10
91.8387885455
 20
124.9465205464
 11
91.8387885455
 21
125.8413985161
  0
LINE
  5
2B4
100
AcDbEntity
  8
KONSTRUKTIONSELEMENTE
100
AcDbLine
 62
7
  6
CONTINUOUS
 10
83.6338948423
 20
125.5686100809
 11
83.6213634515
 21
125.5231387035
  0
LINE
  5
2B5
100
AcDbEntity
  8
0
100
AcDbLine
 62
7
  6
CONTINUOUS
 10
92.1234793454
 20
112.9425719775
 11
92.1234793454
 21
113.3626333017
  0
LINE
  5
2B6
100
AcDbEntity
  8
KONSTRUKTIONSELEMENTE
100
AcDbLine
 62
7
  6
CONTINUOUS
 10
92.4238948587
 20
124.9465205464
 11
92.4238948587
 21
125.8482844375
  0
LINE
  5
2B7
100
AcDbEntity
  8
0
100
AcDbLine
 62
7
  6
CONTINUOUS
 10
92.6338960468
 20
113.3626333017
 11
92.6338960468
 21
113.2237399492
  0
LINE
  5
2B8
100
AcDbEntity
  8
0
100
AcDbLine
 62
7
  6
CONTINUOUS
 10
93.8734792411
 20
115.2070728367
 11
93.8734792411
 21
115.1131218916
  0
LINE
  5
2B9
100
AcDbEntity
  8
0
100
AcDbLine
 62
7
  6
CONTINUOUS
 10
93.8734792411
 20
111.9480571462
 11
93.8734792411
 21
112.9425719775
  0
LINE
  5
2BA
100
AcDbEntity
  8
0
100
AcDbLine
 62
7
  6
CONTINUOUS
 10
93.8734792411
 20
113.2237399492
 11
93.8734792411
 21
114.6684321602
  0
LINE
  5
2BB
100
AcDbEntity
  8
0
100
AcDbLine
 62
7
  6
CONTINUOUS
 10
94.3109794497
 20
111.9480571462
 11
94.3109794497
 21
112.9425719775
  0
LINE
  5
2BC
100
AcDbEntity
  8
0
100
AcDbLine
 62
7
  6
CONTINUOUS
 10
94.3109794497
 20
113.2237399492
 11
94.3109794497
 21
115.2070728367
  0
LINE
  5
2BD
100
AcDbEntity
  8
0
100
AcDbLine
 62
7
  6
CONTINUOUS
 10
95.0401458382
 20
112.9425719775
 11
95.0401458382
 21
113.3626333017
  0
LINE
  5
2BE
100
AcDbEntity
  8
0
100
AcDbLine
 62
7
  6
CONTINUOUS
 10
95.6234794497
 20
113.4322846466
 11
95.6234794497
 21
115.2070728367
  0
LINE
  5
2BF
100
AcDbEntity
  8
0
100
AcDbLine
 62
7
  6
CONTINUOUS
 10
95.9880626439
 20
113.6436025595
 11
95.9880626439
 21
114.8712035513
  0
LINE
  5
2C0
100
AcDbEntity
  8
0
100
AcDbLine
 62
7
  6
CONTINUOUS
 10
96.0609794497
 20
112.8017312501
 11
96.0609794497
 21
112.6639230374
  0
LINE
  5
2C1
100
AcDbEntity
  8
0
100
AcDbLine
 62
7
  6
CONTINUOUS
 10
96.2068126439
 20
112.5188183526
 11
96.2068126439
 21
112.3840145816
  0
LINE
  5
2C2
100
AcDbEntity
  8
0
100
AcDbLine
 62
7
  6
CONTINUOUS
 10
96.3526458382
 20
113.9858009786
 11
96.3526458382
 21
113.8535338646
  0
LINE
  5
2C3
100
AcDbEntity
  8
0
100
AcDbLine
 62
7
  6
CONTINUOUS
 10
96.4255626439
 20
112.3767456467
 11
96.4255626439
 21
112.2440603781
  0
LINE
  5
2C4
100
AcDbEntity
  8
0
100
AcDbLine
 62
7
  6
CONTINUOUS
 10
96.7172294497
 20
114.0545281411
 11
96.7172294497
 21
113.9235109664
  0
LINE
  5
2C5
100
AcDbEntity
  8
0
100
AcDbLine
 62
7
  6
CONTINUOUS
 10
96.7172294497
 20
112.3055550556
 11
96.7172294497
 21
112.1740832764
  0
LINE
  5
2C6
100
AcDbEntity
  8
KONSTRUKTIONSELEMENTE
100
AcDbLine
 62
7
  6
CONTINUOUS
 10
96.8493126439
 20
123.3925420379
 11
96.8493126439
 21
124.3639889908
  0
LINE
  5
2C7
100
AcDbEntity
  8
KONSTRUKTIONSELEMENTE
100
AcDbLine
 62
7
  6
CONTINUOUS
 10
96.8493126439
 20
125.0421434234
 11
96.8493126439
 21
125.8387605352
  0
LINE
  5
2C8
100
AcDbEntity
  8
KONSTRUKTIONSELEMENTE
100
AcDbLine
 62
7
  6
CONTINUOUS
 10
96.9663339168
 20
125.4385461388
 11
96.9663339168
 21
124.9272176235
  0
LINE
  5
2C9
100
AcDbEntity
  8
KONSTRUKTIONSELEMENTE
100
AcDbLine
 62
7
  6
CONTINUOUS
 10
96.9663339168
 20
123.6604274657
 11
96.9663339168
 21
123.0932266559
  0
LINE
  5
2CA
100
AcDbEntity
  8
0
100
AcDbLine
 62
7
  6
CONTINUOUS
 10
97.1547294497
 20
114.0545281411
 11
97.1547294497
 21
113.9235109664
  0
LINE
  5
2CB
100
AcDbEntity
  8
0
100
AcDbLine
 62
7
  6
CONTINUOUS
 10
97.1547294497
 20
112.3055550556
 11
97.1547294497
 21
112.1740832764
  0
LINE
  5
2CC
100
AcDbEntity
  8
KONSTRUKTIONSELEMENTE
100
AcDbLine
 62
7
  6
CONTINUOUS
 10
97.2003764728
 20
123.4110155314
 11
97.2003764728
 21
122.8349681361
  0
LINE
  5
2CD
100
AcDbEntity
  8
KONSTRUKTIONSELEMENTE
100
AcDbLine
 62
7
  6
CONTINUOUS
 10
97.3173977355
 20
125.3358537124
 11
97.3173977355
 21
124.8216039052
  0
LINE
  5
2CE
100
AcDbEntity
  8
0
100
AcDbLine
 62
7
  6
CONTINUOUS
 10
97.4463958382
 20
112.3767456467
 11
97.4463958382
 21
112.2440603781
  0
LINE
  5
2CF
100
AcDbEntity
  8
0
100
AcDbLine
 62
7
  6
CONTINUOUS
 10
97.5193126439
 20
113.9858009786
 11
97.5193126439
 21
113.8535338646
  0
LINE
  5
2D0
100
AcDbEntity
  8
KONSTRUKTIONSELEMENTE
100
AcDbLine
 62
7
  6
CONTINUOUS
 10
97.5514403018
 20
123.9498184322
 11
97.5514403018
 21
124.3639889908
  0
LINE
  5
2D1
100
AcDbEntity
  8
KONSTRUKTIONSELEMENTE
100
AcDbLine
 62
7
  6
CONTINUOUS
 10
97.5514403018
 20
125.5294324979
 11
97.5514403018
 21
125.8045032792
  0
LINE
  5
2D2
100
AcDbEntity
  8
0
100
AcDbLine
 62
7
  6
CONTINUOUS
 10
97.6651462554
 20
112.5188183526
 11
97.6651462554
 21
112.3840145816
  0
LINE
  5
2D3
100
AcDbEntity
  8
KONSTRUKTIONSELEMENTE
100
AcDbLine
 62
7
  6
CONTINUOUS
 10
97.6684615644
 20
124.5496518512
 11
97.6684615644
 21
124.0118622428
  0
LINE
  5
2D4
100
AcDbEntity
  8
KONSTRUKTIONSELEMENTE
100
AcDbLine
 62
7
  6
CONTINUOUS
 10
97.6684615644
 20
123.1449046738
 11
97.6684615644
 21
122.5591031756
  0
LINE
  5
2D5
100
AcDbEntity
  8
KONSTRUKTIONSELEMENTE
100
AcDbLine
 62
7
  6
CONTINUOUS
 10
97.7854828271
 20
125.2509689508
 11
97.7854828271
 21
124.8954554791
  0
LINE
  5
2D6
100
AcDbEntity
  8
0
100
AcDbLine
 62
7
  6
CONTINUOUS
 10
97.8109790324
 20
112.7311570078
 11
97.8109790324
 21
112.5939459357
  0
LINE
  5
2D7
100
AcDbEntity
  8
0
100
AcDbLine
 62
7
  6
CONTINUOUS
 10
97.8838962554
 20
113.7790025267
 11
97.8838962554
 21
113.6436025595
  0
LINE
  5
2D8
100
AcDbEntity
  8
0
100
AcDbLine
 62
7
  6
CONTINUOUS
 10
97.8838962554
 20
112.8038772409
 11
97.8838962554
 21
113.0830024971
  0
LINE
  5
2D9
100
AcDbEntity
  8
KONSTRUKTIONSELEMENTE
100
AcDbLine
 62
7
  6
CONTINUOUS
 10
98.0195254343
 20
124.6799016846
 11
98.0195254343
 21
124.1461620081
  0
LINE
  5
2DA
100
AcDbEntity
  8
0
100
AcDbLine
 62
7
  6
CONTINUOUS
 10
98.1026462554
 20
113.5018334347
 11
98.1026462554
 21
113.3636941526
  0
LINE
  5
2DB
100
AcDbEntity
  8
0
100
AcDbLine
 62
7
  6
CONTINUOUS
 10
98.1026462554
 20
114.8712035513
 11
98.1026462554
 21
115.2070728367
  0
LINE
  5
2DC
100
AcDbEntity
  8
KONSTRUKTIONSELEMENTE
100
AcDbLine
 62
7
  6
CONTINUOUS
 10
98.1365466969
 20
125.2211578479
 11
98.1365466969
 21
124.936499504
  0
LINE
  5
2DD
100
AcDbEntity
  8
KONSTRUKTIONSELEMENTE
100
AcDbLine
 62
7
  6
CONTINUOUS
 10
98.1365466969
 20
123.0053309216
 11
98.1365466969
 21
122.4142776706
  0
LINE
  5
2DE
100
AcDbEntity
  8
0
100
AcDbLine
 62
7
  6
CONTINUOUS
 10
98.2484790324
 20
112.8722028987
 11
98.2484790324
 21
113.1530639611
  0
LINE
  5
2DF
100
AcDbEntity
  8
KONSTRUKTIONSELEMENTE
100
AcDbLine
 62
7
  6
CONTINUOUS
 10
98.3705892222
 20
124.1891831231
 11
98.3705892222
 21
124.9548182568
  0
LINE
  5
2E0
100
AcDbEntity
  8
KONSTRUKTIONSELEMENTE
100
AcDbLine
 62
7
  6
CONTINUOUS
 10
98.7216530102
 20
125.2211578479
 11
98.7216530102
 21
124.7036049979
  0
LINE
  5
2E1
100
AcDbEntity
  8
KONSTRUKTIONSELEMENTE
100
AcDbLine
 62
7
  6
CONTINUOUS
 10
98.7216530102
 20
123.0053309216
 11
98.7216530102
 21
122.4142776706
  0
LINE
  5
2E2
100
AcDbEntity
  8
KONSTRUKTIONSELEMENTE
100
AcDbLine
 62
7
  6
CONTINUOUS
 10
99.072716962
 20
125.2509689508
 11
99.072716962
 21
124.7342787421
  0
LINE
  5
2E3
100
AcDbEntity
  8
KONSTRUKTIONSELEMENTE
100
AcDbLine
 62
7
  6
CONTINUOUS
 10
99.1897382247
 20
123.1449046738
 11
99.1897382247
 21
122.5591031756
  0
LINE
  5
2E4
100
AcDbEntity
  8
KONSTRUKTIONSELEMENTE
100
AcDbLine
 62
7
  6
CONTINUOUS
 10
99.3067594873
 20
123.9498184322
 11
99.3067594873
 21
124.265893144
  0
LINE
  5
2E5
100
AcDbEntity
  8
KONSTRUKTIONSELEMENTE
100
AcDbLine
 62
7
  6
CONTINUOUS
 10
99.3067594873
 20
125.5294324979
 11
99.3067594873
 21
125.8045032792
  0
LINE
  5
2E6
100
AcDbEntity
  8
KONSTRUKTIONSELEMENTE
100
AcDbLine
 62
7
  6
CONTINUOUS
 10
99.5408020126
 20
125.3358537124
 11
99.5408020126
 21
124.8216039052
  0
LINE
  5
2E7
100
AcDbEntity
  8
KONSTRUKTIONSELEMENTE
100
AcDbLine
 62
7
  6
CONTINUOUS
 10
99.6578232753
 20
125.3886873858
 11
99.6578232753
 21
124.8759447541
  0
LINE
  5
2E8
100
AcDbEntity
  8
KONSTRUKTIONSELEMENTE
100
AcDbLine
 62
7
  6
CONTINUOUS
 10
99.6578232753
 20
123.4110155314
 11
99.6578232753
 21
122.8349681361
  0
LINE
  5
2E9
100
AcDbEntity
  8
KONSTRUKTIONSELEMENTE
100
AcDbLine
 62
7
  6
CONTINUOUS
 10
99.7748445379
 20
125.3358537124
 11
99.7748445379
 21
124.8216039052
  0
LINE
  5
2EA
100
AcDbEntity
  8
KONSTRUKTIONSELEMENTE
100
AcDbLine
 62
7
  6
CONTINUOUS
 10
78.646426266
 20
125.8334809042
 11
78.6338948817
 21
125.821595242
  0
LINE
  5
2EB
100
AcDbEntity
  8
KONSTRUKTIONSELEMENTE
100
AcDbLine
 62
7
  6
CONTINUOUS
 10
99.8918658005
 20
123.6604274657
 11
99.8918658005
 21
123.0932266559
  0
LINE
  5
2EC
100
AcDbEntity
  8
KONSTRUKTIONSELEMENTE
100
AcDbLine
 62
7
  6
CONTINUOUS
 10
100.0088870632
 20
123.3925420379
 11
100.0088870632
 21
124.265893144
  0
LINE
  5
2ED
100
AcDbEntity
  8
KONSTRUKTIONSELEMENTE
100
AcDbLine
 62
7
  6
CONTINUOUS
 10
100.0088870632
 20
125.5294324979
 11
100.0088870632
 21
125.8045032792
  0
LINE
  5
2EE
100
AcDbEntity
  8
KONSTRUKTIONSELEMENTE
100
AcDbLine
 62
7
  6
CONTINUOUS
 10
100.1259083258
 20
124.411709923
 11
100.1259083258
 21
123.8695625771
  0
LINE
  5
2EF
100
AcDbEntity
  8
KONSTRUKTIONSELEMENTE
100
AcDbLine
 62
7
  6
CONTINUOUS
 10
100.2429295885
 20
125.2509689508
 11
100.2429295885
 21
124.8125191237
  0
LINE
  5
2F0
100
AcDbEntity
  8
0
100
AcDbLine
 62
7
  6
CONTINUOUS
 10
100.2536876439
 20
114.6797216253
 11
100.2536876439
 21
114.9441965979
  0
LINE
  5
2F1
100
AcDbEntity
  8
KONSTRUKTIONSELEMENTE
100
AcDbLine
 62
7
  6
CONTINUOUS
 10
100.3599508511
 20
124.5496518512
 11
100.3599508511
 21
124.0118622428
  0
LINE
  5
2F2
100
AcDbEntity
  8
0
100
AcDbLine
 62
7
  6
CONTINUOUS
 10
100.4724376439
 20
115.2070728367
 11
100.4724376439
 21
115.1131218916
  0
LINE
  5
2F3
100
AcDbEntity
  8
KONSTRUKTIONSELEMENTE
100
AcDbLine
 62
7
  6
CONTINUOUS
 10
100.5939933764
 20
125.2211578479
 11
100.5939933764
 21
124.8418897955
  0
LINE
  5
2F4
100
AcDbEntity
  8
0
100
AcDbLine
 62
7
  6
CONTINUOUS
 10
100.6911876439
 20
115.2070728367
 11
100.6911876439
 21
115.1131218916
  0
LINE
  5
2F5
100
AcDbEntity
  8
KONSTRUKTIONSELEMENTE
100
AcDbLine
 62
7
  6
CONTINUOUS
 10
100.7110146391
 20
124.5939144022
 11
100.7110146391
 21
124.057508058
  0
LINE
  5
2F6
100
AcDbEntity
  8
0
100
AcDbLine
 62
7
  6
CONTINUOUS
 10
100.9099376439
 20
114.6797216253
 11
100.9099376439
 21
114.9441965979
  0
LINE
  5
2F7
100
AcDbEntity
  8
KONSTRUKTIONSELEMENTE
100
AcDbLine
 62
7
  6
CONTINUOUS
 10
100.9450571644
 20
124.5939144022
 11
100.9450571644
 21
124.057508058
  0
LINE
  5
2F8
100
AcDbEntity
  8
KONSTRUKTIONSELEMENTE
100
AcDbLine
 62
7
  6
CONTINUOUS
 10
101.0620787548
 20
125.2211578479
 11
101.0620787548
 21
124.8418897955
  0
LINE
  5
2F9
100
AcDbEntity
  8
KONSTRUKTIONSELEMENTE
100
AcDbLine
 62
7
  6
CONTINUOUS
 10
101.0620787548
 20
122.6297693049
 11
101.0620787548
 21
123.5995985371
  0
LINE
  5
2FA
100
AcDbEntity
  8
KONSTRUKTIONSELEMENTE
100
AcDbLine
 62
7
  6
CONTINUOUS
 10
101.2961212801
 20
124.5496518512
 11
101.2961212801
 21
124.0118622428
  0
LINE
  5
2FB
100
AcDbEntity
  8
KONSTRUKTIONSELEMENTE
100
AcDbLine
 62
7
  6
CONTINUOUS
 10
101.4131425428
 20
125.2509689508
 11
101.4131425428
 21
124.8125191237
  0
LINE
  5
2FC
100
AcDbEntity
  8
KONSTRUKTIONSELEMENTE
100
AcDbLine
 62
7
  6
CONTINUOUS
 10
101.4131425428
 20
123.2800966011
 11
101.4131425428
 21
122.6992921444
  0
LINE
  5
2FD
100
AcDbEntity
  8
KONSTRUKTIONSELEMENTE
100
AcDbLine
 62
7
  6
CONTINUOUS
 10
101.5301638054
 20
124.411709923
 11
101.5301638054
 21
123.8695625771
  0
LINE
  5
2FE
100
AcDbEntity
  8
KONSTRUKTIONSELEMENTE
100
AcDbLine
 62
7
  6
CONTINUOUS
 10
101.6471850681
 20
123.9498184322
 11
101.6471850681
 21
124.265893144
  0
LINE
  5
2FF
100
AcDbEntity
  8
KONSTRUKTIONSELEMENTE
100
AcDbLine
 62
7
  6
CONTINUOUS
 10
101.6471850681
 20
125.5294324979
 11
101.6471850681
 21
125.8045032792
  0
LINE
  5
300
100
AcDbEntity
  8
KONSTRUKTIONSELEMENTE
100
AcDbLine
 62
7
  6
CONTINUOUS
 10
101.8812275933
 20
125.3358537124
 11
101.8812275933
 21
124.8216039052
  0
LINE
  5
301
100
AcDbEntity
  8
KONSTRUKTIONSELEMENTE
100
AcDbLine
 62
7
  6
CONTINUOUS
 10
101.8812275933
 20
123.4749036428
 11
101.8812275933
 21
122.9011489984
  0
LINE
  5
302
100
AcDbEntity
  8
KONSTRUKTIONSELEMENTE
100
AcDbLine
 62
7
  6
CONTINUOUS
 10
102.2322913813
 20
125.4385461388
 11
102.2322913813
 21
124.9272176235
  0
LINE
  5
303
100
AcDbEntity
  8
KONSTRUKTIONSELEMENTE
100
AcDbLine
 62
7
  6
CONTINUOUS
 10
102.2322913813
 20
123.7202596261
 11
102.2322913813
 21
123.1551400897
  0
LINE
  5
304
100
AcDbEntity
  8
KONSTRUKTIONSELEMENTE
100
AcDbLine
 62
7
  6
CONTINUOUS
 10
102.3493126439
 20
123.449384918
 11
102.3493126439
 21
124.265893144
  0
LINE
  5
305
100
AcDbEntity
  8
KONSTRUKTIONSELEMENTE
100
AcDbLine
 62
7
  6
CONTINUOUS
 10
102.3493126439
 20
125.0421434234
 11
102.3493126439
 21
125.8387605352
  0
LINE
  5
306
100
AcDbEntity
  8
KONSTRUKTIONSELEMENTE
100
AcDbLine
 62
7
  6
CONTINUOUS
 10
104.9893126439
 20
124.2425412307
 11
104.9893126439
 21
125.5231387035
  0
LINE
  5
307
100
AcDbEntity
  8
0
100
AcDbLine
 62
7
  6
CONTINUOUS
 10
104.9893126439
 20
125.5231387035
 11
104.9893126439
 21
125.8452950021
  0
LINE
  5
308
100
AcDbEntity
  8
KONSTRUKTIONSELEMENTE
100
AcDbLine
 62
7
  6
CONTINUOUS
 10
105.9893126439
 20
124.9090201888
 11
105.9893126439
 21
125.2577977193
  0
LINE
  5
309
100
AcDbEntity
  8
KONSTRUKTIONSELEMENTE
100
AcDbLine
 62
7
  6
CONTINUOUS
 10
109.4693126439
 20
124.7413047036
 11
109.4693126439
 21
125.5231387035
  0
LINE
  5
30A
100
AcDbEntity
  8
KONSTRUKTIONSELEMENTE
100
AcDbLine
 62
7
  6
CONTINUOUS
 10
109.8693126439
 20
124.9090201888
 11
109.8693126439
 21
125.5231387035
  0
LINE
  5
30B
100
AcDbEntity
  8
KONSTRUKTIONSELEMENTE
100
AcDbLine
 62
7
  6
CONTINUOUS
 10
110.8693126439
 20
124.2425412307
 11
110.8693126439
 21
125.8164204744
  0
LINE
  5
30C
100
AcDbEntity
  8
0
100
AcDbLine
 62
7
  6
CONTINUOUS
 10
97.8838962554
 20
112.8038772409
 11
97.8109790324
 21
112.5939459357
  0
LINE
  5
30D
100
AcDbEntity
  8
0
100
AcDbLine
 62
7
  6
CONTINUOUS
 10
115.3293126439
 20
123.8482893065
 11
115.3293126439
 21
110.6048546018
  0
LINE
  5
30E
100
AcDbEntity
  8
KONSTRUKTIONSELEMENTE
100
AcDbLine
 62
7
  6
CONTINUOUS
 10
115.3293126439
 20
110.6048546018
 11
115.3293126439
 21
107.8192805152
  0
LINE
  5
30F
100
AcDbEntity
  8
RUNDUNGEN
100
AcDbLine
 62
7
  6
CONTINUOUS
 10
115.3293126439
 20
107.8192805152
 11
115.3293126439
 21
101.482364193
  0
LINE
  5
310
100
AcDbEntity
  8
0
100
AcDbLine
 62
7
  6
CONTINUOUS
 10
97.8109790324
 20
112.5939459357
 11
97.6651462554
 21
112.3840145816
  0
LINE
  5
311
100
AcDbEntity
  8
0
100
AcDbLine
 62
7
  6
CONTINUOUS
 10
93.8734792411
 20
115.1131218916
 11
92.1234793454
 21
113.2237399492
  0
LINE
  5
312
100
AcDbEntity
  8
BEZUGSACHSEN
100
AcDbLine
 62
7
  6
CONTINUOUS
 10
117.8293121439
 20
121.5982893065
 11
117.8293121439
 21
125.9753073157
  0
LINE
  5
313
100
AcDbEntity
  8
BEZUGSACHSEN
100
AcDbLine
 62
7
  6
CONTINUOUS
 10
117.8293121439
 20
147.5906801165
 11
117.8293121439
 21
149.8482893065
  0
LINE
  5
314
100
AcDbEntity
  8
0
100
AcDbLine
 62
7
  6
CONTINUOUS
 10
100.4724376439
 20
115.1131218916
 11
100.2536876439
 21
114.8390449425
  0
LINE
  5
315
100
AcDbEntity
  8
0
100
AcDbLine
 62
7
  6
CONTINUOUS
 10
97.6651462554
 20
112.3840145816
 11
97.4463958382
 21
112.2440603781
  0
LINE
  5
316
100
AcDbEntity
  8
0
100
AcDbLine
 62
7
  6
CONTINUOUS
 10
96.3526458382
 20
113.8535338646
 11
95.9880626439
 21
113.6436025595
  0
LINE
  5
317
100
AcDbEntity
  8
BEZUGSACHSEN
100
AcDbLine
 62
7
  6
CONTINUOUS
 10
133.8293121439
 20
149.8482893065
 11
133.8293121439
 21
103.5982893065
  0
LINE
  5
318
100
AcDbEntity
  8
BEZUGSACHSEN
100
AcDbLine
 62
7
  6
CONTINUOUS
 10
124.0931507755
 20
174.766786812
 11
133.2884562027
 21
152.5673557392
  0
LINE
  5
319
100
AcDbEntity
  8
BEZUGSACHSEN
100
AcDbLine
 62
7
  6
CONTINUOUS
 10
98.0483790766
 20
187.8074328653
 11
120.2478101493
 21
178.6121274381
  0
LINE
  5
31A
100
AcDbEntity
  8
RUNDUNGEN
100
AcDbLine
 62
7
  6
CONTINUOUS
 10
227.0097277773
 20
98.3482893065
 11
224.5097277773
 21
98.3482893065
  0
LINE
  5
31B
100
AcDbEntity
  8
RUNDUNGEN
100
AcDbLine
 62
7
  6
CONTINUOUS
 10
201.7201064007
 20
98.3482893065
 11
199.2201064007
 21
98.3482893065
  0
LINE
  5
31C
100
AcDbEntity
  8
0
100
AcDbLine
 62
7
  6
CONTINUOUS
 10
194.864917089
 20
110.0212685063
 11
195.904021115
 21
107.8192805152
  0
LINE
  5
31D
100
AcDbEntity
  8
RUNDUNGEN
100
AcDbLine
 62
7
  6
CONTINUOUS
 10
198.9576404101
 20
101.3482893065
 11
195.904021115
 21
107.8192805152
  0
LINE
  5
31E
100
AcDbEntity
  8
0
100
AcDbLine
 62
7
  6
CONTINUOUS
 10
206.114917089
 20
116.4225001665
 11
205.614917089
 21
116.4225001665
  0
LINE
  5
31F
100
AcDbEntity
  8
0
100
AcDbLine
 62
7
  6
CONTINUOUS
 10
206.1358767854
 20
120.7803948065
 11
205.614917089
 21
120.7803948065
  0
LINE
  5
320
100
AcDbEntity
  8
0
100
AcDbLine
 62
7
  6
CONTINUOUS
 10
206.1358767854
 20
121.8461842565
 11
205.614917089
 21
121.8461842565
  0
LINE
  5
321
100
AcDbEntity
  8
0
100
AcDbLine
 62
7
  6
CONTINUOUS
 10
206.1358767854
 20
122.9119737065
 11
205.614917089
 21
122.9119737065
  0
LINE
  5
322
100
AcDbEntity
  8
RUNDUNGEN
100
AcDbLine
 62
7
  6
CONTINUOUS
 10
199.2201064007
 20
98.3482893065
 11
198.9576404101
 21
101.3482893065
  0
LINE
  5
323
100
AcDbEntity
  8
0
100
AcDbLine
 62
7
  6
CONTINUOUS
 10
206.1358767854
 20
125.0435526065
 11
205.614917089
 21
125.0435526065
  0
LINE
  5
324
100
AcDbEntity
  8
0
100
AcDbLine
 62
7
  6
CONTINUOUS
 10
206.1358767854
 20
126.1093420565
 11
205.614917089
 21
126.1093420565
  0
LINE
  5
325
100
AcDbEntity
  8
0
100
AcDbLine
 62
7
  6
CONTINUOUS
 10
206.114917089
 20
126.8198683565
 11
205.614917089
 21
126.8198683565
  0
LINE
  5
326
100
AcDbEntity
  8
0
100
AcDbLine
 62
7
  6
CONTINUOUS
 10
206.114917089
 20
127.1751315065
 11
205.614917089
 21
127.1751315065
  0
LINE
  5
327
100
AcDbEntity
  8
KONSTRUKTIONSELEMENTE
100
AcDbLine
 62
7
  6
CONTINUOUS
 10
203.174917089
 20
123.0407690425
 11
203.174917089
 21
122.4510582916
  0
LINE
  5
328
100
AcDbEntity
  8
0
100
AcDbLine
 62
7
  6
CONTINUOUS
 10
194.864917089
 20
110.0212685063
 11
195.0722444559
 21
110.9363162455
  0
LINE
  5
329
100
AcDbEntity
  8
0
100
AcDbLine
 62
7
  6
CONTINUOUS
 10
206.1358767854
 20
131.4382893065
 11
205.614917089
 21
131.4382893065
  0
LINE
  5
32A
100
AcDbEntity
  8
KONSTRUKTIONSELEMENTE
100
AcDbLine
 62
7
  6
CONTINUOUS
 10
205.008250477
 20
124.0320594529
 11
205.008250477
 21
123.477539333
  0
LINE
  5
32B
100
AcDbEntity
  8
0
100
AcDbLine
 62
7
  6
CONTINUOUS
 10
205.614917089
 20
116.4225001665
 11
205.614917089
 21
120.7803948065
  0
LINE
  5
32C
100
AcDbEntity
  8
0
100
AcDbLine
 62
7
  6
CONTINUOUS
 10
205.614917089
 20
121.8461842565
 11
205.614917089
 21
126.1093420565
  0
LINE
  5
32D
100
AcDbEntity
  8
0
100
AcDbLine
 62
7
  6
CONTINUOUS
 10
205.614917089
 20
126.8198683565
 11
205.614917089
 21
131.4382893065
  0
LINE
  5
32E
100
AcDbEntity
  8
0
100
AcDbLine
 62
7
  6
CONTINUOUS
 10
206.114917089
 20
149.8482893065
 11
206.114917089
 21
131.4382893065
  0
LINE
  5
32F
100
AcDbEntity
  8
0
100
AcDbLine
 62
7
  6
CONTINUOUS
 10
206.114917089
 20
127.6768873953
 11
206.114917089
 21
126.1093420565
  0
LINE
  5
330
100
AcDbEntity
  8
0
100
AcDbLine
 62
7
  6
CONTINUOUS
 10
206.114917089
 20
125.0435526065
 11
206.114917089
 21
122.9119737065
  0
LINE
  5
331
100
AcDbEntity
  8
0
100
AcDbLine
 62
7
  6
CONTINUOUS
 10
206.114917089
 20
121.8461842565
 11
206.114917089
 21
120.7803948065
  0
LINE
  5
332
100
AcDbEntity
  8
0
100
AcDbLine
 62
7
  6
CONTINUOUS
 10
206.114917089
 20
117.1802508262
 11
206.114917089
 21
106.5982893065
  0
LINE
  5
333
100
AcDbEntity
  8
BEZUGSACHSEN
100
AcDbLine
 62
7
  6
CONTINUOUS
 10
206.114917089
 20
106.5982893065
 11
206.114917089
 21
117.1802508262
  0
LINE
  5
334
100
AcDbEntity
  8
BEZUGSACHSEN
100
AcDbLine
 62
7
  6
CONTINUOUS
 10
206.114917089
 20
120.7803948065
 11
206.114917089
 21
121.8461842565
  0
LINE
  5
335
100
AcDbEntity
  8
BEZUGSACHSEN
100
AcDbLine
 62
7
  6
CONTINUOUS
 10
206.114917089
 20
122.9119737065
 11
206.114917089
 21
125.0435526065
  0
LINE
  5
336
100
AcDbEntity
  8
BEZUGSACHSEN
100
AcDbLine
 62
7
  6
CONTINUOUS
 10
206.114917089
 20
126.1093420565
 11
206.114917089
 21
127.6768873953
  0
LINE
  5
337
100
AcDbEntity
  8
BEZUGSACHSEN
100
AcDbLine
 62
7
  6
CONTINUOUS
 10
206.114917089
 20
131.4382893065
 11
206.114917089
 21
184.3482884751
  0
LINE
  5
338
100
AcDbEntity
  8
0
100
AcDbLine
 62
7
  6
CONTINUOUS
 10
206.1358767854
 20
118.3764474915
 11
206.1358767854
 21
120.7803948065
  0
LINE
  5
339
100
AcDbEntity
  8
0
100
AcDbLine
 62
7
  6
CONTINUOUS
 10
206.1358767854
 20
121.8461842565
 11
206.1358767854
 21
122.9119737065
  0
LINE
  5
33A
100
AcDbEntity
  8
0
100
AcDbLine
 62
7
  6
CONTINUOUS
 10
206.1358767854
 20
125.0435526065
 11
206.1358767854
 21
126.1093420565
  0
LINE
  5
33B
100
AcDbEntity
  8
0
100
AcDbLine
 62
7
  6
CONTINUOUS
 10
206.1358767854
 20
128.7264472615
 11
206.1358767854
 21
131.4382893065
  0
LINE
  5
33C
100
AcDbEntity
  8
RUNDUNGEN
100
AcDbLine
 62
7
  6
CONTINUOUS
 10
201.7201064007
 20
98.3482893065
 11
204.3822555525
 21
109.0255863669
  0
LINE
  5
33D
100
AcDbEntity
  8
RUNDUNGEN
100
AcDbLine
 62
7
  6
CONTINUOUS
 10
221.8475786255
 20
109.0255863669
 11
224.5097277773
 21
98.3482893065
  0
LINE
  5
33E
100
AcDbEntity
  8
BEZUGSACHSEN
100
AcDbLine
 62
7
  6
CONTINUOUS
 10
220.114917089
 20
106.5982893065
 11
220.114917089
 21
184.3482884751
  0
LINE
  5
33F
100
AcDbEntity
  8
KONSTRUKTIONSELEMENTE
100
AcDbLine
 62
7
  6
CONTINUOUS
 10
220.616167089
 20
124.3048424725
 11
220.616167089
 21
123.7592694212
  0
LINE
  5
340
100
AcDbEntity
  8
KONSTRUKTIONSELEMENTE
100
AcDbLine
 62
7
  6
CONTINUOUS
 10
220.8453341928
 20
124.2045749519
 11
220.8453341928
 21
123.6557475142
  0
LINE
  5
341
100
AcDbEntity
  8
KONSTRUKTIONSELEMENTE
100
AcDbLine
 62
7
  6
CONTINUOUS
 10
221.393667089
 20
123.9498184322
 11
221.393667089
 21
123.3925420379
  0
LINE
  5
342
100
AcDbEntity
  8
KONSTRUKTIONSELEMENTE
100
AcDbLine
 62
7
  6
CONTINUOUS
 10
221.9665841928
 20
123.6604274657
 11
221.9665841928
 21
123.0932266559
  0
LINE
  5
343
100
AcDbEntity
  8
KONSTRUKTIONSELEMENTE
100
AcDbLine
 62
7
  6
CONTINUOUS
 10
222.424917089
 20
123.4110155314
 11
222.424917089
 21
122.8349681361
  0
LINE
  5
344
100
AcDbEntity
  8
KONSTRUKTIONSELEMENTE
100
AcDbLine
 62
7
  6
CONTINUOUS
 10
222.8832499852
 20
123.1449046738
 11
222.8832499852
 21
122.5591031756
  0
LINE
  5
345
100
AcDbEntity
  8
KONSTRUKTIONSELEMENTE
100
AcDbLine
 62
7
  6
CONTINUOUS
 10
223.112417089
 20
123.0053309216
 11
223.112417089
 21
122.4142776706
  0
LINE
  5
346
100
AcDbEntity
  8
KONSTRUKTIONSELEMENTE
100
AcDbLine
 62
7
  6
CONTINUOUS
 10
231.364917089
 20
110.0212685063
 11
231.1575897221
 21
110.9363162455
  0
LINE
  5
347
100
AcDbEntity
  8
RUNDUNGEN
100
AcDbLine
 62
7
  6
CONTINUOUS
 10
227.2721937679
 20
101.3482893065
 11
227.0097277773
 21
98.3482893065
  0
LINE
  5
348
100
AcDbEntity
  8
KONSTRUKTIONSELEMENTE
100
AcDbLine
 62
7
  6
CONTINUOUS
 10
231.364917089
 20
110.0212685063
 11
230.325813063
 21
107.8192805152
  0
LINE
  5
349
100
AcDbEntity
  8
RUNDUNGEN
100
AcDbLine
 62
7
  6
CONTINUOUS
 10
230.325813063
 20
107.8192805152
 11
227.2721937679
 21
101.3482893065
  0
LINE
  5
34A
100
AcDbEntity
  8
0
100
AcDbLine
 62
7
  6
CONTINUOUS
 10
216.114917089
 20
188.3482888065
 11
210.114917089
 21
188.3482888065
  0
LINE
  5
34B
100
AcDbEntity
  8
BEZUGSACHSEN
100
AcDbLine
 62
7
  6
CONTINUOUS
 10
56.8293131439
 20
39.7817021648
 11
56.8293131439
 21
33.7817021648
  0
LINE
  5
34C
100
AcDbEntity
  8
0
100
AcDbLine
 62
7
  6
CONTINUOUS
 10
60.4203653939
 20
43.7607424684
 11
60.4203653939
 21
44.2817021648
  0
LINE
  5
34D
100
AcDbEntity
  8
0
100
AcDbLine
 62
7
  6
CONTINUOUS
 10
61.3085232689
 20
43.7817021648
 11
61.3085232689
 21
44.2817021648
  0
LINE
  5
34E
100
AcDbEntity
  8
0
100
AcDbLine
 62
7
  6
CONTINUOUS
 10
61.8414179939
 20
43.7817021648
 11
61.8414179939
 21
44.2817021648
  0
LINE
  5
34F
100
AcDbEntity
  8
0
100
AcDbLine
 62
7
  6
CONTINUOUS
 10
65.7493126439
 20
43.7817021648
 11
65.7493126439
 21
44.2817021648
  0
LINE
  5
350
100
AcDbEntity
  8
0
100
AcDbLine
 62
7
  6
CONTINUOUS
 10
75.3293126439
 20
53.9925981388
 11
75.3293126439
 21
43.7817021648
  0
LINE
  5
351
100
AcDbEntity
  8
0
100
AcDbLine
 62
7
  6
CONTINUOUS
 10
75.3293126439
 20
29.7817021648
 11
75.3293126439
 21
20.2019489343
  0
LINE
  5
352
100
AcDbEntity
  8
KONSTRUKTIONSELEMENTE
100
AcDbLine
 62
7
  6
CONTINUOUS
 10
75.3293126439
 20
19.5708061908
 11
75.3293126439
 21
20.2019489343
  0
LINE
  5
353
100
AcDbEntity
  8
KONSTRUKTIONSELEMENTE
100
AcDbLine
 62
7
  6
CONTINUOUS
 10
113.8293126439
 20
18.5317021648
 11
76.8293126439
 21
18.5317021648
  0
LINE
  5
354
100
AcDbEntity
  8
0
100
AcDbLine
 62
7
  6
CONTINUOUS
 10
97.1547294497
 20
18.9984975047
 11
96.7172294497
 21
18.9984975047
  0
LINE
  5
355
100
AcDbEntity
  8
0
100
AcDbLine
 62
7
  6
CONTINUOUS
 10
94.3109794497
 20
18.9984975047
 11
93.8734792411
 21
18.9984975047
  0
LINE
  5
356
100
AcDbEntity
  8
0
100
AcDbLine
 62
7
  6
CONTINUOUS
 10
97.1547294497
 20
19.1049306682
 11
96.7172294497
 21
19.1049306682
  0
LINE
  5
357
100
AcDbEntity
  8
0
100
AcDbLine
 62
7
  6
CONTINUOUS
 10
96.0609794497
 20
19.2658085529
 11
95.6234794497
 21
19.2658085529
  0
LINE
  5
358
100
AcDbEntity
  8
0
100
AcDbLine
 62
7
  6
CONTINUOUS
 10
95.0401458382
 20
19.3143120127
 11
94.3109794497
 21
19.3143120127
  0
LINE
  5
359
100
AcDbEntity
  8
0
100
AcDbLine
 62
7
  6
CONTINUOUS
 10
93.8734792411
 20
19.3143120127
 11
92.1234793454
 21
19.3143120127
  0
LINE
  5
35A
100
AcDbEntity
  8
0
100
AcDbLine
 62
7
  6
CONTINUOUS
 10
93.8734792411
 20
19.3387984846
 11
94.3109794497
 21
19.3387984846
  0
LINE
  5
35B
100
AcDbEntity
  8
0
100
AcDbLine
 62
7
  6
CONTINUOUS
 10
91.5401459425
 20
19.3891803075
 11
90.5193126439
 21
19.3891803075
  0
LINE
  5
35C
100
AcDbEntity
  8
0
100
AcDbLine
 62
7
  6
CONTINUOUS
 10
95.0401458382
 20
19.4665838483
 11
94.3109794497
 21
19.4665838483
  0
LINE
  5
35D
100
AcDbEntity
  8
0
100
AcDbLine
 62
7
  6
CONTINUOUS
 10
93.8734792411
 20
19.4665838483
 11
92.6338960468
 21
19.4665838483
  0
LINE
  5
35E
100
AcDbEntity
  8
0
100
AcDbLine
 62
7
  6
CONTINUOUS
 10
96.1338958382
 20
19.4929484399
 11
95.6234794497
 21
19.4929484399
  0
LINE
  5
35F
100
AcDbEntity
  8
0
100
AcDbLine
 62
7
  6
CONTINUOUS
 10
91.5401459425
 20
19.519594804
 11
90.5193126439
 21
19.519594804
  0
LINE
  5
360
100
AcDbEntity
  8
0
100
AcDbLine
 62
7
  6
CONTINUOUS
 10
97.1547294497
 20
19.6012251736
 11
96.7172294497
 21
19.6012251736
  0
LINE
  5
361
100
AcDbEntity
  8
0
100
AcDbLine
 62
7
  6
CONTINUOUS
 10
97.1547294497
 20
19.7429192899
 11
96.7172294497
 21
19.7429192899
  0
LINE
  5
362
100
AcDbEntity
  8
0
100
AcDbLine
 62
7
  6
CONTINUOUS
 10
95.6234794497
 20
19.8736597801
 11
95.9880626439
 21
19.8736597801
  0
LINE
  5
363
100
AcDbEntity
  8
0
100
AcDbLine
 62
7
  6
CONTINUOUS
 10
100.6911876439
 20
19.8993079941
 11
100.4724376439
 21
19.8993079941
  0
LINE
  5
364
100
AcDbEntity
  8
0
100
AcDbLine
 62
7
  6
CONTINUOUS
 10
98.1026462554
 20
20.1118837188
 11
95.9880626439
 21
20.1118837188
  0
LINE
  5
365
100
AcDbEntity
  8
0
100
AcDbLine
 62
7
  6
CONTINUOUS
 10
100.4724376439
 20
20.2366013608
 11
100.6911876439
 21
20.2366013608
  0
LINE
  5
366
100
AcDbEntity
  8
0
100
AcDbLine
 62
7
  6
CONTINUOUS
 10
100.6911876439
 20
20.2777408859
 11
100.4724376439
 21
20.2777408859
  0
LINE
  5
367
100
AcDbEntity
  8
0
100
AcDbLine
 62
7
  6
CONTINUOUS
 10
98.1026462554
 20
20.2777408859
 11
95.6234794497
 21
20.2777408859
  0
LINE
  5
368
100
AcDbEntity
  8
0
100
AcDbLine
 62
7
  6
CONTINUOUS
 10
94.3109794497
 20
20.2777408859
 11
93.8734792411
 21
20.2777408859
  0
LINE
  5
369
100
AcDbEntity
  8
0
100
AcDbLine
 62
7
  6
CONTINUOUS
 10
100.4336373364
 20
20.2542953389
 11
100.4724376439
 21
20.2366013608
  0
LINE
  5
36A
100
AcDbEntity
  8
KONSTRUKTIONSELEMENTE
100
AcDbLine
 62
7
  6
CONTINUOUS
 10
86.9238948587
 20
43.7817021648
 11
86.9238948587
 21
44.0617021648
  0
LINE
  5
36B
100
AcDbEntity
  8
KONSTRUKTIONSELEMENTE
100
AcDbLine
 62
7
  6
CONTINUOUS
 10
98.7216530102
 20
26.7842021648
 11
98.1365466969
 21
26.7842021648
  0
LINE
  5
36C
100
AcDbEntity
  8
KONSTRUKTIONSELEMENTE
100
AcDbLine
 62
7
  6
CONTINUOUS
 10
98.6046317475
 20
27.4717021648
 11
98.2535679596
 21
27.4717021648
  0
LINE
  5
36D
100
AcDbEntity
  8
KONSTRUKTIONSELEMENTE
100
AcDbLine
 62
7
  6
CONTINUOUS
 10
86.9238948587
 20
29.2804521648
 11
87.009214005
 21
29.7817021648
  0
LINE
  5
36E
100
AcDbEntity
  8
KONSTRUKTIONSELEMENTE
100
AcDbLine
 62
7
  6
CONTINUOUS
 10
87.3919799503
 20
29.2804521648
 11
87.4943628746
 21
29.7817021648
  0
LINE
  5
36F
100
AcDbEntity
  8
KONSTRUKTIONSELEMENTE
100
AcDbLine
 62
7
  6
CONTINUOUS
 10
97.5514403018
 20
44.4300355528
 11
102.3493126439
 21
46.0342021648
  0
LINE
  5
370
100
AcDbEntity
  8
KONSTRUKTIONSELEMENTE
100
AcDbLine
 62
7
  6
CONTINUOUS
 10
96.8493126439
 20
44.8883687768
 11
102.3493126439
 21
46.7217021648
  0
LINE
  5
371
100
AcDbEntity
  8
KONSTRUKTIONSELEMENTE
100
AcDbLine
 62
7
  6
CONTINUOUS
 10
90.6685755912
 20
29.051285061
 11
90.2004905406
 21
29.051285061
  0
LINE
  5
372
100
AcDbEntity
  8
KONSTRUKTIONSELEMENTE
100
AcDbLine
 62
7
  6
CONTINUOUS
 10
87.3919799503
 20
29.2804521648
 11
86.9238948587
 21
29.2804521648
  0
LINE
  5
373
100
AcDbEntity
  8
KONSTRUKTIONSELEMENTE
100
AcDbLine
 62
7
  6
CONTINUOUS
 10
108.6693126439
 20
29.6817021648
 11
107.1893126439
 21
29.6817021648
  0
LINE
  5
374
100
AcDbEntity
  8
BEZUGSACHSEN
100
AcDbLine
 62
7
  6
CONTINUOUS
 10
60.8293131439
 20
29.7817021648
 11
129.8293121439
 21
29.7817021648
  0
LINE
  5
375
100
AcDbEntity
  8
KONSTRUKTIONSELEMENTE
100
AcDbLine
 62
7
  6
CONTINUOUS
 10
98.1365466969
 20
26.7842021648
 11
97.6684615644
 21
27.0133692686
  0
LINE
  5
376
100
AcDbEntity
  8
KONSTRUKTIONSELEMENTE
100
AcDbLine
 62
7
  6
CONTINUOUS
 10
98.2535679596
 20
27.4717021648
 11
97.9025041717
 21
27.7008692686
  0
LINE
  5
377
100
AcDbEntity
  8
KONSTRUKTIONSELEMENTE
100
AcDbLine
 62
7
  6
CONTINUOUS
 10
97.6684615644
 20
27.0133692686
 11
97.2003764728
 21
27.4717021648
  0
LINE
  5
378
100
AcDbEntity
  8
KONSTRUKTIONSELEMENTE
100
AcDbLine
 62
7
  6
CONTINUOUS
 10
90.2004905406
 20
29.051285061
 11
90.2004905406
 21
29.7817021648
  0
LINE
  5
379
100
AcDbEntity
  8
0
100
AcDbLine
 62
7
  6
CONTINUOUS
 10
90.5193126439
 20
19.3891803075
 11
90.5193126439
 21
19.519594804
  0
LINE
  5
37A
100
AcDbEntity
  8
KONSTRUKTIONSELEMENTE
100
AcDbLine
 62
7
  6
CONTINUOUS
 10
90.6685755912
 20
29.051285061
 11
90.6685755912
 21
29.7817021648
  0
LINE
  5
37B
100
AcDbEntity
  8
KONSTRUKTIONSELEMENTE
100
AcDbLine
 62
7
  6
CONTINUOUS
 10
91.1366609696
 20
43.7817021648
 11
91.1366609696
 21
43.9471188281
  0
LINE
  5
37C
100
AcDbEntity
  8
0
100
AcDbLine
 62
7
  6
CONTINUOUS
 10
91.5401459425
 20
19.3891803075
 11
91.5401459425
 21
19.519594804
  0
LINE
  5
37D
100
AcDbEntity
  8
0
100
AcDbLine
 62
7
  6
CONTINUOUS
 10
92.1234793454
 20
19.3143120127
 11
92.1234793454
 21
19.4665838483
  0
LINE
  5
37E
100
AcDbEntity
  8
0
100
AcDbLine
 62
7
  6
CONTINUOUS
 10
92.6338960468
 20
19.4665838483
 11
92.6338960468
 21
19.682727361
  0
LINE
  5
37F
100
AcDbEntity
  8
KONSTRUKTIONSELEMENTE
100
AcDbLine
 62
7
  6
CONTINUOUS
 10
97.9025041717
 20
27.7008692686
 11
97.6684615644
 21
28.0446192686
  0
LINE
  5
380
100
AcDbEntity
  8
KONSTRUKTIONSELEMENTE
100
AcDbLine
 62
7
  6
CONTINUOUS
 10
97.2003764728
 20
27.4717021648
 11
96.9663339168
 21
27.930035061
  0
LINE
  5
381
100
AcDbEntity
  8
0
100
AcDbLine
 62
7
  6
CONTINUOUS
 10
93.8734792411
 20
18.9984975047
 11
93.8734792411
 21
20.2777408859
  0
LINE
  5
382
100
AcDbEntity
  8
0
100
AcDbLine
 62
7
  6
CONTINUOUS
 10
94.3109794497
 20
18.9984975047
 11
94.3109794497
 21
20.2777408859
  0
LINE
  5
383
100
AcDbEntity
  8
0
100
AcDbLine
 62
7
  6
CONTINUOUS
 10
95.0401458382
 20
19.3143120127
 11
95.0401458382
 21
19.4665838483
  0
LINE
  5
384
100
AcDbEntity
  8
0
100
AcDbLine
 62
7
  6
CONTINUOUS
 10
95.6234794497
 20
19.4929484399
 11
95.6234794497
 21
20.2777408859
  0
LINE
  5
385
100
AcDbEntity
  8
KONSTRUKTIONSELEMENTE
100
AcDbLine
 62
7
  6
CONTINUOUS
 10
87.7643204026
 20
43.7817021648
 11
87.5090012539
 21
44.0617021648
  0
LINE
  5
386
100
AcDbEntity
  8
KONSTRUKTIONSELEMENTE
100
AcDbLine
 62
7
  6
CONTINUOUS
 10
97.6684615644
 20
28.0446192686
 11
97.5514403018
 21
28.5029521648
  0
LINE
  5
387
100
AcDbEntity
  8
KONSTRUKTIONSELEMENTE
100
AcDbLine
 62
7
  6
CONTINUOUS
 10
96.9663339168
 20
27.930035061
 11
96.8493126439
 21
28.5029521648
  0
LINE
  5
388
100
AcDbEntity
  8
0
100
AcDbLine
 62
7
  6
CONTINUOUS
 10
95.7693126439
 20
19.1721848421
 11
95.7693126439
 21
19.2658085529
  0
LINE
  5
389
100
AcDbEntity
  8
0
100
AcDbLine
 62
7
  6
CONTINUOUS
 10
95.9880626439
 20
19.0830778359
 11
95.9880626439
 21
19.2658085529
  0
LINE
  5
38A
100
AcDbEntity
  8
0
100
AcDbLine
 62
7
  6
CONTINUOUS
 10
95.9880626439
 20
19.6289993381
 11
95.9880626439
 21
20.2777408859
  0
LINE
  5
38B
100
AcDbEntity
  8
0
100
AcDbLine
 62
7
  6
CONTINUOUS
 10
96.1338958382
 20
19.4929484399
 11
96.1338958382
 21
19.6627198968
  0
LINE
  5
38C
100
AcDbEntity
  8
0
100
AcDbLine
 62
7
  6
CONTINUOUS
 10
96.3526458382
 20
19.0192175318
 11
96.3526458382
 21
19.1419881085
  0
LINE
  5
38D
100
AcDbEntity
  8
0
100
AcDbLine
 62
7
  6
CONTINUOUS
 10
96.4255626439
 20
19.573733093
 11
96.4255626439
 21
19.714015528
  0
LINE
  5
38E
100
AcDbEntity
  8
0
100
AcDbLine
 62
7
  6
CONTINUOUS
 10
96.7172294497
 20
18.9984975047
 11
96.7172294497
 21
19.1049306682
  0
LINE
  5
38F
100
AcDbEntity
  8
0
100
AcDbLine
 62
7
  6
CONTINUOUS
 10
96.7172294497
 20
19.6012251736
 11
96.7172294497
 21
19.7429192899
  0
LINE
  5
390
100
AcDbEntity
  8
KONSTRUKTIONSELEMENTE
100
AcDbLine
 62
7
  6
CONTINUOUS
 10
96.8493126439
 20
28.5029521648
 11
96.8493126439
 21
29.4196192686
  0
LINE
  5
391
100
AcDbEntity
  8
KONSTRUKTIONSELEMENTE
100
AcDbLine
 62
7
  6
CONTINUOUS
 10
96.8493126439
 20
43.9717021648
 11
96.8493126439
 21
44.8883687768
  0
LINE
  5
392
100
AcDbEntity
  8
0
100
AcDbLine
 62
7
  6
CONTINUOUS
 10
97.1547294497
 20
18.9984975047
 11
97.1547294497
 21
19.1049306682
  0
LINE
  5
393
100
AcDbEntity
  8
0
100
AcDbLine
 62
7
  6
CONTINUOUS
 10
97.1547294497
 20
19.6012251736
 11
97.1547294497
 21
19.7429192899
  0
LINE
  5
394
100
AcDbEntity
  8
0
100
AcDbLine
 62
7
  6
CONTINUOUS
 10
97.4463958382
 20
19.573733093
 11
97.4463958382
 21
19.714015528
  0
LINE
  5
395
100
AcDbEntity
  8
0
100
AcDbLine
 62
7
  6
CONTINUOUS
 10
97.5193126439
 20
19.0192175318
 11
97.5193126439
 21
19.1419880799
  0
LINE
  5
396
100
AcDbEntity
  8
KONSTRUKTIONSELEMENTE
100
AcDbLine
 62
7
  6
CONTINUOUS
 10
97.5514403018
 20
28.5029521648
 11
97.5514403018
 21
29.4196192686
  0
LINE
  5
397
100
AcDbEntity
  8
0
100
AcDbLine
 62
7
  6
CONTINUOUS
 10
97.6651462554
 20
19.519594804
 11
97.6651462554
 21
19.6797230669
  0
LINE
  5
398
100
AcDbEntity
  8
0
100
AcDbLine
 62
7
  6
CONTINUOUS
 10
97.8109790324
 20
19.440500986
 11
97.8109790324
 21
19.645812125
  0
LINE
  5
399
100
AcDbEntity
  8
0
100
AcDbLine
 62
7
  6
CONTINUOUS
 10
97.8838962554
 20
19.0830778359
 11
97.8838962554
 21
19.6289993381
  0
LINE
  5
39A
100
AcDbEntity
  8
0
100
AcDbLine
 62
7
  6
CONTINUOUS
 10
98.1026462554
 20
19.1721848421
 11
98.1026462554
 21
19.519594804
  0
LINE
  5
39B
100
AcDbEntity
  8
0
100
AcDbLine
 62
7
  6
CONTINUOUS
 10
98.1026462554
 20
20.1118837188
 11
98.1026462554
 21
20.2777408859
  0
LINE
  5
39C
100
AcDbEntity
  8
0
100
AcDbLine
 62
7
  6
CONTINUOUS
 10
98.2484790324
 20
19.2899193788
 11
98.2484790324
 21
19.3891803075
  0
LINE
  5
39D
100
AcDbEntity
  8
KONSTRUKTIONSELEMENTE
100
AcDbLine
 62
7
  6
CONTINUOUS
 10
96.8493126439
 20
29.4196192686
 11
96.923270112
 21
29.7817021648
  0
LINE
  5
39E
100
AcDbEntity
  8
KONSTRUKTIONSELEMENTE
100
AcDbLine
 62
7
  6
CONTINUOUS
 10
91.6566609014
 20
43.7817021648
 11
91.6047460202
 21
43.8325354913
  0
LINE
  5
39F
100
AcDbEntity
  8
KONSTRUKTIONSELEMENTE
100
AcDbLine
 62
7
  6
CONTINUOUS
 10
101.5301638054
 20
29.5342021648
 11
101.3616531872
 21
29.7817021648
  0
LINE
  5
3A0
100
AcDbEntity
  8
KONSTRUKTIONSELEMENTE
100
AcDbLine
 62
7
  6
CONTINUOUS
 10
102.2322913813
 20
29.648785061
 11
102.1644189552
 21
29.7817021648
  0
LINE
  5
3A1
100
AcDbEntity
  8
KONSTRUKTIONSELEMENTE
100
AcDbLine
 62
7
  6
CONTINUOUS
 10
99.3067594873
 20
28.5029521648
 11
99.3067594873
 21
29.1904521648
  0
LINE
  5
3A2
100
AcDbEntity
  8
KONSTRUKTIONSELEMENTE
100
AcDbLine
 62
7
  6
CONTINUOUS
 10
100.0088870632
 20
28.5029521648
 11
100.0088870632
 21
29.1904521648
  0
LINE
  5
3A3
100
AcDbEntity
  8
0
100
AcDbLine
 62
7
  6
CONTINUOUS
 10
100.2536876439
 20
20.0210736612
 11
100.2536876439
 21
20.1472113361
  0
LINE
  5
3A4
100
AcDbEntity
  8
0
100
AcDbLine
 62
7
  6
CONTINUOUS
 10
100.4724376439
 20
19.8993079941
 11
100.4724376439
 21
20.2366013608
  0
LINE
  5
3A5
100
AcDbEntity
  8
0
100
AcDbLine
 62
7
  6
CONTINUOUS
 10
100.6911876439
 20
19.8993079941
 11
100.6911876439
 21
20.2366013608
  0
LINE
  5
3A6
100
AcDbEntity
  8
0
100
AcDbLine
 62
7
  6
CONTINUOUS
 10
100.9099376439
 20
20.0210736612
 11
100.9099376439
 21
20.1472113361
  0
LINE
  5
3A7
100
AcDbEntity
  8
KONSTRUKTIONSELEMENTE
100
AcDbLine
 62
7
  6
CONTINUOUS
 10
101.0620787548
 20
27.1279521648
 11
101.0620787548
 21
27.8154521648
  0
LINE
  5
3A8
100
AcDbEntity
  8
KONSTRUKTIONSELEMENTE
100
AcDbLine
 62
7
  6
CONTINUOUS
 10
97.5514403018
 20
29.4196192686
 11
97.6438870758
 21
29.7817021648
  0
LINE
  5
3A9
100
AcDbEntity
  8
KONSTRUKTIONSELEMENTE
100
AcDbLine
 62
7
  6
CONTINUOUS
 10
99.3067594873
 20
29.1904521648
 11
99.42378075
 21
29.648785061
  0
LINE
  5
3AA
100
AcDbEntity
  8
KONSTRUKTIONSELEMENTE
100
AcDbLine
 62
7
  6
CONTINUOUS
 10
99.1897382247
 20
28.0446192686
 11
99.3067594873
 21
28.5029521648
  0
LINE
  5
3AB
100
AcDbEntity
  8
KONSTRUKTIONSELEMENTE
100
AcDbLine
 62
7
  6
CONTINUOUS
 10
91.6047460202
 20
43.8325354913
 11
91.1366609696
 21
43.9471188281
  0
LINE
  5
3AC
100
AcDbEntity
  8
KONSTRUKTIONSELEMENTE
100
AcDbLine
 62
7
  6
CONTINUOUS
 10
101.6471850681
 20
29.1904521648
 11
101.5301638054
 21
29.5342021648
  0
LINE
  5
3AD
100
AcDbEntity
  8
KONSTRUKTIONSELEMENTE
100
AcDbLine
 62
7
  6
CONTINUOUS
 10
102.3493126439
 20
29.1904521648
 11
102.2322913813
 21
29.648785061
  0
LINE
  5
3AE
100
AcDbEntity
  8
KONSTRUKTIONSELEMENTE
100
AcDbLine
 62
7
  6
CONTINUOUS
 10
101.6471850681
 20
28.5029521648
 11
101.6471850681
 21
29.1904521648
  0
LINE
  5
3AF
100
AcDbEntity
  8
KONSTRUKTIONSELEMENTE
100
AcDbLine
 62
7
  6
CONTINUOUS
 10
102.3493126439
 20
28.617535061
 11
102.3493126439
 21
29.1904521648
  0
LINE
  5
3B0
100
AcDbEntity
  8
KONSTRUKTIONSELEMENTE
100
AcDbLine
 62
7
  6
CONTINUOUS
 10
102.3493126439
 20
46.0342021648
 11
102.3493126439
 21
46.7217021648
  0
LINE
  5
3B1
100
AcDbEntity
  8
KONSTRUKTIONSELEMENTE
100
AcDbLine
 62
7
  6
CONTINUOUS
 10
99.8918658005
 20
27.930035061
 11
100.0088870632
 21
28.5029521648
  0
LINE
  5
3B2
100
AcDbEntity
  8
KONSTRUKTIONSELEMENTE
100
AcDbLine
 62
7
  6
CONTINUOUS
 10
102.2322913813
 20
28.0446192686
 11
102.3493126439
 21
28.617535061
  0
LINE
  5
3B3
100
AcDbEntity
  8
KONSTRUKTIONSELEMENTE
100
AcDbLine
 62
7
  6
CONTINUOUS
 10
100.0088870632
 20
29.1904521648
 11
100.1259083258
 21
29.5342021648
  0
LINE
  5
3B4
100
AcDbEntity
  8
KONSTRUKTIONSELEMENTE
100
AcDbLine
 62
7
  6
CONTINUOUS
 10
101.5301638054
 20
28.1592021648
 11
101.6471850681
 21
28.5029521648
  0
LINE
  5
3B5
100
AcDbEntity
  8
KONSTRUKTIONSELEMENTE
100
AcDbLine
 62
7
  6
CONTINUOUS
 10
99.42378075
 20
29.648785061
 11
99.491653176
 21
29.7817021648
  0
LINE
  5
3B6
100
AcDbEntity
  8
KONSTRUKTIONSELEMENTE
100
AcDbLine
 62
7
  6
CONTINUOUS
 10
99.6578232753
 20
27.4717021648
 11
99.8918658005
 21
27.930035061
  0
LINE
  5
3B7
100
AcDbEntity
  8
KONSTRUKTIONSELEMENTE
100
AcDbLine
 62
7
  6
CONTINUOUS
 10
100.1259083258
 20
29.5342021648
 11
100.294418944
 21
29.7817021648
  0
LINE
  5
3B8
100
AcDbEntity
  8
KONSTRUKTIONSELEMENTE
100
AcDbLine
 62
7
  6
CONTINUOUS
 10
98.9556956994
 20
27.7008692686
 11
99.1897382247
 21
28.0446192686
  0
LINE
  5
3B9
100
AcDbEntity
  8
BEZUGSACHSEN
100
AcDbLine
 62
7
  6
CONTINUOUS
 10
60.8293131439
 20
43.7817021648
 11
96.5176453472
 21
43.7817021648
  0
LINE
  5
3BA
100
AcDbEntity
  8
RUNDUNGEN
100
AcDbLine
 62
7
  6
CONTINUOUS
 10
96.5176453472
 20
43.7817021648
 11
129.8293121439
 21
43.7817021648
  0
LINE
  5
3BB
100
AcDbEntity
  8
KONSTRUKTIONSELEMENTE
100
AcDbLine
 62
7
  6
CONTINUOUS
 10
109.4693126439
 20
43.8817021648
 11
108.3693126439
 21
43.8817021648
  0
LINE
  5
3BC
100
AcDbEntity
  8
KONSTRUKTIONSELEMENTE
100
AcDbLine
 62
7
  6
CONTINUOUS
 10
107.3893126439
 20
43.8817021648
 11
104.9893126439
 21
43.8817021648
  0
LINE
  5
3BD
100
AcDbEntity
  8
KONSTRUKTIONSELEMENTE
100
AcDbLine
 62
7
  6
CONTINUOUS
 10
87.5090012539
 20
44.0617021648
 11
86.9238948587
 21
44.0617021648
  0
LINE
  5
3BE
100
AcDbEntity
  8
0
100
AcDbLine
 62
7
  6
CONTINUOUS
 10
60.4203653939
 20
44.2817021648
 11
65.7493126439
 21
44.2817021648
  0
LINE
  5
3BF
100
AcDbEntity
  8
KONSTRUKTIONSELEMENTE
100
AcDbLine
 62
7
  6
CONTINUOUS
 10
110.8693126439
 20
45.0817021648
 11
109.8693126439
 21
45.0817021648
  0
LINE
  5
3C0
100
AcDbEntity
  8
KONSTRUKTIONSELEMENTE
100
AcDbLine
 62
7
  6
CONTINUOUS
 10
109.4693126439
 20
45.0817021648
 11
104.9893126439
 21
45.0817021648
  0
LINE
  5
3C1
100
AcDbEntity
  8
KONSTRUKTIONSELEMENTE
100
AcDbLine
 62
7
  6
CONTINUOUS
 10
97.4193126779
 20
43.7817021648
 11
96.8493126439
 21
43.9717021648
  0
LINE
  5
3C2
100
AcDbEntity
  8
KONSTRUKTIONSELEMENTE
100
AcDbLine
 62
7
  6
CONTINUOUS
 10
99.4905286778
 20
43.7817021648
 11
97.5514403018
 21
44.4300355528
  0
LINE
  5
3C3
100
AcDbEntity
  8
KONSTRUKTIONSELEMENTE
100
AcDbLine
 62
7
  6
CONTINUOUS
 10
104.9893126439
 20
43.8817021648
 11
104.9893126439
 21
45.0817021648
  0
LINE
  5
3C4
100
AcDbEntity
  8
KONSTRUKTIONSELEMENTE
100
AcDbLine
 62
7
  6
CONTINUOUS
 10
101.8812275933
 20
27.586285061
 11
102.2322913813
 21
28.0446192686
  0
LINE
  5
3C5
100
AcDbEntity
  8
KONSTRUKTIONSELEMENTE
100
AcDbLine
 62
7
  6
CONTINUOUS
 10
99.1897382247
 20
27.0133692686
 11
99.6578232753
 21
27.4717021648
  0
LINE
  5
3C6
100
AcDbEntity
  8
KONSTRUKTIONSELEMENTE
100
AcDbLine
 62
7
  6
CONTINUOUS
 10
101.2961212801
 20
27.930035061
 11
101.5301638054
 21
28.1592021648
  0
LINE
  5
3C7
100
AcDbEntity
  8
KONSTRUKTIONSELEMENTE
100
AcDbLine
 62
7
  6
CONTINUOUS
 10
101.4131425428
 20
27.242535061
 11
101.8812275933
 21
27.586285061
  0
LINE
  5
3C8
100
AcDbEntity
  8
KONSTRUKTIONSELEMENTE
100
AcDbLine
 62
7
  6
CONTINUOUS
 10
98.6046317475
 20
27.4717021648
 11
98.9556956994
 21
27.7008692686
  0
LINE
  5
3C9
100
AcDbEntity
  8
KONSTRUKTIONSELEMENTE
100
AcDbLine
 62
7
  6
CONTINUOUS
 10
98.7216530102
 20
26.7842021648
 11
99.1897382247
 21
27.0133692686
  0
LINE
  5
3CA
100
AcDbEntity
  8
KONSTRUKTIONSELEMENTE
100
AcDbLine
 62
7
  6
CONTINUOUS
 10
101.0620787548
 20
27.8154521648
 11
101.2961212801
 21
27.930035061
  0
LINE
  5
3CB
100
AcDbEntity
  8
KONSTRUKTIONSELEMENTE
100
AcDbLine
 62
7
  6
CONTINUOUS
 10
101.0620787548
 20
27.1279521648
 11
101.4131425428
 21
27.242535061
  0
LINE
  5
3CC
100
AcDbEntity
  8
KONSTRUKTIONSELEMENTE
100
AcDbLine
 62
7
  6
CONTINUOUS
 10
107.3893126439
 20
43.7817021648
 11
107.3893126439
 21
43.8817021648
  0
LINE
  5
3CD
100
AcDbEntity
  8
KONSTRUKTIONSELEMENTE
100
AcDbLine
 62
7
  6
CONTINUOUS
 10
108.3693126439
 20
43.7817021648
 11
108.3693126439
 21
43.8817021648
  0
LINE
  5
3CE
100
AcDbEntity
  8
KONSTRUKTIONSELEMENTE
100
AcDbLine
 62
7
  6
CONTINUOUS
 10
109.4693126439
 20
43.8817021648
 11
109.4693126439
 21
45.0817021648
  0
LINE
  5
3CF
100
AcDbEntity
  8
KONSTRUKTIONSELEMENTE
100
AcDbLine
 62
7
  6
CONTINUOUS
 10
109.8693126439
 20
43.7817021648
 11
109.8693126439
 21
45.0817021648
  0
LINE
  5
3D0
100
AcDbEntity
  8
KONSTRUKTIONSELEMENTE
100
AcDbLine
 62
7
  6
CONTINUOUS
 10
110.8693126439
 20
43.7817021648
 11
110.8693126439
 21
45.0817021648
  0
LINE
  5
3D1
100
AcDbEntity
  8
0
100
AcDbLine
 62
7
  6
CONTINUOUS
 10
97.8838962554
 20
19.4406768219
 11
98.0786825842
 21
19.5313945696
  0
LINE
  5
3D2
100
AcDbEntity
  8
0
100
AcDbLine
 62
7
  6
CONTINUOUS
 10
100.6911876439
 20
20.2366013608
 11
100.7299879514
 21
20.2542953389
  0
LINE
  5
3D3
100
AcDbEntity
  8
0
100
AcDbLine
 62
7
  6
CONTINUOUS
 10
115.3293126439
 20
53.9925981388
 11
115.3293126439
 21
43.7817021648
  0
LINE
  5
3D4
100
AcDbEntity
  8
0
100
AcDbLine
 62
7
  6
CONTINUOUS
 10
115.3293126439
 20
29.7817021648
 11
115.3293126439
 21
20.2019489343
  0
LINE
  5
3D5
100
AcDbEntity
  8
KONSTRUKTIONSELEMENTE
100
AcDbLine
 62
7
  6
CONTINUOUS
 10
115.3293126439
 20
20.2019489343
 11
115.3293126439
 21
19.5708061908
  0
LINE
  5
3D6
100
AcDbEntity
  8
0
100
AcDbLine
 62
7
  6
CONTINUOUS
 10
113.8293126439
 20
55.0317021648
 11
76.8293126439
 21
55.0317021648
  0
LINE
  5
3D7
100
AcDbEntity
  8
BEZUGSACHSEN
100
AcDbLine
 62
7
  6
CONTINUOUS
 10
133.8293121439
 20
33.7817021648
 11
133.8293121439
 21
39.7817021648
  0
ARC
  5
3D8
100
AcDbEntity
  8
KONSTRUKTIONSELEMENTE
100
AcDbCircle
 62
7
  6
CONTINUOUS
 10
81.1337986899
 20
63.5851256181
 40
62.2483657334
100
AcDbArc
 50
89.676891337
 51
90.315938414
  0
ARC
  5
3D9
100
AcDbEntity
  8
KONSTRUKTIONSELEMENTE
100
AcDbCircle
 62
7
  6
CONTINUOUS
 10
88.0887221308
 20
90.6181653302
 40
35.2301239973
100
AcDbArc
 50
90.3718743123
 51
90.9428341832
  0
ARC
  5
3DA
100
AcDbEntity
  8
BEZUGSACHSEN
100
AcDbCircle
 62
7
  6
CONTINUOUS
 10
78.8293131439
 20
121.5982893065
 40
6.0
100
AcDbArc
 50
180.0
 51
234.3141047657
  0
ARC
  5
3DB
100
AcDbEntity
  8
BEZUGSACHSEN
100
AcDbCircle
 62
7
  6
CONTINUOUS
 10
60.8293131439
 20
103.5982893065
 40
4.0
100
AcDbArc
 50
180.0
 51
270.0
  0
ARC
  5
3DC
100
AcDbEntity
  8
BEZUGSACHSEN
100
AcDbCircle
 62
7
  6
CONTINUOUS
 10
91.1173296496
 20
148.264245508
 40
18.0
100
AcDbArc
 50
200.6102911233
 51
240.2018032089
  0
ARC
  5
3DD
100
AcDbEntity
  8
BEZUGSACHSEN
100
AcDbCircle
 62
7
  6
CONTINUOUS
 10
63.9345761439
 20
149.8482893065
 40
7.105263
100
AcDbArc
 50
157.5
 51
180.0
  0
ARC
  5
3DE
100
AcDbEntity
  8
BEZUGSACHSEN
100
AcDbCircle
 62
7
  6
CONTINUOUS
 10
73.1298815712
 20
172.0477203793
 40
7.105263
100
AcDbArc
 50
112.5
 51
157.5
  0
ARC
  5
3DF
100
AcDbEntity
  8
BEZUGSACHSEN
100
AcDbCircle
 62
7
  6
CONTINUOUS
 10
75.3293131439
 20
125.8482893065
 40
2.5
100
AcDbArc
 50
90.0
 51
180.0
  0
ARC
  5
3E0
100
AcDbEntity
  8
BEZUGSACHSEN
100
AcDbCircle
 62
7
  6
CONTINUOUS
 10
81.0293126439
 20
130.6482893065
 40
2.3
100
AcDbArc
 50
270.0
 51
60.2018032089
  0
ARC
  5
3E1
100
AcDbEntity
  8
0
100
AcDbCircle
 62
7
  6
CONTINUOUS
 10
76.8293126439
 20
123.8482893065
 40
1.5
100
AcDbArc
 50
90.0
 51
180.0
  0
ARC
  5
3E2
100
AcDbEntity
  8
BEZUGSACHSEN
100
AcDbCircle
 62
7
  6
CONTINUOUS
 10
111.8293121439
 20
121.5982893065
 40
6.0
100
AcDbArc
 50
305.6858952343
 51
360.0
  0
ARC
  5
3E3
100
AcDbEntity
  8
BEZUGSACHSEN
100
AcDbCircle
 62
7
  6
CONTINUOUS
 10
129.8293121439
 20
103.5982893065
 40
4.0
100
AcDbArc
 50
270.0
 51
360.0
  0
ARC
  5
3E4
100
AcDbEntity
  8
BEZUGSACHSEN
100
AcDbCircle
 62
7
  6
CONTINUOUS
 10
95.3293126439
 20
149.8482893065
 40
22.4999995
100
AcDbArc
 50
339.3897088767
 51
200.6102911233
  0
ARC
  5
3E5
100
AcDbEntity
  8
KONSTRUKTIONSELEMENTE
100
AcDbCircle
 62
7
  6
CONTINUOUS
 10
107.3420818611
 20
145.1253795012
 40
19.4168146783
100
AcDbArc
 50
267.1145172036
 51
269.9918285024
  0
ARC
  5
3E6
100
AcDbEntity
  8
BEZUGSACHSEN
100
AcDbCircle
 62
7
  6
CONTINUOUS
 10
99.5412956382
 20
148.264245508
 40
18.0
100
AcDbArc
 50
299.7981967911
 51
339.3897088767
  0
ARC
  5
3E7
100
AcDbEntity
  8
BEZUGSACHSEN
100
AcDbCircle
 62
7
  6
CONTINUOUS
 10
126.7240491439
 20
149.8482893065
 40
7.105263
100
AcDbArc
 50
0.0
 51
22.5
  0
ARC
  5
3E8
100
AcDbEntity
  8
BEZUGSACHSEN
100
AcDbCircle
 62
7
  6
CONTINUOUS
 10
117.5287437166
 20
172.0477203793
 40
7.105263
100
AcDbArc
 50
22.5
 51
67.5
  0
ARC
  5
3E9
100
AcDbEntity
  8
BEZUGSACHSEN
100
AcDbCircle
 62
7
  6
CONTINUOUS
 10
95.3293126439
 20
181.2430258065
 40
7.105263
100
AcDbArc
 50
67.5
 51
112.5
  0
ARC
  5
3EA
100
AcDbEntity
  8
BEZUGSACHSEN
100
AcDbCircle
 62
7
  6
CONTINUOUS
 10
115.3293121439
 20
125.8482893065
 40
2.5
100
AcDbArc
 50
1.4090868945
 51
90.0
  0
ARC
  5
3EB
100
AcDbEntity
  8
RUNDUNGEN
100
AcDbCircle
 62
7
  6
CONTINUOUS
 10
109.6293126439
 20
130.6482893065
 40
2.3
100
AcDbArc
 50
121.2311022883
 51
270.0
  0
ARC
  5
3EC
100
AcDbEntity
  8
BEZUGSACHSEN
100
AcDbCircle
 62
7
  6
CONTINUOUS
 10
109.6293126439
 20
130.6482893065
 40
2.3
100
AcDbArc
 50
119.7981967911
 51
270.0
  0
ARC
  5
3ED
100
AcDbEntity
  8
0
100
AcDbCircle
 62
7
  6
CONTINUOUS
 10
113.8293126439
 20
123.8482893065
 40
1.5
100
AcDbArc
 50
0.0
 51
90.0
  0
ARC
  5
3EE
100
AcDbEntity
  8
KONSTRUKTIONSELEMENTE
100
AcDbCircle
 62
7
  6
CONTINUOUS
 10
213.114917089
 20
106.8482893065
 40
19.0
100
AcDbArc
 50
65.9920085318
 51
68.3816463903
  0
ARC
  5
3EF
100
AcDbEntity
  8
KONSTRUKTIONSELEMENTE
100
AcDbCircle
 62
7
  6
CONTINUOUS
 10
213.114917089
 20
106.8482893065
 40
19.0
100
AcDbArc
 50
58.2520020154
 51
65.9914688245
  0
ARC
  5
3F0
100
AcDbEntity
  8
KONSTRUKTIONSELEMENTE
100
AcDbCircle
 62
7
  6
CONTINUOUS
 10
213.114917089
 20
106.8482893065
 40
19.0
100
AcDbArc
 50
113.2500497668
 51
121.5443162165
  0
ARC
  5
3F1
100
AcDbEntity
  8
0
100
AcDbCircle
 62
7
  6
CONTINUOUS
 10
213.114917089
 20
106.8482893065
 40
18.5
100
AcDbArc
 50
113.9394385743
 51
167.2337276582
  0
ARC
  5
3F2
100
AcDbEntity
  8
0
100
AcDbCircle
 62
7
  6
CONTINUOUS
 10
213.114917089
 20
106.8482893065
 40
18.5
100
AcDbArc
 50
12.7662723418
 51
67.7455234482
  0
ARC
  5
3F3
100
AcDbEntity
  8
0
100
AcDbCircle
 62
7
  6
CONTINUOUS
 10
213.114917089
 20
108.3282893065
 40
9.24
100
AcDbArc
 50
186.727125689
 51
353.272874311
  0
ARC
  5
3F4
100
AcDbEntity
  8
RUNDUNGEN
100
AcDbCircle
 62
7
  6
CONTINUOUS
 10
213.114917089
 20
106.8482893065
 40
9.0
100
AcDbArc
 50
141.1267581082
 51
166.0
  0
ARC
  5
3F5
100
AcDbEntity
  8
RUNDUNGEN
100
AcDbCircle
 62
7
  6
CONTINUOUS
 10
213.114917089
 20
106.8482893065
 40
9.0
100
AcDbArc
 50
14.0
 51
38.8732419212
  0
ARC
  5
3F6
100
AcDbEntity
  8
0
100
AcDbCircle
 62
7
  6
CONTINUOUS
 10
213.114917089
 20
108.0582893065
 40
8.47
100
AcDbArc
 50
157.6482206892
 51
22.3517793108
  0
ARC
  5
3F7
100
AcDbEntity
  8
BEZUGSACHSEN
100
AcDbCircle
 62
7
  6
CONTINUOUS
 10
213.114917089
 20
106.5982893065
 40
7.0
100
AcDbArc
 50
180.0
 51
360.0
  0
ARC
  5
3F8
100
AcDbEntity
  8
BEZUGSACHSEN
100
AcDbCircle
 62
7
  6
CONTINUOUS
 10
216.114917089
 20
184.3482888065
 40
4.0
100
AcDbArc
 50
0.0
 51
90.0
  0
ARC
  5
3F9
100
AcDbEntity
  8
BEZUGSACHSEN
100
AcDbCircle
 62
7
  6
CONTINUOUS
 10
210.114917089
 20
184.3482888065
 40
4.0
100
AcDbArc
 50
90.0
 51
180.0
  0
ARC
  5
3FA
100
AcDbEntity
  8
RUNDUNGEN
100
AcDbCircle
 62
7
  6
CONTINUOUS
 10
129.8293121439
 20
39.7817021648
 40
4.0
100
AcDbArc
 50
0.0
 51
90.0
  0
ARC
  5
3FB
100
AcDbEntity
  8
BEZUGSACHSEN
100
AcDbCircle
 62
7
  6
CONTINUOUS
 10
60.8293131439
 20
39.7817021648
 40
4.0
100
AcDbArc
 50
90.0
 51
180.0
  0
ARC
  5
3FC
100
AcDbEntity
  8
BEZUGSACHSEN
100
AcDbCircle
 62
7
  6
CONTINUOUS
 10
129.8293121439
 20
33.7817021648
 40
4.0
100
AcDbArc
 50
270.0
 51
360.0
  0
ARC
  5
3FD
100
AcDbEntity
  8
BEZUGSACHSEN
100
AcDbCircle
 62
7
  6
CONTINUOUS
 10
60.8293131439
 20
33.7817021648
 40
4.0
100
AcDbArc
 50
180.0
 51
270.0
  0
ARC
  5
3FE
100
AcDbEntity
  8
KONSTRUKTIONSELEMENTE
100
AcDbCircle
 62
7
  6
CONTINUOUS
 10
107.1893126439
 20
30.8817021648
 40
1.2
100
AcDbArc
 50
246.6466588078
 51
270.0
  0
ARC
  5
3FF
100
AcDbEntity
  8
KONSTRUKTIONSELEMENTE
100
AcDbCircle
 62
7
  6
CONTINUOUS
 10
108.6693126439
 20
30.8817021648
 40
1.2
100
AcDbArc
 50
270.0
 51
293.349381265
  0
SPLINE
  5
400
100
AcDbEntity
  8
KONSTRUKTIONSELEMENTE
100
AcDbSpline
 62
7
  6
CONTINUOUS
 70
0
 71
3
 72
13
 73
9
 74
0
 42
0.0000001
 43
0.0000001
 44
0.0000000001
 40
0.0
 40
0.0
 40
0.0
 40
0.0
 40
0.0264494196
 40
0.0883467873
 40
0.1833660815
 40
0.3080210359
 40
0.6271440722
 40
1.0
 40
1.0
 40
1.0
 40
1.0
 10
106.1904554197
 20
125.8482785226
 30
0.0
 10
106.2005892311
 20
125.8482880325
 30
0.0
 10
106.2343963763
 20
125.8461036405
 30
0.0
 10
106.3045653546
 20
125.8430415232
 30
0.0
 10
106.4123219805
 20
125.8376476474
 30
0.0
 10
106.6185696755
 20
125.8289500578
 30
0.0
 10
106.9313230073
 20
125.819263109
 30
0.0
 10
107.1964568321
 20
125.8164204744
 30
0.0
 10
107.3393126439
 20
125.8164204744
 30
0.0
  0
SPLINE
  5
401
100
AcDbEntity
  8
KONSTRUKTIONSELEMENTE
100
AcDbSpline
 62
7
  6
CONTINUOUS
 70
0
 71
3
 72
9
 73
5
 74
0
 42
0.0000001
 43
0.0000001
 44
0.0000000001
 40
0.0
 40
0.0
 40
0.0
 40
0.0
 40
0.2254211566
 40
1.0
 40
1.0
 40
1.0
 40
1.0
 10
79.3839020731
 20
125.5682688213
 30
0.0
 10
79.3839038007
 20
125.5645790442
 30
0.0
 10
79.3856500062
 20
125.5481810975
 30
0.0
 10
79.3941080522
 20
125.5331836576
 30
0.0
 10
79.4018440512
 20
125.5231387035
 30
0.0
  0
SPLINE
  5
402
100
AcDbEntity
  8
KONSTRUKTIONSELEMENTE
100
AcDbSpline
 62
7
  6
CONTINUOUS
 70
0
 71
3
 72
19
 73
15
 74
0
 42
0.0000001
 43
0.0000001
 44
0.0000000001
 40
0.0
 40
0.0
 40
0.0
 40
0.0
 40
0.017364266
 40
0.0377342967
 40
0.063859098
 40
0.0969869242
 40
0.1375838766
 40
0.1857731221
 40
0.2413969161
 40
0.304143791
 40
0.4493962309
 40
0.6173292607
 40
0.8028090359
 40
1.0
 40
1.0
 40
1.0
 40
1.0
 10
78.6339643764
 20
125.5682293855
 30
0.0
 10
78.6339820097
 20
125.5808899126
 30
0.0
 10
78.6418096429
 20
125.6087221292
 30
0.0
 10
78.6742945311
 20
125.6435566475
 30
0.0
 10
78.7242922554
 20
125.6737671329
 30
0.0
 10
78.7921223031
 20
125.7007828479
 30
0.0
 10
78.877802559
 20
125.724831767
 30
0.0
 10
78.9810309316
 20
125.7458963599
 30
0.0
 10
79.1011326112
 20
125.7641249659
 30
0.0
 10
79.2921387206
 20
125.7859056064
 30
0.0
 10
79.565649971
 20
125.805294626
 30
0.0
 10
79.9289587003
 20
125.8199412602
 30
0.0
 10
80.3303367015
 20
125.8285659024
 30
0.0
 10
80.6093362719
 20
125.8314092625
 30
0.0
 10
80.7531081887
 20
125.8323206423
 30
0.0
  0
LINE
  5
403
100
AcDbEntity
  8
KONSTRUKTIONSELEMENTE
100
AcDbLine
 62
7
  6
CONTINUOUS
 10
80.7531081887
 20
125.8323206423
 11
80.7905526351
 21
125.8325449914
  0
LINE
  5
404
100
AcDbEntity
  8
KONSTRUKTIONSELEMENTE
100
AcDbLine
 62
7
  6
CONTINUOUS
 10
81.4848346614
 20
125.8325015486
 11
81.5099952228
 21
125.8323502232
  0
SPLINE
  5
405
100
AcDbEntity
  8
KONSTRUKTIONSELEMENTE
100
AcDbSpline
 62
7
  6
CONTINUOUS
 70
0
 71
3
 72
19
 73
15
 74
0
 42
0.0000001
 43
0.0000001
 44
0.0000000001
 40
0.0
 40
0.0
 40
0.0
 40
0.0
 40
0.1971038985
 40
0.3825480073
 40
0.5504893282
 40
0.6957788033
 40
0.7585472954
 40
0.814192449
 40
0.862404488
 40
0.9030172497
 40
0.9361533687
 40
0.9622821386
 40
0.9826491353
 40
1.0
 40
1.0
 40
1.0
 40
1.0
 10
81.5099952228
 20
125.8323502232
 30
0.0
 10
81.6540070037
 20
125.8314504596
 30
0.0
 10
81.9335058734
 20
125.8286252938
 30
0.0
 10
82.3356483569
 20
125.8200386486
 30
0.0
 10
82.6997332828
 20
125.8054263457
 30
0.0
 10
82.9738753638
 20
125.7860672577
 30
0.0
 10
83.1653498167
 20
125.7642972218
 30
0.0
 10
83.2857591492
 20
125.7460686465
 30
0.0
 10
83.3892599201
 20
125.725009421
 30
0.0
 10
83.4751696892
 20
125.7009570804
 30
0.0
 10
83.5431814751
 20
125.6739263505
 30
0.0
 10
83.5933191776
 20
125.6437001994
 30
0.0
 10
83.6259170913
 20
125.608848389
 30
0.0
 10
83.6337966744
 20
125.5809781116
 30
0.0
 10
83.6338258724
 20
125.5683006806
 30
0.0
  0
SPLINE
  5
406
100
AcDbEntity
  8
KONSTRUKTIONSELEMENTE
100
AcDbSpline
 62
7
  6
CONTINUOUS
 70
0
 71
3
 72
14
 73
10
 74
0
 42
0.0000001
 43
0.0000001
 44
0.0000000001
 40
0.0
 40
0.0
 40
0.0
 40
0.0
 40
0.0591209522
 40
0.1340154063
 40
0.230530067
 40
0.3497388886
 40
0.4902567277
 40
0.6489243933
 40
1.0
 40
1.0
 40
1.0
 40
1.0
 10
105.9893126439
 20
124.9090201888
 30
0.0
 10
105.9893126439
 20
124.8824800293
 30
0.0
 10
106.0096245021
 20
124.8224324232
 30
0.0
 10
106.0814893724
 20
124.7459037027
 30
0.0
 10
106.1907971462
 20
124.6733924477
 30
0.0
 10
106.3369233574
 20
124.6071896284
 30
0.0
 10
106.5162779511
 20
124.5502402203
 30
0.0
 10
106.8021245225
 20
124.4895156616
 30
0.0
 10
107.031710267
 20
124.4718530778
 30
0.0
 10
107.1893126439
 20
124.4718530778
 30
0.0
  0
LINE
  5
407
100
AcDbEntity
  8
KONSTRUKTIONSELEMENTE
100
AcDbLine
 62
7
  6
CONTINUOUS
 10
87.3919799503
 20
125.8413988104
 11
87.509016847
 21
125.8435195321
  0
SPLINE
  5
408
100
AcDbEntity
  8
KONSTRUKTIONSELEMENTE
100
AcDbSpline
 62
7
  6
CONTINUOUS
 70
0
 71
3
 72
11
 73
7
 74
0
 42
0.0000001
 43
0.0000001
 44
0.0000000001
 40
0.0
 40
0.0
 40
0.0
 40
0.0
 40
0.4369074851
 40
0.7491537106
 40
0.936771374
 40
1.0
 40
1.0
 40
1.0
 40
1.0
 10
106.2065636414
 20
125.8466649099
 30
0.0
 10
106.2040547114
 20
125.8468520134
 30
0.0
 10
106.1999103703
 20
125.8472935411
 30
0.0
 10
106.1940566619
 20
125.8473887351
 30
0.0
 10
106.1916492718
 20
125.8482884955
 30
0.0
 10
106.1893618522
 20
125.8478472798
 30
0.0
 10
106.1893630848
 20
125.8482113747
 30
0.0
  0
SPLINE
  5
409
100
AcDbEntity
  8
KONSTRUKTIONSELEMENTE
100
AcDbSpline
 62
7
  6
CONTINUOUS
 70
0
 71
3
 72
15
 73
11
 74
0
 42
0.0000001
 43
0.0000001
 44
0.0000000001
 40
0.0
 40
0.0
 40
0.0
 40
0.0
 40
0.1792043337
 40
0.3512833
 40
0.5099049395
 40
0.6503799131
 40
0.7695488536
 40
0.8660299685
 40
0.9408981863
 40
1.0
 40
1.0
 40
1.0
 40
1.0
 10
108.6693126439
 20
124.4718530778
 30
0.0
 10
108.7497842514
 20
124.4718530778
 30
0.0
 10
108.9076065299
 20
124.4782184835
 30
0.0
 10
109.1351236785
 20
124.5061851962
 30
0.0
 10
109.3423751071
 20
124.5502544763
 30
0.0
 10
109.5217138015
 20
124.6071928692
 30
0.0
 10
109.6678392302
 20
124.6733983887
 30
0.0
 10
109.7771406315
 20
124.7459084256
 30
0.0
 10
109.849002387
 20
124.8224348011
 30
0.0
 10
109.8693126439
 20
124.8824805518
 30
0.0
 10
109.8693126439
 20
124.9090201888
 30
0.0
  0
SPLINE
  5
40A
100
AcDbEntity
  8
KONSTRUKTIONSELEMENTE
100
AcDbSpline
 62
7
  6
CONTINUOUS
 70
0
 71
3
 72
9
 73
5
 74
0
 42
0.0000001
 43
0.0000001
 44
0.0000000001
 40
0.0
 40
0.0
 40
0.0
 40
0.0
 40
0.284394143
 40
1.0
 40
1.0
 40
1.0
 40
1.0
 10
82.8659456663
 20
125.5231387035
 30
0.0
 10
82.8687811131
 20
125.526820443
 30
0.0
 10
82.8780523222
 20
125.5402013285
 30
0.0
 10
82.8838807731
 20
125.5565703192
 30
0.0
 10
82.8838874593
 20
125.5682634124
 30
0.0
  0
SPLINE
  5
40B
100
AcDbEntity
  8
0
100
AcDbSpline
 62
7
  6
CONTINUOUS
 70
0
 71
3
 72
9
 73
5
 74
0
 42
0.0000001
 43
0.0000001
 44
0.0000000001
 40
0.0
 40
0.0
 40
0.0
 40
0.0
 40
0.206438053
 40
1.0
 40
1.0
 40
1.0
 40
1.0
 10
79.4013860742
 20
125.1028983585
 30
0.0
 10
79.4053503084
 20
125.1074765206
 30
0.0
 10
79.4266316097
 20
125.1278593103
 30
0.0
 10
79.4532218171
 20
125.1417000102
 30
0.0
 10
79.4745345231
 20
125.1510651466
 30
0.0
  0
SPLINE
  5
40C
100
AcDbEntity
  8
0
100
AcDbSpline
 62
7
  6
CONTINUOUS
 70
0
 71
3
 72
12
 73
8
 74
0
 42
0.0000001
 43
0.0000001
 44
0.0000000001
 40
0.0
 40
0.0
 40
0.0
 40
0.0
 40
0.0692573278
 40
0.1570659469
 40
0.3850581897
 40
0.6720420838
 40
1.0
 40
1.0
 40
1.0
 40
1.0
 10
79.4745345231
 20
125.1510651466
 30
0.0
 10
79.5018182116
 20
125.1630540259
 30
0.0
 10
79.5663217734
 20
125.1841213259
 30
0.0
 10
79.7282284726
 20
125.2197615244
 30
0.0
 10
79.9862615789
 20
125.2505180321
 30
0.0
 10
80.3482332276
 20
125.2735486467
 30
0.0
 10
80.6127983641
 20
125.2813090102
 30
0.0
 10
80.7538948587
 20
125.2839338745
 30
0.0
  0
SPLINE
  5
40D
100
AcDbEntity
  8
0
100
AcDbSpline
 62
7
  6
CONTINUOUS
 70
0
 71
3
 72
9
 73
5
 74
0
 42
0.0000001
 43
0.0000001
 44
0.0000000001
 40
0.0
 40
0.0
 40
0.0
 40
0.0
 40
0.2709504983
 40
1.0
 40
1.0
 40
1.0
 40
1.0
 10
83.6213634515
 20
125.0141914311
 30
0.0
 10
83.6233814974
 20
125.0180600835
 30
0.0
 10
83.6301740691
 20
125.0326446285
 30
0.0
 10
83.6338895241
 20
125.0488501056
 30
0.0
 10
83.6338899361
 20
125.0605906682
 30
0.0
  0
SPLINE
  5
40E
100
AcDbEntity
  8
0
100
AcDbSpline
 62
7
  6
CONTINUOUS
 70
0
 71
3
 72
29
 73
25
 74
0
 42
0.0000001
 43
0.0000001
 44
0.0000000001
 40
0.0
 40
0.0
 40
0.0
 40
0.0
 40
0.0140523962
 40
0.0307847836
 40
0.051023108
 40
0.0747847688
 40
0.1016764265
 40
0.1312537568
 40
0.1966693444
 40
0.2681233539
 40
0.3434855191
 40
0.4211891288
 40
0.4999934975
 40
0.5787979672
 40
0.6565020206
 40
0.73186496
 40
0.803320065
 40
0.8687377361
 40
0.898315622
 40
0.9252095725
 40
0.9489732548
 40
0.9692128695
 40
0.9859470033
 40
1.0
 40
1.0
 40
1.0
 40
1.0
 10
104.9893126439
 20
124.2425412307
 30
0.0
 10
104.9893126439
 20
124.2126728411
 30
0.0
 10
105.0071741178
 20
124.1471575377
 30
0.0
 10
105.0717325603
 20
124.0584497315
 30
0.0
 10
105.1693541107
 20
123.9729460111
 30
0.0
 10
105.296181182
 20
123.8909600317
 30
0.0
 10
105.4481393053
 20
123.8131022265
 30
0.0
 10
105.6872037074
 20
123.7128088009
 30
0.0
 10
106.025231247
 20
123.6060718142
 30
0.0
 10
106.4656813847
 20
123.5069128124
 30
0.0
 10
106.937822476
 20
123.4350446944
 30
0.0
 10
107.4290391287
 20
123.3915670353
 30
0.0
 10
107.9292700939
 20
123.377020904
 30
0.0
 10
108.4295021407
 20
123.3915620458
 30
0.0
 10
108.9207220469
 20
123.4350349601
 30
0.0
 10
109.3928686701
 20
123.506899023
 30
0.0
 10
109.8333285502
 20
123.606053352
 30
0.0
 10
110.1713646869
 20
123.7127889562
 30
0.0
 10
110.4104412249
 20
123.8130808612
 30
0.0
 10
110.5624095488
 20
123.8909408276
 30
0.0
 10
110.6892524183
 20
123.9729249257
 30
0.0
 10
110.7868783112
 20
124.0584410774
 30
0.0
 10
110.8514412667
 20
124.1471529593
 30
0.0
 10
110.8693126439
 20
124.2126715645
 30
0.0
 10
110.8693126439
 20
124.2425412307
 30
0.0
  0
SPLINE
  5
40F
100
AcDbEntity
  8
0
100
AcDbSpline
 62
7
  6
CONTINUOUS
 70
0
 71
3
 72
13
 73
9
 74
0
 42
0.0000001
 43
0.0000001
 44
0.0000000001
 40
0.0
 40
0.0
 40
0.0
 40
0.0
 40
0.358230092
 40
0.6589133769
 40
0.7793082579
 40
0.8765738192
 40
0.9497188601
 40
1.0
 40
1.0
 40
1.0
 40
1.0
 10
81.5093126439
 20
125.2840185518
 30
0.0
 10
81.6744657368
 20
125.2809870087
 30
0.0
 10
81.9781331731
 20
125.271487317
 30
0.0
 10
82.3369263553
 20
125.2457710074
 30
0.0
 10
82.5735793727
 20
125.2121631805
 30
0.0
 10
82.7050250259
 20
125.1837684236
 30
0.0
 10
82.8011852507
 20
125.1510140091
 30
0.0
 10
82.8512716156
 20
125.1203932448
 30
0.0
 10
82.8664387533
 20
125.1028578007
 30
0.0
  0
SPLINE
  5
410
100
AcDbEntity
  8
KONSTRUKTIONSELEMENTE
100
AcDbSpline
 62
7
  6
CONTINUOUS
 70
0
 71
3
 72
16
 73
12
 74
0
 42
0.0000001
 43
0.0000001
 44
0.0000000001
 40
0.0
 40
0.0
 40
0.0
 40
0.0
 40
0.4019815806
 40
0.5724786382
 40
0.7179460406
 40
0.8355663768
 40
0.9228541696
 40
0.9545712958
 40
0.978095487
 40
0.9932574739
 40
1.0
 40
1.0
 40
1.0
 40
1.0
 10
106.3646415473
 20
125.7331825476
 30
0.0
 10
106.1799959029
 20
125.7424928065
 30
0.0
 10
105.9172026189
 20
125.7594815522
 30
0.0
 10
105.588168659
 20
125.7872394132
 30
0.0
 10
105.3896406294
 20
125.80607425
 30
0.0
 10
105.2293477345
 20
125.8226193545
 30
0.0
 10
105.1211540667
 20
125.8344101133
 30
0.0
 10
105.0559948869
 20
125.8415151821
 30
0.0
 10
105.023806629
 20
125.8451452009
 30
0.0
 10
105.0030246495
 20
125.8470873988
 30
0.0
 10
104.9929913883
 20
125.848272487
 30
0.0
 10
104.9898903541
 20
125.8482683896
 30
0.0
  0
SPLINE
  5
411
100
AcDbEntity
  8
KONSTRUKTIONSELEMENTE
100
AcDbSpline
 62
7
  6
CONTINUOUS
 70
0
 71
3
 72
29
 73
25
 74
0
 42
0.0000001
 43
0.0000001
 44
0.0000000001
 40
0.0
 40
0.0
 40
0.0
 40
0.0
 40
0.013736225
 40
0.0302306644
 40
0.0503244906
 40
0.0740182799
 40
0.1008963036
 40
0.1304964801
 40
0.1960244747
 40
0.2676309345
 40
0.3431581078
 40
0.4210284464
 40
0.4999985871
 40
0.5789687703
 40
0.6568392569
 40
0.7323666566
 40
0.8039734031
 40
0.869501848
 40
0.8991021399
 40
0.9259806151
 40
0.9496747915
 40
0.9697688599
 40
0.9862636512
 40
1.0
 40
1.0
 40
1.0
 40
1.0
 10
110.8693126439
 20
124.7734113424
 30
0.0
 10
110.8693126439
 20
124.7443276284
 30
0.0
 10
110.851183324
 20
124.6802800648
 30
0.0
 10
110.7862814542
 20
124.5942017445
 30
0.0
 10
110.6883885115
 20
124.5112660519
 30
0.0
 10
110.5612437016
 20
124.4317755837
 30
0.0
 10
110.4089666676
 20
124.3563101493
 30
0.0
 10
110.1694281387
 20
124.2591332107
 30
0.0
 10
109.8311453581
 20
124.1558915873
 30
0.0
 10
109.3908227975
 20
124.0601084166
 30
0.0
 10
108.919153108
 20
123.9907607662
 30
0.0
 10
108.4286727877
 20
123.9488392729
 30
0.0
 10
107.9293218018
 20
123.9348206224
 30
0.0
 10
107.4299704746
 20
123.9488382396
 30
0.0
 10
106.939489183
 20
123.9907587837
 30
0.0
 10
106.4678179761
 20
124.060105663
 30
0.0
 10
106.0274931258
 20
124.1558879753
 30
0.0
 10
105.6892084272
 20
124.2591294004
 30
0.0
 10
105.4496674481
 20
124.3563060912
 30
0.0
 10
105.2973884182
 20
124.4317719173
 30
0.0
 10
105.1702405356
 20
124.5112619109
 30
0.0
 10
105.0723467663
 20
124.5942000709
 30
0.0
 10
105.0074440214
 20
124.6802791604
 30
0.0
 10
104.9893126439
 20
124.7443273663
 30
0.0
 10
104.9893126439
 20
124.7734113424
 30
0.0
  0
SPLINE
  5
412
100
AcDbEntity
  8
KONSTRUKTIONSELEMENTE
100
AcDbSpline
 62
7
  6
CONTINUOUS
 70
0
 71
3
 72
18
 73
14
 74
0
 42
0.0000001
 43
0.0000001
 44
0.0000000001
 40
0.0
 40
0.0
 40
0.0
 40
0.0
 40
0.199079962
 40
0.3848104102
 40
0.5519048299
 40
0.6958436387
 40
0.813019154
 40
0.8608384894
 40
0.901299199
 40
0.9345403882
 40
0.9610457418
 40
0.9820272384
 40
1.0
 40
1.0
 40
1.0
 40
1.0
 10
80.7538948587
 20
125.7856331181
 30
0.0
 10
80.6594655453
 20
125.7839229581
 30
0.0
 10
80.4769574205
 20
125.7792834052
 30
0.0
 10
80.2153718102
 20
125.7676556548
 30
0.0
 10
79.9802423991
 20
125.7510310855
 30
0.0
 10
79.7782682731
 20
125.7288530408
 30
0.0
 10
79.6335791394
 20
125.7042896651
 30
0.0
 10
79.5391187813
 20
125.6799933867
 30
0.0
 10
79.4844640668
 20
125.6614293738
 30
0.0
 10
79.4412229618
 20
125.6413393836
 30
0.0
 10
79.4094252073
 20
125.6195703825
 30
0.0
 10
79.3888728537
 20
125.5954650415
 30
0.0
 10
79.3838980808
 20
125.5767952126
 30
0.0
 10
79.3839020731
 20
125.5682688213
 30
0.0
  0
SPLINE
  5
413
100
AcDbEntity
  8
KONSTRUKTIONSELEMENTE
100
AcDbSpline
 62
7
  6
CONTINUOUS
 70
0
 71
3
 72
9
 73
5
 74
0
 42
0.0000001
 43
0.0000001
 44
0.0000000001
 40
0.0
 40
0.0
 40
0.0
 40
0.0
 40
0.2367201218
 40
1.0
 40
1.0
 40
1.0
 40
1.0
 10
82.8838874593
 20
125.5682634124
 30
0.0
 10
82.8838894312
 20
125.5717119633
 30
0.0
 10
82.8824835328
 20
125.5863136553
 30
0.0
 10
82.8747553093
 20
125.5997353343
 30
0.0
 10
82.8675118345
 20
125.6081718861
 30
0.0
  0
SPLINE
  5
414
100
AcDbEntity
  8
KONSTRUKTIONSELEMENTE
100
AcDbSpline
 62
7
  6
CONTINUOUS
 70
0
 71
3
 72
13
 73
9
 74
0
 42
0.0000001
 43
0.0000001
 44
0.0000000001
 40
0.0
 40
0.0
 40
0.0
 40
0.0
 40
0.0494417901
 40
0.1220533362
 40
0.2190687192
 40
0.339455535
 40
0.6406995894
 40
1.0
 40
1.0
 40
1.0
 40
1.0
 10
82.8675118345
 20
125.6081718861
 30
0.0
 10
82.8526578007
 20
125.6254725366
 30
0.0
 10
82.8028860015
 20
125.6555235399
 30
0.0
 10
82.7073004768
 20
125.6875501481
 30
0.0
 10
82.5760601605
 20
125.7153604327
 30
0.0
 10
82.3391358143
 20
125.7483023736
 30
0.0
 10
81.9794823166
 20
125.7734688826
 30
0.0
 10
81.6749952835
 20
125.7827548588
 30
0.0
 10
81.5093126439
 20
125.7857155521
 30
0.0
  0
SPLINE
  5
415
100
AcDbEntity
  8
0
100
AcDbSpline
 62
7
  6
CONTINUOUS
 70
0
 71
3
 72
13
 73
9
 74
0
 42
0.0000001
 43
0.0000001
 44
0.0000000001
 40
0.0
 40
0.0
 40
0.0
 40
0.0
 40
0.1096360105
 40
0.2253123523
 40
0.3462413649
 40
0.4715995475
 40
0.7321775553
 40
1.0
 40
1.0
 40
1.0
 40
1.0
 10
206.114917089
 20
117.1802508262
 30
0.0
 10
206.114917089
 20
117.2239741814
 30
0.0
 10
206.1157857741
 20
117.3138298578
 30
0.0
 10
206.1186780949
 20
117.4518831372
 30
0.0
 10
206.1224897914
 20
117.5961858835
 30
0.0
 10
206.1280203352
 20
117.7982500837
 30
0.0
 10
206.1340587645
 20
118.0589062636
 30
0.0
 10
206.1358767854
 20
118.2696386446
 30
0.0
 10
206.1358767854
 20
118.3764474915
 30
0.0
  0
SPLINE
  5
416
100
AcDbEntity
  8
0
100
AcDbSpline
 62
7
  6
CONTINUOUS
 70
0
 71
3
 72
13
 73
9
 74
0
 42
0.0000001
 43
0.0000001
 44
0.0000000001
 40
0.0
 40
0.0
 40
0.0
 40
0.0
 40
0.1052625964
 40
0.218247243
 40
0.337974156
 40
0.4634050589
 40
0.7270092243
 40
1.0
 40
1.0
 40
1.0
 40
1.0
 10
206.114917089
 20
127.6768873953
 30
0.0
 10
206.114917089
 20
127.7137225589
 30
0.0
 10
206.1157883405
 20
127.7900950014
 30
0.0
 10
206.1186542202
 20
127.9083304483
 30
0.0
 10
206.1224468779
 20
128.0336003125
 30
0.0
 10
206.1279940093
 20
128.2115475843
 30
0.0
 10
206.134055035
 20
128.4431397406
 30
0.0
 10
206.1358767854
 20
128.6309179831
 30
0.0
 10
206.1358767854
 20
128.7264472615
 30
0.0
  0
SPLINE
  5
417
100
AcDbEntity
  8
KONSTRUKTIONSELEMENTE
100
AcDbSpline
 62
7
  6
CONTINUOUS
 70
0
 71
3
 72
15
 73
11
 74
0
 42
0.0000001
 43
0.0000001
 44
0.0000000001
 40
0.0
 40
0.0
 40
0.0
 40
0.0
 40
0.0142674996
 40
0.1761796319
 40
0.3380917643
 40
0.5000038966
 40
0.661916029
 40
0.8238281613
 40
0.9857402937
 40
1.0
 40
1.0
 40
1.0
 40
1.0
 10
110.6827947556
 20
29.7807173821
 30
0.0
 10
110.6709210722
 20
29.7591110565
 30
0.0
 10
110.5174715096
 20
29.4940514493
 30
0.0
 10
110.0623286388
 20
29.0306708757
 30
0.0
 10
109.0836925819
 20
28.5858384216
 30
0.0
 10
107.9293126439
 20
28.4296340364
 30
0.0
 10
106.7749327059
 20
28.5858384216
 30
0.0
 10
105.796296649
 20
29.0306708757
 30
0.0
 10
105.3411642697
 20
29.494040768
 30
0.0
 10
105.1877177915
 20
29.7590876068
 30
0.0
 10
105.1758499899
 20
29.7806819764
 30
0.0
  0
ELLIPSE
  5
418
100
AcDbEntity
  8
RUNDUNGEN
100
AcDbEllipse
 62
7
  6
CONTINUOUS
 10
78.8293126439
 20
101.482364193
 30
0.0
 11
0.0
 21
5.0014416109
 31
0.0
 40
0.6997982327
 41
-4.7123889804
 42
-4.6855785204
  0
ELLIPSE
  5
419
100
AcDbEntity
  8
KONSTRUKTIONSELEMENTE
100
AcDbEllipse
 62
7
  6
CONTINUOUS
 10
88.2007033289
 20
106.8482893065
 30
0.0
 11
0.0
 21
19.0
 31
0.0
 40
0.1702127606
 41
0.366787448
 42
0.4058530221
  0
ELLIPSE
  5
41A
100
AcDbEntity
  8
KONSTRUKTIONSELEMENTE
100
AcDbEllipse
 62
7
  6
CONTINUOUS
 10
89.3604905263
 20
106.8482893065
 30
0.0
 11
-0.0
 21
19.0
 31
0.0
 40
0.3404255211
 41
0.3474766113
 42
0.366787448
  0
ELLIPSE
  5
41B
100
AcDbEntity
  8
KONSTRUKTIONSELEMENTE
100
AcDbEllipse
 62
7
  6
CONTINUOUS
 10
91.563043648
 20
106.8482893065
 30
0.0
 11
-0.0
 21
19.0
 31
0.0
 40
0.6808510423
 41
0.3282999172
 42
0.3474766113
  0
ELLIPSE
  5
41C
100
AcDbEntity
  8
KONSTRUKTIONSELEMENTE
100
AcDbEllipse
 62
7
  6
CONTINUOUS
 10
99.9051471765
 20
106.8482893065
 30
0.0
 11
38.8084353882
 21
-0.0
 31
0.0
 40
0.4895842826
 41
1.8863814845
 42
1.899096244
  0
ELLIPSE
  5
41D
100
AcDbEntity
  8
KONSTRUKTIONSELEMENTE
100
AcDbEllipse
 62
7
  6
CONTINUOUS
 10
89.652916511
 20
106.8482893065
 30
0.0
 11
0.0
 21
19.0
 31
0.0
 40
0.6127654169
 41
-0.0571143915
 42
-0.0269330691
  0
ELLIPSE
  5
41E
100
AcDbEntity
  8
KONSTRUKTIONSELEMENTE
100
AcDbEllipse
 62
7
  6
CONTINUOUS
 10
90.0959797857
 20
106.8482893065
 30
0.0
 11
-0.0
 21
19.0
 31
0.0
 40
0.2042553727
 41
6.1958374351
 42
6.2260709157
  0
ELLIPSE
  5
41F
100
AcDbEntity
  8
KONSTRUKTIONSELEMENTE
100
AcDbEllipse
 62
7
  6
CONTINUOUS
 10
87.2624481686
 20
106.8482893065
 30
0.0
 11
-0.0
 21
19.0
 31
0.0
 40
0.2042553906
 41
0.0571143915
 42
0.087347872
  0
ELLIPSE
  5
420
100
AcDbEntity
  8
KONSTRUKTIONSELEMENTE
100
AcDbEllipse
 62
7
  6
CONTINUOUS
 10
87.7055114821
 20
106.8482893065
 30
0.0
 11
-0.0
 21
19.0
 31
0.0
 40
0.6127654705
 41
0.0269330691
 42
0.0571143915
  0
ELLIPSE
  5
421
100
AcDbEntity
  8
KONSTRUKTIONSELEMENTE
100
AcDbEllipse
 62
7
  6
CONTINUOUS
 10
88.2030436651
 20
106.8482893065
 30
0.0
 11
38.8085498176
 21
-0.0
 31
0.0
 40
0.4895828391
 41
1.5707963373
 42
1.5796341496
  0
ELLIPSE
  5
422
100
AcDbEntity
  8
KONSTRUKTIONSELEMENTE
100
AcDbEllipse
 62
7
  6
CONTINUOUS
 10
86.9102782065
 20
106.8482893065
 30
0.0
 11
-0.0
 21
19.0
 31
0.0
 40
0.2553189968
 41
-0.1480845027
 42
-0.1237365606
  0
ELLIPSE
  5
423
100
AcDbEntity
  8
KONSTRUKTIONSELEMENTE
100
AcDbEllipse
 62
7
  6
CONTINUOUS
 10
85.717370113
 20
106.8482893065
 30
0.0
 11
0.0
 21
19.0
 31
0.0
 40
0.6808509827
 41
-0.1664028607
 42
-0.1480845027
  0
ELLIPSE
  5
424
100
AcDbEntity
  8
KONSTRUKTIONSELEMENTE
100
AcDbEllipse
 62
7
  6
CONTINUOUS
 10
83.0389957288
 20
106.8482893065
 30
0.0
 11
29.1064140619
 21
0.0
 31
0.0
 40
0.6527770807
 41
7.6753355496
 42
7.6875787733
  0
ELLIPSE
  5
425
100
AcDbEntity
  8
KONSTRUKTIONSELEMENTE
100
AcDbEllipse
 62
7
  6
CONTINUOUS
 10
77.8668945558
 20
106.8482893065
 30
0.0
 11
58.2126479861
 21
0.0
 31
0.0
 40
0.3263895503
 41
1.3860185663
 42
1.3921502424
  0
ELLIPSE
  5
426
100
AcDbEntity
  8
KONSTRUKTIONSELEMENTE
100
AcDbEllipse
 62
7
  6
CONTINUOUS
 10
99.4915383625
 20
106.8482893065
 30
0.0
 11
58.2126751658
 21
-0.0
 31
0.0
 40
0.3263893979
 41
1.7494424112
 42
1.7555740872
  0
ELLIPSE
  5
427
100
AcDbEntity
  8
KONSTRUKTIONSELEMENTE
100
AcDbEllipse
 62
7
  6
CONTINUOUS
 10
94.3194311524
 20
106.8482893065
 30
0.0
 11
29.106407267
 21
0.0
 31
0.0
 40
0.6527772331
 41
1.7371991875
 42
1.7494424112
  0
ELLIPSE
  5
428
100
AcDbEntity
  8
KONSTRUKTIONSELEMENTE
100
AcDbEllipse
 62
7
  6
CONTINUOUS
 10
91.6410578936
 20
106.8482893065
 30
0.0
 11
-0.0
 21
19.0
 31
0.0
 40
0.6808509827
 41
0.1480845027
 42
0.1664028607
  0
ELLIPSE
  5
429
100
AcDbEntity
  8
KONSTRUKTIONSELEMENTE
100
AcDbEllipse
 62
7
  6
CONTINUOUS
 10
90.4481498001
 20
106.8482893065
 30
0.0
 11
0.0
 21
19.0
 31
0.0
 40
0.2553189968
 41
0.1237365606
 42
0.1480845027
  0
ELLIPSE
  5
42A
100
AcDbEntity
  8
0
100
AcDbEllipse
 62
7
  6
CONTINUOUS
 10
92.4592359564
 20
106.8482893065
 30
0.0
 11
15.8896842604
 21
18.290553568
 31
0.0
 40
0.1746985808
 41
1.2849800885
 42
1.3615717254
  0
ELLIPSE
  5
42B
100
AcDbEntity
  8
0
100
AcDbEllipse
 62
7
  6
CONTINUOUS
 10
95.7763955961
 20
106.8482893065
 30
0.0
 11
23.9574477088
 21
18.0468221952
 31
0.0
 40
0.1698707393
 41
1.4166458726
 42
1.4287244735
  0
ELLIPSE
  5
42C
100
AcDbEntity
  8
0
100
AcDbEllipse
 62
7
  6
CONTINUOUS
 10
94.4780615005
 20
106.8482893065
 30
0.0
 11
72.4439665002
 21
17.5070403705
 31
0.0
 40
0.082538636
 41
1.5199446833
 42
1.5239716684
  0
ELLIPSE
  5
42D
100
AcDbEntity
  8
0
100
AcDbEllipse
 62
7
  6
CONTINUOUS
 10
99.3938941957
 20
106.8482893065
 30
0.0
 11
72.4438627899
 21
-17.5070406951
 31
0.0
 40
0.0825387411
 41
1.6176210395
 42
1.6216480245
  0
ELLIPSE
  5
42E
100
AcDbEntity
  8
0
100
AcDbEllipse
 62
7
  6
CONTINUOUS
 10
98.1767098117
 20
106.8482893065
 30
0.0
 11
27.0129703639
 21
-17.966029444
 31
0.0
 40
0.1633542929
 41
1.6978450234
 42
1.705897751
  0
ELLIPSE
  5
42F
100
AcDbEntity
  8
0
100
AcDbEllipse
 62
7
  6
CONTINUOUS
 10
97.892506535
 20
106.8482893065
 30
0.0
 11
-11.7090959122
 21
18.4041904834
 31
0.0
 40
0.1605901126
 41
-1.3167965972
 42
-1.3047196318
  0
ELLIPSE
  5
430
100
AcDbEntity
  8
0
100
AcDbEllipse
 62
7
  6
CONTINUOUS
 10
97.8517432312
 20
106.8482893065
 30
0.0
 11
-5.7365292709
 21
18.4907564952
 31
0.0
 40
0.1019332166
 41
-1.2586683916
 42
-1.2465924052
  0
ELLIPSE
  5
431
100
AcDbEntity
  8
0
100
AcDbEllipse
 62
7
  6
CONTINUOUS
 10
95.4294171445
 20
106.8482893065
 30
0.0
 11
-8.6935929703
 21
18.4612671599
 31
0.0
 40
0.137630217
 41
-1.3239875146
 42
-1.3078791319
  0
ELLIPSE
  5
432
100
AcDbEntity
  8
0
100
AcDbEllipse
 62
7
  6
CONTINUOUS
 10
95.2594688639
 20
106.8482893065
 30
0.0
 11
-13.2319256972
 21
18.3663362904
 31
0.0
 40
0.1677639688
 41
-1.3956659294
 42
-1.3795477968
  0
ELLIPSE
  5
433
100
AcDbEntity
  8
0
100
AcDbEllipse
 62
7
  6
CONTINUOUS
 10
94.3689659727
 20
106.8482893065
 30
0.0
 11
30.0614874271
 21
-17.8951239913
 31
0.0
 40
0.1560789432
 41
1.5976898608
 42
1.6097873939
  0
ELLIPSE
  5
434
100
AcDbEntity
  8
0
100
AcDbEllipse
 62
7
  6
CONTINUOUS
 10
90.4015994312
 20
106.8482893065
 30
0.0
 11
90.5653466027
 21
-17.465039608
 31
0.0
 40
0.0673658948
 41
1.5140003854
 42
1.5180349511
  0
ELLIPSE
  5
435
100
AcDbEntity
  8
0
100
AcDbEllipse
 62
7
  6
CONTINUOUS
 10
103.4703522404
 20
106.8482893065
 30
0.0
 11
90.5652429251
 21
17.4650397837
 31
0.0
 40
0.0673659664
 41
1.6235576737
 42
1.6275922393
  0
ELLIPSE
  5
436
100
AcDbEntity
  8
0
100
AcDbEllipse
 62
7
  6
CONTINUOUS
 10
99.5029947796
 20
106.8482893065
 30
0.0
 11
30.0615222792
 21
17.8951232362
 31
0.0
 40
0.1560788581
 41
1.5318054207
 42
1.5439029538
  0
ELLIPSE
  5
437
100
AcDbEntity
  8
0
100
AcDbEllipse
 62
7
  6
CONTINUOUS
 10
98.6124900354
 20
106.8482893065
 30
0.0
 11
13.2319256972
 21
18.3663362904
 31
0.0
 40
0.1677639688
 41
1.3795477968
 42
1.3956659294
  0
ELLIPSE
  5
438
100
AcDbEntity
  8
0
100
AcDbEllipse
 62
7
  6
CONTINUOUS
 10
98.3745618865
 20
106.8482893065
 30
0.0
 11
6.9112548502
 21
18.4820916687
 31
0.0
 40
0.1177514837
 41
1.2831361176
 42
1.3032705631
  0
ELLIPSE
  5
439
100
AcDbEntity
  8
0
100
AcDbEllipse
 62
7
  6
CONTINUOUS
 10
101.4736878826
 20
106.8482893065
 30
0.0
 11
-13.5243006322
 21
18.3585200119
 31
0.0
 40
0.1688502226
 41
-1.2732579874
 42
-1.257441306
  0
ELLIPSE
  5
43A
100
AcDbEntity
  8
0
100
AcDbEllipse
 62
7
  6
CONTINUOUS
 10
99.6899374052
 20
106.8482893065
 30
0.0
 11
13.5243006322
 21
18.3585200119
 31
0.0
 40
0.1688502226
 41
1.257441306
 42
1.2732579874
  0
ELLIPSE
  5
43B
100
AcDbEntity
  8
KONSTRUKTIONSELEMENTE
100
AcDbEllipse
 62
7
  6
CONTINUOUS
 10
89.3399937674
 20
106.8482893065
 30
0.0
 11
35.5744683743
 21
-0.0
 31
0.0
 40
0.5340909047
 41
7.9195923959
 42
7.9417477634
  0
ELLIPSE
  5
43C
100
AcDbEntity
  8
RUNDUNGEN
100
AcDbEllipse
 62
7
  6
CONTINUOUS
 10
111.8293126439
 20
101.482364193
 30
0.0
 11
-0.0
 21
5.0014416109
 31
0.0
 40
0.6997982327
 41
-1.5976067867
 42
-1.5707963268
  0
ELLIPSE
  5
43D
100
AcDbEntity
  8
RUNDUNGEN
100
AcDbEllipse
 62
7
  6
CONTINUOUS
 10
78.8293126439
 20
101.6353822959
 30
0.0
 11
0.0
 21
10.7095285444
 31
0.0
 40
0.3268117719
 41
-4.6855785204
 42
-4.4004216243
  0
ELLIPSE
  5
43E
100
AcDbEntity
  8
RUNDUNGEN
100
AcDbEllipse
 62
7
  6
CONTINUOUS
 10
111.8293126439
 20
101.6353822959
 30
0.0
 11
-0.0
 21
10.7095285444
 31
0.0
 40
0.3268117719
 41
-1.8827636829
 42
-1.5976067867
  0
ELLIPSE
  5
43F
100
AcDbEntity
  8
KONSTRUKTIONSELEMENTE
100
AcDbEllipse
 62
7
  6
CONTINUOUS
 10
119.3761889876
 20
106.8482893065
 30
0.0
 11
38.8086540552
 21
-0.0
 31
0.0
 40
0.4895815241
 41
2.0554220528
 42
2.0622498646
  0
ELLIPSE
  5
440
100
AcDbEntity
  8
KONSTRUKTIONSELEMENTE
100
AcDbEllipse
 62
7
  6
CONTINUOUS
 10
110.3361034065
 20
106.8482893065
 30
0.0
 11
19.4042159954
 21
0.0
 31
0.0
 40
0.979168651
 41
2.0418391527
 42
2.0554220528
  0
ELLIPSE
  5
441
100
AcDbEntity
  8
KONSTRUKTIONSELEMENTE
100
AcDbEllipse
 62
7
  6
CONTINUOUS
 10
104.4654826044
 20
106.8482893065
 30
0.0
 11
-0.0
 21
19.0
 31
0.0
 40
0.3404254913
 41
0.4508421421
 42
0.4710428259
  0
ELLIPSE
  5
442
100
AcDbEntity
  8
KONSTRUKTIONSELEMENTE
100
AcDbEllipse
 62
7
  6
CONTINUOUS
 10
98.3530594824
 20
106.8482893065
 30
0.0
 11
0.0
 21
19.0
 31
0.0
 40
0.2042556244
 41
0.365401787
 42
0.3978943487
  0
ELLIPSE
  5
443
100
AcDbEntity
  8
KONSTRUKTIONSELEMENTE
100
AcDbEllipse
 62
7
  6
CONTINUOUS
 10
101.1265010917
 20
106.8482893065
 30
0.0
 11
-0.0
 21
19.0
 31
0.0
 40
0.6127654705
 41
0.333308312
 42
0.365401787
  0
ELLIPSE
  5
444
100
AcDbEntity
  8
KONSTRUKTIONSELEMENTE
100
AcDbEllipse
 62
7
  6
CONTINUOUS
 10
107.8982497611
 20
106.8482893065
 30
0.0
 11
32.3404284716
 21
-0.0
 31
0.0
 40
0.5874999466
 41
1.8850207341
 42
1.9041046388
  0
ELLIPSE
  5
445
100
AcDbEntity
  8
KONSTRUKTIONSELEMENTE
100
AcDbEllipse
 62
7
  6
CONTINUOUS
 10
121.89238006
 20
106.8482893065
 30
0.0
 11
77.6173081105
 21
-0.0
 31
0.0
 40
0.244790762
 41
1.8786860472
 42
1.8850207341
  0
ELLIPSE
  5
446
100
AcDbEntity
  8
KONSTRUKTIONSELEMENTE
100
AcDbEllipse
 62
7
  6
CONTINUOUS
 10
95.4377151337
 20
106.8482893065
 30
0.0
 11
-0.0
 21
19.0
 31
0.0
 40
0.255319362
 41
-0.4778222943
 42
-0.4508421421
  0
ELLIPSE
  5
447
100
AcDbEntity
  8
KONSTRUKTIONSELEMENTE
100
AcDbEllipse
 62
7
  6
CONTINUOUS
 10
91.7198080058
 20
106.8482893065
 30
0.0
 11
0.0
 21
19.0
 31
0.0
 40
0.6808512211
 41
-0.4983063949
 42
-0.4778222943
  0
ELLIPSE
  5
448
100
AcDbEntity
  8
KONSTRUKTIONSELEMENTE
100
AcDbEllipse
 62
7
  6
CONTINUOUS
 10
83.991469203
 20
106.8482893065
 30
0.0
 11
29.1063239931
 21
0.0
 31
0.0
 40
0.6527791007
 41
1.0587065739
 42
1.0724899318
  0
ELLIPSE
  5
449
100
AcDbEntity
  8
KONSTRUKTIONSELEMENTE
100
AcDbEllipse
 62
7
  6
CONTINUOUS
 10
112.8667371631
 20
106.8482893065
 30
0.0
 11
29.1063375829
 21
-0.0
 31
0.0
 40
0.6527787959
 41
2.0691027217
 42
2.0828860797
  0
ELLIPSE
  5
44A
100
AcDbEntity
  8
KONSTRUKTIONSELEMENTE
100
AcDbEllipse
 62
7
  6
CONTINUOUS
 10
105.1383897002
 20
106.8482893065
 30
0.0
 11
-0.0
 21
19.0
 31
0.0
 40
0.6808509827
 41
0.4778222943
 42
0.4983063949
  0
ELLIPSE
  5
44B
100
AcDbEntity
  8
KONSTRUKTIONSELEMENTE
100
AcDbEllipse
 62
7
  6
CONTINUOUS
 10
101.4204846554
 20
106.8482893065
 30
0.0
 11
-0.0
 21
19.0
 31
0.0
 40
0.255319362
 41
0.4508421421
 42
0.4778222943
  0
ELLIPSE
  5
44C
100
AcDbEntity
  8
KONSTRUKTIONSELEMENTE
100
AcDbEllipse
 62
7
  6
CONTINUOUS
 10
101.244952594
 20
106.8482893065
 30
0.0
 11
0.0
 21
19.0
 31
0.0
 40
0.255319362
 41
0.3848463068
 42
0.4110144257
  0
ELLIPSE
  5
44D
100
AcDbEntity
  8
KONSTRUKTIONSELEMENTE
100
AcDbEllipse
 62
7
  6
CONTINUOUS
 10
103.0661140173
 20
106.8482893065
 30
0.0
 11
-0.0
 21
19.0
 31
0.0
 40
0.510637263
 41
0.3589526585
 42
0.3848463068
  0
ELLIPSE
  5
44E
100
AcDbEntity
  8
KONSTRUKTIONSELEMENTE
100
AcDbEllipse
 62
7
  6
CONTINUOUS
 10
106.4744242617
 20
106.8482893065
 30
0.0
 11
19.4042715113
 21
0.0
 31
0.0
 40
0.9791658496
 41
1.9041046388
 42
1.9297489853
  0
ELLIPSE
  5
44F
100
AcDbEntity
  8
KONSTRUKTIONSELEMENTE
100
AcDbEllipse
 62
7
  6
CONTINUOUS
 10
125.5200447228
 20
106.8482893065
 30
0.0
 11
77.6173081105
 21
-0.0
 31
0.0
 40
0.244790762
 41
1.8977297247
 42
1.9041046388
  0
ELLIPSE
  5
450
100
AcDbEntity
  8
KONSTRUKTIONSELEMENTE
100
AcDbEllipse
 62
7
  6
CONTINUOUS
 10
76.1360274085
 20
106.8482893065
 30
0.0
 11
77.6173081105
 21
0.0
 31
0.0
 40
0.244790762
 41
1.2374880148
 42
1.2438629289
  0
ELLIPSE
  5
451
100
AcDbEntity
  8
KONSTRUKTIONSELEMENTE
100
AcDbEllipse
 62
7
  6
CONTINUOUS
 10
102.8271849274
 20
106.8482893065
 30
0.0
 11
-0.0
 21
19.0
 31
0.0
 40
0.3404254913
 41
0.1834616439
 42
0.2018951191
  0
ELLIPSE
  5
452
100
AcDbEntity
  8
KONSTRUKTIONSELEMENTE
100
AcDbEllipse
 62
7
  6
CONTINUOUS
 10
95.1816478695
 20
106.8482893065
 30
0.0
 11
19.4042715113
 21
-0.0
 31
0.0
 40
0.9791658496
 41
1.2118436683
 42
1.2374880148
  0
ELLIPSE
  5
453
100
AcDbEntity
  8
KONSTRUKTIONSELEMENTE
100
AcDbEllipse
 62
7
  6
CONTINUOUS
 10
105.4212197497
 20
106.8482893065
 30
0.0
 11
19.4042159954
 21
0.0
 31
0.0
 40
0.979168651
 41
1.7726914459
 42
1.7850188038
  0
ELLIPSE
  5
454
100
AcDbEntity
  8
KONSTRUKTIONSELEMENTE
100
AcDbEllipse
 62
7
  6
CONTINUOUS
 10
98.589958114
 20
106.8482893065
 30
0.0
 11
-0.0
 21
19.0
 31
0.0
 40
0.510637263
 41
-0.3848463068
 42
-0.3589526585
  0
ELLIPSE
  5
455
100
AcDbEntity
  8
KONSTRUKTIONSELEMENTE
100
AcDbEllipse
 62
7
  6
CONTINUOUS
 10
113.6714990575
 20
106.8482893065
 30
0.0
 11
58.2130354425
 21
-0.0
 31
0.0
 40
0.3263873779
 41
1.7850188038
 42
1.791194745
  0
ELLIPSE
  5
456
100
AcDbEntity
  8
KONSTRUKTIONSELEMENTE
100
AcDbEllipse
 62
7
  6
CONTINUOUS
 10
100.4111195372
 20
106.8482893065
 30
0.0
 11
-0.0
 21
19.0
 31
0.0
 40
0.255319362
 41
-0.4110144257
 42
-0.3848463068
  0
ELLIPSE
  5
457
100
AcDbEntity
  8
KONSTRUKTIONSELEMENTE
100
AcDbEllipse
 62
7
  6
CONTINUOUS
 10
87.98458463
 20
106.8482893065
 30
0.0
 11
58.2129810828
 21
0.0
 31
0.0
 40
0.3263876827
 41
1.3503979086
 42
1.3565738498
  0
ELLIPSE
  5
458
100
AcDbEntity
  8
KONSTRUKTIONSELEMENTE
100
AcDbEllipse
 62
7
  6
CONTINUOUS
 10
96.2348523815
 20
106.8482893065
 30
0.0
 11
19.4042159954
 21
-0.0
 31
0.0
 40
0.979168651
 41
1.3565738498
 42
1.3689012077
  0
ELLIPSE
  5
459
100
AcDbEntity
  8
KONSTRUKTIONSELEMENTE
100
AcDbEllipse
 62
7
  6
CONTINUOUS
 10
98.8288872039
 20
106.8482893065
 30
0.0
 11
0.0
 21
19.0
 31
0.0
 40
0.3404254913
 41
-0.2018951191
 42
-0.1834616439
  0
ELLIPSE
  5
45A
100
AcDbEntity
  8
KONSTRUKTIONSELEMENTE
100
AcDbEllipse
 62
7
  6
CONTINUOUS
 10
85.5271379505
 20
106.8482893065
 30
0.0
 11
58.2129810828
 21
-0.0
 31
0.0
 40
0.3263876827
 41
1.3503979086
 42
1.3565738498
  0
ELLIPSE
  5
45B
100
AcDbEntity
  8
KONSTRUKTIONSELEMENTE
100
AcDbEllipse
 62
7
  6
CONTINUOUS
 10
93.7774042575
 20
106.8482893065
 30
0.0
 11
19.4042227903
 21
0.0
 31
0.0
 40
0.9791683081
 41
1.3565738498
 42
1.3689012077
  0
ELLIPSE
  5
45C
100
AcDbEntity
  8
KONSTRUKTIONSELEMENTE
100
AcDbEllipse
 62
7
  6
CONTINUOUS
 10
96.3714404424
 20
106.8482893065
 30
0.0
 11
0.0
 21
19.0
 31
0.0
 40
0.3404254913
 41
-0.2018951191
 42
-0.1834616439
  0
ELLIPSE
  5
45D
100
AcDbEntity
  8
KONSTRUKTIONSELEMENTE
100
AcDbEllipse
 62
7
  6
CONTINUOUS
 10
111.3310676986
 20
106.8482893065
 30
0.0
 11
58.2130082627
 21
0.0
 31
0.0
 40
0.3263875303
 41
1.7850188038
 42
1.791194745
  0
ELLIPSE
  5
45E
100
AcDbEntity
  8
KONSTRUKTIONSELEMENTE
100
AcDbEllipse
 62
7
  6
CONTINUOUS
 10
103.080794169
 20
106.8482893065
 30
0.0
 11
19.4042159954
 21
0.0
 31
0.0
 40
0.979168651
 41
1.7726914459
 42
1.7850188038
  0
ELLIPSE
  5
45F
100
AcDbEntity
  8
KONSTRUKTIONSELEMENTE
100
AcDbEllipse
 62
7
  6
CONTINUOUS
 10
100.4867593466
 20
106.8482893065
 30
0.0
 11
-0.0
 21
19.0
 31
0.0
 40
0.3404254913
 41
0.1834616439
 42
0.2018951191
  0
ELLIPSE
  5
460
100
AcDbEntity
  8
0
100
AcDbEllipse
 62
7
  6
CONTINUOUS
 10
97.9646607766
 20
106.8482893065
 30
0.0
 11
5.7365320006
 21
18.4907564792
 31
0.0
 40
0.1019332558
 41
1.2667193953
 42
1.2787976493
  0
ELLIPSE
  5
461
100
AcDbEntity
  8
0
100
AcDbEllipse
 62
7
  6
CONTINUOUS
 10
98.1183389316
 20
106.8482893065
 30
0.0
 11
11.7090930757
 21
18.404190549
 31
0.0
 40
0.1605900967
 41
1.3490017792
 42
1.3610837515
  0
ELLIPSE
  5
462
100
AcDbEntity
  8
0
100
AcDbEllipse
 62
7
  6
CONTINUOUS
 10
98.6848358496
 20
106.8482893065
 30
0.0
 11
27.0129703639
 21
17.966029444
 31
0.0
 40
0.1633542929
 41
1.5001117848
 42
1.5081693687
  0
ELLIPSE
  5
463
100
AcDbEntity
  8
0
100
AcDbEllipse
 62
7
  6
CONTINUOUS
 10
100.7488930867
 20
106.8482893065
 30
0.0
 11
72.4438627899
 21
17.5070406951
 31
0.0
 40
0.0825387411
 41
1.5964460801
 42
1.6004759504
  0
ELLIPSE
  5
464
100
AcDbEntity
  8
0
100
AcDbEllipse
 62
7
  6
CONTINUOUS
 10
93.1230606711
 20
106.8482893065
 30
0.0
 11
72.4439665002
 21
-17.5070403705
 31
0.0
 40
0.082538636
 41
1.5411166489
 42
1.5451465192
  0
ELLIPSE
  5
465
100
AcDbEntity
  8
0
100
AcDbEllipse
 62
7
  6
CONTINUOUS
 10
95.1871249947
 20
106.8482893065
 30
0.0
 11
27.0129179744
 21
-17.9660307467
 31
0.0
 40
0.1633544133
 41
1.6334235801
 42
1.6414811641
  0
ELLIPSE
  5
466
100
AcDbEntity
  8
0
100
AcDbEllipse
 62
7
  6
CONTINUOUS
 10
95.8669171445
 20
106.8482893065
 30
0.0
 11
-8.6935929703
 21
18.4612671599
 31
0.0
 40
0.137630217
 41
-1.3239875146
 42
-1.3078791319
  0
ELLIPSE
  5
467
100
AcDbEntity
  8
0
100
AcDbEllipse
 62
7
  6
CONTINUOUS
 10
130.6396348669
 20
106.8482893065
 30
0.0
 11
56.681060528
 21
0.0
 31
0.0
 40
0.3263876827
 41
2.1125398615
 42
2.1197844648
  0
ELLIPSE
  5
468
100
AcDbEntity
  8
0
100
AcDbEllipse
 62
7
  6
CONTINUOUS
 10
114.4026451356
 20
106.8482893065
 30
0.0
 11
25.1914863586
 21
0.0
 31
0.0
 40
0.7343750875
 41
2.0909915804
 42
2.1125398615
  0
ELLIPSE
  5
469
100
AcDbEntity
  8
0
100
AcDbEllipse
 62
7
  6
CONTINUOUS
 10
108.9245115269
 20
106.8482893065
 30
0.0
 11
0.0
 21
18.5
 31
0.0
 40
0.7659558946
 41
0.4918696873
 42
0.5201952536
  0
ELLIPSE
  5
46A
100
AcDbEntity
  8
0
100
AcDbEllipse
 62
7
  6
CONTINUOUS
 10
104.016889547
 20
106.8482893065
 30
0.0
 11
0.0
 21
18.5
 31
0.0
 40
0.2042556065
 41
0.4570539067
 42
0.4918696873
  0
ELLIPSE
  5
46B
100
AcDbEntity
  8
0
100
AcDbEllipse
 62
7
  6
CONTINUOUS
 10
98.239062385
 20
106.8482893065
 30
0.0
 11
-6.9112538583
 21
18.4820916776
 31
0.0
 40
0.1177514713
 41
-1.267034023
 42
-1.2469063976
  0
ELLIPSE
  5
46C
100
AcDbEntity
  8
0
100
AcDbEllipse
 62
7
  6
CONTINUOUS
 10
98.3584275457
 20
106.8482893065
 30
0.0
 11
-13.2319268998
 21
18.3663362586
 31
0.0
 40
0.1677639734
 41
-1.3231836565
 42
-1.3070764575
  0
ELLIPSE
  5
46D
100
AcDbEntity
  8
0
100
AcDbEllipse
 62
7
  6
CONTINUOUS
 10
98.9384110383
 20
106.8482893065
 30
0.0
 11
30.0615249453
 21
-17.8951231784
 31
0.0
 40
0.1560788516
 41
1.6983767069
 42
1.7104628309
  0
ELLIPSE
  5
46E
100
AcDbEntity
  8
0
100
AcDbEllipse
 62
7
  6
CONTINUOUS
 10
101.776602955
 20
106.8482893065
 30
0.0
 11
90.5652508561
 21
-17.4650397703
 31
0.0
 40
0.0673659609
 41
1.630808121
 42
1.6348382696
  0
ELLIPSE
  5
46F
100
AcDbEntity
  8
0
100
AcDbEllipse
 62
7
  6
CONTINUOUS
 10
92.095350655
 20
106.8482893065
 30
0.0
 11
90.5653545338
 21
17.4650395946
 31
0.0
 40
0.0673658893
 41
1.5067544128
 42
1.5107845614
  0
ELLIPSE
  5
470
100
AcDbEntity
  8
0
100
AcDbEllipse
 62
7
  6
CONTINUOUS
 10
94.9335490678
 20
106.8482893065
 30
0.0
 11
30.0614900932
 21
17.8951239335
 31
0.0
 40
0.1560789367
 41
1.4311296618
 42
1.4432157858
  0
ELLIPSE
  5
471
100
AcDbEntity
  8
0
100
AcDbEllipse
 62
7
  6
CONTINUOUS
 10
102.3486880391
 20
106.8482893065
 30
0.0
 11
-13.5243006322
 21
18.3585200119
 31
0.0
 40
0.1688502226
 41
-1.2416024979
 42
-1.2257375007
  0
ELLIPSE
  5
472
100
AcDbEntity
  8
0
100
AcDbEllipse
 62
7
  6
CONTINUOUS
 10
98.8149372488
 20
106.8482893065
 30
0.0
 11
13.5243006322
 21
18.3585200119
 31
0.0
 40
0.1688502226
 41
1.2257375007
 42
1.2416024979
  0
ELLIPSE
  5
473
100
AcDbEntity
  8
0
100
AcDbEllipse
 62
7
  6
CONTINUOUS
 10
99.4311226098
 20
106.8482893065
 30
0.0
 11
-0.0
 21
18.5
 31
0.0
 40
0.255319362
 41
0.3824296212
 42
0.4009870487
  0
ELLIPSE
  5
474
100
AcDbEntity
  8
0
100
AcDbEllipse
 62
7
  6
CONTINUOUS
 10
104.7191006678
 20
106.8482893065
 30
0.0
 11
18.8936191797
 21
-0.0
 31
0.0
 40
0.9791665548
 41
1.9332767791
 42
1.953225948
  0
ELLIPSE
  5
475
100
AcDbEntity
  8
0
100
AcDbEllipse
 62
7
  6
CONTINUOUS
 10
118.1183231134
 20
106.8482893065
 30
0.0
 11
56.681060528
 21
-0.0
 31
0.0
 40
0.3263876827
 41
1.926660927
 42
1.9332767791
  0
ELLIPSE
  5
476
100
AcDbEntity
  8
KONSTRUKTIONSELEMENTE
100
AcDbEllipse
 62
7
  6
CONTINUOUS
 10
76.8293126439
 20
107.8192805152
 30
0.0
 11
0.0
 21
2.2019879911
 31
0.0
 40
0.6812026251
 41
0.0
 42
1.5707963268
  0
ELLIPSE
  5
477
100
AcDbEntity
  8
0
100
AcDbEllipse
 62
7
  6
CONTINUOUS
 10
95.1583352642
 20
106.8482893065
 30
0.0
 11
0.0
 21
18.5
 31
0.0
 40
0.2042551568
 41
-0.4989097758
 42
-0.4639678446
  0
ELLIPSE
  5
478
100
AcDbEntity
  8
0
100
AcDbEllipse
 62
7
  6
CONTINUOUS
 10
92.4463293283
 20
106.8482893065
 30
0.0
 11
0.0
 21
18.5
 31
0.0
 40
0.510638791
 41
-0.5273478165
 42
-0.4989097758
  0
ELLIPSE
  5
479
100
AcDbEntity
  8
0
100
AcDbEllipse
 62
7
  6
CONTINUOUS
 10
87.6922825999
 20
106.8482893065
 30
0.0
 11
18.8936344414
 21
0.0
 31
0.0
 40
0.9791657639
 41
1.0145313362
 42
1.0434485103
  0
ELLIPSE
  5
47A
100
AcDbEntity
  8
0
100
AcDbEllipse
 62
7
  6
CONTINUOUS
 10
77.7161589727
 20
106.8482893065
 30
0.0
 11
37.7871640808
 21
0.0
 31
0.0
 40
0.4895842398
 41
0.9998774722
 42
1.0145313362
  0
ELLIPSE
  5
47B
100
AcDbEntity
  8
0
100
AcDbEllipse
 62
7
  6
CONTINUOUS
 10
119.1420443097
 20
106.8482893065
 30
0.0
 11
37.7871706969
 21
-0.0
 31
0.0
 40
0.4895841541
 41
2.1270613174
 42
2.1417151814
  0
ELLIPSE
  5
47C
100
AcDbEntity
  8
0
100
AcDbEllipse
 62
7
  6
CONTINUOUS
 10
109.1659163158
 20
106.8482893065
 30
0.0
 11
18.8936327874
 21
0.0
 31
0.0
 40
0.9791658496
 41
2.0981441433
 42
2.1270613174
  0
ELLIPSE
  5
47D
100
AcDbEntity
  8
0
100
AcDbEllipse
 62
7
  6
CONTINUOUS
 10
104.4118697955
 20
106.8482893065
 30
0.0
 11
0.0
 21
18.5
 31
0.0
 40
0.510638724
 41
0.4989097758
 42
0.5273478165
  0
ELLIPSE
  5
47E
100
AcDbEntity
  8
0
100
AcDbEllipse
 62
7
  6
CONTINUOUS
 10
101.6998642949
 20
106.8482893065
 30
0.0
 11
0.0
 21
18.5
 31
0.0
 40
0.204255139
 41
0.4639678446
 42
0.4989097758
  0
ELLIPSE
  5
47F
100
AcDbEntity
  8
0
100
AcDbEllipse
 62
7
  6
CONTINUOUS
 10
102.5931420743
 20
106.8482893065
 30
0.0
 11
-0.0
 21
18.5
 31
0.0
 40
0.3404254913
 41
0.4025401937
 42
0.4228244945
  0
ELLIPSE
  5
480
100
AcDbEntity
  8
0
100
AcDbEllipse
 62
7
  6
CONTINUOUS
 10
105.0603758227
 20
106.8482893065
 30
0.0
 11
0.0
 21
18.5
 31
0.0
 40
0.6808509827
 41
0.3824296212
 42
0.4025401937
  0
ELLIPSE
  5
481
100
AcDbEntity
  8
0
100
AcDbEllipse
 62
7
  6
CONTINUOUS
 10
121.5119439117
 20
106.8482893065
 30
0.0
 11
56.681060528
 21
-0.0
 31
0.0
 40
0.3263876827
 41
1.9465589031
 42
1.953225948
  0
ELLIPSE
  5
482
100
AcDbEntity
  8
0
100
AcDbEllipse
 62
7
  6
CONTINUOUS
 10
80.1441084677
 20
106.8482893065
 30
0.0
 11
56.6811134572
 21
0.0
 31
0.0
 40
0.3263873779
 41
1.1883667056
 42
1.1950337505
  0
ELLIPSE
  5
483
100
AcDbEntity
  8
0
100
AcDbEllipse
 62
7
  6
CONTINUOUS
 10
96.5956963085
 20
106.8482893065
 30
0.0
 11
-0.0
 21
18.5
 31
0.0
 40
0.6808509827
 41
5.8806451135
 42
5.900755686
  0
ELLIPSE
  5
484
100
AcDbEntity
  8
0
100
AcDbEllipse
 62
7
  6
CONTINUOUS
 10
99.062930057
 20
106.8482893065
 30
0.0
 11
0.0
 21
18.5
 31
0.0
 40
0.3404254913
 41
-0.4076130679
 42
-0.4025401937
  0
ELLIPSE
  5
485
100
AcDbEntity
  8
KONSTRUKTIONSELEMENTE
100
AcDbEllipse
 62
7
  6
CONTINUOUS
 10
99.062930057
 20
106.8482893065
 30
0.0
 11
0.0
 21
19.0
 31
0.0
 40
0.3404254913
 41
-0.4110144257
 42
-0.3913615458
  0
ELLIPSE
  5
486
100
AcDbEntity
  8
KONSTRUKTIONSELEMENTE
100
AcDbEllipse
 62
7
  6
CONTINUOUS
 10
96.5956963085
 20
106.8482893065
 30
0.0
 11
0.0
 21
19.0
 31
0.0
 40
0.6808509827
 41
-0.3913615458
 42
-0.3718667932
  0
ELLIPSE
  5
487
100
AcDbEntity
  8
KONSTRUKTIONSELEMENTE
100
AcDbEllipse
 62
7
  6
CONTINUOUS
 10
80.1441084677
 20
106.8482893065
 30
0.0
 11
58.2130354425
 21
0.0
 31
0.0
 40
0.3263873779
 41
1.1989295336
 42
1.2053945398
  0
ELLIPSE
  5
488
100
AcDbEntity
  8
KONSTRUKTIONSELEMENTE
100
AcDbEllipse
 62
7
  6
CONTINUOUS
 10
121.5119439117
 20
106.8482893065
 30
0.0
 11
58.2129810828
 21
-0.0
 31
0.0
 40
0.3263876827
 41
1.9361981138
 42
1.9426631199
  0
ELLIPSE
  5
489
100
AcDbEntity
  8
KONSTRUKTIONSELEMENTE
100
AcDbEllipse
 62
7
  6
CONTINUOUS
 10
105.0603758227
 20
106.8482893065
 30
0.0
 11
-0.0
 21
19.0
 31
0.0
 40
0.6808509827
 41
0.3718667932
 42
0.3913615458
  0
ELLIPSE
  5
48A
100
AcDbEntity
  8
KONSTRUKTIONSELEMENTE
100
AcDbEllipse
 62
7
  6
CONTINUOUS
 10
102.5931420743
 20
106.8482893065
 30
0.0
 11
0.0
 21
19.0
 31
0.0
 40
0.3404254913
 41
0.3913615458
 42
0.4110144257
  0
ELLIPSE
  5
48B
100
AcDbEntity
  8
KONSTRUKTIONSELEMENTE
100
AcDbEllipse
 62
7
  6
CONTINUOUS
 10
107.9171642561
 20
106.8482893065
 30
0.0
 11
58.2129946728
 21
-0.0
 31
0.0
 40
0.3263876065
 41
1.9182729381
 42
1.9246944617
  0
ELLIPSE
  5
48C
100
AcDbEntity
  8
KONSTRUKTIONSELEMENTE
100
AcDbEllipse
 62
7
  6
CONTINUOUS
 10
101.6998642949
 20
106.8482893065
 30
0.0
 11
-0.0
 21
19.0
 31
0.0
 40
0.204255139
 41
0.4508421421
 42
0.484625726
  0
ELLIPSE
  5
48D
100
AcDbEntity
  8
KONSTRUKTIONSELEMENTE
100
AcDbEllipse
 62
7
  6
CONTINUOUS
 10
104.4118697955
 20
106.8482893065
 30
0.0
 11
-0.0
 21
19.0
 31
0.0
 40
0.510638724
 41
0.484625726
 42
0.5120897529
  0
ELLIPSE
  5
48E
100
AcDbEntity
  8
KONSTRUKTIONSELEMENTE
100
AcDbEllipse
 62
7
  6
CONTINUOUS
 10
92.2261635146
 20
106.8482893065
 30
0.0
 11
0.0
 21
19.0
 31
0.0
 40
0.6808509827
 41
0.3538981349
 42
0.3732559272
  0
ELLIPSE
  5
48F
100
AcDbEntity
  8
KONSTRUKTIONSELEMENTE
100
AcDbEllipse
 62
7
  6
CONTINUOUS
 10
109.1659163158
 20
106.8482893065
 30
0.0
 11
19.4042715113
 21
-0.0
 31
0.0
 40
0.9791658496
 41
2.0828860797
 42
2.1107809281
  0
ELLIPSE
  5
490
100
AcDbEntity
  8
KONSTRUKTIONSELEMENTE
100
AcDbEllipse
 62
7
  6
CONTINUOUS
 10
119.1420443097
 20
106.8482893065
 30
0.0
 11
38.8084455806
 21
0.0
 31
0.0
 40
0.4895841541
 41
2.1107809281
 42
2.1249034225
  0
ELLIPSE
  5
491
100
AcDbEntity
  8
KONSTRUKTIONSELEMENTE
100
AcDbEllipse
 62
7
  6
CONTINUOUS
 10
88.924149348
 20
106.8482893065
 30
0.0
 11
0.0
 21
19.0
 31
0.0
 40
0.2042552105
 41
0.3732559272
 42
0.4058530221
  0
ELLIPSE
  5
492
100
AcDbEntity
  8
KONSTRUKTIONSELEMENTE
100
AcDbEllipse
 62
7
  6
CONTINUOUS
 10
77.7161589727
 20
106.8482893065
 30
0.0
 11
38.8084387857
 21
0.0
 31
0.0
 40
0.4895842398
 41
1.016689231
 42
1.0308117255
  0
ELLIPSE
  5
493
100
AcDbEntity
  8
KONSTRUKTIONSELEMENTE
100
AcDbEllipse
 62
7
  6
CONTINUOUS
 10
87.6922825999
 20
106.8482893065
 30
0.0
 11
19.4042732101
 21
0.0
 31
0.0
 40
0.9791657639
 41
1.0308117255
 42
1.0587065739
  0
ELLIPSE
  5
494
100
AcDbEntity
  8
KONSTRUKTIONSELEMENTE
100
AcDbEllipse
 62
7
  6
CONTINUOUS
 10
92.4463293283
 20
106.8482893065
 30
0.0
 11
0.0
 21
19.0
 31
0.0
 40
0.510638791
 41
-0.5120897529
 42
-0.484625726
  0
ELLIPSE
  5
495
100
AcDbEntity
  8
KONSTRUKTIONSELEMENTE
100
AcDbEllipse
 62
7
  6
CONTINUOUS
 10
90.913511915
 20
106.8482893065
 30
0.0
 11
0.0
 21
19.0
 31
0.0
 40
0.2042553727
 41
0.1237365606
 42
0.154184728
  0
ELLIPSE
  5
496
100
AcDbEntity
  8
KONSTRUKTIONSELEMENTE
100
AcDbEllipse
 62
7
  6
CONTINUOUS
 10
92.1055100921
 20
106.8482893065
 30
0.0
 11
-0.0
 21
19.0
 31
0.0
 40
0.6127654169
 41
0.154184728
 42
0.1847777605
  0
ELLIPSE
  5
497
100
AcDbEntity
  8
KONSTRUKTIONSELEMENTE
100
AcDbEllipse
 62
7
  6
CONTINUOUS
 10
95.1583352642
 20
106.8482893065
 30
0.0
 11
0.0
 21
19.0
 31
0.0
 40
0.2042551568
 41
-0.484625726
 42
-0.4508421421
  0
ELLIPSE
  5
498
100
AcDbEntity
  8
KONSTRUKTIONSELEMENTE
100
AcDbEllipse
 62
7
  6
CONTINUOUS
 10
94.7199319901
 20
106.8482893065
 30
0.0
 11
25.872386689
 21
0.0
 31
0.0
 40
0.7343736868
 41
1.7555740872
 42
1.7740122863
  0
ELLIPSE
  5
499
100
AcDbEntity
  8
KONSTRUKTIONSELEMENTE
100
AcDbEllipse
 62
7
  6
CONTINUOUS
 10
99.2887702826
 20
106.8482893065
 30
0.0
 11
48.5105535783
 21
0.0
 31
0.0
 40
0.3916673507
 41
1.7740122863
 42
1.786343098
  0
ELLIPSE
  5
49A
100
AcDbEntity
  8
KONSTRUKTIONSELEMENTE
100
AcDbEllipse
 62
7
  6
CONTINUOUS
 10
78.0696590954
 20
106.8482893065
 30
0.0
 11
48.5105467834
 21
0.0
 31
0.0
 40
0.3916674055
 41
1.3552495556
 42
1.3675803673
  0
ELLIPSE
  5
49B
100
AcDbEntity
  8
KONSTRUKTIONSELEMENTE
100
AcDbEllipse
 62
7
  6
CONTINUOUS
 10
82.6384955594
 20
106.8482893065
 30
0.0
 11
25.872388954
 21
0.0
 31
0.0
 40
0.7343736225
 41
7.6507656745
 42
7.6692038735
  0
ELLIPSE
  5
49C
100
AcDbEntity
  8
KONSTRUKTIONSELEMENTE
100
AcDbEllipse
 62
7
  6
CONTINUOUS
 10
85.2529176863
 20
106.8482893065
 30
0.0
 11
0.0
 21
19.0
 31
0.0
 40
0.6127654705
 41
-0.1847777605
 42
-0.154184728
  0
ELLIPSE
  5
49D
100
AcDbEntity
  8
KONSTRUKTIONSELEMENTE
100
AcDbEllipse
 62
7
  6
CONTINUOUS
 10
86.4449159678
 20
106.8482893065
 30
0.0
 11
0.0
 21
19.0
 31
0.0
 40
0.2042553906
 41
-0.154184728
 42
-0.1237365606
  0
ELLIPSE
  5
49E
100
AcDbEntity
  8
0
100
AcDbEllipse
 62
7
  6
CONTINUOUS
 10
97.5367637439
 20
106.8482893065
 30
0.0
 11
-0.0
 21
18.5
 31
0.0
 40
0.510637263
 41
-0.2391886344
 42
-0.2264576436
  0
ELLIPSE
  5
49F
100
AcDbEntity
  8
0
100
AcDbEllipse
 62
7
  6
CONTINUOUS
 10
93.8066177038
 20
106.8482893065
 30
0.0
 11
25.1914863586
 21
0.0
 31
0.0
 40
0.7343750875
 41
7.6039629862
 42
7.6147929996
  0
ELLIPSE
  5
4A0
100
AcDbEntity
  8
KONSTRUKTIONSELEMENTE
100
AcDbEllipse
 62
7
  6
CONTINUOUS
 10
89.6073004019
 20
106.8482893065
 30
0.0
 11
38.8085498176
 21
0.0
 31
0.0
 40
0.4895828391
 41
1.6037628241
 42
1.6158334687
  0
ELLIPSE
  5
4A1
100
AcDbEntity
  8
0
100
AcDbEllipse
 62
7
  6
CONTINUOUS
 10
86.4449159678
 20
106.8482893065
 30
0.0
 11
-0.0
 21
18.5
 31
0.0
 40
0.2042553906
 41
-0.158386606
 42
-0.127098674
  0
ELLIPSE
  5
4A2
100
AcDbEntity
  8
KONSTRUKTIONSELEMENTE
100
AcDbEllipse
 62
7
  6
CONTINUOUS
 10
118.1183231134
 20
106.8482893065
 30
0.0
 11
58.2129810828
 21
-0.0
 31
0.0
 40
0.3263876827
 41
1.9168972024
 42
1.9233154983
  0
ELLIPSE
  5
4A3
100
AcDbEntity
  8
0
100
AcDbEllipse
 62
7
  6
CONTINUOUS
 10
85.2529176863
 20
106.8482893065
 30
0.0
 11
-0.0
 21
18.5
 31
0.0
 40
0.6127654705
 41
-0.1898317861
 42
-0.158386606
  0
ELLIPSE
  5
4A4
100
AcDbEntity
  8
KONSTRUKTIONSELEMENTE
100
AcDbEllipse
 62
7
  6
CONTINUOUS
 10
104.7191006678
 20
106.8482893065
 30
0.0
 11
19.4042575359
 21
0.0
 31
0.0
 40
0.9791665548
 41
1.9233154983
 42
1.9426631199
  0
ELLIPSE
  5
4A5
100
AcDbEntity
  8
0
100
AcDbEllipse
 62
7
  6
CONTINUOUS
 10
82.6384955594
 20
106.8482893065
 30
0.0
 11
25.1915366131
 21
-0.0
 31
0.0
 40
0.7343736225
 41
7.645193248
 42
7.6641498479
  0
ELLIPSE
  5
4A6
100
AcDbEntity
  8
KONSTRUKTIONSELEMENTE
100
AcDbEllipse
 62
7
  6
CONTINUOUS
 10
99.4311226098
 20
106.8482893065
 30
0.0
 11
-0.0
 21
19.0
 31
0.0
 40
0.255319362
 41
0.3718667932
 42
0.3978943487
  0
ELLIPSE
  5
4A7
100
AcDbEntity
  8
0
100
AcDbEllipse
 62
7
  6
CONTINUOUS
 10
78.0696590954
 20
106.8482893065
 30
0.0
 11
47.233953447
 21
0.0
 31
0.0
 40
0.3916674055
 41
7.6358685776
 42
7.645193248
  0
ELLIPSE
  5
4A8
100
AcDbEntity
  8
0
100
AcDbEllipse
 62
7
  6
CONTINUOUS
 10
99.2887702826
 20
106.8482893065
 30
0.0
 11
47.2339600631
 21
-0.0
 31
0.0
 40
0.3916673507
 41
1.7795847128
 42
1.7889093831
  0
ELLIPSE
  5
4A9
100
AcDbEntity
  8
0
100
AcDbEllipse
 62
7
  6
CONTINUOUS
 10
94.7199319901
 20
106.8482893065
 30
0.0
 11
25.1915344077
 21
-0.0
 31
0.0
 40
0.7343736868
 41
1.7606281129
 42
1.7795847128
  0
ELLIPSE
  5
4AA
100
AcDbEntity
  8
0
100
AcDbEllipse
 62
7
  6
CONTINUOUS
 10
92.1055100921
 20
106.8482893065
 30
0.0
 11
0.0
 21
18.5
 31
0.0
 40
0.6127654169
 41
0.1688500756
 42
0.1898317861
  0
ELLIPSE
  5
4AB
100
AcDbEntity
  8
0
100
AcDbEllipse
 62
7
  6
CONTINUOUS
 10
90.913511915
 20
106.8482893065
 30
0.0
 11
-0.0
 21
18.5
 31
0.0
 40
0.2042553727
 41
0.127098674
 42
0.133364323
  0
ELLIPSE
  5
4AC
100
AcDbEntity
  8
KONSTRUKTIONSELEMENTE
100
AcDbEllipse
 62
7
  6
CONTINUOUS
 10
88.4424761711
 20
106.8482893065
 30
0.0
 11
-0.0
 21
19.0
 31
0.0
 40
0.6808509827
 41
0.0450371419
 42
0.0631560001
  0
ELLIPSE
  5
4AD
100
AcDbEntity
  8
KONSTRUKTIONSELEMENTE
100
AcDbEllipse
 62
7
  6
CONTINUOUS
 10
87.932192491
 20
106.8482893065
 30
0.0
 11
-0.0
 21
19.0
 31
0.0
 40
0.2553189968
 41
0.0631560001
 42
0.087347872
  0
ELLIPSE
  5
4AE
100
AcDbEntity
  8
0
100
AcDbEllipse
 62
7
  6
CONTINUOUS
 10
107.8494544274
 20
106.8482893065
 30
0.0
 11
25.1914863586
 21
-0.0
 31
0.0
 40
0.7343750875
 41
1.8099849612
 42
1.8208149746
  0
ELLIPSE
  5
4AF
100
AcDbEntity
  8
0
100
AcDbEllipse
 62
7
  6
CONTINUOUS
 10
105.2383487843
 20
106.8482893065
 30
0.0
 11
-0.0
 21
18.5
 31
0.0
 40
0.7659558946
 41
0.2137638907
 42
0.2391886344
  0
ELLIPSE
  5
4B0
100
AcDbEntity
  8
0
100
AcDbEllipse
 62
7
  6
CONTINUOUS
 10
103.0339094409
 20
106.8482893065
 30
0.0
 11
-0.0
 21
18.5
 31
0.0
 40
0.2042556065
 41
0.1821772233
 42
0.2137638907
  0
ELLIPSE
  5
4B1
100
AcDbEntity
  8
0
100
AcDbEllipse
 62
7
  6
CONTINUOUS
 10
88.924149348
 20
106.8482893065
 30
0.0
 11
-0.0
 21
18.5
 31
0.0
 40
0.2042552105
 41
0.383862306
 42
0.4174961866
  0
ELLIPSE
  5
4B2
100
AcDbEntity
  8
0
100
AcDbEllipse
 62
7
  6
CONTINUOUS
 10
92.2261635146
 20
106.8482893065
 30
0.0
 11
-0.0
 21
18.5
 31
0.0
 40
0.6808509827
 41
0.3639019873
 42
0.383862306
  0
ELLIPSE
  5
4B3
100
AcDbEntity
  8
0
100
AcDbEllipse
 62
7
  6
CONTINUOUS
 10
107.9171642561
 20
106.8482893065
 30
0.0
 11
56.6810737603
 21
0.0
 31
0.0
 40
0.3263876065
 41
1.9280789268
 42
1.9346983141
  0
ELLIPSE
  5
4B4
100
AcDbEntity
  8
KONSTRUKTIONSELEMENTE
100
AcDbEllipse
 62
7
  6
CONTINUOUS
 10
97.5367637439
 20
106.8482893065
 30
0.0
 11
0.0
 21
19.0
 31
0.0
 40
0.510637263
 41
-0.2327763165
 42
-0.2203984182
  0
ELLIPSE
  5
4B5
100
AcDbEntity
  8
KONSTRUKTIONSELEMENTE
100
AcDbEllipse
 62
7
  6
CONTINUOUS
 10
93.8066177038
 20
106.8482893065
 30
0.0
 11
25.8723373413
 21
-0.0
 31
0.0
 40
0.7343750875
 41
1.319384186
 42
1.3380200103
  0
ELLIPSE
  5
4B6
100
AcDbEntity
  8
KONSTRUKTIONSELEMENTE
100
AcDbEllipse
 62
7
  6
CONTINUOUS
 10
85.7611726045
 20
106.8482893065
 30
0.0
 11
58.2129810828
 21
0.0
 31
0.0
 40
0.3263876827
 41
1.3131527344
 42
1.319384186
  0
ELLIPSE
  5
4B7
100
AcDbEntity
  8
KONSTRUKTIONSELEMENTE
100
AcDbEllipse
 62
7
  6
CONTINUOUS
 10
115.8948995268
 20
106.8482893065
 30
0.0
 11
58.2129810828
 21
-0.0
 31
0.0
 40
0.3263876827
 41
1.8222084675
 42
1.8284399192
  0
ELLIPSE
  5
4B8
100
AcDbEntity
  8
KONSTRUKTIONSELEMENTE
100
AcDbEllipse
 62
7
  6
CONTINUOUS
 10
107.8494544274
 20
106.8482893065
 30
0.0
 11
25.8723373413
 21
0.0
 31
0.0
 40
0.7343750875
 41
1.8035726433
 42
1.8222084675
  0
ELLIPSE
  5
4B9
100
AcDbEntity
  8
KONSTRUKTIONSELEMENTE
100
AcDbEllipse
 62
7
  6
CONTINUOUS
 10
105.2383487843
 20
106.8482893065
 30
0.0
 11
-0.0
 21
19.0
 31
0.0
 40
0.7659558946
 41
0.2080547526
 42
0.2327763165
  0
ELLIPSE
  5
4BA
100
AcDbEntity
  8
KONSTRUKTIONSELEMENTE
100
AcDbEllipse
 62
7
  6
CONTINUOUS
 10
103.0339094409
 20
106.8482893065
 30
0.0
 11
0.0
 21
19.0
 31
0.0
 40
0.2042556065
 41
0.1773314792
 42
0.2080547526
  0
ELLIPSE
  5
4BB
100
AcDbEntity
  8
0
100
AcDbEllipse
 62
7
  6
CONTINUOUS
 10
96.164715787
 20
106.8482893065
 30
0.0
 11
0.0
 21
18.5
 31
0.0
 40
0.2042556244
 41
-0.2137638907
 42
-0.1821772233
  0
ELLIPSE
  5
4BC
100
AcDbEntity
  8
KONSTRUKTIONSELEMENTE
100
AcDbEllipse
 62
7
  6
CONTINUOUS
 10
96.164715787
 20
106.8482893065
 30
0.0
 11
0.0
 21
19.0
 31
0.0
 40
0.2042556244
 41
-0.2080547526
 42
-0.1773314792
  0
ELLIPSE
  5
4BD
100
AcDbEntity
  8
0
100
AcDbEllipse
 62
7
  6
CONTINUOUS
 10
93.9602762506
 20
106.8482893065
 30
0.0
 11
-0.0
 21
18.5
 31
0.0
 40
0.7659559616
 41
6.0439966728
 42
6.0694214165
  0
ELLIPSE
  5
4BE
100
AcDbEntity
  8
KONSTRUKTIONSELEMENTE
100
AcDbEllipse
 62
7
  6
CONTINUOUS
 10
93.9602762506
 20
106.8482893065
 30
0.0
 11
0.0
 21
19.0
 31
0.0
 40
0.7659559616
 41
-0.2327763165
 42
-0.2080547526
  0
ELLIPSE
  5
4BF
100
AcDbEntity
  8
KONSTRUKTIONSELEMENTE
100
AcDbEllipse
 62
7
  6
CONTINUOUS
 10
91.3491703789
 20
106.8482893065
 30
0.0
 11
25.8723396063
 21
0.0
 31
0.0
 40
0.7343750233
 41
1.319384186
 42
1.3380200103
  0
ELLIPSE
  5
4C0
100
AcDbEntity
  8
KONSTRUKTIONSELEMENTE
100
AcDbEllipse
 62
7
  6
CONTINUOUS
 10
83.3037224622
 20
106.8482893065
 30
0.0
 11
58.2129946728
 21
-0.0
 31
0.0
 40
0.3263876065
 41
1.3131527344
 42
1.319384186
  0
ELLIPSE
  5
4C1
100
AcDbEntity
  8
KONSTRUKTIONSELEMENTE
100
AcDbEllipse
 62
7
  6
CONTINUOUS
 10
113.5544807076
 20
106.8482893065
 30
0.0
 11
58.2130082627
 21
0.0
 31
0.0
 40
0.3263875303
 41
1.8222084675
 42
1.8284399192
  0
ELLIPSE
  5
4C2
100
AcDbEntity
  8
KONSTRUKTIONSELEMENTE
100
AcDbEllipse
 62
7
  6
CONTINUOUS
 10
105.5090288467
 20
106.8482893065
 30
0.0
 11
25.8723373413
 21
-0.0
 31
0.0
 40
0.7343750875
 41
1.8035726433
 42
1.8222084675
  0
ELLIPSE
  5
4C3
100
AcDbEntity
  8
KONSTRUKTIONSELEMENTE
100
AcDbEllipse
 62
7
  6
CONTINUOUS
 10
101.7788828066
 20
106.8482893065
 30
0.0
 11
0.0
 21
19.0
 31
0.0
 40
0.510637263
 41
0.2203984182
 42
0.2327763165
  0
ELLIPSE
  5
4C4
100
AcDbEntity
  8
0
100
AcDbEllipse
 62
7
  6
CONTINUOUS
 10
91.3491703789
 20
106.8482893065
 30
0.0
 11
25.191488564
 21
0.0
 31
0.0
 40
0.7343750233
 41
1.3295813413
 42
1.3316076924
  0
ELLIPSE
  5
4C5
100
AcDbEntity
  8
KONSTRUKTIONSELEMENTE
100
AcDbEllipse
 62
7
  6
CONTINUOUS
 10
89.4262355156
 20
106.8482893065
 30
0.0
 11
-0.0
 21
19.0
 31
0.0
 40
0.2553189968
 41
6.1958374351
 42
6.2200293071
  0
ELLIPSE
  5
4C6
100
AcDbEntity
  8
0
100
AcDbEllipse
 62
7
  6
CONTINUOUS
 10
113.5544807076
 20
106.8482893065
 30
0.0
 11
56.6810869926
 21
-0.0
 31
0.0
 40
0.3263875303
 41
1.8291565252
 42
1.8355682946
  0
ELLIPSE
  5
4C7
100
AcDbEntity
  8
KONSTRUKTIONSELEMENTE
100
AcDbEllipse
 62
7
  6
CONTINUOUS
 10
88.8138942527
 20
106.8482893065
 30
0.0
 11
0.0
 21
19.0
 31
0.0
 40
0.765958086
 41
-0.0631560001
 42
-0.0390011262
  0
ELLIPSE
  5
4C8
100
AcDbEntity
  8
0
100
AcDbEllipse
 62
7
  6
CONTINUOUS
 10
105.5090288467
 20
106.8482893065
 30
0.0
 11
25.1914863586
 21
0.0
 31
0.0
 40
0.7343750875
 41
1.8099849612
 42
1.8291565252
  0
ELLIPSE
  5
4C9
100
AcDbEntity
  8
0
100
AcDbEllipse
 62
7
  6
CONTINUOUS
 10
101.7788828066
 20
106.8482893065
 30
0.0
 11
-0.0
 21
18.5
 31
0.0
 40
0.510637263
 41
0.2264576436
 42
0.2391886344
  0
ELLIPSE
  5
4CA
100
AcDbEntity
  8
0
100
AcDbEllipse
 62
7
  6
CONTINUOUS
 10
91.9499608075
 20
106.8482893065
 30
0.0
 11
15.782110385
 21
18.2937857001
 31
0.0
 40
0.1745346059
 41
1.2514339648
 42
1.3604028717
  0
ELLIPSE
  5
4CB
100
AcDbEntity
  8
KONSTRUKTIONSELEMENTE
100
AcDbEllipse
 62
7
  6
CONTINUOUS
 10
104.016889547
 20
106.8482893065
 30
0.0
 11
0.0
 21
19.0
 31
0.0
 40
0.2042556065
 41
0.4441527682
 42
0.4778222943
  0
ELLIPSE
  5
4CC
100
AcDbEntity
  8
KONSTRUKTIONSELEMENTE
100
AcDbEllipse
 62
7
  6
CONTINUOUS
 10
108.9245115269
 20
106.8482893065
 30
0.0
 11
-0.0
 21
19.0
 31
0.0
 40
0.7659558946
 41
0.4778222943
 42
0.5051849793
  0
ELLIPSE
  5
4CD
100
AcDbEntity
  8
KONSTRUKTIONSELEMENTE
100
AcDbEllipse
 62
7
  6
CONTINUOUS
 10
114.4026451356
 20
106.8482893065
 30
0.0
 11
25.8723373413
 21
0.0
 31
0.0
 40
0.7343750875
 41
2.0759813061
 42
2.0967770728
  0
ELLIPSE
  5
4CE
100
AcDbEntity
  8
KONSTRUKTIONSELEMENTE
100
AcDbEllipse
 62
7
  6
CONTINUOUS
 10
113.8293126439
 20
107.8192805152
 30
0.0
 11
0.0
 21
2.2019879911
 31
0.0
 40
0.6812026251
 41
-1.5707963268
 42
0.0
  0
ELLIPSE
  5
4CF
100
AcDbEntity
  8
KONSTRUKTIONSELEMENTE
100
AcDbEllipse
 62
7
  6
CONTINUOUS
 10
130.6396348669
 20
106.8482893065
 30
0.0
 11
58.2129810828
 21
-0.0
 31
0.0
 40
0.3263876827
 41
2.0967770728
 42
2.1037645393
  0
ELLIPSE
  5
4D0
100
AcDbEntity
  8
0
100
AcDbEllipse
 62
7
  6
CONTINUOUS
 10
113.8293126439
 20
53.9925981388
 30
0.0
 11
1.5
 21
0.0
 31
0.0
 40
0.6927360173
 41
-0.0
 42
1.5707963268
  0
ELLIPSE
  5
4D1
100
AcDbEntity
  8
KONSTRUKTIONSELEMENTE
100
AcDbEllipse
 62
7
  6
CONTINUOUS
 10
113.8293126439
 20
19.5708061908
 30
0.0
 11
1.5
 21
-0.0
 31
0.0
 40
0.6927360173
 41
-1.5707963268
 42
0.0
  0
ELLIPSE
  5
4D2
100
AcDbEntity
  8
0
100
AcDbEllipse
 62
7
  6
CONTINUOUS
 10
91.9499608075
 20
36.7817021648
 30
0.0
 11
11.3102044085
 21
16.8180179498
 31
0.0
 40
0.6814568884
 41
3.9311559503
 42
4.0401248571
  0
ELLIPSE
  5
4D3
100
AcDbEntity
  8
0
100
AcDbEllipse
 62
7
  6
CONTINUOUS
 10
97.9646607766
 20
36.7817021648
 30
0.0
 11
2.2748663709
 21
18.4871926476
 31
0.0
 40
0.3025516139
 41
-2.7807688867
 42
-2.7686906327
  0
ELLIPSE
  5
4D4
100
AcDbEntity
  8
0
100
AcDbEllipse
 62
7
  6
CONTINUOUS
 10
98.1183389316
 20
36.7817021648
 30
0.0
 11
6.2313814263
 21
18.1561324291
 31
0.0
 40
0.569750343
 41
-2.6369551621
 42
-2.6248731897
  0
ELLIPSE
  5
4D5
100
AcDbEntity
  8
0
100
AcDbEllipse
 62
7
  6
CONTINUOUS
 10
98.6848358496
 20
36.7817021648
 30
0.0
 11
26.5381275507
 21
9.9126438951
 31
0.0
 40
0.5885932583
 41
-1.8328011484
 42
-1.8247435645
  0
ELLIPSE
  5
4D6
100
AcDbEntity
  8
0
100
AcDbEllipse
 62
7
  6
CONTINUOUS
 10
100.7488930867
 20
36.7817021648
 30
0.0
 11
72.4406781325
 21
6.7089198163
 31
0.0
 40
0.2379969588
 41
-1.6424578601
 42
-1.6384279898
  0
ELLIPSE
  5
4D7
100
AcDbEntity
  8
0
100
AcDbEllipse
 62
7
  6
CONTINUOUS
 10
93.1230606711
 20
36.7817021648
 30
0.0
 11
72.4407818657
 21
-6.7089186736
 31
0.0
 40
0.2379966242
 41
-1.5031647301
 42
-1.4991348598
  0
ELLIPSE
  5
4D8
100
AcDbEntity
  8
0
100
AcDbEllipse
 62
7
  6
CONTINUOUS
 10
95.1871249947
 20
36.7817021648
 30
0.0
 11
26.5380703629
 21
-9.9126614854
 31
0.0
 40
0.588594106
 41
-1.316847963
 42
-1.3087903791
  0
ELLIPSE
  5
4D9
100
AcDbEntity
  8
0
100
AcDbEllipse
 62
7
  6
CONTINUOUS
 10
95.8669171445
 20
36.7817021648
 30
0.0
 11
-3.8769398065
 21
18.4195993439
 31
0.0
 40
0.4443950653
 41
-3.5624952519
 42
-3.5463868693
  0
ELLIPSE
  5
4DA
100
AcDbEntity
  8
0
100
AcDbEllipse
 62
7
  6
CONTINUOUS
 10
98.239062385
 20
36.7817021648
 30
0.0
 11
-2.8530015985
 21
18.4713745874
 31
0.0
 40
0.3605841742
 41
-3.5651231861
 42
-3.5449955606
  0
ELLIPSE
  5
4DB
100
AcDbEntity
  8
0
100
AcDbEllipse
 62
7
  6
CONTINUOUS
 10
98.3584275457
 20
36.7817021648
 30
0.0
 11
-7.8478503437
 21
17.8455830739
 31
0.0
 40
0.6214445296
 41
-3.7923686514
 42
-3.7762614523
  0
ELLIPSE
  5
4DC
100
AcDbEntity
  8
0
100
AcDbEllipse
 62
7
  6
CONTINUOUS
 10
98.9384110383
 20
36.7817021648
 30
0.0
 11
29.7891715924
 21
-9.0700139585
 31
0.0
 40
0.5412720377
 41
-1.4544828381
 42
-1.4423967141
  0
ELLIPSE
  5
4DD
100
AcDbEntity
  8
0
100
AcDbEllipse
 62
7
  6
CONTINUOUS
 10
101.776602955
 20
36.7817021648
 30
0.0
 11
90.5642088863
 21
-6.5674923162
 31
0.0
 40
0.1909698069
 41
-1.6080000509
 42
-1.6039699024
  0
ELLIPSE
  5
4DE
100
AcDbEntity
  8
0
100
AcDbEllipse
 62
7
  6
CONTINUOUS
 10
92.095350655
 20
36.7817021648
 30
0.0
 11
90.5643125699
 21
6.5674917502
 31
0.0
 40
0.1909695906
 41
-1.5376227185
 42
-1.5335925699
  0
ELLIPSE
  5
4DF
100
AcDbEntity
  8
0
100
AcDbEllipse
 62
7
  6
CONTINUOUS
 10
94.9335490678
 20
36.7817021648
 30
0.0
 11
29.7891351044
 21
9.070021831
 31
0.0
 40
0.541272552
 41
4.5839888794
 42
4.5960750034
  0
ELLIPSE
  5
4E0
100
AcDbEntity
  8
0
100
AcDbEllipse
 62
7
  6
CONTINUOUS
 10
102.3486880391
 20
36.7817021648
 30
0.0
 11
-8.1975050272
 21
17.7641189705
 31
0.0
 40
0.6301742851
 41
-3.8934017835
 42
-3.8775367863
  0
ELLIPSE
  5
4E1
100
AcDbEntity
  8
0
100
AcDbEllipse
 62
7
  6
CONTINUOUS
 10
98.8149372488
 20
36.7817021648
 30
0.0
 11
8.1975050272
 21
17.7641189705
 31
0.0
 40
0.6301742851
 41
-2.4056485209
 42
-2.3897835237
  0
ELLIPSE
  5
4E2
100
AcDbEntity
  8
KONSTRUKTIONSELEMENTE
100
AcDbEllipse
 62
7
  6
CONTINUOUS
 10
76.8293126439
 20
19.5708061908
 30
0.0
 11
1.5
 21
-0.0
 31
0.0
 40
0.6927360173
 41
-3.1415926536
 42
-1.5707963268
  0
ELLIPSE
  5
4E3
100
AcDbEntity
  8
0
100
AcDbEllipse
 62
7
  6
CONTINUOUS
 10
76.8293126439
 20
53.9925981388
 30
0.0
 11
1.5
 21
0.0
 31
0.0
 40
0.6927360173
 41
1.5707963268
 42
3.1415926536
  0
ELLIPSE
  5
4E4
100
AcDbEntity
  8
0
100
AcDbEllipse
 62
7
  6
CONTINUOUS
 10
101.4736878826
 20
36.7817021648
 30
0.0
 11
-8.1975050272
 21
17.7641189705
 31
0.0
 40
0.6301742851
 41
-3.8616979782
 42
-3.8458812968
  0
ELLIPSE
  5
4E5
100
AcDbEntity
  8
0
100
AcDbEllipse
 62
7
  6
CONTINUOUS
 10
99.6899374052
 20
36.7817021648
 30
0.0
 11
8.1975050272
 21
17.7641189705
 31
0.0
 40
0.6301742851
 41
-2.4373040104
 42
-2.421487329
  0
ELLIPSE
  5
4E6
100
AcDbEntity
  8
0
100
AcDbEllipse
 62
7
  6
CONTINUOUS
 10
92.4592359564
 20
36.7817021648
 30
0.0
 11
11.4740010812
 21
16.7575577096
 31
0.0
 40
0.6831096616
 41
-2.3442508673
 42
-2.2676592304
  0
ELLIPSE
  5
4E7
100
AcDbEntity
  8
0
100
AcDbEllipse
 62
7
  6
CONTINUOUS
 10
95.7763955961
 20
36.7817021648
 30
0.0
 11
23.0720459525
 21
11.1863085476
 31
0.0
 40
0.6386461637
 41
-1.8562739345
 42
-1.8441953337
  0
ELLIPSE
  5
4E8
100
AcDbEntity
  8
0
100
AcDbEllipse
 62
7
  6
CONTINUOUS
 10
94.4780615005
 20
36.7817021648
 30
0.0
 11
72.4407818657
 21
6.7089186736
 31
0.0
 40
0.2379966242
 41
-1.5659534574
 42
-1.5619264724
  0
ELLIPSE
  5
4E9
100
AcDbEntity
  8
0
100
AcDbEllipse
 62
7
  6
CONTINUOUS
 10
99.3938941957
 20
36.7817021648
 30
0.0
 11
72.4406781325
 21
-6.7089198163
 31
0.0
 40
0.2379969588
 41
-1.5796661149
 42
-1.5756391299
  0
ELLIPSE
  5
4EA
100
AcDbEntity
  8
0
100
AcDbEllipse
 62
7
  6
CONTINUOUS
 10
98.1767098117
 20
36.7817021648
 30
0.0
 11
26.5381275507
 21
-9.9126438951
 31
0.0
 40
0.5885932583
 41
-1.3812659712
 42
-1.3732132437
  0
ELLIPSE
  5
4EB
100
AcDbEntity
  8
0
100
AcDbEllipse
 62
7
  6
CONTINUOUS
 10
97.892506535
 20
36.7817021648
 30
0.0
 11
-6.2313841321
 21
18.1561319997
 31
0.0
 40
0.569750448
 41
-3.7025944206
 42
-3.6905174553
  0
ELLIPSE
  5
4EC
100
AcDbEntity
  8
0
100
AcDbEllipse
 62
7
  6
CONTINUOUS
 10
97.8517432312
 20
36.7817021648
 30
0.0
 11
-2.2748650979
 21
18.4871926735
 31
0.0
 40
0.3025514768
 41
-3.5346215997
 42
-3.5225456133
  0
ELLIPSE
  5
4ED
100
AcDbEntity
  8
0
100
AcDbEllipse
 62
7
  6
CONTINUOUS
 10
95.4294171445
 20
36.7817021648
 30
0.0
 11
-3.8769398065
 21
18.4195993439
 31
0.0
 40
0.4443950653
 41
-3.5624952519
 42
-3.5463868693
  0
ELLIPSE
  5
4EE
100
AcDbEntity
  8
0
100
AcDbEllipse
 62
7
  6
CONTINUOUS
 10
95.2594688639
 20
36.7817021648
 30
0.0
 11
-7.8478489322
 21
17.8455833925
 31
0.0
 40
0.6214444929
 41
-3.7198972324
 42
-3.7037790998
  0
ELLIPSE
  5
4EF
100
AcDbEntity
  8
0
100
AcDbEllipse
 62
7
  6
CONTINUOUS
 10
94.3689659727
 20
36.7817021648
 30
0.0
 11
29.7891323132
 21
-9.0700224332
 31
0.0
 40
0.5412725914
 41
-1.3538067022
 42
-1.3417091691
  0
ELLIPSE
  5
4F0
100
AcDbEntity
  8
0
100
AcDbEllipse
 62
7
  6
CONTINUOUS
 10
90.4015994312
 20
36.7817021648
 30
0.0
 11
90.5643046383
 21
-6.5674917935
 31
0.0
 40
0.1909696071
 41
-1.4911967893
 42
-1.4871622236
  0
ELLIPSE
  5
4F1
100
AcDbEntity
  8
0
100
AcDbEllipse
 62
7
  6
CONTINUOUS
 10
103.4703522404
 20
36.7817021648
 30
0.0
 11
90.5642009548
 21
6.5674923595
 31
0.0
 40
0.1909698234
 41
4.6287548445
 42
4.6327894101
  0
ELLIPSE
  5
4F2
100
AcDbEntity
  8
0
100
AcDbEllipse
 62
7
  6
CONTINUOUS
 10
99.5029947796
 20
36.7817021648
 30
0.0
 11
29.7891688011
 21
9.0700145607
 31
0.0
 40
0.541272077
 41
4.483302311
 42
4.495399844
  0
ELLIPSE
  5
4F3
100
AcDbEntity
  8
0
100
AcDbEllipse
 62
7
  6
CONTINUOUS
 10
98.6124900354
 20
36.7817021648
 30
0.0
 11
7.8478489322
 21
17.8455833925
 31
0.0
 40
0.6214444929
 41
-2.5794062074
 42
-2.5632880748
  0
ELLIPSE
  5
4F4
100
AcDbEntity
  8
0
100
AcDbEllipse
 62
7
  6
CONTINUOUS
 10
98.3745618865
 20
36.7817021648
 30
0.0
 11
2.8530021148
 21
18.4713745693
 31
0.0
 40
0.3605842223
 41
-2.7744262581
 42
-2.7542918126
  0
ENDSEC
  0
SECTION
  2
OBJECTS
  0
DICTIONARY
  5
C
100
AcDbDictionary
280
0
281
1
  3
ACAD_GROUP
350
D
  3
ACAD_MLINESTYLE
350
17
  3
ACAD_LAYOUT
350
1A
  3
ACAD_PLOTSETTINGS
350
19
  3
ACAD_PLOTSTYLENAME
350
E
  0
DICTIONARY
  5
D
102
{ACAD_REACTORS
330
C
102
}
100
AcDbDictionary
280
0
281
1
  0
ACDBDICTIONARYWDFLT
  5
E
102
{ACAD_REACTORS
330
C
102
}
100
AcDbDictionary
281
1
  3
Normal
350
F
100
AcDbDictionaryWithDefault
340
F
  0
DICTIONARY
  5
17
102
{ACAD_REACTORS
330
C
102
}
100
AcDbDictionary
280
0
281
1
  3
Standard
350
18
  0
DICTIONARY
  5
19
102
{ACAD_REACTORS
330
C
102
}
100
AcDbDictionary
281
1
  0
DICTIONARY
  5
1A
102
{ACAD_REACTORS
330
C
102
}
100
AcDbDictionary
281
1
  3
Model
350
4F5
  3
Layout1
350
4F6
  0
ACDBPLACEHOLDER
  5
F
102
{ACAD_REACTORS
330
E
102
}
  0
MLINESTYLE
  5
18
102
{ACAD_REACTORS
330
17
102
}
100
AcDbMlineStyle
  2
STANDARD
 70
0
  3

 62
256
 51
90.0
 52
90.0
 71
2
 49
0.5
 62
256
  6
BYLAYER
 49
-0.5
 62
256
  6
BYLAYER
  0
LAYOUT
  5
4F5
102
{ACAD_REACTORS
330
1A
102
}
100
AcDbPlotSettings
  1

  2
none_device
  4
ISO_A4_(297.00_x_210.00_MM)
  6

 40
0.0
 41
0.0
 42
0.0
 43
0.0
 44
297.0
 45
210.0
 46
0.0
 47
0.0
 48
0.0
 49
0.0
140
0.0
141
0.0
142
1.0
143
1.0
 70
1024
 72
1
 73
0
 74
0
  7

 75
0
147
1.0
148
0.0
149
0.0
100
AcDbLayout
  1
Model
 70
0
 71
0
 10
0.0
 20
0.0
 11
297.0
 21
210.0
 12
0.0
 22
0.0
 32
0.0
 14
0.0
 24
0.0
 34
0.0
 15
0.0
 25
0.0
 35
0.0
146
0.0
 13
0.0
 23
0.0
 33
0.0
 16
1.0
 26
0.0
 36
0.0
 17
0.0
 27
1.0
 37
0.0
 76
0
330
20D
345
0
346
0
  0
LAYOUT
  5
4F6
102
{ACAD_REACTORS
330
1A
102
}
100
AcDbPlotSettings
  1

  2
none_device
  4
ISO_A4_(297.00_x_210.00_MM)
  6

 40
0.0
 41
0.0
 42
0.0
 43
0.0
 44
297.0
 45
210.0
 46
0.0
 47
0.0
 48
0.0
 49
0.0
140
0.0
141
0.0
142
1.0
143
1.0
 70
0
 72
1
 73
0
 74
0
  7

 75
0
147
1.0
148
0.0
149
0.0
100
AcDbLayout
  1
Layout1
 70
0
 71
1
 10
0.0
 20
0.0
 11
297.0
 21
210.0
 12
0.0
 22
0.0
 32
0.0
 14
0.0
 24
0.0
 34
0.0
 15
0.0
 25
0.0
 35
0.0
146
0.0
 13
0.0
 23
0.0
 33
0.0
 16
1.0
 26
0.0
 36
0.0
 17
0.0
 27
1.0
 37
0.0
 76
0
330
20E
345
0
346
0
  0
ENDSEC
  0
EOF
