999
DXF file: 001-m32121-p5.dxf
999
Pro/ENGINEER 2011490 by Parametric Technology Corporation
  0
SECTION
  2
HEADER
  9
$ACADVER
  1
AC1015
  9
$DWGCODEPAGE
  3
ANSI_1252
  9
$EXTMAX
 10
420.0
 20
297.0
 30
0.0
  9
$EXTMIN
 10
0.0
 20
0.0
 30
0.0
  9
$LIMMIN
 10
0.0
 20
0.0
  9
$LIMMAX
 10
420.0
 20
297.0
  9
$VIEWCTR
 10
210.0
 20
148.5
  9
$VIEWSIZE
 40
297.0
  9
$CLAYER
  8
0
  9
$LTSCALE
 40
23.1
  9
$CELTYPE
  6
BYLAYER
  9
$DIMSCALE
 40
1.0
  9
$DIMASZ
 40
3.5
  9
$DIMEXO
 40
2.625
  9
$DIMDLI
 40
15.96
  9
$DIMEXE
 40
7.56
  9
$DIMCEN
 40
3.78
  9
$DIMLFAC
 40
1.0
  9
$DIMBLK
  1
_FILLED
  9
$DIMTXT
 40
3.5
  9
$DIMTOL
 70
1
  9
$DIMLIM
 70
0
  9
$DIMTFAC
 40
1.0
  9
$DIMTP
 40
0.005
  9
$DIMTM
 40
0.005
  9
$PDMODE
 70
3
  9
$PDSIZE
 40
0.3125
  9
$HANDSEED
  5
4CA
  9
$TILEMODE
 70
1
  9
$MEASUREMENT
 70
1
  9
$INSUNITS
 70
4
  0
ENDSEC
  0
SECTION
  2
CLASSES
  0
CLASS
  1
ACDBDICTIONARYWDFLT
  2
AcDbDictionaryWithDefault
  3
AutoCAD 2000
 90
0
280
0
281
0
  0
CLASS
  1
ACDBPLACEHOLDER
  2
AcDbPlaceHolder
  3
AutoCAD 2000
 90
0
280
0
281
0
  0
CLASS
  1
LAYOUT
  2
AcDbLayout
  3
AutoCAD 2000
 90
0
280
0
281
0
  0
ENDSEC
  0
SECTION
  2
TABLES
  0
TABLE
  2
VPORT
  5
8
100
AcDbSymbolTable
 70
2
  0
VPORT
  5
1F4
100
AcDbSymbolTableRecord
100
AcDbViewportTableRecord
  2
*ACTIVE
 70
0
 10
0.0
 20
0.0
 11
1.0
 21
1.0
 12
210.0
 22
148.5
 13
0.0
 23
0.0
 14
1.0
 24
1.0
 15
0.0
 25
0.0
 16
0.0
 26
0.0
 36
1.0
 17
0.0
 27
0.0
 37
0.0
 40
297.0
 41
1.4141414141
 42
50.0
 43
0.0
 44
0.0
 50
0.0
 51
0.0
 71
0
 72
100
 73
1
 74
1
 75
0
 76
0
 77
0
 78
0
  0
ENDTAB
  0
TABLE
  2
LTYPE
  5
5
100
AcDbSymbolTable
 70
6
  0
LTYPE
  5
14
100
AcDbSymbolTableRecord
100
AcDbLinetypeTableRecord
  2
BYBLOCK
 70
0
  3

 72
65
 73
0
 40
0.0
  0
LTYPE
  5
15
100
AcDbSymbolTableRecord
100
AcDbLinetypeTableRecord
  2
BYLAYER
 70
0
  3

 72
65
 73
0
 40
0.0
  0
LTYPE
  5
16
100
AcDbSymbolTableRecord
100
AcDbLinetypeTableRecord
  2
CONTINUOUS
 70
64
  3
Solid line
 72
65
 73
0
 40
0.0
  0
LTYPE
  5
1F5
100
AcDbSymbolTableRecord
100
AcDbLinetypeTableRecord
  2
CENTER
 70
64
  3
____ _ ____ _ ____ _ ____ _ ____ _ ____ _ ____
 72
65
 73
4
 40
0.6
 49
0.375
 74
0
 49
-0.075
 74
0
 49
0.075
 74
0
 49
-0.075
 74
0
  0
LTYPE
  5
1F6
100
AcDbSymbolTableRecord
100
AcDbLinetypeTableRecord
  2
HIDDEN
 70
64
  3
- - - - - - - - - - - - - - - - - - - -
 72
65
 73
2
 40
0.2
 49
0.1
 74
0
 49
-0.1
 74
0
  0
LTYPE
  5
1F7
100
AcDbSymbolTableRecord
100
AcDbLinetypeTableRecord
  2
PHANTOM
 70
64
  3
_____ _ _ _____ _ _ _____ _ _ _____
 72
65
 73
6
 40
0.8
 49
0.45
 74
0
 49
-0.05
 74
0
 49
0.1
 74
0
 49
-0.05
 74
0
 49
0.1
 74
0
 49
-0.05
 74
0
  0
LTYPE
  5
1F8
100
AcDbSymbolTableRecord
100
AcDbLinetypeTableRecord
  2
DOT
 70
64
  3
. . . . . . . . . . . . . . . . . . . .
 72
65
 73
2
 40
0.2
 49
0.1
 74
0
 49
-0.1
 74
0
  0
LTYPE
  5
1F9
100
AcDbSymbolTableRecord
100
AcDbLinetypeTableRecord
  2
DASHED
 70
64
  3
- - - - - - - - - - - - - - - - - - - -
 72
65
 73
2
 40
0.2
 49
0.1
 74
0
 49
-0.1
 74
0
  0
ENDTAB
  0
TABLE
  2
LAYER
  5
2
100
AcDbSymbolTable
 70
36
  0
LAYER
  5
10
100
AcDbSymbolTableRecord
100
AcDbLayerTableRecord
  2
0
 70
0
 62
7
  6
CONTINUOUS
370
-3
390
F
  0
LAYER
  5
1FA
100
AcDbSymbolTableRecord
100
AcDbLayerTableRecord
  2
DEFAULT_1
 70
0
 62
7
  6
CENTER
370
-3
390
F
  0
LAYER
  5
1FB
100
AcDbSymbolTableRecord
100
AcDbLayerTableRecord
  2
DEFAULT_2
 70
0
 62
8
  6
HIDDEN
370
-3
390
F
  0
LAYER
  5
1FC
100
AcDbSymbolTableRecord
100
AcDbLayerTableRecord
  2
DEFAULT_3
 70
0
 62
7
  6
PHANTOM
370
-3
390
F
  0
LAYER
  5
1FD
100
AcDbSymbolTableRecord
100
AcDbLayerTableRecord
  2
AUSFORMSCHRAEGEN
 70
0
 62
7
  6
CONTINUOUS
370
-3
390
F
  0
LAYER
  5
1FE
100
AcDbSymbolTableRecord
100
AcDbLayerTableRecord
  2
BEZUGSACHSEN
 70
0
 62
7
  6
CONTINUOUS
370
-3
390
F
  0
LAYER
  5
1FF
100
AcDbSymbolTableRecord
100
AcDbLayerTableRecord
  2
BEZUGSEBENEN
 70
0
 62
7
  6
CONTINUOUS
370
-3
390
F
  0
LAYER
  5
200
100
AcDbSymbolTableRecord
100
AcDbLayerTableRecord
  2
BG_STARTBEZUEGE
 70
0
 62
7
  6
CONTINUOUS
370
-3
390
F
  0
LAYER
  5
201
100
AcDbSymbolTableRecord
100
AcDbLayerTableRecord
  2
FASEN
 70
0
 62
7
  6
CONTINUOUS
370
-3
390
F
  0
LAYER
  5
202
100
AcDbSymbolTableRecord
100
AcDbLayerTableRecord
  2
FLAECHENVERBUND
 70
0
 62
7
  6
CONTINUOUS
370
-3
390
F
  0
LAYER
  5
203
100
AcDbSymbolTableRecord
100
AcDbLayerTableRecord
  2
HILFEN
 70
0
 62
7
  6
CONTINUOUS
370
-3
390
F
  0
LAYER
  5
204
100
AcDbSymbolTableRecord
100
AcDbLayerTableRecord
  2
KONSTRUKTIONSELEMENTE
 70
0
 62
7
  6
CONTINUOUS
370
-3
390
F
  0
LAYER
  5
205
100
AcDbSymbolTableRecord
100
AcDbLayerTableRecord
  2
KURVEN
 70
0
 62
7
  6
CONTINUOUS
370
-3
390
F
  0
LAYER
  5
206
100
AcDbSymbolTableRecord
100
AcDbLayerTableRecord
  2
NORM
 70
0
 62
7
  6
CONTINUOUS
370
-3
390
F
  0
LAYER
  5
207
100
AcDbSymbolTableRecord
100
AcDbLayerTableRecord
  2
PLATZIERUNG
 70
0
 62
7
  6
CONTINUOUS
370
-3
390
F
  0
LAYER
  5
208
100
AcDbSymbolTableRecord
100
AcDbLayerTableRecord
  2
RUNDUNGEN
 70
0
 62
7
  6
CONTINUOUS
370
-3
390
F
  0
LAYER
  5
209
100
AcDbSymbolTableRecord
100
AcDbLayerTableRecord
  2
TEIL_STARTBEZUEGE
 70
0
 62
7
  6
CONTINUOUS
370
-3
390
F
  0
LAYER
  5
20A
100
AcDbSymbolTableRecord
100
AcDbLayerTableRecord
  2
T_STARTBEZUEGE
 70
0
 62
7
  6
CONTINUOUS
370
-3
390
F
  0
LAYER
  5
20B
100
AcDbSymbolTableRecord
100
AcDbLayerTableRecord
  2
ZEICHNUNGSBEMASSUNGEN
 70
0
 62
7
  6
CONTINUOUS
370
-3
390
F
  0
ENDTAB
  0
TABLE
  2
STYLE
  5
3
100
AcDbSymbolTable
 70
1
  0
STYLE
  5
11
100
AcDbSymbolTableRecord
100
AcDbTextStyleTableRecord
  2
STANDARD
 70
0
 40
0.0
 41
0.7
 50
0.0
 71
0
 42
0.2
  3
txt
  4

  0
STYLE
  5
20C
100
AcDbSymbolTableRecord
100
AcDbTextStyleTableRecord
  2
TEXTSTYLE_1
 70
0
 40
0.0
 41
0.8
 50
0.0
 71
0
 42
0.2
  3
gdt
  4

  0
ENDTAB
  0
TABLE
  2
VIEW
  5
6
100
AcDbSymbolTable
 70
0
  0
ENDTAB
  0
TABLE
  2
UCS
  5
7
100
AcDbSymbolTable
 70
0
  0
ENDTAB
  0
TABLE
  2
APPID
  5
9
100
AcDbSymbolTable
 70
1
  0
APPID
  5
20D
100
AcDbSymbolTableRecord
100
AcDbRegAppTableRecord
  2
ACAD
 70
0
  0
ENDTAB
  0
TABLE
  2
BLOCK_RECORD
  5
1
100
AcDbSymbolTable
 70
0
  0
BLOCK_RECORD
  5
20E
100
AcDbSymbolTableRecord
100
AcDbBlockTableRecord
  2
*Model_Space
  0
BLOCK_RECORD
  5
20F
100
AcDbSymbolTableRecord
100
AcDbBlockTableRecord
  2
*Paper_Space
  0
ENDTAB
  0
TABLE
  2
DIMSTYLE
  5
A
100
AcDbSymbolTable
 70
1
100
AcDbDimStyleTable
 71
0
  0
DIMSTYLE
105
210
100
AcDbSymbolTableRecord
100
AcDbDimStyleTableRecord
  2
STANDARD
 70
0
  3

  4

 40
1.0
 41
3.5
 42
0.0625
 43
0.38
 44
0.18
 45
0.0
 46
0.0
 47
0.005
 48
0.005
140
3.5
141
0.09
142
0.0
143
25.4
144
1.0
145
0.0
146
1.0
147
0.09
 71
1.0
 72
0.0
 73
0
 74
0
 75
0
 76
0
 77
1
 78
8
170
0
171
2
172
0
173
0
174
0
175
0
176
0
177
0
178
5
270
2
271
3
272
3
273
2
274
2
275
0
280
0
281
0
282
0
283
1
284
8
285
0
286
0
287
3
288
0
340
11
  0
ENDTAB
  0
ENDSEC
  0
SECTION
  2
BLOCKS
  0
BLOCK
  5
20
100
AcDbEntity
  8
0
100
AcDbBlockBegin
  2
*Model_Space
 70
0
 10
0.0
 20
0.0
 30
0.0
  3
*Model_Space
  1

  0
ENDBLK
  5
21
100
AcDbEntity
  8
0
100
AcDbBlockEnd
  0
BLOCK
  5
1C
100
AcDbEntity
  8
0
100
AcDbBlockBegin
  2
*Paper_Space
 70
0
 10
0.0
 20
0.0
 30
0.0
  3
*Paper_Space
  1

  0
ENDBLK
  5
1D
100
AcDbEntity
  8
0
100
AcDbBlockEnd
  0
ENDSEC
  0
SECTION
  2
ENTITIES
  0
MTEXT
  5
211
100
AcDbEntity
  8
0
100
AcDbMText
 62
5
  6
CONTINUOUS
  7
STANDARD
 71
2
 72
1
 10
136.1533065547
 20
69.5494031036
 30
0.0
 11
1.0
 21
0.0
 31
0.0
 44
0.9
  1
VLBS-U-LT 10t\PRUD
 40
6.0
 41
58.0
  0
MTEXT
  5
212
100
AcDbEntity
  8
0
100
AcDbMText
 62
5
  6
CONTINUOUS
  7
STANDARD
 71
2
 72
1
 10
136.2456296434
 20
150.2020625551
 30
0.0
 11
1.0
 21
0.0
 31
0.0
 44
0.9
  1
VLBS-U-LT 10t\PRUD
 40
6.0
 41
58.0
  0
MTEXT
  5
213
100
AcDbEntity
  8
0
100
AcDbMText
 62
5
  6
CONTINUOUS
  7
STANDARD
 71
2
 72
1
 10
265.8458615944
 20
212.7889895196
 30
0.0
 11
0.0
 21
1.0
 31
0.0
 44
0.9
  1
VLBS-U-LT 10t\PRUD
 40
6.0
 41
58.0
  0
LINE
  5
214
100
AcDbEntity
  8
0
100
AcDbLine
 62
7
  6
CONTINUOUS
 10
0.0
 20
0.0
 11
0.0
 21
297.0
  0
LINE
  5
215
100
AcDbEntity
  8
0
100
AcDbLine
 62
7
  6
CONTINUOUS
 10
0.0
 20
0.0
 11
420.0
 21
0.0
  0
LINE
  5
216
100
AcDbEntity
  8
0
100
AcDbLine
 62
7
  6
CONTINUOUS
 10
0.0
 20
297.0
 11
420.0
 21
297.0
  0
LINE
  5
217
100
AcDbEntity
  8
0
100
AcDbLine
 62
7
  6
CONTINUOUS
 10
420.0
 20
0.0
 11
420.0
 21
297.0
  0
LINE
  5
218
100
AcDbEntity
  8
KONSTRUKTIONSELEMENTE
100
AcDbLine
 62
7
  6
CONTINUOUS
 10
162.6719300519
 20
129.9006379738
 11
109.1186061077
 21
129.9006379738
  0
LINE
  5
219
100
AcDbEntity
  8
KONSTRUKTIONSELEMENTE
100
AcDbLine
 62
7
  6
CONTINUOUS
 10
106.6995105328
 20
132.9006379738
 11
165.0910256268
 21
132.9006379738
  0
LINE
  5
21A
100
AcDbEntity
  8
BEZUGSACHSEN
100
AcDbLine
 62
7
  6
CONTINUOUS
 10
77.3651723642
 20
133.4006379738
 11
106.5775658183
 21
133.4006379738
  0
LINE
  5
21B
100
AcDbEntity
  8
BEZUGSACHSEN
100
AcDbLine
 62
7
  6
CONTINUOUS
 10
165.2129855873
 20
133.4006379738
 11
194.4253637954
 21
133.4006379738
  0
LINE
  5
21C
100
AcDbEntity
  8
BEZUGSACHSEN
100
AcDbLine
 62
7
  6
CONTINUOUS
 10
131.846880178
 20
281.5953636521
 11
96.9009186804
 21
267.1202724497
  0
LINE
  5
21D
100
AcDbEntity
  8
BEZUGSACHSEN
100
AcDbLine
 62
7
  6
CONTINUOUS
 10
71.3786063355
 20
139.8019561903
 11
71.3781803846
 21
139.7955139487
  0
LINE
  5
21E
100
AcDbEntity
  8
BEZUGSACHSEN
100
AcDbLine
 62
7
  6
CONTINUOUS
 10
75.7158898438
 20
205.3862296586
 11
71.3782501957
 21
139.7965709835
  0
LINE
  5
21F
100
AcDbEntity
  8
BEZUGSACHSEN
100
AcDbLine
 62
7
  6
CONTINUOUS
 10
77.3471814165
 20
214.7351232954
 11
75.7821699782
 21
205.9314007784
  0
LINE
  5
220
100
AcDbEntity
  8
BEZUGSACHSEN
100
AcDbLine
 62
7
  6
CONTINUOUS
 10
91.1756336039
 20
261.3949873732
 11
76.7005424014
 21
226.4490258756
  0
LINE
  5
221
100
AcDbEntity
  8
0
100
AcDbLine
 62
7
  6
CONTINUOUS
 10
140.1494344683
 20
159.7691678403
 11
139.5661016913
 21
159.637665023
  0
LINE
  5
222
100
AcDbEntity
  8
KONSTRUKTIONSELEMENTE
100
AcDbLine
 62
7
  6
CONTINUOUS
 10
160.8952680798
 20
155.3430428261
 11
110.8952680798
 21
155.3430428261
  0
LINE
  5
223
100
AcDbEntity
  8
0
100
AcDbLine
 62
7
  6
CONTINUOUS
 10
139.5661016913
 20
159.0715162107
 11
138.6911016913
 21
159.0715162107
  0
LINE
  5
224
100
AcDbEntity
  8
0
100
AcDbLine
 62
7
  6
CONTINUOUS
 10
133.8786016913
 20
159.0715162107
 11
133.0036012741
 21
159.0715162107
  0
LINE
  5
225
100
AcDbEntity
  8
0
100
AcDbLine
 62
7
  6
CONTINUOUS
 10
139.5661016913
 20
159.637665023
 11
138.6911016913
 21
159.637665023
  0
LINE
  5
226
100
AcDbEntity
  8
0
100
AcDbLine
 62
7
  6
CONTINUOUS
 10
139.5661016913
 20
159.7795659449
 11
138.6911016913
 21
159.7795659449
  0
LINE
  5
227
100
AcDbEntity
  8
BEZUGSACHSEN
100
AcDbLine
 62
7
  6
CONTINUOUS
 10
76.7005424014
 20
218.3522500719
 11
77.0437574064
 21
217.5236557521
  0
LINE
  5
228
100
AcDbEntity
  8
0
100
AcDbLine
 62
7
  6
CONTINUOUS
 10
138.6911016913
 20
162.9252357319
 11
137.9619344683
 21
162.7937329146
  0
LINE
  5
229
100
AcDbEntity
  8
0
100
AcDbLine
 62
7
  6
CONTINUOUS
 10
137.3786016913
 20
160.5581848363
 11
136.6088853335
 21
160.5581848363
  0
LINE
  5
22A
100
AcDbEntity
  8
0
100
AcDbLine
 62
7
  6
CONTINUOUS
 10
137.3786016913
 20
160.7591753278
 11
136.5036016913
 21
160.7591753278
  0
LINE
  5
22B
100
AcDbEntity
  8
0
100
AcDbLine
 62
7
  6
CONTINUOUS
 10
135.3369344683
 20
161.0365819016
 11
133.8786016913
 21
161.0365819016
  0
LINE
  5
22C
100
AcDbEntity
  8
0
100
AcDbLine
 62
7
  6
CONTINUOUS
 10
133.0036012741
 20
161.0365819016
 11
129.5036014827
 21
161.0365819016
  0
LINE
  5
22D
100
AcDbEntity
  8
0
100
AcDbLine
 62
7
  6
CONTINUOUS
 10
128.3369346769
 20
161.4506339059
 11
126.2952680798
 21
161.4506339059
  0
LINE
  5
22E
100
AcDbEntity
  8
0
100
AcDbLine
 62
7
  6
CONTINUOUS
 10
135.3369344683
 20
161.6102075589
 11
133.8786016913
 21
161.6102075589
  0
LINE
  5
22F
100
AcDbEntity
  8
0
100
AcDbLine
 62
7
  6
CONTINUOUS
 10
133.0036012741
 20
161.6102075589
 11
130.5244348855
 21
161.6102075589
  0
LINE
  5
230
100
AcDbEntity
  8
0
100
AcDbLine
 62
7
  6
CONTINUOUS
 10
135.3369344683
 20
161.8622237395
 11
133.8786016913
 21
161.8622237395
  0
LINE
  5
231
100
AcDbEntity
  8
0
100
AcDbLine
 62
7
  6
CONTINUOUS
 10
133.0036012741
 20
161.8622237395
 11
130.5244348855
 21
161.8622237395
  0
LINE
  5
232
100
AcDbEntity
  8
0
100
AcDbLine
 62
7
  6
CONTINUOUS
 10
128.3369346769
 20
161.8732131935
 11
126.2952680798
 21
161.8732131935
  0
LINE
  5
233
100
AcDbEntity
  8
0
100
AcDbLine
 62
7
  6
CONTINUOUS
 10
137.5244344683
 20
161.9988743336
 11
136.5036016913
 21
161.9988743336
  0
LINE
  5
234
100
AcDbEntity
  8
0
100
AcDbLine
 62
7
  6
CONTINUOUS
 10
128.3369346769
 20
162.1352523512
 11
126.2952680798
 21
162.1352523512
  0
LINE
  5
235
100
AcDbEntity
  8
0
100
AcDbLine
 62
7
  6
CONTINUOUS
 10
139.5661016913
 20
162.5427530925
 11
138.6911016913
 21
162.5427530925
  0
LINE
  5
236
100
AcDbEntity
  8
0
100
AcDbLine
 62
7
  6
CONTINUOUS
 10
139.5661016913
 20
162.9252357319
 11
138.6911016913
 21
162.9252357319
  0
LINE
  5
237
100
AcDbEntity
  8
0
100
AcDbLine
 62
7
  6
CONTINUOUS
 10
139.5661016913
 20
163.2164876329
 11
138.6911016913
 21
163.2164876329
  0
LINE
  5
238
100
AcDbEntity
  8
0
100
AcDbLine
 62
7
  6
CONTINUOUS
 10
146.6390180798
 20
163.916616083
 11
146.2015180798
 21
163.916616083
  0
LINE
  5
239
100
AcDbEntity
  8
0
100
AcDbLine
 62
7
  6
CONTINUOUS
 10
141.4619353028
 20
164.8058214824
 11
137.2327680798
 21
164.8058214824
  0
LINE
  5
23A
100
AcDbEntity
  8
0
100
AcDbLine
 62
7
  6
CONTINUOUS
 10
146.6390180798
 20
165.1607839944
 11
146.2015180798
 21
165.1607839944
  0
LINE
  5
23B
100
AcDbEntity
  8
0
100
AcDbLine
 62
7
  6
CONTINUOUS
 10
141.4619353028
 20
165.1607839944
 11
136.5036016913
 21
165.1607839944
  0
LINE
  5
23C
100
AcDbEntity
  8
0
100
AcDbLine
 62
7
  6
CONTINUOUS
 10
133.8786016913
 20
165.1607839944
 11
133.0036012741
 21
165.1607839944
  0
LINE
  5
23D
100
AcDbEntity
  8
0
100
AcDbLine
 62
7
  6
CONTINUOUS
 10
146.6390180798
 20
165.4565447077
 11
146.2015180798
 21
165.4565447077
  0
LINE
  5
23E
100
AcDbEntity
  8
0
100
AcDbLine
 62
7
  6
CONTINUOUS
 10
141.4619353028
 20
165.4565447077
 11
136.5036016913
 21
165.4565447077
  0
LINE
  5
23F
100
AcDbEntity
  8
0
100
AcDbLine
 62
7
  6
CONTINUOUS
 10
133.8786016913
 20
165.4565447077
 11
133.0036012741
 21
165.4565447077
  0
LINE
  5
240
100
AcDbEntity
  8
0
100
AcDbLine
 62
7
  6
CONTINUOUS
 10
140.2952680798
 20
162.7937329146
 11
139.5661016913
 21
162.9252357319
  0
LINE
  5
241
100
AcDbEntity
  8
0
100
AcDbLine
 62
7
  6
CONTINUOUS
 10
138.6911016913
 20
159.637665023
 11
138.1077680798
 21
159.7691678403
  0
LINE
  5
242
100
AcDbEntity
  8
BEZUGSACHSEN
100
AcDbLine
 62
7
  6
CONTINUOUS
 10
102.3952680798
 20
170.9006379738
 11
102.3952680798
 21
182.990544002
  0
LINE
  5
243
100
AcDbEntity
  8
BEZUGSACHSEN
100
AcDbLine
 62
7
  6
CONTINUOUS
 10
102.3952680798
 20
216.0918730027
 11
102.3952680798
 21
222.4006379738
  0
LINE
  5
244
100
AcDbEntity
  8
0
100
AcDbLine
 62
7
  6
CONTINUOUS
 10
141.0244353028
 20
162.3992244627
 11
140.2952680798
 21
162.7937329146
  0
LINE
  5
245
100
AcDbEntity
  8
0
100
AcDbLine
 62
7
  6
CONTINUOUS
 10
138.1077680798
 20
159.7691678403
 11
137.6702680798
 21
160.0321734749
  0
LINE
  5
246
100
AcDbEntity
  8
0
100
AcDbLine
 62
7
  6
CONTINUOUS
 10
105.8952680798
 20
179.9006379738
 11
105.8952680798
 21
148.0226137051
  0
LINE
  5
247
100
AcDbEntity
  8
KONSTRUKTIONSELEMENTE
100
AcDbLine
 62
7
  6
CONTINUOUS
 10
105.8952680798
 20
148.0226195083
 11
105.8952680798
 21
139.2414173151
  0
LINE
  5
248
100
AcDbEntity
  8
0
100
AcDbLine
 62
7
  6
CONTINUOUS
 10
119.4076831351
 20
185.3753370785
 11
119.3901392104
 21
185.3865007961
  0
LINE
  5
249
100
AcDbEntity
  8
0
100
AcDbLine
 62
7
  6
CONTINUOUS
 10
112.4252271507
 20
185.0915929891
 11
112.4076832103
 21
185.1345216179
  0
LINE
  5
24A
100
AcDbEntity
  8
0
100
AcDbLine
 62
7
  6
CONTINUOUS
 10
112.4078226378
 20
184.6310540242
 11
112.4252271507
 21
184.5875467253
  0
LINE
  5
24B
100
AcDbEntity
  8
0
100
AcDbLine
 62
7
  6
CONTINUOUS
 10
112.4076831805
 20
184.629074672
 11
112.4076831805
 21
185.0915929891
  0
LINE
  5
24C
100
AcDbEntity
  8
0
100
AcDbLine
 62
7
  6
CONTINUOUS
 10
112.4076831805
 20
185.1345216179
 11
112.4076831805
 21
185.3737837543
  0
LINE
  5
24D
100
AcDbEntity
  8
0
100
AcDbLine
 62
7
  6
CONTINUOUS
 10
112.4252271507
 20
185.3865007961
 11
112.4252271507
 21
185.1706189111
  0
LINE
  5
24E
100
AcDbEntity
  8
0
100
AcDbLine
 62
7
  6
CONTINUOUS
 10
112.4252271507
 20
185.0915929891
 11
112.4252271507
 21
184.5875467253
  0
LINE
  5
24F
100
AcDbEntity
  8
0
100
AcDbLine
 62
7
  6
CONTINUOUS
 10
113.4828120499
 20
185.3865007961
 11
113.4828120499
 21
185.3474709316
  0
LINE
  5
250
100
AcDbEntity
  8
0
100
AcDbLine
 62
7
  6
CONTINUOUS
 10
113.4828120499
 20
185.0915929891
 11
113.4828120499
 21
184.5875467253
  0
LINE
  5
251
100
AcDbEntity
  8
0
100
AcDbLine
 62
7
  6
CONTINUOUS
 10
115.3776831805
 20
184.6708613857
 11
115.3776831805
 21
185.340886795
  0
LINE
  5
252
100
AcDbEntity
  8
0
100
AcDbLine
 62
7
  6
CONTINUOUS
 10
116.4352680798
 20
184.6708613857
 11
116.4352680798
 21
185.3409163761
  0
LINE
  5
253
100
AcDbEntity
  8
0
100
AcDbLine
 62
7
  6
CONTINUOUS
 10
123.5576831805
 20
185.4004988644
 11
123.5754140588
 21
185.4006379595
  0
LINE
  5
254
100
AcDbEntity
  8
0
100
AcDbLine
 62
7
  6
CONTINUOUS
 10
141.6393105306
 20
180.8835321932
 11
140.6286723532
 21
180.8835321932
  0
LINE
  5
255
100
AcDbEntity
  8
0
100
AcDbLine
 62
7
  6
CONTINUOUS
 10
141.6393105306
 20
181.4409004407
 11
140.6286723532
 21
181.4409004407
  0
LINE
  5
256
100
AcDbEntity
  8
0
100
AcDbLine
 62
7
  6
CONTINUOUS
 10
141.4371828951
 20
181.9966458258
 11
140.8307999887
 21
181.9966458258
  0
LINE
  5
257
100
AcDbEntity
  8
0
100
AcDbLine
 62
7
  6
CONTINUOUS
 10
145.4797358878
 20
183.1175861288
 11
145.0754806169
 21
183.1175861288
  0
LINE
  5
258
100
AcDbEntity
  8
0
100
AcDbLine
 62
7
  6
CONTINUOUS
 10
130.0257680821
 20
183.6346715519
 11
129.2172575402
 21
183.6346715519
  0
LINE
  5
259
100
AcDbEntity
  8
0
100
AcDbLine
 62
7
  6
CONTINUOUS
 10
145.4797358878
 20
183.6415332613
 11
145.0754806169
 21
183.6415332613
  0
LINE
  5
25A
100
AcDbEntity
  8
0
100
AcDbLine
 62
7
  6
CONTINUOUS
 10
124.3661937932
 20
183.7365231657
 11
123.5576831805
 21
183.7365231657
  0
LINE
  5
25B
100
AcDbEntity
  8
0
100
AcDbLine
 62
7
  6
CONTINUOUS
 10
156.4752680798
 20
183.8969627937
 11
154.2552680798
 21
183.8969627937
  0
LINE
  5
25C
100
AcDbEntity
  8
0
100
AcDbLine
 62
7
  6
CONTINUOUS
 10
145.6818640895
 20
183.990245667
 11
144.8733529814
 21
183.990245667
  0
LINE
  5
25D
100
AcDbEntity
  8
0
100
AcDbLine
 62
7
  6
CONTINUOUS
 10
145.6818640895
 20
184.0137106472
 11
144.8733529814
 21
184.0137106472
  0
LINE
  5
25E
100
AcDbEntity
  8
0
100
AcDbLine
 62
7
  6
CONTINUOUS
 10
141.6393105306
 20
184.0137106472
 11
141.0329276241
 21
184.0137106472
  0
LINE
  5
25F
100
AcDbEntity
  8
0
100
AcDbLine
 62
7
  6
CONTINUOUS
 10
131.6427897322
 20
184.1401150026
 11
130.0257680821
 21
184.1401150026
  0
LINE
  5
260
100
AcDbEntity
  8
0
100
AcDbLine
 62
7
  6
CONTINUOUS
 10
129.2172575402
 20
184.1401150026
 11
125.5789598184
 21
184.1401150026
  0
LINE
  5
261
100
AcDbEntity
  8
0
100
AcDbLine
 62
7
  6
CONTINUOUS
 10
130.0257680821
 20
184.151442687
 11
129.2172575402
 21
184.151442687
  0
LINE
  5
262
100
AcDbEntity
  8
0
100
AcDbLine
 62
7
  6
CONTINUOUS
 10
157.6752680798
 20
184.2356003102
 11
152.537678045
 21
184.2356003102
  0
LINE
  5
263
100
AcDbEntity
  8
0
100
AcDbLine
 62
7
  6
CONTINUOUS
 10
124.3661937932
 20
184.2519037791
 11
123.5576831805
 21
184.2519037791
  0
LINE
  5
264
100
AcDbEntity
  8
0
100
AcDbLine
 62
7
  6
CONTINUOUS
 10
145.6818640895
 20
184.5253443456
 11
144.8733529814
 21
184.5253443456
  0
LINE
  5
265
100
AcDbEntity
  8
0
100
AcDbLine
 62
7
  6
CONTINUOUS
 10
141.6393105306
 20
184.5253443456
 11
140.6286723532
 21
184.5253443456
  0
LINE
  5
266
100
AcDbEntity
  8
0
100
AcDbLine
 62
7
  6
CONTINUOUS
 10
119.3901392104
 20
184.5875467253
 11
118.3325543111
 21
184.5875467253
  0
LINE
  5
267
100
AcDbEntity
  8
0
100
AcDbLine
 62
7
  6
CONTINUOUS
 10
113.4828120499
 20
184.5875467253
 11
112.4252271507
 21
184.5875467253
  0
LINE
  5
268
100
AcDbEntity
  8
0
100
AcDbLine
 62
7
  6
CONTINUOUS
 10
131.6427897322
 20
184.6500579224
 11
130.0257680821
 21
184.6500579224
  0
LINE
  5
269
100
AcDbEntity
  8
0
100
AcDbLine
 62
7
  6
CONTINUOUS
 10
129.2172575402
 20
184.6500579224
 11
125.5789598184
 21
184.6500579224
  0
LINE
  5
26A
100
AcDbEntity
  8
0
100
AcDbLine
 62
7
  6
CONTINUOUS
 10
116.4352680798
 20
184.6708613857
 11
115.3776831805
 21
184.6708613857
  0
LINE
  5
26B
100
AcDbEntity
  8
0
100
AcDbLine
 62
7
  6
CONTINUOUS
 10
158.2752680798
 20
184.7389266028
 11
157.6752680798
 21
184.7389266028
  0
LINE
  5
26C
100
AcDbEntity
  8
0
100
AcDbLine
 62
7
  6
CONTINUOUS
 10
157.6752680798
 20
184.7442733648
 11
152.4552680798
 21
184.7442733648
  0
LINE
  5
26D
100
AcDbEntity
  8
0
100
AcDbLine
 62
7
  6
CONTINUOUS
 10
145.4797358878
 20
184.7620335876
 11
145.0754806169
 21
184.7620335876
  0
LINE
  5
26E
100
AcDbEntity
  8
0
100
AcDbLine
 62
7
  6
CONTINUOUS
 10
141.4371828951
 20
184.7620335876
 11
140.8307999887
 21
184.7620335876
  0
LINE
  5
26F
100
AcDbEntity
  8
0
100
AcDbLine
 62
7
  6
CONTINUOUS
 10
131.6427897322
 20
184.8338186254
 11
130.0257680821
 21
184.8338186254
  0
LINE
  5
270
100
AcDbEntity
  8
0
100
AcDbLine
 62
7
  6
CONTINUOUS
 10
129.2172575402
 20
184.8338186254
 11
125.1747044059
 21
184.8338186254
  0
LINE
  5
271
100
AcDbEntity
  8
0
100
AcDbLine
 62
7
  6
CONTINUOUS
 10
146.3592783167
 20
184.8443647637
 11
144.1959387542
 21
184.8443647637
  0
LINE
  5
272
100
AcDbEntity
  8
0
100
AcDbLine
 62
7
  6
CONTINUOUS
 10
142.3167250409
 20
184.8443647637
 11
139.9512580304
 21
184.8443647637
  0
LINE
  5
273
100
AcDbEntity
  8
KONSTRUKTIONSELEMENTE
100
AcDbLine
 62
7
  6
CONTINUOUS
 10
160.8952680798
 20
184.9006379738
 11
159.7752680798
 21
184.9006379738
  0
LINE
  5
274
100
AcDbEntity
  8
KONSTRUKTIONSELEMENTE
100
AcDbLine
 62
7
  6
CONTINUOUS
 10
150.9552680798
 20
184.9006379738
 11
147.9052680798
 21
184.9006379738
  0
LINE
  5
275
100
AcDbEntity
  8
KONSTRUKTIONSELEMENTE
100
AcDbLine
 62
7
  6
CONTINUOUS
 10
138.4052680798
 20
184.9006379738
 11
133.0399530946
 21
184.9006379738
  0
LINE
  5
276
100
AcDbEntity
  8
KONSTRUKTIONSELEMENTE
100
AcDbLine
 62
7
  6
CONTINUOUS
 10
123.575413268
 20
184.9006379738
 11
119.4076831805
 21
184.9006379738
  0
LINE
  5
277
100
AcDbEntity
  8
KONSTRUKTIONSELEMENTE
100
AcDbLine
 62
7
  6
CONTINUOUS
 10
112.4076831805
 20
184.9006379738
 11
110.8952680798
 21
184.9006379738
  0
LINE
  5
278
100
AcDbEntity
  8
0
100
AcDbLine
 62
7
  6
CONTINUOUS
 10
159.7752680798
 20
185.0353940232
 11
158.2752680798
 21
185.0353940232
  0
LINE
  5
279
100
AcDbEntity
  8
0
100
AcDbLine
 62
7
  6
CONTINUOUS
 10
157.6752680798
 20
185.0353940232
 11
150.9552680798
 21
185.0353940232
  0
LINE
  5
27A
100
AcDbEntity
  8
0
100
AcDbLine
 62
7
  6
CONTINUOUS
 10
130.0257680821
 20
185.0733879848
 11
129.2172575402
 21
185.0733879848
  0
LINE
  5
27B
100
AcDbEntity
  8
0
100
AcDbLine
 62
7
  6
CONTINUOUS
 10
119.3901392104
 20
185.0915929891
 11
118.3325543111
 21
185.0915929891
  0
LINE
  5
27C
100
AcDbEntity
  8
0
100
AcDbLine
 62
7
  6
CONTINUOUS
 10
113.4828120499
 20
185.0915929891
 11
112.4252271507
 21
185.0915929891
  0
LINE
  5
27D
100
AcDbEntity
  8
0
100
AcDbLine
 62
7
  6
CONTINUOUS
 10
116.4352680798
 20
185.1738245851
 11
115.3776831805
 21
185.1738245851
  0
LINE
  5
27E
100
AcDbEntity
  8
0
100
AcDbLine
 62
7
  6
CONTINUOUS
 10
159.7752680798
 20
185.241008402
 11
154.4802680798
 21
185.241008402
  0
LINE
  5
27F
100
AcDbEntity
  8
0
100
AcDbLine
 62
7
  6
CONTINUOUS
 10
129.2172575402
 20
185.2470011648
 11
127.3981088209
 21
185.2470011648
  0
LINE
  5
280
100
AcDbEntity
  8
0
100
AcDbLine
 62
7
  6
CONTINUOUS
 10
129.0151299047
 20
185.3224220212
 11
127.6002364563
 21
185.3224220212
  0
LINE
  5
281
100
AcDbEntity
  8
0
100
AcDbLine
 62
7
  6
CONTINUOUS
 10
146.6925022669
 20
185.3450872509
 11
143.862714804
 21
185.3450872509
  0
LINE
  5
282
100
AcDbEntity
  8
0
100
AcDbLine
 62
7
  6
CONTINUOUS
 10
142.6499489911
 20
185.3450872509
 11
139.6180340342
 21
185.3450872509
  0
LINE
  5
283
100
AcDbEntity
  8
0
100
AcDbLine
 62
7
  6
CONTINUOUS
 10
159.7752680798
 20
185.3624702587
 11
154.4802680798
 21
185.3624702587
  0
LINE
  5
284
100
AcDbEntity
  8
0
100
AcDbLine
 62
7
  6
CONTINUOUS
 10
119.3901392104
 20
185.3865007961
 11
118.3325543111
 21
185.3865007961
  0
LINE
  5
285
100
AcDbEntity
  8
0
100
AcDbLine
 62
7
  6
CONTINUOUS
 10
113.4828120499
 20
185.3865007961
 11
112.4252271507
 21
185.3865007961
  0
LINE
  5
286
100
AcDbEntity
  8
0
100
AcDbLine
 62
7
  6
CONTINUOUS
 10
147.9052680798
 20
185.390405301
 11
138.4052680798
 21
185.390405301
  0
LINE
  5
287
100
AcDbEntity
  8
0
100
AcDbLine
 62
7
  6
CONTINUOUS
 10
139.6180340342
 20
185.3945336499
 11
138.4052680798
 21
185.3945336499
  0
LINE
  5
288
100
AcDbEntity
  8
0
100
AcDbLine
 62
7
  6
CONTINUOUS
 10
152.7552680798
 20
185.4006379738
 11
150.9552680806
 21
185.4006379738
  0
LINE
  5
289
100
AcDbEntity
  8
0
100
AcDbLine
 62
7
  6
CONTINUOUS
 10
132.855555545
 20
185.4006379738
 11
132.0257685043
 21
185.4006379738
  0
LINE
  5
28A
100
AcDbEntity
  8
0
100
AcDbLine
 62
7
  6
CONTINUOUS
 10
124.5895979983
 20
185.4006379738
 11
123.7598108337
 21
185.4006379738
  0
LINE
  5
28B
100
AcDbEntity
  8
0
100
AcDbLine
 62
7
  6
CONTINUOUS
 10
133.0399523038
 20
185.4006379595
 11
133.0576831805
 21
185.4004988644
  0
LINE
  5
28C
100
AcDbEntity
  8
0
100
AcDbLine
 62
7
  6
CONTINUOUS
 10
141.4619353028
 20
161.8732131935
 11
141.0244353028
 21
162.3992244627
  0
LINE
  5
28D
100
AcDbEntity
  8
0
100
AcDbLine
 62
7
  6
CONTINUOUS
 10
137.6702680798
 20
160.0321734749
 11
137.3786016913
 21
160.5581848363
  0
LINE
  5
28E
100
AcDbEntity
  8
0
100
AcDbLine
 62
7
  6
CONTINUOUS
 10
118.3325543111
 20
185.3865007961
 11
118.3325543111
 21
185.3474708784
  0
LINE
  5
28F
100
AcDbEntity
  8
0
100
AcDbLine
 62
7
  6
CONTINUOUS
 10
118.3325543111
 20
185.0915929891
 11
118.3325543111
 21
184.5875467253
  0
LINE
  5
290
100
AcDbEntity
  8
0
100
AcDbLine
 62
7
  6
CONTINUOUS
 10
119.3901392104
 20
185.3865007961
 11
119.3901392104
 21
185.1706361255
  0
LINE
  5
291
100
AcDbEntity
  8
0
100
AcDbLine
 62
7
  6
CONTINUOUS
 10
119.3901392104
 20
185.0915929891
 11
119.3901392104
 21
184.5875467253
  0
LINE
  5
292
100
AcDbEntity
  8
0
100
AcDbLine
 62
7
  6
CONTINUOUS
 10
119.4076831805
 20
184.6290687101
 11
119.4076831805
 21
185.0915929891
  0
LINE
  5
293
100
AcDbEntity
  8
0
100
AcDbLine
 62
7
  6
CONTINUOUS
 10
119.4076831805
 20
185.1325671672
 11
119.4076831805
 21
185.3737846959
  0
LINE
  5
294
100
AcDbEntity
  8
BEZUGSACHSEN
100
AcDbLine
 62
7
  6
CONTINUOUS
 10
164.3952680798
 20
187.3006379738
 11
156.0134190883
 21
187.3006379738
  0
LINE
  5
295
100
AcDbEntity
  8
BEZUGSACHSEN
100
AcDbLine
 62
7
  6
CONTINUOUS
 10
107.3952680798
 20
187.3006379738
 11
115.7771170713
 21
187.3006379738
  0
LINE
  5
296
100
AcDbEntity
  8
0
100
AcDbLine
 62
7
  6
CONTINUOUS
 10
147.0765180798
 20
164.6457313547
 11
146.6390180798
 21
165.1607839944
  0
LINE
  5
297
100
AcDbEntity
  8
0
100
AcDbLine
 62
7
  6
CONTINUOUS
 10
141.7536008568
 20
161.2156989228
 11
141.4619353028
 21
161.8732131935
  0
LINE
  5
298
100
AcDbEntity
  8
0
100
AcDbLine
 62
7
  6
CONTINUOUS
 10
123.5576831805
 20
185.4004988644
 11
123.5576831805
 21
184.9004970559
  0
LINE
  5
299
100
AcDbEntity
  8
0
100
AcDbLine
 62
7
  6
CONTINUOUS
 10
123.5576831805
 20
184.2519037791
 11
123.5576831805
 21
183.7365231657
  0
LINE
  5
29A
100
AcDbEntity
  8
0
100
AcDbLine
 62
7
  6
CONTINUOUS
 10
123.7598108337
 20
185.3855887687
 11
123.7598108337
 21
184.8853932475
  0
LINE
  5
29B
100
AcDbEntity
  8
0
100
AcDbLine
 62
7
  6
CONTINUOUS
 10
124.3661937932
 20
185.3455094581
 11
124.3661937932
 21
184.84479247
  0
LINE
  5
29C
100
AcDbEntity
  8
0
100
AcDbLine
 62
7
  6
CONTINUOUS
 10
124.3661937932
 20
184.2519037791
 11
124.3661937932
 21
183.7365231657
  0
LINE
  5
29D
100
AcDbEntity
  8
0
100
AcDbLine
 62
7
  6
CONTINUOUS
 10
124.5683214995
 20
184.4839015017
 11
124.5683214995
 21
183.9717034489
  0
LINE
  5
29E
100
AcDbEntity
  8
0
100
AcDbLine
 62
7
  6
CONTINUOUS
 10
124.9725767704
 20
185.3093630477
 11
124.9725767704
 21
184.8081748237
  0
LINE
  5
29F
100
AcDbEntity
  8
0
100
AcDbLine
 62
7
  6
CONTINUOUS
 10
124.9725767704
 20
184.6101242795
 11
124.9725767704
 21
184.0996411933
  0
LINE
  5
2A0
100
AcDbEntity
  8
0
100
AcDbLine
 62
7
  6
CONTINUOUS
 10
125.5789598184
 20
184.6500579224
 11
125.5789598184
 21
184.1401150026
  0
LINE
  5
2A1
100
AcDbEntity
  8
0
100
AcDbLine
 62
7
  6
CONTINUOUS
 10
125.7810874539
 20
185.2802096503
 11
125.7810874539
 21
184.8338186254
  0
LINE
  5
2A2
100
AcDbEntity
  8
0
100
AcDbLine
 62
7
  6
CONTINUOUS
 10
126.2952680798
 20
161.4506339059
 11
126.2952680798
 21
162.1352523512
  0
LINE
  5
2A3
100
AcDbEntity
  8
0
100
AcDbLine
 62
7
  6
CONTINUOUS
 10
126.3874703604
 20
185.264112866
 11
126.3874703604
 21
184.8338186254
  0
LINE
  5
2A4
100
AcDbEntity
  8
0
100
AcDbLine
 62
7
  6
CONTINUOUS
 10
127.3981088209
 20
185.2470011648
 11
127.3981088209
 21
184.8338186254
  0
LINE
  5
2A5
100
AcDbEntity
  8
0
100
AcDbLine
 62
7
  6
CONTINUOUS
 10
128.3369346769
 20
161.4506339059
 11
128.3369346769
 21
162.1352523512
  0
LINE
  5
2A6
100
AcDbEntity
  8
0
100
AcDbLine
 62
7
  6
CONTINUOUS
 10
129.2172575402
 20
183.6346715519
 11
129.2172575402
 21
184.6500579224
  0
LINE
  5
2A7
100
AcDbEntity
  8
0
100
AcDbLine
 62
7
  6
CONTINUOUS
 10
129.2172575402
 20
184.8338186254
 11
129.2172575402
 21
185.2470011648
  0
LINE
  5
2A8
100
AcDbEntity
  8
0
100
AcDbLine
 62
7
  6
CONTINUOUS
 10
129.5036014827
 20
161.0365819016
 11
129.5036014827
 21
161.8622237395
  0
LINE
  5
2A9
100
AcDbEntity
  8
0
100
AcDbLine
 62
7
  6
CONTINUOUS
 10
130.0257680821
 20
183.6346715519
 11
130.0257680821
 21
184.6500579224
  0
LINE
  5
2AA
100
AcDbEntity
  8
0
100
AcDbLine
 62
7
  6
CONTINUOUS
 10
130.0257680821
 20
184.8338186254
 11
130.0257680821
 21
185.0733879848
  0
LINE
  5
2AB
100
AcDbEntity
  8
0
100
AcDbLine
 62
7
  6
CONTINUOUS
 10
119.3901392104
 20
184.5875467253
 11
119.4074577518
 21
184.6310859524
  0
LINE
  5
2AC
100
AcDbEntity
  8
0
100
AcDbLine
 62
7
  6
CONTINUOUS
 10
119.4076831565
 20
185.1345176317
 11
119.3901392104
 21
185.0915929891
  0
LINE
  5
2AD
100
AcDbEntity
  8
0
100
AcDbLine
 62
7
  6
CONTINUOUS
 10
130.2278957176
 20
185.264112866
 11
130.2278957176
 21
184.8338186254
  0
LINE
  5
2AE
100
AcDbEntity
  8
0
100
AcDbLine
 62
7
  6
CONTINUOUS
 10
130.5244348855
 20
161.8622237395
 11
130.5244348855
 21
161.6102075589
  0
LINE
  5
2AF
100
AcDbEntity
  8
0
100
AcDbLine
 62
7
  6
CONTINUOUS
 10
130.8342791903
 20
185.2802096503
 11
130.8342791903
 21
184.8338186254
  0
LINE
  5
2B0
100
AcDbEntity
  8
0
100
AcDbLine
 62
7
  6
CONTINUOUS
 10
131.6427897322
 20
184.1401150026
 11
131.6427897322
 21
185.3093630477
  0
LINE
  5
2B1
100
AcDbEntity
  8
0
100
AcDbLine
 62
7
  6
CONTINUOUS
 10
132.2491726386
 20
185.3455094581
 11
132.2491726386
 21
184.84479247
  0
LINE
  5
2B2
100
AcDbEntity
  8
0
100
AcDbLine
 62
7
  6
CONTINUOUS
 10
132.855555545
 20
185.3855887687
 11
132.855555545
 21
184.8853932475
  0
LINE
  5
2B3
100
AcDbEntity
  8
0
100
AcDbLine
 62
7
  6
CONTINUOUS
 10
133.0036012741
 20
165.4565447077
 11
133.0036012741
 21
165.1607839944
  0
LINE
  5
2B4
100
AcDbEntity
  8
0
100
AcDbLine
 62
7
  6
CONTINUOUS
 10
133.0036012741
 20
159.0715162107
 11
133.0036012741
 21
161.0365819016
  0
LINE
  5
2B5
100
AcDbEntity
  8
0
100
AcDbLine
 62
7
  6
CONTINUOUS
 10
133.0036012741
 20
161.6102075589
 11
133.0036012741
 21
164.4121407464
  0
LINE
  5
2B6
100
AcDbEntity
  8
0
100
AcDbLine
 62
7
  6
CONTINUOUS
 10
133.0576831805
 20
185.4004988626
 11
133.0576831805
 21
184.9004970559
  0
LINE
  5
2B7
100
AcDbEntity
  8
0
100
AcDbLine
 62
7
  6
CONTINUOUS
 10
133.8786016913
 20
159.0715162107
 11
133.8786016913
 21
161.0365819016
  0
LINE
  5
2B8
100
AcDbEntity
  8
0
100
AcDbLine
 62
7
  6
CONTINUOUS
 10
133.8786016913
 20
161.6102075589
 11
133.8786016913
 21
165.4565447077
  0
LINE
  5
2B9
100
AcDbEntity
  8
0
100
AcDbLine
 62
7
  6
CONTINUOUS
 10
135.3369344683
 20
161.0365819016
 11
135.3369344683
 21
161.8622237395
  0
LINE
  5
2BA
100
AcDbEntity
  8
0
100
AcDbLine
 62
7
  6
CONTINUOUS
 10
136.5036016913
 20
161.9988743336
 11
136.5036016913
 21
165.4565447077
  0
LINE
  5
2BB
100
AcDbEntity
  8
0
100
AcDbLine
 62
7
  6
CONTINUOUS
 10
137.2327680798
 20
162.3992244627
 11
137.2327680798
 21
164.8058214824
  0
LINE
  5
2BC
100
AcDbEntity
  8
0
100
AcDbLine
 62
7
  6
CONTINUOUS
 10
137.3786016913
 20
160.7591753278
 11
137.3786016913
 21
160.5581848363
  0
LINE
  5
2BD
100
AcDbEntity
  8
0
100
AcDbLine
 62
7
  6
CONTINUOUS
 10
137.6702680798
 20
160.2010575049
 11
137.6702680798
 21
160.0321734749
  0
LINE
  5
2BE
100
AcDbEntity
  8
0
100
AcDbLine
 62
7
  6
CONTINUOUS
 10
137.9619344683
 20
163.0822833206
 11
137.9619344683
 21
162.7937329146
  0
LINE
  5
2BF
100
AcDbEntity
  8
0
100
AcDbLine
 62
7
  6
CONTINUOUS
 10
138.1077680798
 20
159.9203404337
 11
138.1077680798
 21
159.7691678403
  0
LINE
  5
2C0
100
AcDbEntity
  8
0
100
AcDbLine
 62
7
  6
CONTINUOUS
 10
138.4052680798
 20
182.2045673802
 11
138.4052680798
 21
183.3192598848
  0
LINE
  5
2C1
100
AcDbEntity
  8
0
100
AcDbLine
 62
7
  6
CONTINUOUS
 10
138.4052680798
 20
184.4847919012
 11
138.4052680798
 21
185.390405301
  0
LINE
  5
2C2
100
AcDbEntity
  8
0
100
AcDbLine
 62
7
  6
CONTINUOUS
 10
138.607395733
 20
184.8324532641
 11
138.607395733
 21
184.3249629712
  0
LINE
  5
2C3
100
AcDbEntity
  8
0
100
AcDbLine
 62
7
  6
CONTINUOUS
 10
138.607395733
 20
182.3405799978
 11
138.607395733
 21
181.7973812235
  0
LINE
  5
2C4
100
AcDbEntity
  8
0
100
AcDbLine
 62
7
  6
CONTINUOUS
 10
138.6911016913
 20
163.2164876329
 11
138.6911016913
 21
162.9252357319
  0
LINE
  5
2C5
100
AcDbEntity
  8
0
100
AcDbLine
 62
7
  6
CONTINUOUS
 10
138.6911016913
 20
159.7795659449
 11
138.6911016913
 21
159.637665023
  0
LINE
  5
2C6
100
AcDbEntity
  8
0
100
AcDbLine
 62
7
  6
CONTINUOUS
 10
139.011651057
 20
181.9966458258
 11
139.011651057
 21
181.4481168417
  0
LINE
  5
2C7
100
AcDbEntity
  8
0
100
AcDbLine
 62
7
  6
CONTINUOUS
 10
139.2137786925
 20
184.6873922253
 11
139.2137786925
 21
184.1779532716
  0
LINE
  5
2C8
100
AcDbEntity
  8
0
100
AcDbLine
 62
7
  6
CONTINUOUS
 10
139.5661016913
 20
163.2164876329
 11
139.5661016913
 21
162.9252357319
  0
LINE
  5
2C9
100
AcDbEntity
  8
0
100
AcDbLine
 62
7
  6
CONTINUOUS
 10
139.5661016913
 20
159.7795659449
 11
139.5661016913
 21
159.637665023
  0
LINE
  5
2CA
100
AcDbEntity
  8
0
100
AcDbLine
 62
7
  6
CONTINUOUS
 10
139.6180340342
 20
182.7416803493
 11
139.6180340342
 21
183.3192598848
  0
LINE
  5
2CB
100
AcDbEntity
  8
0
100
AcDbLine
 62
7
  6
CONTINUOUS
 10
139.6180340342
 20
184.9607183476
 11
139.6180340342
 21
185.3450872509
  0
LINE
  5
2CC
100
AcDbEntity
  8
0
100
AcDbLine
 62
7
  6
CONTINUOUS
 10
139.8201616697
 20
183.5794094494
 11
139.8201616697
 21
183.0545743031
  0
LINE
  5
2CD
100
AcDbEntity
  8
0
100
AcDbLine
 62
7
  6
CONTINUOUS
 10
139.8201616697
 20
181.6315710792
 11
139.8201616697
 21
181.0772676756
  0
LINE
  5
2CE
100
AcDbEntity
  8
0
100
AcDbLine
 62
7
  6
CONTINUOUS
 10
140.0222893052
 20
184.5674601947
 11
140.0222893052
 21
184.0563987342
  0
LINE
  5
2CF
100
AcDbEntity
  8
0
100
AcDbLine
 62
7
  6
CONTINUOUS
 10
140.1494344683
 20
159.9203404337
 11
140.1494344683
 21
159.7691678403
  0
LINE
  5
2D0
100
AcDbEntity
  8
0
100
AcDbLine
 62
7
  6
CONTINUOUS
 10
140.2952680798
 20
163.0822833206
 11
140.2952680798
 21
162.7937329146
  0
LINE
  5
2D1
100
AcDbEntity
  8
0
100
AcDbLine
 62
7
  6
CONTINUOUS
 10
140.4265447177
 20
183.7623265732
 11
140.4265447177
 21
183.2400974568
  0
LINE
  5
2D2
100
AcDbEntity
  8
0
100
AcDbLine
 62
7
  6
CONTINUOUS
 10
140.5869353028
 20
160.2010575049
 11
140.5869353028
 21
160.0321734749
  0
LINE
  5
2D3
100
AcDbEntity
  8
0
100
AcDbLine
 62
7
  6
CONTINUOUS
 10
140.6286723532
 20
184.5253443456
 11
140.6286723532
 21
184.1235602195
  0
LINE
  5
2D4
100
AcDbEntity
  8
0
100
AcDbLine
 62
7
  6
CONTINUOUS
 10
140.6286723532
 20
181.4409004407
 11
140.6286723532
 21
180.8835321932
  0
LINE
  5
2D5
100
AcDbEntity
  8
0
100
AcDbLine
 62
7
  6
CONTINUOUS
 10
140.8786008568
 20
160.6200594986
 11
140.8786008568
 21
160.426682019
  0
LINE
  5
2D6
100
AcDbEntity
  8
0
100
AcDbLine
 62
7
  6
CONTINUOUS
 10
141.0244353028
 20
162.6780428889
 11
141.0244353028
 21
162.3992244627
  0
LINE
  5
2D7
100
AcDbEntity
  8
0
100
AcDbLine
 62
7
  6
CONTINUOUS
 10
141.0244353028
 20
160.8211904709
 11
141.0244353028
 21
161.3128905422
  0
LINE
  5
2D8
100
AcDbEntity
  8
0
100
AcDbLine
 62
7
  6
CONTINUOUS
 10
141.0329276241
 20
183.2996079219
 11
141.0329276241
 21
184.1493883067
  0
LINE
  5
2D9
100
AcDbEntity
  8
0
100
AcDbLine
 62
7
  6
CONTINUOUS
 10
141.4619353028
 20
162.1352523512
 11
141.4619353028
 21
161.8732131935
  0
LINE
  5
2DA
100
AcDbEntity
  8
0
100
AcDbLine
 62
7
  6
CONTINUOUS
 10
141.4619353028
 20
164.8058214824
 11
141.4619353028
 21
165.4565447077
  0
LINE
  5
2DB
100
AcDbEntity
  8
0
100
AcDbLine
 62
7
  6
CONTINUOUS
 10
141.6393105306
 20
184.5253443456
 11
141.6393105306
 21
184.0137106472
  0
LINE
  5
2DC
100
AcDbEntity
  8
0
100
AcDbLine
 62
7
  6
CONTINUOUS
 10
141.6393105306
 20
181.4409004407
 11
141.6393105306
 21
180.8835321932
  0
LINE
  5
2DD
100
AcDbEntity
  8
0
100
AcDbLine
 62
7
  6
CONTINUOUS
 10
141.7536008568
 20
160.8980160165
 11
141.7536008568
 21
161.4506339059
  0
LINE
  5
2DE
100
AcDbEntity
  8
0
100
AcDbLine
 62
7
  6
CONTINUOUS
 10
142.2456937201
 20
184.5674601947
 11
142.2456937201
 21
184.0563987342
  0
LINE
  5
2DF
100
AcDbEntity
  8
0
100
AcDbLine
 62
7
  6
CONTINUOUS
 10
142.4478213556
 20
181.6315710792
 11
142.4478213556
 21
181.0772676756
  0
LINE
  5
2E0
100
AcDbEntity
  8
0
100
AcDbLine
 62
7
  6
CONTINUOUS
 10
142.6499489911
 20
182.7416803493
 11
142.6499489911
 21
183.1821056027
  0
LINE
  5
2E1
100
AcDbEntity
  8
0
100
AcDbLine
 62
7
  6
CONTINUOUS
 10
142.6499489911
 20
184.9607183476
 11
142.6499489911
 21
185.3450872509
  0
LINE
  5
2E2
100
AcDbEntity
  8
0
100
AcDbLine
 62
7
  6
CONTINUOUS
 10
143.0542042621
 20
184.6873922253
 11
143.0542042621
 21
184.1779532716
  0
LINE
  5
2E3
100
AcDbEntity
  8
0
100
AcDbLine
 62
7
  6
CONTINUOUS
 10
143.2563318975
 20
184.7620335876
 11
143.2563318975
 21
184.2535991979
  0
LINE
  5
2E4
100
AcDbEntity
  8
0
100
AcDbLine
 62
7
  6
CONTINUOUS
 10
143.2563318975
 20
181.9966458258
 11
143.2563318975
 21
181.4481168417
  0
LINE
  5
2E5
100
AcDbEntity
  8
0
100
AcDbLine
 62
7
  6
CONTINUOUS
 10
112.4252271507
 20
185.3865007961
 11
112.4076832335
 21
185.37533418
  0
LINE
  5
2E6
100
AcDbEntity
  8
0
100
AcDbLine
 62
7
  6
CONTINUOUS
 10
143.458459533
 20
184.6873922253
 11
143.458459533
 21
184.1779532716
  0
LINE
  5
2E7
100
AcDbEntity
  8
0
100
AcDbLine
 62
7
  6
CONTINUOUS
 10
143.6605871685
 20
182.3405799978
 11
143.6605871685
 21
181.7973812235
  0
LINE
  5
2E8
100
AcDbEntity
  8
0
100
AcDbLine
 62
7
  6
CONTINUOUS
 10
143.862714804
 20
182.2045673802
 11
143.862714804
 21
183.1821056027
  0
LINE
  5
2E9
100
AcDbEntity
  8
0
100
AcDbLine
 62
7
  6
CONTINUOUS
 10
143.862714804
 20
184.9607183476
 11
143.862714804
 21
185.3450872509
  0
LINE
  5
2EA
100
AcDbEntity
  8
0
100
AcDbLine
 62
7
  6
CONTINUOUS
 10
144.0648424395
 20
183.3860573137
 11
144.0648424395
 21
182.8584388365
  0
LINE
  5
2EB
100
AcDbEntity
  8
0
100
AcDbLine
 62
7
  6
CONTINUOUS
 10
144.2669700749
 20
184.5674601947
 11
144.2669700749
 21
184.0563987342
  0
LINE
  5
2EC
100
AcDbEntity
  8
0
100
AcDbLine
 62
7
  6
CONTINUOUS
 10
144.4690977104
 20
183.5794094494
 11
144.4690977104
 21
183.0545743031
  0
LINE
  5
2ED
100
AcDbEntity
  8
0
100
AcDbLine
 62
7
  6
CONTINUOUS
 10
144.8733529814
 20
184.5253443456
 11
144.8733529814
 21
184.0137106472
  0
LINE
  5
2EE
100
AcDbEntity
  8
0
100
AcDbLine
 62
7
  6
CONTINUOUS
 10
145.0754806169
 20
183.6415332613
 11
145.0754806169
 21
183.1175861288
  0
LINE
  5
2EF
100
AcDbEntity
  8
0
100
AcDbLine
 62
7
  6
CONTINUOUS
 10
145.4797358878
 20
183.6415332613
 11
145.4797358878
 21
183.1175861288
  0
LINE
  5
2F0
100
AcDbEntity
  8
0
100
AcDbLine
 62
7
  6
CONTINUOUS
 10
145.6818640895
 20
184.5253443456
 11
145.6818640895
 21
184.0137106472
  0
LINE
  5
2F1
100
AcDbEntity
  8
0
100
AcDbLine
 62
7
  6
CONTINUOUS
 10
145.6818640895
 20
181.1720403533
 11
145.6818640895
 21
182.2565447178
  0
LINE
  5
2F2
100
AcDbEntity
  8
0
100
AcDbLine
 62
7
  6
CONTINUOUS
 10
145.7640180798
 20
164.4340755192
 11
145.7640180798
 21
164.9473857058
  0
LINE
  5
2F3
100
AcDbEntity
  8
0
100
AcDbLine
 62
7
  6
CONTINUOUS
 10
146.0861193605
 20
183.5794094494
 11
146.0861193605
 21
183.0545743031
  0
LINE
  5
2F4
100
AcDbEntity
  8
0
100
AcDbLine
 62
7
  6
CONTINUOUS
 10
146.2015180798
 20
165.4565447077
 11
146.2015180798
 21
165.1607839944
  0
LINE
  5
2F5
100
AcDbEntity
  8
0
100
AcDbLine
 62
7
  6
CONTINUOUS
 10
146.288246996
 20
184.5674601947
 11
146.288246996
 21
184.0563987342
  0
LINE
  5
2F6
100
AcDbEntity
  8
0
100
AcDbLine
 62
7
  6
CONTINUOUS
 10
146.288246996
 20
181.8167904748
 11
146.288246996
 21
181.2654319353
  0
LINE
  5
2F7
100
AcDbEntity
  8
0
100
AcDbLine
 62
7
  6
CONTINUOUS
 10
146.4903746314
 20
183.3860573137
 11
146.4903746314
 21
182.8584388365
  0
LINE
  5
2F8
100
AcDbEntity
  8
0
100
AcDbLine
 62
7
  6
CONTINUOUS
 10
146.6390180798
 20
165.4565447077
 11
146.6390180798
 21
165.1607839944
  0
LINE
  5
2F9
100
AcDbEntity
  8
0
100
AcDbLine
 62
7
  6
CONTINUOUS
 10
146.6925022669
 20
182.7416803493
 11
146.6925022669
 21
183.1821056027
  0
LINE
  5
2FA
100
AcDbEntity
  8
0
100
AcDbLine
 62
7
  6
CONTINUOUS
 10
146.6925022669
 20
184.9607183476
 11
146.6925022669
 21
185.3450872509
  0
LINE
  5
2FB
100
AcDbEntity
  8
0
100
AcDbLine
 62
7
  6
CONTINUOUS
 10
147.0765180798
 20
164.4340755192
 11
147.0765180798
 21
164.9473857058
  0
LINE
  5
2FC
100
AcDbEntity
  8
0
100
AcDbLine
 62
7
  6
CONTINUOUS
 10
147.0967575379
 20
184.6873922253
 11
147.0967575379
 21
184.1779532716
  0
LINE
  5
2FD
100
AcDbEntity
  8
0
100
AcDbLine
 62
7
  6
CONTINUOUS
 10
147.0967575379
 20
182.0845865277
 11
147.0967575379
 21
181.5374304341
  0
LINE
  5
2FE
100
AcDbEntity
  8
0
100
AcDbLine
 62
7
  6
CONTINUOUS
 10
147.7031404443
 20
184.8324532641
 11
147.7031404443
 21
184.3249629712
  0
LINE
  5
2FF
100
AcDbEntity
  8
0
100
AcDbLine
 62
7
  6
CONTINUOUS
 10
147.7031404443
 20
182.4233328095
 11
147.7031404443
 21
181.8814009761
  0
LINE
  5
300
100
AcDbEntity
  8
0
100
AcDbLine
 62
7
  6
CONTINUOUS
 10
147.9052680798
 20
182.2821749378
 11
147.9052680798
 21
183.1821056027
  0
LINE
  5
301
100
AcDbEntity
  8
0
100
AcDbLine
 62
7
  6
CONTINUOUS
 10
147.9052680798
 20
184.4847919012
 11
147.9052680798
 21
185.390405301
  0
LINE
  5
302
100
AcDbEntity
  8
0
100
AcDbLine
 62
7
  6
CONTINUOUS
 10
150.9552680798
 20
183.7037795975
 11
150.9552680798
 21
185.4006379737
  0
LINE
  5
303
100
AcDbEntity
  8
0
100
AcDbLine
 62
7
  6
CONTINUOUS
 10
152.4552680798
 20
184.3656794593
 11
152.4552680798
 21
184.7442733648
  0
LINE
  5
304
100
AcDbEntity
  8
0
100
AcDbLine
 62
7
  6
CONTINUOUS
 10
141.0244353028
 20
160.8211904709
 11
140.8786008568
 21
160.426682019
  0
LINE
  5
305
100
AcDbEntity
  8
0
100
AcDbLine
 62
7
  6
CONTINUOUS
 10
157.6752680798
 20
184.2356003102
 11
157.6752680798
 21
185.0353940232
  0
LINE
  5
306
100
AcDbEntity
  8
0
100
AcDbLine
 62
7
  6
CONTINUOUS
 10
158.2752680798
 20
184.3656794593
 11
158.2752680798
 21
185.0353940232
  0
LINE
  5
307
100
AcDbEntity
  8
0
100
AcDbLine
 62
7
  6
CONTINUOUS
 10
159.7752680798
 20
183.7037795975
 11
159.7752680798
 21
185.3624702587
  0
LINE
  5
308
100
AcDbEntity
  8
0
100
AcDbLine
 62
7
  6
CONTINUOUS
 10
133.0036012741
 20
165.1607839944
 11
129.5036014827
 21
161.6102075589
  0
LINE
  5
309
100
AcDbEntity
  8
0
100
AcDbLine
 62
7
  6
CONTINUOUS
 10
165.8952680798
 20
179.9006379738
 11
165.8952680798
 21
148.0226206206
  0
LINE
  5
30A
100
AcDbEntity
  8
KONSTRUKTIONSELEMENTE
100
AcDbLine
 62
7
  6
CONTINUOUS
 10
165.8952680798
 20
148.0226206206
 11
165.8952680798
 21
139.2414173151
  0
LINE
  5
30B
100
AcDbEntity
  8
BEZUGSACHSEN
100
AcDbLine
 62
7
  6
CONTINUOUS
 10
169.3952680798
 20
222.4006379738
 11
169.3952680798
 21
216.0918730027
  0
LINE
  5
30C
100
AcDbEntity
  8
BEZUGSACHSEN
100
AcDbLine
 62
7
  6
CONTINUOUS
 10
169.3952680798
 20
170.9006379738
 11
169.3952680798
 21
182.990544002
  0
LINE
  5
30D
100
AcDbEntity
  8
0
100
AcDbLine
 62
7
  6
CONTINUOUS
 10
140.8786008568
 20
160.426682019
 11
140.5869353028
 21
160.0321734749
  0
LINE
  5
30E
100
AcDbEntity
  8
0
100
AcDbLine
 62
7
  6
CONTINUOUS
 10
146.2015180798
 20
165.1607839944
 11
145.7640180798
 21
164.6457313547
  0
LINE
  5
30F
100
AcDbEntity
  8
0
100
AcDbLine
 62
7
  6
CONTINUOUS
 10
137.9619344683
 20
162.7937329146
 11
137.2327680798
 21
162.3992244627
  0
LINE
  5
310
100
AcDbEntity
  8
0
100
AcDbLine
 62
7
  6
CONTINUOUS
 10
140.5869353028
 20
160.0321734749
 11
140.1494344683
 21
159.7691678403
  0
LINE
  5
311
100
AcDbEntity
  8
BEZUGSACHSEN
100
AcDbLine
 62
7
  6
CONTINUOUS
 10
195.0899937582
 20
218.3522500719
 11
194.7467787532
 21
217.5236557521
  0
LINE
  5
312
100
AcDbEntity
  8
BEZUGSACHSEN
100
AcDbLine
 62
7
  6
CONTINUOUS
 10
196.0746463158
 20
205.3862296586
 11
200.4122859639
 21
139.7965709835
  0
LINE
  5
313
100
AcDbEntity
  8
RUNDUNGEN
100
AcDbLine
 62
7
  6
CONTINUOUS
 10
199.9493550972
 20
146.7965709835
 11
200.4122859639
 21
139.7965709835
  0
LINE
  5
314
100
AcDbEntity
  8
BEZUGSACHSEN
100
AcDbLine
 62
7
  6
CONTINUOUS
 10
200.4123557614
 20
139.7955141553
 11
200.4119232025
 21
139.8020563151
  0
LINE
  5
315
100
AcDbEntity
  8
BEZUGSACHSEN
100
AcDbLine
 62
7
  6
CONTINUOUS
 10
200.4123557749
 20
139.7955139512
 11
200.4122859639
 21
139.7965709835
  0
LINE
  5
316
100
AcDbEntity
  8
BEZUGSACHSEN
100
AcDbLine
 62
7
  6
CONTINUOUS
 10
194.4433547431
 20
214.7351232954
 11
196.0083661814
 21
205.9314007784
  0
LINE
  5
317
100
AcDbEntity
  8
BEZUGSACHSEN
100
AcDbLine
 62
7
  6
CONTINUOUS
 10
180.6149025557
 20
261.3949873732
 11
195.0899937582
 21
226.4490258756
  0
LINE
  5
318
100
AcDbEntity
  8
BEZUGSACHSEN
100
AcDbLine
 62
7
  6
CONTINUOUS
 10
139.9436559816
 20
281.5953636521
 11
174.8896174792
 21
267.1202724497
  0
LINE
  5
319
100
AcDbEntity
  8
KONSTRUKTIONSELEMENTE
100
AcDbLine
 62
7
  6
CONTINUOUS
 10
294.6937921956
 20
129.9006379738
 11
290.1937921956
 21
129.9006379738
  0
LINE
  5
31A
100
AcDbEntity
  8
0
100
AcDbLine
 62
7
  6
CONTINUOUS
 10
251.4430566994
 20
129.9006379738
 11
255.9430566994
 21
129.9006379738
  0
LINE
  5
31B
100
AcDbEntity
  8
KONSTRUKTIONSELEMENTE
100
AcDbLine
 62
7
  6
CONTINUOUS
 10
298.2944148103
 20
132.9006379738
 11
296.7944148103
 21
132.9006379738
  0
LINE
  5
31C
100
AcDbEntity
  8
0
100
AcDbLine
 62
7
  6
CONTINUOUS
 10
247.8424340848
 20
132.9006379738
 11
249.3424340848
 21
132.9006379738
  0
LINE
  5
31D
100
AcDbEntity
  8
BEZUGSACHSEN
100
AcDbLine
 62
7
  6
CONTINUOUS
 10
273.3184244475
 20
133.4006379738
 11
272.8184244475
 21
133.4006379738
  0
LINE
  5
31E
100
AcDbEntity
  8
0
100
AcDbLine
 62
7
  6
CONTINUOUS
 10
249.3424340848
 20
132.9006379738
 11
251.4430566994
 21
129.9006379738
  0
LINE
  5
31F
100
AcDbEntity
  8
0
100
AcDbLine
 62
7
  6
CONTINUOUS
 10
235.6213498561
 20
155.3430428261
 11
247.8424340848
 21
132.9006379738
  0
LINE
  5
320
100
AcDbEntity
  8
0
100
AcDbLine
 62
7
  6
CONTINUOUS
 10
259.8184244475
 20
173.1937958018
 11
259.3184244475
 21
173.1937958018
  0
LINE
  5
321
100
AcDbEntity
  8
0
100
AcDbLine
 62
7
  6
CONTINUOUS
 10
259.8184244475
 20
179.6822168738
 11
259.3184244475
 21
179.6822168738
  0
LINE
  5
322
100
AcDbEntity
  8
0
100
AcDbLine
 62
7
  6
CONTINUOUS
 10
259.8184244475
 20
181.2690589838
 11
259.3184244475
 21
181.2690589838
  0
LINE
  5
323
100
AcDbEntity
  8
0
100
AcDbLine
 62
7
  6
CONTINUOUS
 10
259.8184244475
 20
182.8559010938
 11
259.3184244475
 21
182.8559010938
  0
LINE
  5
324
100
AcDbEntity
  8
0
100
AcDbLine
 62
7
  6
CONTINUOUS
 10
255.7534244475
 20
181.3461781041
 11
255.7534244475
 21
180.7872745496
  0
LINE
  5
325
100
AcDbEntity
  8
0
100
AcDbLine
 62
7
  6
CONTINUOUS
 10
259.8184244475
 20
186.0295853138
 11
259.3184244475
 21
186.0295853138
  0
LINE
  5
326
100
AcDbEntity
  8
0
100
AcDbLine
 62
7
  6
CONTINUOUS
 10
259.8184244475
 20
187.6164274238
 11
259.3184244475
 21
187.6164274238
  0
LINE
  5
327
100
AcDbEntity
  8
0
100
AcDbLine
 62
7
  6
CONTINUOUS
 10
259.8184244475
 20
188.6743221638
 11
259.3184244475
 21
188.6743221638
  0
LINE
  5
328
100
AcDbEntity
  8
0
100
AcDbLine
 62
7
  6
CONTINUOUS
 10
259.8184244475
 20
189.2032695338
 11
259.3184244475
 21
189.2032695338
  0
LINE
  5
329
100
AcDbEntity
  8
0
100
AcDbLine
 62
7
  6
CONTINUOUS
 10
258.9200912086
 20
182.7437895509
 11
258.9200912086
 21
182.2067082211
  0
LINE
  5
32A
100
AcDbEntity
  8
0
100
AcDbLine
 62
7
  6
CONTINUOUS
 10
259.3184244475
 20
173.1937958018
 11
259.3184244475
 21
179.6822168738
  0
LINE
  5
32B
100
AcDbEntity
  8
0
100
AcDbLine
 62
7
  6
CONTINUOUS
 10
259.3184244475
 20
181.2690589838
 11
259.3184244475
 21
187.6164274238
  0
LINE
  5
32C
100
AcDbEntity
  8
0
100
AcDbLine
 62
7
  6
CONTINUOUS
 10
259.3184244475
 20
188.6743221638
 11
259.3184244475
 21
195.5506379738
  0
LINE
  5
32D
100
AcDbEntity
  8
BEZUGSACHSEN
100
AcDbLine
 62
7
  6
CONTINUOUS
 10
259.8184244475
 20
146.4006393679
 11
259.8184244475
 21
276.4006375849
  0
LINE
  5
32E
100
AcDbEntity
  8
0
100
AcDbLine
 62
7
  6
CONTINUOUS
 10
259.8184244475
 20
195.5506379738
 11
259.3184244475
 21
195.5506379738
  0
LINE
  5
32F
100
AcDbEntity
  8
0
100
AcDbLine
 62
7
  6
CONTINUOUS
 10
259.2811159054
 20
148.8317124611
 11
255.9430566994
 21
129.9006379738
  0
LINE
  5
330
100
AcDbEntity
  8
KONSTRUKTIONSELEMENTE
100
AcDbLine
 62
7
  6
CONTINUOUS
 10
286.8557329897
 20
148.8317124611
 11
290.1937921956
 21
129.9006379738
  0
LINE
  5
331
100
AcDbEntity
  8
BEZUGSACHSEN
100
AcDbLine
 62
7
  6
CONTINUOUS
 10
286.3184244475
 20
146.4006379738
 11
286.3184244475
 21
276.4006375849
  0
LINE
  5
332
100
AcDbEntity
  8
0
100
AcDbLine
 62
7
  6
CONTINUOUS
 10
287.2221744475
 20
182.7416803493
 11
287.2221744475
 21
182.2045673802
  0
LINE
  5
333
100
AcDbEntity
  8
0
100
AcDbLine
 62
7
  6
CONTINUOUS
 10
288.2117585359
 20
182.3405799978
 11
288.2117585359
 21
181.7973812235
  0
LINE
  5
334
100
AcDbEntity
  8
0
100
AcDbLine
 62
7
  6
CONTINUOUS
 10
289.0034244475
 20
181.9966458258
 11
289.0034244475
 21
181.4481168417
  0
LINE
  5
335
100
AcDbEntity
  8
0
100
AcDbLine
 62
7
  6
CONTINUOUS
 10
289.7950903592
 20
181.6315710792
 11
289.7950903592
 21
181.0772676756
  0
LINE
  5
336
100
AcDbEntity
  8
0
100
AcDbLine
 62
7
  6
CONTINUOUS
 10
290.1909244475
 20
181.4409004407
 11
290.1909244475
 21
180.8835321932
  0
LINE
  5
337
100
AcDbEntity
  8
KONSTRUKTIONSELEMENTE
100
AcDbLine
 62
7
  6
CONTINUOUS
 10
310.515499039
 20
155.3430428261
 11
298.2944148103
 21
132.9006379738
  0
LINE
  5
338
100
AcDbEntity
  8
KONSTRUKTIONSELEMENTE
100
AcDbLine
 62
7
  6
CONTINUOUS
 10
296.7944148103
 20
132.9006379738
 11
294.6937921956
 21
129.9006379738
  0
LINE
  5
339
100
AcDbEntity
  8
0
100
AcDbLine
 62
7
  6
CONTINUOUS
 10
280.3184244475
 20
282.4006380738
 11
265.8184244475
 21
282.4006380738
  0
LWPOLYLINE
  5
33A
100
AcDbEntity
  8
BEZUGSACHSEN
100
AcDbPolyline
 62
7
  6
CONTINUOUS
 90
156
 70
0
 10
71.365266889
 20
61.7702465183
 10
71.3655638467
 20
61.6197776547
 10
71.3660634036
 20
61.4693873528
 10
71.3667656408
 20
61.3191102848
 10
71.3676706571
 20
61.1689863887
 10
71.3687785494
 20
61.0190601155
 10
71.3700894057
 20
60.8693759364
 10
71.3716033824
 20
60.7199732125
 10
71.3733205617
 20
60.5708987862
 10
71.3752413643
 20
60.422175006
 10
71.3773662126
 20
60.2738321057
 10
71.3796957226
 20
60.1258942642
 10
71.3822308369
 20
59.9783747768
 10
71.384971688
 20
59.8313385339
 10
71.3879188167
 20
59.684826752
 10
71.3910718441
 20
59.538922969
 10
71.3944299402
 20
59.3937212885
 10
71.3979942522
 20
59.2492266013
 10
71.4017645001
 20
59.1055066517
 10
71.4057449004
 20
58.9624680944
 10
71.4099391321
 20
58.8200657208
 10
71.4143520304
 20
58.6782392873
 10
71.4189889405
 20
58.5369368573
 10
71.4238558985
 20
58.3961099559
 10
71.4289611333
 20
58.255673636
 10
71.4343074819
 20
58.1157107416
 10
71.4399026533
 20
57.9761853801
 10
71.445741731
 20
57.8373762426
 10
71.4518225171
 20
57.6994673472
 10
71.4581407227
 20
57.5626680777
 10
71.4646916818
 20
57.4271715294
 10
71.4714702744
 20
57.2931579361
 10
71.4784715783
 20
57.1607829998
 10
71.4856868721
 20
57.0302525905
 10
71.4931095324
 20
56.9017101775
 10
71.5007244096
 20
56.7754198604
 10
71.5085175128
 20
56.6515890523
 10
71.5164729781
 20
56.5304212665
 10
71.5245742918
 20
56.4120968787
 10
71.5328041585
 20
56.2967762135
 10
71.5411436654
 20
56.1846117046
 10
71.5495766034
 20
56.0756922522
 10
71.5580791665
 20
55.9701778631
 10
71.5666520908
 20
55.8679086083
 10
71.5752878435
 20
55.7688314324
 10
71.5839910125
 20
55.672760355
 10
71.5927642111
 20
55.5795471587
 10
71.601612414
 20
55.4890322596
 10
71.6105411792
 20
55.4010640594
 10
71.619558507
 20
55.3154813826
 10
71.6286753781
 20
55.2321105641
 10
71.6378962418
 20
55.1508513914
 10
71.6472350393
 20
55.0715307346
 10
71.6566807129
 20
54.9941936881
 10
71.6662299985
 20
54.9188110073
 10
71.6758735217
 20
54.8453952668
 10
71.6855972696
 20
54.7739824353
 10
71.6954090911
 20
54.7044423694
 10
71.7053029901
 20
54.6367470316
 10
71.715307485
 20
54.5706393111
 10
71.7254428828
 20
54.5059398031
 10
71.7357367038
 20
54.4424420813
 10
71.7462223623
 20
54.3799258017
 10
71.7569135738
 20
54.3183057133
 10
71.7678390289
 20
54.2574210163
 10
71.7789936321
 20
54.1973064365
 10
71.7903816389
 20
54.1379404227
 10
71.8020000961
 20
54.0793360082
 10
71.8138455169
 20
54.0215031221
 10
71.8259161606
 20
53.9644382789
 10
71.8382008388
 20
53.9081771783
 10
71.8507155139
 20
53.8526288096
 10
71.863465684
 20
53.7977538012
 10
71.8764691033
 20
53.7434638105
 10
71.8897343542
 20
53.689714569
 10
71.903295358
 20
53.6363661874
 10
71.9171753529
 20
53.5833327119
 10
71.9314232605
 20
53.5304420652
 10
71.9460842029
 20
53.4775534775
 10
71.961209128
 20
53.4245208286
 10
71.9768591298
 20
53.37117973
 10
71.9930683356
 20
53.3174722848
 10
72.0098805479
 20
53.2633170657
 10
72.0273409979
 20
53.2086382807
 10
72.0454784747
 20
53.1534193302
 10
72.0644004447
 20
53.0974176317
 10
72.0841923477
 20
53.0404820912
 10
72.1049871077
 20
52.9823509251
 10
72.1269424795
 20
52.9227298237
 10
72.1501249936
 20
52.8616014134
 10
72.1746533929
 20
52.7988265905
 10
72.2005621098
 20
52.7344973617
 10
72.2279119087
 20
52.6686416628
 10
72.2567511383
 20
52.6013216985
 10
72.2871336581
 20
52.5325889753
 10
72.31910626
 20
52.4625129966
 10
72.3527041674
 20
52.391187875
 10
72.3880136848
 20
52.3186015461
 10
72.4251013195
 20
52.2447911587
 10
72.4640729628
 20
52.1697239369
 10
72.5050298285
 20
52.0933897276
 10
72.5480746679
 20
52.0157876554
 10
72.5932933766
 20
51.9369573291
 10
72.6408594855
 20
51.8568001482
 10
72.6908559585
 20
51.7753887001
 10
72.7436877057
 20
51.6923028141
 10
72.7997132692
 20
51.6072655925
 10
72.8593001101
 20
51.5200483358
 10
72.9231205525
 20
51.4300610305
 10
72.9907729799
 20
51.3382656488
 10
73.062264139
 20
51.2449966332
 10
73.1368673592
 20
51.1514715774
 10
73.2137498246
 20
51.0588728751
 10
73.2928346103
 20
50.9673589245
 10
73.3736465323
 20
50.8775062966
 10
73.4563753963
 20
50.7891130545
 10
73.5410454695
 20
50.7021788027
 10
73.6276912725
 20
50.6166988877
 10
73.7163828128
 20
50.5326425315
 10
73.8070516002
 20
50.4501141155
 10
73.8996792008
 20
50.3691661997
 10
73.9941667843
 20
50.2899161922
 10
74.0904249011
 20
50.2124623142
 10
74.1883736122
 20
50.1368860049
 10
74.2879054629
 20
50.0632810008
 10
74.3889857794
 20
49.9916801948
 10
74.4915527548
 20
49.9221335349
 10
74.5955685364
 20
49.854671778
 10
74.7009876822
 20
49.78932928
 10
74.8077645195
 20
49.7261387783
 10
74.9158520219
 20
49.6651321063
 10
75.0252028326
 20
49.606339592
 10
75.1357684761
 20
49.5497905169
 10
75.2474999035
 20
49.4955128157
 10
75.3603471851
 20
49.4435332388
 10
75.4742596543
 20
49.3938772712
 10
75.5891858403
 20
49.346569154
 10
75.7050739051
 20
49.3016317009
 10
75.8218709553
 20
49.2590865703
 10
75.9395249039
 20
49.2189535959
 10
76.0579815258
 20
49.1812518435
 10
76.1771911776
 20
49.1459975132
 10
76.2971022245
 20
49.1132062236
 10
76.4176640736
 20
49.0828921008
 10
76.5388254352
 20
49.0550683085
 10
76.6605348509
 20
49.0297468993
 10
76.782740516
 20
49.0069388571
 10
76.905390584
 20
48.9866540384
 10
77.0284328685
 20
48.9689012314
 10
77.1518153053
 20
48.953688088
 10
77.2754855804
 20
48.9410211887
 10
77.3993912889
 20
48.9309060198
 10
77.523479895
 20
48.9233469788
 10
77.6476988053
 20
48.9183473682
 10
77.7719953958
 20
48.9159093971
 10
77.8281037588
 20
48.9156483804
  0
LINE
  5
33B
100
AcDbEntity
  8
BEZUGSACHSEN
100
AcDbLine
 62
7
  6
CONTINUOUS
 10
71.365266889
 20
61.7702465183
 11
71.3651723642
 21
62.4156483791
  0
LINE
  5
33C
100
AcDbEntity
  8
BEZUGSACHSEN
100
AcDbLine
 62
7
  6
CONTINUOUS
 10
75.8952679798
 20
69.4156483791
 11
75.8952679798
 21
54.9156483791
  0
LINE
  5
33D
100
AcDbEntity
  8
0
100
AcDbLine
 62
7
  6
CONTINUOUS
 10
81.5010575298
 20
75.4156483791
 11
81.5010575298
 21
75.9156483791
  0
LINE
  5
33E
100
AcDbEntity
  8
0
100
AcDbLine
 62
7
  6
CONTINUOUS
 10
82.8234259548
 20
75.4156483791
 11
82.8234259548
 21
75.9156483791
  0
LINE
  5
33F
100
AcDbEntity
  8
0
100
AcDbLine
 62
7
  6
CONTINUOUS
 10
83.6168470098
 20
75.4156483791
 11
83.6168470098
 21
75.9156483791
  0
LINE
  5
340
100
AcDbEntity
  8
0
100
AcDbLine
 62
7
  6
CONTINUOUS
 10
89.4352680798
 20
75.4156483791
 11
89.4352680798
 21
75.9156483791
  0
LINE
  5
341
100
AcDbEntity
  8
0
100
AcDbLine
 62
7
  6
CONTINUOUS
 10
139.5661016913
 20
25.9823053291
 11
140.2952680798
 21
26.0522266235
  0
LINE
  5
342
100
AcDbEntity
  8
KONSTRUKTIONSELEMENTE
100
AcDbLine
 62
7
  6
CONTINUOUS
 10
160.8952680798
 20
24.7185737876
 11
110.8952680798
 21
24.7185737876
  0
LINE
  5
343
100
AcDbEntity
  8
0
100
AcDbLine
 62
7
  6
CONTINUOUS
 10
139.5661016913
 20
25.8104720667
 11
138.6911016913
 21
25.8104720667
  0
LINE
  5
344
100
AcDbEntity
  8
0
100
AcDbLine
 62
7
  6
CONTINUOUS
 10
133.8786016913
 20
25.8104720667
 11
133.0036012741
 21
25.8104720667
  0
LINE
  5
345
100
AcDbEntity
  8
0
100
AcDbLine
 62
7
  6
CONTINUOUS
 10
133.0036012741
 20
25.9823053291
 11
133.8786016913
 21
25.9823053291
  0
LINE
  5
346
100
AcDbEntity
  8
0
100
AcDbLine
 62
7
  6
CONTINUOUS
 10
138.6911016913
 20
25.9823053291
 11
139.5661016913
 21
25.9823053291
  0
LINE
  5
347
100
AcDbEntity
  8
0
100
AcDbLine
 62
7
  6
CONTINUOUS
 10
139.5661016913
 20
26.065035
 11
138.6911016913
 21
26.065035
  0
LINE
  5
348
100
AcDbEntity
  8
0
100
AcDbLine
 62
7
  6
CONTINUOUS
 10
137.3786016913
 20
26.4433527494
 11
136.5036016913
 21
26.4433527494
  0
LINE
  5
349
100
AcDbEntity
  8
0
100
AcDbLine
 62
7
  6
CONTINUOUS
 10
135.3369344683
 20
26.5561110984
 11
133.8786016913
 21
26.5561110984
  0
LINE
  5
34A
100
AcDbEntity
  8
0
100
AcDbLine
 62
7
  6
CONTINUOUS
 10
133.0036012741
 20
26.5561110984
 11
129.5036014827
 21
26.5561110984
  0
LINE
  5
34B
100
AcDbEntity
  8
0
100
AcDbLine
 62
7
  6
CONTINUOUS
 10
128.3369346769
 20
26.729118887
 11
126.2952680798
 21
26.729118887
  0
LINE
  5
34C
100
AcDbEntity
  8
0
100
AcDbLine
 62
7
  6
CONTINUOUS
 10
135.3369344683
 20
26.9067577894
 11
133.8786016913
 21
26.9067577894
  0
LINE
  5
34D
100
AcDbEntity
  8
0
100
AcDbLine
 62
7
  6
CONTINUOUS
 10
133.0036012741
 20
26.9067577894
 11
130.5244348855
 21
26.9067577894
  0
LINE
  5
34E
100
AcDbEntity
  8
0
100
AcDbLine
 62
7
  6
CONTINUOUS
 10
129.6190511007
 20
26.9612034625
 11
130.5244348855
 21
26.9612034625
  0
LINE
  5
34F
100
AcDbEntity
  8
0
100
AcDbLine
 62
7
  6
CONTINUOUS
 10
137.5244344683
 20
26.9669975176
 11
136.5036016913
 21
26.9669975176
  0
LINE
  5
350
100
AcDbEntity
  8
0
100
AcDbLine
 62
7
  6
CONTINUOUS
 10
128.3369346769
 20
27.0277498876
 11
126.2952680798
 21
27.0277498876
  0
LINE
  5
351
100
AcDbEntity
  8
0
100
AcDbLine
 62
7
  6
CONTINUOUS
 10
139.5661016913
 20
27.2130788098
 11
138.6911016913
 21
27.2130788098
  0
LINE
  5
352
100
AcDbEntity
  8
0
100
AcDbLine
 62
7
  6
CONTINUOUS
 10
136.5036016913
 20
27.4506525782
 11
137.2327680798
 21
27.4506525782
  0
LINE
  5
353
100
AcDbEntity
  8
0
100
AcDbLine
 62
7
  6
CONTINUOUS
 10
139.5661016913
 20
27.5321790142
 11
138.6911016913
 21
27.5321790142
  0
LINE
  5
354
100
AcDbEntity
  8
0
100
AcDbLine
 62
7
  6
CONTINUOUS
 10
146.6390180798
 20
27.8809504676
 11
146.2015180798
 21
27.8809504676
  0
LINE
  5
355
100
AcDbEntity
  8
0
100
AcDbLine
 62
7
  6
CONTINUOUS
 10
137.9619344683
 20
26.0522266235
 11
138.6911016913
 21
25.9823053291
  0
LINE
  5
356
100
AcDbEntity
  8
0
100
AcDbLine
 62
7
  6
CONTINUOUS
 10
105.8952680798
 20
95.6263595898
 11
105.8952680798
 21
75.4156483791
  0
LINE
  5
357
100
AcDbEntity
  8
0
100
AcDbLine
 62
7
  6
CONTINUOUS
 10
105.8952680798
 20
48.9156483791
 11
105.8952680798
 21
28.7049371683
  0
LINE
  5
358
100
AcDbEntity
  8
0
100
AcDbLine
 62
7
  6
CONTINUOUS
 10
141.4619353028
 20
28.3499830741
 11
137.2327680798
 21
28.3499830741
  0
LINE
  5
359
100
AcDbEntity
  8
0
100
AcDbLine
 62
7
  6
CONTINUOUS
 10
146.2015180798
 20
28.4470310337
 11
146.6390180798
 21
28.4470310337
  0
LINE
  5
35A
100
AcDbEntity
  8
0
100
AcDbLine
 62
7
  6
CONTINUOUS
 10
146.6390180798
 20
28.7123612678
 11
146.2015180798
 21
28.7123612678
  0
LINE
  5
35B
100
AcDbEntity
  8
0
100
AcDbLine
 62
7
  6
CONTINUOUS
 10
141.4619353028
 20
28.7123612678
 11
136.5036016913
 21
28.7123612678
  0
LINE
  5
35C
100
AcDbEntity
  8
0
100
AcDbLine
 62
7
  6
CONTINUOUS
 10
133.8786016913
 20
28.7123612678
 11
133.0036012741
 21
28.7123612678
  0
LINE
  5
35D
100
AcDbEntity
  8
0
100
AcDbLine
 62
7
  6
CONTINUOUS
 10
137.2327680798
 20
26.2619905066
 11
137.9619344683
 21
26.0522266235
  0
LINE
  5
35E
100
AcDbEntity
  8
0
100
AcDbLine
 62
7
  6
CONTINUOUS
 10
136.9490705956
 20
26.4433527494
 11
137.2327680798
 21
26.2619905066
  0
LINE
  5
35F
100
AcDbEntity
  8
0
100
AcDbLine
 62
7
  6
CONTINUOUS
 10
145.9945278278
 20
28.5765990523
 11
146.2015180798
 21
28.4470310337
  0
LINE
  5
360
100
AcDbEntity
  8
0
100
AcDbLine
 62
7
  6
CONTINUOUS
 10
141.6393105306
 20
45.0431483791
 11
140.6286723532
 21
45.0431483791
  0
LINE
  5
361
100
AcDbEntity
  8
0
100
AcDbLine
 62
7
  6
CONTINUOUS
 10
141.4371828951
 20
46.2306483791
 11
140.8307999887
 21
46.2306483791
  0
LINE
  5
362
100
AcDbEntity
  8
0
100
AcDbLine
 62
7
  6
CONTINUOUS
 10
140.8786008568
 20
27.3108100017
 11
141.0244353028
 21
27.101046039
  0
LINE
  5
363
100
AcDbEntity
  8
0
100
AcDbLine
 62
7
  6
CONTINUOUS
 10
126.2952680798
 20
26.729118887
 11
126.2952680798
 21
27.0277498876
  0
LINE
  5
364
100
AcDbEntity
  8
0
100
AcDbLine
 62
7
  6
CONTINUOUS
 10
139.6180340342
 20
75.5223151401
 11
147.9052680798
 21
78.2931483791
  0
LINE
  5
365
100
AcDbEntity
  8
0
100
AcDbLine
 62
7
  6
CONTINUOUS
 10
138.4052680798
 20
76.313981618
 11
147.9052680798
 21
79.4806483791
  0
LWPOLYLINE
  5
366
100
AcDbEntity
  8
BEZUGSACHSEN
100
AcDbPolyline
 62
7
  6
CONTINUOUS
 90
157
 70
0
 10
193.9624324008
 20
48.9156483804
 10
194.0185391444
 20
48.915909382
 10
194.142834114
 20
48.9183472712
 10
194.2670514036
 20
48.9233467329
 10
194.391138392
 20
48.9309055581
 10
194.5150424882
 20
48.9410204442
 10
194.638711159
 20
48.9536869939
 10
194.7620920018
 20
48.9688997212
 10
194.8851327052
 20
48.9866520458
 10
195.0077812076
 20
49.0069363165
 10
195.1299853249
 20
49.0297437454
 10
195.2516932133
 20
49.0550644768
 10
195.3728530705
 20
49.0828875274
 10
195.49341344
 20
49.1132008453
 10
195.6133230347
 20
49.1459912677
 10
195.7325312623
 20
49.1812446692
 10
195.8509864946
 20
49.2189454333
 10
195.9686390947
 20
49.259077363
 10
196.085434838
 20
49.3016213932
 10
196.2013216413
 20
49.3465576928
 10
196.3162466066
 20
49.3938646025
 10
196.4301578934
 20
49.443519308
 10
196.5430040288
 20
49.4954975677
 10
196.6547343441
 20
49.5497738955
 10
196.7652989072
 20
49.6063215395
 10
196.874648665
 20
49.6651125623
 10
196.982735147
 20
49.7261176843
 10
197.089510999
 20
49.7893065782
 10
197.1949291975
 20
49.8546474119
 10
197.2989440719
 20
49.9221074487
 10
197.4015101843
 20
49.991652335
 10
197.5025896443
 20
50.0632512863
 10
197.6021207718
 20
50.1368544464
 10
197.7000690063
 20
50.2124290198
 10
197.7963268645
 20
50.289881267
 10
197.8908144567
 20
50.36912981
 10
197.9834422028
 20
50.4500763366
 10
198.074111294
 20
50.5326034717
 10
198.1628029197
 20
50.6166583058
 10
198.2494482162
 20
50.7021360542
 10
198.334117328
 20
50.78906756
 10
198.4168446204
 20
50.8774572413
 10
198.4976548792
 20
50.967305989
 10
198.5767375001
 20
51.0588152221
 10
198.6536197692
 20
51.1514113279
 10
198.7282274021
 20
51.2449395645
 10
198.7997256716
 20
51.3382157325
 10
198.8673882779
 20
51.4300232192
 10
198.9312180984
 20
51.520022538
 10
198.9908097675
 20
51.607246027
 10
199.0468372121
 20
51.6922854413
 10
199.0996676108
 20
51.7753685483
 10
199.1496613129
 20
51.8567746982
 10
199.1972246511
 20
51.9369262464
 10
199.2424407861
 20
52.0157509431
 10
199.2854840226
 20
52.0933488298
 10
199.3264396663
 20
52.1696793473
 10
199.3654102335
 20
52.2447429749
 10
199.4024967762
 20
52.3185495601
 10
199.4378048841
 20
52.3911312384
 10
199.4714013511
 20
52.462451409
 10
199.5033725777
 20
52.5325223353
 10
199.5337539788
 20
52.6012503536
 10
199.5625925156
 20
52.6685664136
 10
199.5899421088
 20
52.7344192507
 10
199.6158512095
 20
52.7987470292
 10
199.6403805709
 20
52.8615219216
 10
199.6635648475
 20
52.9226526591
 10
199.6855221694
 20
52.9822768468
 10
199.7063186243
 20
53.040410656
 10
199.7261118954
 20
53.0973481238
 10
199.745034595
 20
53.1533500155
 10
199.7631725295
 20
53.2085683961
 10
199.7806333699
 20
53.2632464214
 10
199.797445981
 20
53.3174009224
 10
199.8136557698
 20
53.3711082834
 10
199.8293063883
 20
53.424449464
 10
199.8444319012
 20
53.4774821499
 10
199.85909335
 20
53.5303705283
 10
199.8733416005
 20
53.5832603818
 10
199.8872218317
 20
53.6362926456
 10
199.900782962
 20
53.6896393423
 10
199.9140483176
 20
53.7433867443
 10
199.9270518892
 20
53.797675021
 10
199.9398022774
 20
53.8525485339
 10
199.9523172686
 20
53.9080957944
 10
199.9646023697
 20
53.9643562561
 10
199.9766735731
 20
54.0214211211
 10
199.988519651
 20
54.079254567
 10
200.0001388521
 20
54.1378600818
 10
200.0115276459
 20
54.1972275628
 10
200.022683048
 20
54.2573438439
 10
200.0336092858
 20
54.3182303398
 10
200.0443012363
 20
54.379852172
 10
200.0547875737
 20
54.4423700265
 10
200.0650819783
 20
54.5058689082
 10
200.075217904
 20
54.5705693655
 10
200.0852228884
 20
54.6366779081
 10
200.0951172618
 20
54.7043740859
 10
200.1049295637
 20
54.773915156
 10
200.1146538128
 20
54.8453292854
 10
200.1242978847
 20
54.9187468523
 10
200.1338477453
 20
54.9941317769
 10
200.1432940127
 20
55.0714714673
 10
200.1526334128
 20
55.1507951151
 10
200.1618548754
 20
55.2320575485
 10
200.1709723442
 20
55.3154319311
 10
200.1799902635
 20
55.4010184515
 10
200.1889196223
 20
55.4889908677
 10
200.1977684246
 20
55.5795104241
 10
200.2065422319
 20
55.6727287875
 10
200.2152460219
 20
55.7688056168
 10
200.2238824096
 20
55.8678891994
 10
200.2324559902
 20
55.9701656625
 10
200.2409592145
 20
56.0756879264
 10
200.2493928143
 20
56.1846159232
 10
200.2577329567
 20
56.2967893318
 10
200.2659634131
 20
56.4121189837
 10
200.2740652547
 20
56.5304521854
 10
200.2820211713
 20
56.651628323
 10
200.2898146366
 20
56.7754667166
 10
200.2974297742
 20
56.9017635073
 10
200.3048525876
 20
57.0303110003
 10
200.3120679117
 20
57.1608445906
 10
200.3190691495
 20
57.2932210452
 10
200.3258475897
 20
57.4272344551
 10
200.3323983394
 20
57.5627294978
 10
200.3387163004
 20
57.6995262416
 10
200.3447968262
 20
57.8374319117
 10
200.3506356461
 20
57.976237476
 10
200.356230576
 20
58.1157592413
 10
200.3615767171
 20
58.2557190071
 10
200.3666817733
 20
58.396152614
 10
200.3715485845
 20
58.5369773967
 10
200.3761853699
 20
58.6782781116
 10
200.3805981602
 20
58.8201031297
 10
200.3847922952
 20
58.9625042739
 10
200.3887726058
 20
59.1055416663
 10
200.3925427676
 20
59.2492604072
 10
200.3961069931
 20
59.3937536708
 10
200.3994650042
 20
59.5389537594
 10
200.4026179475
 20
59.684855738
 10
200.4055649961
 20
59.8313656058
 10
200.4083057728
 20
59.9783999114
 10
200.4108408188
 20
60.125917455
 10
200.4131702672
 20
60.2738534057
 10
200.4152950598
 20
60.4221944303
 10
200.4172158123
 20
60.5709163351
 10
200.4189329467
 20
60.7199888749
 10
200.4204468837
 20
60.8693896805
 10
200.4217577055
 20
61.0190719208
 10
200.4228655686
 20
61.1689962356
 10
200.423770561
 20
61.3191181617
 10
200.4244727795
 20
61.4693932538
 10
200.4249723232
 20
61.6197815803
 10
200.4252692732
 20
61.7702484769
 10
200.4253637954
 20
62.4156483791
  0
LINE
  5
367
100
AcDbEntity
  8
BEZUGSACHSEN
100
AcDbLine
 62
7
  6
CONTINUOUS
 10
77.8281033231
 20
48.9156483791
 11
193.9624328365
 21
48.9156483791
  0
LINE
  5
368
100
AcDbEntity
  8
0
100
AcDbLine
 62
7
  6
CONTINUOUS
 10
140.6286723532
 20
45.0431483791
 11
139.8201616697
 21
45.4389824674
  0
LINE
  5
369
100
AcDbEntity
  8
0
100
AcDbLine
 62
7
  6
CONTINUOUS
 10
140.8307999887
 20
46.2306483791
 11
140.2244170822
 21
46.6264824674
  0
LINE
  5
36A
100
AcDbEntity
  8
0
100
AcDbLine
 62
7
  6
CONTINUOUS
 10
128.3369346769
 20
26.729118887
 11
128.3369346769
 21
27.0277498876
  0
LINE
  5
36B
100
AcDbEntity
  8
0
100
AcDbLine
 62
7
  6
CONTINUOUS
 10
129.5036014827
 20
26.5561110984
 11
129.5036014827
 21
26.9067577894
  0
LINE
  5
36C
100
AcDbEntity
  8
0
100
AcDbLine
 62
7
  6
CONTINUOUS
 10
130.5244348855
 20
26.9067577894
 11
130.5244348855
 21
27.38073129
  0
LINE
  5
36D
100
AcDbEntity
  8
0
100
AcDbLine
 62
7
  6
CONTINUOUS
 10
139.8201616697
 20
45.4389824674
 11
139.011651057
 21
46.2306483791
  0
LINE
  5
36E
100
AcDbEntity
  8
0
100
AcDbLine
 62
7
  6
CONTINUOUS
 10
140.2244170822
 20
46.6264824674
 11
139.8201616697
 21
47.2202324674
  0
LINE
  5
36F
100
AcDbEntity
  8
0
100
AcDbLine
 62
7
  6
CONTINUOUS
 10
139.011651057
 20
46.2306483791
 11
138.607395733
 21
47.0223142907
  0
LINE
  5
370
100
AcDbEntity
  8
0
100
AcDbLine
 62
7
  6
CONTINUOUS
 10
133.0036012741
 20
25.8104720667
 11
133.0036012741
 21
28.7092359626
  0
LINE
  5
371
100
AcDbEntity
  8
0
100
AcDbLine
 62
7
  6
CONTINUOUS
 10
133.8786016913
 20
25.8104720667
 11
133.8786016913
 21
28.7123612678
  0
LINE
  5
372
100
AcDbEntity
  8
0
100
AcDbLine
 62
7
  6
CONTINUOUS
 10
135.3369344683
 20
26.5561110984
 11
135.3369344683
 21
26.9067577894
  0
LINE
  5
373
100
AcDbEntity
  8
0
100
AcDbLine
 62
7
  6
CONTINUOUS
 10
136.5036016913
 20
26.9669975176
 11
136.5036016913
 21
28.7123612678
  0
LINE
  5
374
100
AcDbEntity
  8
0
100
AcDbLine
 62
7
  6
CONTINUOUS
 10
139.8201616697
 20
47.2202324674
 11
139.6180340342
 21
48.0118983791
  0
LINE
  5
375
100
AcDbEntity
  8
0
100
AcDbLine
 62
7
  6
CONTINUOUS
 10
138.607395733
 20
47.0223142907
 11
138.4052680798
 21
48.0118983791
  0
LINE
  5
376
100
AcDbEntity
  8
0
100
AcDbLine
 62
7
  6
CONTINUOUS
 10
136.7952680798
 20
26.2240510194
 11
136.7952680798
 21
26.4433527494
  0
LINE
  5
377
100
AcDbEntity
  8
0
100
AcDbLine
 62
7
  6
CONTINUOUS
 10
137.2327680798
 20
26.0130737731
 11
137.2327680798
 21
26.2619905066
  0
LINE
  5
378
100
AcDbEntity
  8
0
100
AcDbLine
 62
7
  6
CONTINUOUS
 10
137.2327680798
 20
27.2758778262
 11
137.2327680798
 21
28.7123612678
  0
LINE
  5
379
100
AcDbEntity
  8
0
100
AcDbLine
 62
7
  6
CONTINUOUS
 10
137.5244344683
 20
26.9669975176
 11
137.5244344683
 21
27.3519452621
  0
LINE
  5
37A
100
AcDbEntity
  8
0
100
AcDbLine
 62
7
  6
CONTINUOUS
 10
137.9619344683
 20
25.8603342424
 11
137.9619344683
 21
26.0522266235
  0
LINE
  5
37B
100
AcDbEntity
  8
0
100
AcDbLine
 62
7
  6
CONTINUOUS
 10
138.1077680798
 20
27.150790914
 11
138.1077680798
 21
27.4802683747
  0
LINE
  5
37C
100
AcDbEntity
  8
0
100
AcDbLine
 62
7
  6
CONTINUOUS
 10
138.4052680798
 20
48.0118983791
 11
138.4052680798
 21
48.9156483791
  0
LINE
  5
37D
100
AcDbEntity
  8
0
100
AcDbLine
 62
7
  6
CONTINUOUS
 10
138.4052680798
 20
75.4156483791
 11
138.4052680798
 21
76.313981618
  0
LINE
  5
37E
100
AcDbEntity
  8
0
100
AcDbLine
 62
7
  6
CONTINUOUS
 10
138.6911016913
 20
25.8104720667
 11
138.6911016913
 21
25.9823053291
  0
LINE
  5
37F
100
AcDbEntity
  8
0
100
AcDbLine
 62
7
  6
CONTINUOUS
 10
138.6911016913
 20
27.2130788098
 11
138.6911016913
 21
27.5321790142
  0
LINE
  5
380
100
AcDbEntity
  8
0
100
AcDbLine
 62
7
  6
CONTINUOUS
 10
139.5661016913
 20
25.8104720667
 11
139.5661016913
 21
25.9823053291
  0
LINE
  5
381
100
AcDbEntity
  8
0
100
AcDbLine
 62
7
  6
CONTINUOUS
 10
139.5661016913
 20
27.2130788098
 11
139.5661016913
 21
27.5321790142
  0
LINE
  5
382
100
AcDbEntity
  8
0
100
AcDbLine
 62
7
  6
CONTINUOUS
 10
139.6180340342
 20
48.0118983791
 11
139.6180340342
 21
48.9156483791
  0
LINE
  5
383
100
AcDbEntity
  8
0
100
AcDbLine
 62
7
  6
CONTINUOUS
 10
140.1494344683
 20
27.150790914
 11
140.1494344683
 21
27.4802683895
  0
LINE
  5
384
100
AcDbEntity
  8
0
100
AcDbLine
 62
7
  6
CONTINUOUS
 10
140.2952680798
 20
25.8603342424
 11
140.2952680798
 21
26.0522266235
  0
LINE
  5
385
100
AcDbEntity
  8
0
100
AcDbLine
 62
7
  6
CONTINUOUS
 10
140.5869353028
 20
27.0277498876
 11
140.5869353028
 21
27.3902374474
  0
LINE
  5
386
100
AcDbEntity
  8
0
100
AcDbLine
 62
7
  6
CONTINUOUS
 10
140.8786008568
 20
26.8470311424
 11
140.8786008568
 21
27.3108100017
  0
LINE
  5
387
100
AcDbEntity
  8
0
100
AcDbLine
 62
7
  6
CONTINUOUS
 10
141.0244353028
 20
26.0130737731
 11
141.0244353028
 21
26.2619905066
  0
LINE
  5
388
100
AcDbEntity
  8
0
100
AcDbLine
 62
7
  6
CONTINUOUS
 10
141.0244353028
 20
26.5561110984
 11
141.0244353028
 21
27.101046039
  0
LINE
  5
389
100
AcDbEntity
  8
0
100
AcDbLine
 62
7
  6
CONTINUOUS
 10
141.4619353028
 20
26.2240510194
 11
141.4619353028
 21
26.5416756841
  0
LINE
  5
38A
100
AcDbEntity
  8
0
100
AcDbLine
 62
7
  6
CONTINUOUS
 10
141.4619353028
 20
28.3499830741
 11
141.4619353028
 21
28.7123612678
  0
LINE
  5
38B
100
AcDbEntity
  8
0
100
AcDbLine
 62
7
  6
CONTINUOUS
 10
141.7536008568
 20
26.4994735086
 11
141.7536008568
 21
26.729118887
  0
LINE
  5
38C
100
AcDbEntity
  8
0
100
AcDbLine
 62
7
  6
CONTINUOUS
 10
142.6499489911
 20
48.0118983791
 11
142.6499489911
 21
48.9156483791
  0
LINE
  5
38D
100
AcDbEntity
  8
0
100
AcDbLine
 62
7
  6
CONTINUOUS
 10
143.862714804
 20
48.0118983791
 11
143.862714804
 21
48.9156483791
  0
LINE
  5
38E
100
AcDbEntity
  8
0
100
AcDbLine
 62
7
  6
CONTINUOUS
 10
145.6818640895
 20
45.6368983791
 11
145.6818640895
 21
46.8243983791
  0
LINE
  5
38F
100
AcDbEntity
  8
0
100
AcDbLine
 62
7
  6
CONTINUOUS
 10
145.7640180798
 20
28.1502822882
 11
145.7640180798
 21
28.4274186009
  0
LINE
  5
390
100
AcDbEntity
  8
0
100
AcDbLine
 62
7
  6
CONTINUOUS
 10
146.2015180798
 20
27.8809504676
 11
146.2015180798
 21
28.4470310337
  0
LINE
  5
391
100
AcDbEntity
  8
0
100
AcDbLine
 62
7
  6
CONTINUOUS
 10
142.4478213556
 20
47.2202324674
 11
142.6499489911
 21
48.0118983791
  0
LINE
  5
392
100
AcDbEntity
  8
0
100
AcDbLine
 62
7
  6
CONTINUOUS
 10
146.6390180798
 20
27.8809504676
 11
146.6390180798
 21
28.4470310337
  0
LINE
  5
393
100
AcDbEntity
  8
0
100
AcDbLine
 62
7
  6
CONTINUOUS
 10
146.6925022669
 20
48.0118983791
 11
146.6925022669
 21
48.9156483791
  0
LINE
  5
394
100
AcDbEntity
  8
0
100
AcDbLine
 62
7
  6
CONTINUOUS
 10
147.0765180798
 20
28.1502822882
 11
147.0765180798
 21
28.4274186009
  0
LINE
  5
395
100
AcDbEntity
  8
0
100
AcDbLine
 62
7
  6
CONTINUOUS
 10
147.9052680798
 20
48.2098142907
 11
147.9052680798
 21
48.9156483791
  0
LINE
  5
396
100
AcDbEntity
  8
0
100
AcDbLine
 62
7
  6
CONTINUOUS
 10
147.9052680798
 20
78.2931483791
 11
147.9052680798
 21
79.4806483791
  0
LINE
  5
397
100
AcDbEntity
  8
0
100
AcDbLine
 62
7
  6
CONTINUOUS
 10
143.6605871685
 20
47.0223142907
 11
143.862714804
 21
48.0118983791
  0
LINE
  5
398
100
AcDbEntity
  8
0
100
AcDbLine
 62
7
  6
CONTINUOUS
 10
147.7031404443
 20
47.2202324674
 11
147.9052680798
 21
48.2098142907
  0
LINE
  5
399
100
AcDbEntity
  8
0
100
AcDbLine
 62
7
  6
CONTINUOUS
 10
146.4903746314
 20
47.4181483791
 11
146.6925022669
 21
48.0118983791
  0
LINE
  5
39A
100
AcDbEntity
  8
0
100
AcDbLine
 62
7
  6
CONTINUOUS
 10
143.2563318975
 20
46.2306483791
 11
143.6605871685
 21
47.0223142907
  0
LINE
  5
39B
100
AcDbEntity
  8
0
100
AcDbLine
 62
7
  6
CONTINUOUS
 10
142.0435660847
 20
46.6264824674
 11
142.4478213556
 21
47.2202324674
  0
LWPOLYLINE
  5
39C
100
AcDbEntity
  8
BEZUGSACHSEN
100
AcDbPolyline
 62
7
  6
CONTINUOUS
 90
157
 70
0
 10
77.8281037588
 20
75.4156483777
 10
77.7719970152
 20
75.4153873761
 10
77.6477020456
 20
75.4129494869
 10
77.523484756
 20
75.4079500252
 10
77.3993977676
 20
75.4003912
 10
77.2754936714
 20
75.3902763139
 10
77.1518250006
 20
75.3776097642
 10
77.0284441578
 20
75.362397037
 10
76.9054034544
 20
75.3446447123
 10
76.782754952
 20
75.3243604417
 10
76.6605508347
 20
75.3015530127
 10
76.5388429463
 20
75.2762322813
 10
76.4176830891
 20
75.2484092307
 10
76.2971227196
 20
75.2180959129
 10
76.1772131249
 20
75.1853054904
 10
76.0580048973
 20
75.1500520889
 10
75.939549665
 20
75.1123513248
 10
75.8218970649
 20
75.0722193952
 10
75.7051013216
 20
75.0296753649
 10
75.5892145183
 20
74.9847390653
 10
75.474289553
 20
74.9374321556
 10
75.3603782662
 20
74.8877774501
 10
75.2475321308
 20
74.8357991904
 10
75.1358018155
 20
74.7815228626
 10
75.0252372524
 20
74.7249752186
 10
74.9158874946
 20
74.6661841958
 10
74.8078010126
 20
74.6051790738
 10
74.7010251606
 20
74.5419901799
 10
74.5956069621
 20
74.4766493462
 10
74.4915920877
 20
74.4091893094
 10
74.3890259753
 20
74.3396444231
 10
74.2879465153
 20
74.2680454718
 10
74.1884153878
 20
74.1944423117
 10
74.0904671533
 20
74.1188677383
 10
73.9942092951
 20
74.0414154911
 10
73.8997217029
 20
73.9621669481
 10
73.8070939568
 20
73.8812204215
 10
73.7164248656
 20
73.7986932864
 10
73.6277332399
 20
73.7146384523
 10
73.5410879434
 20
73.6291607039
 10
73.4564188316
 20
73.5422291981
 10
73.3736915392
 20
73.4538395168
 10
73.2928812804
 20
73.3639907691
 10
73.2137986595
 20
73.272481536
 10
73.1369163904
 20
73.1798854302
 10
73.0623087574
 20
73.0863571936
 10
72.990810488
 20
72.9930810256
 10
72.9231478817
 20
72.9012735389
 10
72.8593180612
 20
72.8112742201
 10
72.7997263921
 20
72.7240507311
 10
72.7436989475
 20
72.6390113168
 10
72.6908685488
 20
72.5559282098
 10
72.6408748467
 20
72.4745220599
 10
72.5933115085
 20
72.3943705117
 10
72.5480953735
 20
72.315545815
 10
72.505052137
 20
72.2379479283
 10
72.4640964933
 20
72.1616174108
 10
72.4251259261
 20
72.0865537833
 10
72.3880393834
 20
72.012747198
 10
72.3527312755
 20
71.9401655197
 10
72.3191348085
 20
71.8688453491
 10
72.2871635819
 20
71.7987744228
 10
72.2567821808
 20
71.7300464045
 10
72.227943644
 20
71.6627303445
 10
72.2005940508
 20
71.5968775074
 10
72.1746849501
 20
71.5325497289
 10
72.1501555887
 20
71.4697748365
 10
72.1269713121
 20
71.408644099
 10
72.1050139902
 20
71.3490199113
 10
72.0842175353
 20
71.2908861021
 10
72.0644242642
 20
71.2339486343
 10
72.0455015646
 20
71.1779467426
 10
72.0273636301
 20
71.122728362
 10
72.0099027897
 20
71.0680503368
 10
71.9930901786
 20
71.0138958357
 10
71.9768803898
 20
70.9601884748
 10
71.9612297713
 20
70.9068472941
 10
71.9461042584
 20
70.8538146082
 10
71.9314428096
 20
70.8009262299
 10
71.9171945591
 20
70.7480363763
 10
71.9033143279
 20
70.6950041125
 10
71.8897531976
 20
70.6416574158
 10
71.876487842
 20
70.5879100138
 10
71.8634842704
 20
70.5336217371
 10
71.8507338822
 20
70.4787482242
 10
71.838218891
 20
70.4232009638
 10
71.8259337899
 20
70.366940502
 10
71.8138625865
 20
70.3098756371
 10
71.8020165086
 20
70.2520421911
 10
71.7903973075
 20
70.1934366763
 10
71.7790085137
 20
70.1340691953
 10
71.7678531116
 20
70.0739529142
 10
71.7569268738
 20
70.0130664183
 10
71.7462349233
 20
69.9514445861
 10
71.7357485859
 20
69.8889267316
 10
71.7254541813
 20
69.8254278499
 10
71.7153182556
 20
69.7607273926
 10
71.7053132712
 20
69.69461885
 10
71.6954188978
 20
69.6269226722
 10
71.6856065959
 20
69.5573816021
 10
71.6758823468
 20
69.4859674727
 10
71.6662382749
 20
69.4125499058
 10
71.6566884143
 20
69.3371649812
 10
71.6472421469
 20
69.2598252908
 10
71.6379027468
 20
69.180501643
 10
71.6286812842
 20
69.0992392096
 10
71.6195638154
 20
69.015864827
 10
71.6105458961
 20
68.9302783066
 10
71.6016165373
 20
68.8423058904
 10
71.592767735
 20
68.751786334
 10
71.5839939277
 20
68.6585679706
 10
71.5752901377
 20
68.5624911413
 10
71.56665375
 20
68.4634075587
 10
71.5580801694
 20
68.3611310956
 10
71.5495769451
 20
68.2556088317
 10
71.5411433453
 20
68.1466808349
 10
71.5328032029
 20
68.0345074263
 10
71.5245727465
 20
67.9191777744
 10
71.516470905
 20
67.8008445727
 10
71.5085149883
 20
67.6796684351
 10
71.500721523
 20
67.5558300415
 10
71.4931063854
 20
67.4295332508
 10
71.485683572
 20
67.3009857578
 10
71.4784682479
 20
67.1704521675
 10
71.4714670101
 20
67.0380757129
 10
71.4646885699
 20
66.904062303
 10
71.4581378202
 20
66.7685672603
 10
71.4518198592
 20
66.6317705165
 10
71.4457393334
 20
66.4938648464
 10
71.4399005135
 20
66.3550592821
 10
71.4343055836
 20
66.2155375169
 10
71.4289594425
 20
66.075577751
 10
71.4238543863
 20
65.9351441441
 10
71.4189875751
 20
65.7943193614
 10
71.4143507897
 20
65.6530186466
 10
71.4099379994
 20
65.5111936284
 10
71.4057438644
 20
65.3687924843
 10
71.4017635538
 20
65.2257550918
 10
71.397993392
 20
65.0820363509
 10
71.3944291665
 20
64.9375430873
 10
71.3910711554
 20
64.7923429987
 10
71.3879182121
 20
64.6464410201
 10
71.3849711635
 20
64.4999311523
 10
71.3822303868
 20
64.3528968467
 10
71.3796953408
 20
64.2053793031
 10
71.3773658924
 20
64.0574433524
 10
71.3752410998
 20
63.9091023278
 10
71.3733203473
 20
63.7603804231
 10
71.3716032129
 20
63.6113078832
 10
71.3700892759
 20
63.4619070776
 10
71.3687784541
 20
63.3122248374
 10
71.367670591
 20
63.1623005225
 10
71.3667655986
 20
63.0121785964
 10
71.3660633801
 20
62.8619035043
 10
71.3655638364
 20
62.7115151778
 10
71.3652668864
 20
62.5610482812
 10
71.3651723643
 20
62.4156483791
  0
LINE
  5
39D
100
AcDbEntity
  8
BEZUGSACHSEN
100
AcDbLine
 62
7
  6
CONTINUOUS
 10
137.6475553875
 20
75.4156483791
 11
77.8281033231
 21
75.4156483791
  0
LINE
  5
39E
100
AcDbEntity
  8
RUNDUNGEN
100
AcDbLine
 62
7
  6
CONTINUOUS
 10
137.6475553875
 20
75.4156483791
 11
193.9624328365
 21
75.4156483791
  0
LINE
  5
39F
100
AcDbEntity
  8
0
100
AcDbLine
 62
7
  6
CONTINUOUS
 10
81.5010575298
 20
75.9156483791
 11
89.4352680798
 21
75.9156483791
  0
LINE
  5
3A0
100
AcDbEntity
  8
0
100
AcDbLine
 62
7
  6
CONTINUOUS
 10
139.9370616831
 20
75.4156483791
 11
139.6180340342
 21
75.5223151401
  0
LINE
  5
3A1
100
AcDbEntity
  8
0
100
AcDbLine
 62
7
  6
CONTINUOUS
 10
147.0967575379
 20
46.4285642907
 11
147.7031404443
 21
47.2202324674
  0
LINE
  5
3A2
100
AcDbEntity
  8
0
100
AcDbLine
 62
7
  6
CONTINUOUS
 10
142.4478213556
 20
45.4389824674
 11
143.2563318975
 21
46.2306483791
  0
LINE
  5
3A3
100
AcDbEntity
  8
0
100
AcDbLine
 62
7
  6
CONTINUOUS
 10
146.0861193605
 20
47.0223142907
 11
146.4903746314
 21
47.4181483791
  0
LINE
  5
3A4
100
AcDbEntity
  8
0
100
AcDbLine
 62
7
  6
CONTINUOUS
 10
146.288246996
 20
45.8348142907
 11
147.0967575379
 21
46.4285642907
  0
LINE
  5
3A5
100
AcDbEntity
  8
0
100
AcDbLine
 62
7
  6
CONTINUOUS
 10
141.4371828951
 20
46.2306483791
 11
142.0435660847
 21
46.6264824674
  0
LINE
  5
3A6
100
AcDbEntity
  8
0
100
AcDbLine
 62
7
  6
CONTINUOUS
 10
141.6393105306
 20
45.0431483791
 11
142.4478213556
 21
45.4389824674
  0
LINE
  5
3A7
100
AcDbEntity
  8
0
100
AcDbLine
 62
7
  6
CONTINUOUS
 10
145.6818640895
 20
46.8243983791
 11
146.0861193605
 21
47.0223142907
  0
LINE
  5
3A8
100
AcDbEntity
  8
0
100
AcDbLine
 62
7
  6
CONTINUOUS
 10
145.6818640895
 20
45.6368983791
 11
146.288246996
 21
45.8348142907
  0
LINE
  5
3A9
100
AcDbEntity
  8
0
100
AcDbLine
 62
7
  6
CONTINUOUS
 10
165.8952680798
 20
95.6263633556
 11
165.8952680798
 21
75.4156483791
  0
LINE
  5
3AA
100
AcDbEntity
  8
0
100
AcDbLine
 62
7
  6
CONTINUOUS
 10
165.8952680798
 20
48.9156483791
 11
165.8952680798
 21
28.7049334025
  0
LINE
  5
3AB
100
AcDbEntity
  8
0
100
AcDbLine
 62
7
  6
CONTINUOUS
 10
141.4619353028
 20
26.5416756841
 11
141.6738323437
 21
26.7956672155
  0
LINE
  5
3AC
100
AcDbEntity
  8
0
100
AcDbLine
 62
7
  6
CONTINUOUS
 10
130.5244348855
 20
27.38073129
 11
130.9642742102
 21
27.6164268854
  0
LINE
  5
3AD
100
AcDbEntity
  8
0
100
AcDbLine
 62
7
  6
CONTINUOUS
 10
141.0244353028
 20
26.2619905066
 11
141.4619353028
 21
26.5416756841
  0
LINE
  5
3AE
100
AcDbEntity
  8
0
100
AcDbLine
 62
7
  6
CONTINUOUS
 10
146.6390180798
 20
28.4470310337
 11
146.8460083318
 21
28.5765990523
  0
LINE
  5
3AF
100
AcDbEntity
  8
0
100
AcDbLine
 62
7
  6
CONTINUOUS
 10
140.2952680798
 20
26.0522266235
 11
141.0244353028
 21
26.2619905066
  0
LINE
  5
3B0
100
AcDbEntity
  8
0
100
AcDbLine
 62
7
  6
CONTINUOUS
 10
160.8952680798
 20
99.6127229705
 11
110.8952680798
 21
99.6127229705
  0
LINE
  5
3B1
100
AcDbEntity
  8
0
100
AcDbLine
 62
7
  6
CONTINUOUS
 10
195.8952681798
 20
54.9156483791
 11
195.8952681798
 21
69.4156483791
  0
LWPOLYLINE
  5
3B2
100
AcDbEntity
  8
RUNDUNGEN
100
AcDbPolyline
 62
7
  6
CONTINUOUS
 90
157
 70
0
 10
200.4253637953
 20
62.4156483791
 10
200.4252692706
 20
62.5610502398
 10
200.4249723129
 20
62.7115191034
 10
200.424472756
 20
62.8619094053
 10
200.4237705188
 20
63.0121864733
 10
200.4228655025
 20
63.1623103694
 10
200.4217576102
 20
63.3122366426
 10
200.4204467539
 20
63.4619208218
 10
200.4189327772
 20
63.6113235456
 10
200.4172155979
 20
63.7603979719
 10
200.4152947953
 20
63.9091217521
 10
200.413169947
 20
64.0574646524
 10
200.410840437
 20
64.2054024939
 10
200.4083053227
 20
64.3529219814
 10
200.4055644716
 20
64.4999582242
 10
200.4026173429
 20
64.6464700061
 10
200.3994643155
 20
64.7923737892
 10
200.3961062194
 20
64.9375754696
 10
200.3925419074
 20
65.0820701568
 10
200.3887716595
 20
65.2257901064
 10
200.3847912592
 20
65.3688286637
 10
200.3805970275
 20
65.5112310373
 10
200.3761841292
 20
65.6530574708
 10
200.3715472191
 20
65.7943599008
 10
200.3666802611
 20
65.9351868023
 10
200.3615750263
 20
66.0756231221
 10
200.3562286777
 20
66.2155860165
 10
200.3506335063
 20
66.355111378
 10
200.3447944286
 20
66.4939205155
 10
200.3387136425
 20
66.6318294109
 10
200.3323954369
 20
66.7686286805
 10
200.3258444778
 20
66.9041252287
 10
200.3190658852
 20
67.038138822
 10
200.3120645813
 20
67.1705137583
 10
200.3048492875
 20
67.3010441677
 10
200.2974266272
 20
67.4295865806
 10
200.28981175
 20
67.5558768978
 10
200.2820186468
 20
67.6797077058
 10
200.2740631815
 20
67.8008754916
 10
200.2659618678
 20
67.9191998794
 10
200.2577320011
 20
68.0345205446
 10
200.2493924942
 20
68.1466850535
 10
200.2409595562
 20
68.255604506
 10
200.2324569931
 20
68.361118895
 10
200.2238840688
 20
68.4633881498
 10
200.2152483161
 20
68.5624653257
 10
200.2065451471
 20
68.6585364031
 10
200.1977719485
 20
68.7517495994
 10
200.1889237456
 20
68.8422644985
 10
200.1799949804
 20
68.9302326987
 10
200.1709776527
 20
69.0158153755
 10
200.1618607815
 20
69.099186194
 10
200.1526399178
 20
69.1804453667
 10
200.1433011203
 20
69.2597660235
 10
200.1338554467
 20
69.33710307
 10
200.1243061611
 20
69.4124857508
 10
200.1146626379
 20
69.4859014912
 10
200.10493889
 20
69.5573143228
 10
200.0951270685
 20
69.6268543887
 10
200.0852331695
 20
69.6945497265
 10
200.0752286746
 20
69.760657447
 10
200.0650932768
 20
69.8253569549
 10
200.0547994558
 20
69.8888546768
 10
200.0443137974
 20
69.9513709564
 10
200.0336225858
 20
70.0129910448
 10
200.0226971307
 20
70.0738757418
 10
200.0115425275
 20
70.1339903215
 10
200.0001545207
 20
70.1933563354
 10
199.9885360635
 20
70.2519607498
 10
199.9766906427
 20
70.309793636
 10
199.9646199991
 20
70.3668584792
 10
199.9523353208
 20
70.4231195798
 10
199.9398206457
 20
70.4786679485
 10
199.9270704756
 20
70.5335429569
 10
199.9140670563
 20
70.5878329476
 10
199.9008018054
 20
70.6415821891
 10
199.8872408016
 20
70.6949305706
 10
199.8733608067
 20
70.7479640462
 10
199.8591128991
 20
70.8008546929
 10
199.8444519567
 20
70.8537432806
 10
199.8293270316
 20
70.9067759294
 10
199.8136770298
 20
70.960117028
 10
199.797467824
 20
71.0138244733
 10
199.7806556118
 20
71.0679796924
 10
199.7631951617
 20
71.1226584774
 10
199.7450576849
 20
71.1778774279
 10
199.7261357149
 20
71.2338791264
 10
199.7063438119
 20
71.2908146669
 10
199.6855490519
 20
71.348945833
 10
199.6635936801
 20
71.4085669344
 10
199.640411166
 20
71.4696953447
 10
199.6158827667
 20
71.5324701676
 10
199.5899740498
 20
71.5967993964
 10
199.562624251
 20
71.6626550953
 10
199.5337850213
 20
71.7299750596
 10
199.5034025015
 20
71.7987077828
 10
199.4714298996
 20
71.8687837615
 10
199.4378319922
 20
71.9401088831
 10
199.4025224748
 20
72.012695212
 10
199.3654348401
 20
72.0865055994
 10
199.3264631968
 20
72.1615728212
 10
199.2855063311
 20
72.2379070305
 10
199.2424614917
 20
72.3155091027
 10
199.197242783
 20
72.394339429
 10
199.1496766741
 20
72.4744966099
 10
199.0996802011
 20
72.555908058
 10
199.0468484539
 20
72.638993944
 10
198.9908228904
 20
72.7240311656
 10
198.9312360495
 20
72.8112484223
 10
198.8674156071
 20
72.9012357275
 10
198.7997631797
 20
72.9930311093
 10
198.7282720206
 20
73.0863001249
 10
198.6536688004
 20
73.1798251807
 10
198.576786335
 20
73.272423883
 10
198.4977015493
 20
73.3639378336
 10
198.4168896273
 20
73.4537904615
 10
198.3341607633
 20
73.5421837036
 10
198.2494906901
 20
73.6291179554
 10
198.1628448871
 20
73.7145978704
 10
198.0741533468
 20
73.7986542266
 10
197.9834845594
 20
73.8811826426
 10
197.8908569589
 20
73.9621305584
 10
197.7963693753
 20
74.0413805659
 10
197.7001112585
 20
74.1188344439
 10
197.6021625474
 20
74.1944107532
 10
197.5026306967
 20
74.2680157573
 10
197.4015503802
 20
74.3396165633
 10
197.2989834048
 20
74.4091632232
 10
197.1949676232
 20
74.4766249801
 10
197.0895484774
 20
74.5419674781
 10
196.9827716401
 20
74.6051579798
 10
196.8746841377
 20
74.6661646518
 10
196.765333327
 20
74.7249571661
 10
196.6547676835
 20
74.7815062412
 10
196.5430362561
 20
74.8357839424
 10
196.4301889745
 20
74.8877635193
 10
196.3162765053
 20
74.9374194869
 10
196.2013503193
 20
74.9847276041
 10
196.0854622545
 20
75.0296650572
 10
195.9686652043
 20
75.0722101878
 10
195.8510112557
 20
75.1123431623
 10
195.7325546338
 20
75.1500449146
 10
195.6133449821
 20
75.1852992449
 10
195.4934339351
 20
75.2180905345
 10
195.372872086
 20
75.2484046573
 10
195.2517107244
 20
75.2762284496
 10
195.1300013087
 20
75.3015498588
 10
195.0077956436
 20
75.324357901
 10
194.8851455756
 20
75.3446427197
 10
194.7621032911
 20
75.3623955267
 10
194.6387208543
 20
75.3776086701
 10
194.5150505792
 20
75.3902755694
 10
194.3911448707
 20
75.4003907383
 10
194.2670562646
 20
75.4079497793
 10
194.1428373543
 20
75.4129493899
 10
194.0185407638
 20
75.415387361
 10
193.9624324008
 20
75.4156483777
  0
ARC
  5
3B3
100
AcDbEntity
  8
0
100
AcDbCircle
 62
7
  6
CONTINUOUS
 10
115.9077089215
 20
59.5360378435
 40
125.8504739076
100
AcDbArc
 50
89.7594013852
 51
90.2417239509
  0
ARC
  5
3B4
100
AcDbEntity
  8
BEZUGSACHSEN
100
AcDbCircle
 62
7
  6
CONTINUOUS
 10
77.3651723642
 20
139.4006379738
 40
6.0
100
AcDbArc
 50
176.2163688794
 51
270.0
  0
ARC
  5
3B5
100
AcDbEntity
  8
BEZUGSACHSEN
100
AcDbCircle
 62
7
  6
CONTINUOUS
 10
113.3952680798
 20
170.9006379738
 40
11.0
100
AcDbArc
 50
180.0
 51
227.0131151298
  0
ARC
  5
3B6
100
AcDbEntity
  8
BEZUGSACHSEN
100
AcDbCircle
 62
7
  6
CONTINUOUS
 10
86.4742153798
 20
222.4006379738
 40
10.5789474
100
AcDbArc
 50
157.5
 51
202.5
  0
ARC
  5
3B7
100
AcDbEntity
  8
BEZUGSACHSEN
100
AcDbCircle
 62
7
  6
CONTINUOUS
 10
100.9493065823
 20
257.3465994713
 40
10.5789474
100
AcDbArc
 50
112.5
 51
157.5
  0
ARC
  5
3B8
100
AcDbEntity
  8
0
100
AcDbCircle
 62
7
  6
CONTINUOUS
 10
110.8952680798
 20
179.9006379738
 40
5.0
100
AcDbArc
 50
90.0
 51
180.0
  0
ARC
  5
3B9
100
AcDbEntity
  8
BEZUGSACHSEN
100
AcDbCircle
 62
7
  6
CONTINUOUS
 10
80.7049916509
 20
205.056285484
 40
5.0
100
AcDbArc
 50
169.9200000051
 51
176.2163688818
  0
ARC
  5
3BA
100
AcDbEntity
  8
BEZUGSACHSEN
100
AcDbCircle
 62
7
  6
CONTINUOUS
 10
72.4243597438
 20
215.6102385903
 40
5.0
100
AcDbArc
 50
349.92
 51
22.5
  0
ARC
  5
3BB
100
AcDbEntity
  8
BEZUGSACHSEN
100
AcDbCircle
 62
7
  6
CONTINUOUS
 10
107.3952680798
 20
182.3006379738
 40
5.0
100
AcDbArc
 50
90.0
 51
178.7480152516
  0
ARC
  5
3BC
100
AcDbEntity
  8
BEZUGSACHSEN
100
AcDbCircle
 62
7
  6
CONTINUOUS
 10
115.7771170713
 20
191.0506379738
 40
3.75
100
AcDbArc
 50
270.0
 51
57.3106021126
  0
ARC
  5
3BD
100
AcDbEntity
  8
BEZUGSACHSEN
100
AcDbCircle
 62
7
  6
CONTINUOUS
 10
194.4253637954
 20
139.4006379738
 40
6.0
100
AcDbArc
 50
270.0
 51
3.7735152152
  0
ARC
  5
3BE
100
AcDbEntity
  8
RUNDUNGEN
100
AcDbCircle
 62
7
  6
CONTINUOUS
 10
194.4253637954
 20
139.4006379738
 40
6.0
100
AcDbArc
 50
270.0
 51
3.7836311206
  0
ARC
  5
3BF
100
AcDbEntity
  8
0
100
AcDbCircle
 62
7
  6
CONTINUOUS
 10
154.5116221292
 20
224.740298038
 40
39.5000823808
100
AcDbArc
 50
264.8344316215
 51
267.2346284434
  0
ARC
  5
3C0
100
AcDbEntity
  8
0
100
AcDbCircle
 62
7
  6
CONTINUOUS
 10
154.4902741587
 20
224.3717649522
 40
39.1309486636
100
AcDbArc
 50
267.2398158706
 51
267.7473784359
  0
ARC
  5
3C1
100
AcDbEntity
  8
0
100
AcDbCircle
 62
7
  6
CONTINUOUS
 10
154.4809686447
 20
224.3986283918
 40
39.0361581394
100
AcDbArc
 50
267.4663012589
 51
269.9989717376
  0
ARC
  5
3C2
100
AcDbEntity
  8
0
100
AcDbCircle
 62
7
  6
CONTINUOUS
 10
154.4817704811
 20
224.1878316459
 40
38.9468232729
100
AcDbArc
 50
267.7492431047
 51
269.9977897747
  0
ARC
  5
3C3
100
AcDbEntity
  8
BEZUGSACHSEN
100
AcDbCircle
 62
7
  6
CONTINUOUS
 10
135.8952680798
 20
222.4006379738
 40
33.5000001
100
AcDbArc
 50
302.689397452
 51
237.310602548
  0
ARC
  5
3C4
100
AcDbEntity
  8
BEZUGSACHSEN
100
AcDbCircle
 62
7
  6
CONTINUOUS
 10
158.3952680798
 20
170.9006379738
 40
11.0
100
AcDbArc
 50
312.9868848702
 51
360.0
  0
ARC
  5
3C5
100
AcDbEntity
  8
RUNDUNGEN
100
AcDbCircle
 62
7
  6
CONTINUOUS
 10
185.3163207798
 20
222.4006379738
 40
10.5789474
100
AcDbArc
 50
337.5
 51
22.5
  0
ARC
  5
3C6
100
AcDbEntity
  8
RUNDUNGEN
100
AcDbCircle
 62
7
  6
CONTINUOUS
 10
170.8412295773
 20
257.3465994713
 40
10.5789474
100
AcDbArc
 50
66.452326898
 51
67.5
  0
ARC
  5
3C7
100
AcDbEntity
  8
RUNDUNGEN
100
AcDbCircle
 62
7
  6
CONTINUOUS
 10
170.8412295773
 20
257.3465994713
 40
10.5789474
100
AcDbArc
 50
22.5
 51
23.547673102
  0
ARC
  5
3C8
100
AcDbEntity
  8
BEZUGSACHSEN
100
AcDbCircle
 62
7
  6
CONTINUOUS
 10
135.8952680798
 20
271.8216906738
 40
10.5789474
100
AcDbArc
 50
67.5
 51
112.5
  0
ARC
  5
3C9
100
AcDbEntity
  8
BEZUGSACHSEN
100
AcDbCircle
 62
7
  6
CONTINUOUS
 10
185.3163207798
 20
222.4006379738
 40
10.5789474
100
AcDbArc
 50
337.5
 51
22.5
  0
ARC
  5
3CA
100
AcDbEntity
  8
BEZUGSACHSEN
100
AcDbCircle
 62
7
  6
CONTINUOUS
 10
170.8412295773
 20
257.3465994713
 40
10.5789474
100
AcDbArc
 50
22.5
 51
67.5
  0
ARC
  5
3CB
100
AcDbEntity
  8
0
100
AcDbCircle
 62
7
  6
CONTINUOUS
 10
160.8952680798
 20
179.9006379738
 40
5.0
100
AcDbArc
 50
0.0
 51
90.0
  0
ARC
  5
3CC
100
AcDbEntity
  8
BEZUGSACHSEN
100
AcDbCircle
 62
7
  6
CONTINUOUS
 10
191.0855445087
 20
205.056285484
 40
5.0
100
AcDbArc
 50
3.7836311182
 51
10.0799999949
  0
ARC
  5
3CD
100
AcDbEntity
  8
BEZUGSACHSEN
100
AcDbCircle
 62
7
  6
CONTINUOUS
 10
199.3661764158
 20
215.6102385903
 40
5.0
100
AcDbArc
 50
157.5
 51
190.08
  0
ARC
  5
3CE
100
AcDbEntity
  8
BEZUGSACHSEN
100
AcDbCircle
 62
7
  6
CONTINUOUS
 10
164.3952680798
 20
182.3006379738
 40
5.0
100
AcDbArc
 50
0.0
 51
90.0
  0
ARC
  5
3CF
100
AcDbEntity
  8
RUNDUNGEN
100
AcDbCircle
 62
7
  6
CONTINUOUS
 10
156.0134190883
 20
191.0506379738
 40
3.75
100
AcDbArc
 50
268.6350568461
 51
270.0
  0
ARC
  5
3D0
100
AcDbEntity
  8
BEZUGSACHSEN
100
AcDbCircle
 62
7
  6
CONTINUOUS
 10
156.0134190883
 20
191.0506379738
 40
3.75
100
AcDbArc
 50
122.6893978874
 51
270.0
  0
ARC
  5
3D1
100
AcDbEntity
  8
0
100
AcDbCircle
 62
7
  6
CONTINUOUS
 10
273.0684244475
 20
146.4006379738
 40
39.0
100
AcDbArc
 50
63.9574527139
 51
70.138496354
  0
ARC
  5
3D2
100
AcDbEntity
  8
0
100
AcDbCircle
 62
7
  6
CONTINUOUS
 10
273.0684244475
 20
146.4006379738
 40
39.0
100
AcDbArc
 50
110.6518184314
 51
116.3577372056
  0
ARC
  5
3D3
100
AcDbEntity
  8
0
100
AcDbCircle
 62
7
  6
CONTINUOUS
 10
273.0684244475
 20
146.4006379738
 40
38.5
100
AcDbArc
 50
110.9370619026
 51
166.5692318599
  0
ARC
  5
3D4
100
AcDbEntity
  8
0
100
AcDbCircle
 62
7
  6
CONTINUOUS
 10
273.0684244475
 20
146.4006379738
 40
38.5
100
AcDbArc
 50
13.4307681401
 51
69.8604289687
  0
ARC
  5
3D5
100
AcDbEntity
  8
0
100
AcDbCircle
 62
7
  6
CONTINUOUS
 10
273.0684244475
 20
147.0906379738
 40
14.55
100
AcDbArc
 50
187.452780224
 51
352.547219776
  0
ARC
  5
3D6
100
AcDbEntity
  8
0
100
AcDbCircle
 62
7
  6
CONTINUOUS
 10
273.0684244475
 20
146.4006379738
 40
14.0
100
AcDbArc
 50
10.0
 51
18.7721027923
  0
ARC
  5
3D7
100
AcDbEntity
  8
0
100
AcDbCircle
 62
7
  6
CONTINUOUS
 10
273.0684244475
 20
146.4006379738
 40
14.0
100
AcDbArc
 50
161.2278972077
 51
170.0
  0
ARC
  5
3D8
100
AcDbEntity
  8
0
100
AcDbCircle
 62
7
  6
CONTINUOUS
 10
273.0684244475
 20
147.0906379738
 40
13.75
100
AcDbArc
 50
164.5817980491
 51
15.4182019509
  0
ARC
  5
3D9
100
AcDbEntity
  8
BEZUGSACHSEN
100
AcDbCircle
 62
7
  6
CONTINUOUS
 10
272.8184244475
 20
146.4006379738
 40
13.0
100
AcDbArc
 50
179.9999938553
 51
270.0000060115
  0
ARC
  5
3DA
100
AcDbEntity
  8
BEZUGSACHSEN
100
AcDbCircle
 62
7
  6
CONTINUOUS
 10
273.3184244475
 20
146.4006379738
 40
13.0
100
AcDbArc
 50
269.9999939885
 51
0.0000061447
  0
ARC
  5
3DB
100
AcDbEntity
  8
BEZUGSACHSEN
100
AcDbCircle
 62
7
  6
CONTINUOUS
 10
280.3184244475
 20
276.4006380738
 40
6.0
100
AcDbArc
 50
0.0
 51
90.0
  0
ARC
  5
3DC
100
AcDbEntity
  8
BEZUGSACHSEN
100
AcDbCircle
 62
7
  6
CONTINUOUS
 10
265.8184244475
 20
276.4006380738
 40
6.0
100
AcDbArc
 50
90.0
 51
180.0
  0
ARC
  5
3DD
100
AcDbEntity
  8
BEZUGSACHSEN
100
AcDbCircle
 62
7
  6
CONTINUOUS
 10
81.8952679798
 20
54.9156483791
 40
6.0
100
AcDbArc
 50
180.0
 51
270.0
  0
ARC
  5
3DE
100
AcDbEntity
  8
BEZUGSACHSEN
100
AcDbCircle
 62
7
  6
CONTINUOUS
 10
189.8952681798
 20
54.9156483791
 40
6.0
100
AcDbArc
 50
270.0
 51
360.0
  0
ARC
  5
3DF
100
AcDbEntity
  8
BEZUGSACHSEN
100
AcDbCircle
 62
7
  6
CONTINUOUS
 10
81.8952679798
 20
69.4156483791
 40
6.0
100
AcDbArc
 50
90.0
 51
180.0
  0
ARC
  5
3E0
100
AcDbEntity
  8
RUNDUNGEN
100
AcDbCircle
 62
7
  6
CONTINUOUS
 10
189.8952681798
 20
69.4156483791
 40
6.0
100
AcDbArc
 50
0.0
 51
90.0
  0
SPLINE
  5
3E1
100
AcDbEntity
  8
0
100
AcDbSpline
 62
7
  6
CONTINUOUS
 70
0
 71
3
 72
9
 73
5
 74
0
 42
0.0000001
 43
0.0000001
 44
0.0000000001
 40
0.0
 40
0.0
 40
0.0
 40
0.0
 40
0.2087590757
 40
1.0
 40
1.0
 40
1.0
 40
1.0
 10
113.4576940341
 20
185.1343132253
 30
0.0
 10
113.4576968251
 20
185.1307986957
 30
0.0
 10
113.4604831857
 20
185.1138955994
 30
0.0
 10
113.4727991318
 20
185.1003785181
 30
0.0
 10
113.4828120499
 20
185.0915929891
 30
0.0
  0
SPLINE
  5
3E2
100
AcDbEntity
  8
0
100
AcDbSpline
 62
7
  6
CONTINUOUS
 70
0
 71
3
 72
18
 73
14
 74
0
 42
0.0000001
 43
0.0000001
 44
0.0000000001
 40
0.0
 40
0.0
 40
0.0
 40
0.0
 40
0.0127227767
 40
0.0300314255
 40
0.0543616286
 40
0.0864827647
 40
0.1265822581
 40
0.1745632551
 40
0.2302193907
 40
0.2932091699
 40
0.4394927862
 40
0.6093849053
 40
1.0
 40
1.0
 40
1.0
 40
1.0
 10
112.4077213764
 20
185.1343594658
 30
0.0
 10
112.4077391142
 20
185.1463374561
 30
0.0
 10
112.4202096266
 20
185.1743517752
 30
0.0
 10
112.4628930082
 20
185.2043497733
 30
0.0
 10
112.5267918595
 20
185.2318303326
 30
0.0
 10
112.6144947398
 20
185.2565505497
 30
0.0
 10
112.7254682645
 20
185.278896813
 30
0.0
 10
112.8593863667
 20
185.2987092187
 30
0.0
 10
113.0153230814
 20
185.3160074945
 30
0.0
 10
113.2638907362
 20
185.3368960345
 30
0.0
 10
113.6204178002
 20
185.355951086
 30
0.0
 10
114.2855329803
 20
185.3766289702
 30
0.0
 10
114.8132488723
 20
185.3821157637
 30
0.0
 10
115.1809909919
 20
185.3843719283
 30
0.0
  0
LINE
  5
3E3
100
AcDbEntity
  8
0
100
AcDbLine
 62
7
  6
CONTINUOUS
 10
115.1809909919
 20
185.3843719283
 11
115.3767625972
 21
185.3853917503
  0
LINE
  5
3E4
100
AcDbEntity
  8
0
100
AcDbLine
 62
7
  6
CONTINUOUS
 10
116.4361834613
 20
185.3854021543
 11
116.6343551945
 21
185.3843720521
  0
SPLINE
  5
3E5
100
AcDbEntity
  8
0
100
AcDbSpline
 62
7
  6
CONTINUOUS
 70
0
 71
3
 72
18
 73
14
 74
0
 42
0.0000001
 43
0.0000001
 44
0.0000000001
 40
0.0
 40
0.0
 40
0.0
 40
0.0
 40
0.3906174971
 40
0.5605104359
 40
0.7067944018
 40
0.7697841429
 40
0.8254400792
 40
0.8734207156
 40
0.9135196886
 40
0.9456401564
 40
0.9699695973
 40
0.9872775162
 40
1.0
 40
1.0
 40
1.0
 40
1.0
 10
116.6343551945
 20
185.3843720521
 30
0.0
 10
117.0021028847
 20
185.3821159273
 30
0.0
 10
117.5298265597
 20
185.3766291708
 30
0.0
 10
118.1949510859
 20
185.3559510291
 30
0.0
 10
118.5514824173
 20
185.3368956358
 30
0.0
 10
118.8000523935
 20
185.3160066334
 30
0.0
 10
118.9559899182
 20
185.2987079727
 30
0.0
 10
119.0899081679
 20
185.2788951213
 30
0.0
 10
119.2008811256
 20
185.2565483498
 30
0.0
 10
119.2885828454
 20
185.2318274965
 30
0.0
 10
119.352479768
 20
185.2043462693
 30
0.0
 10
119.3951613938
 20
185.1743471923
 30
0.0
 10
119.407628665
 20
185.1463319349
 30
0.0
 10
119.4076450569
 20
185.1343541107
 30
0.0
  0
SPLINE
  5
3E6
100
AcDbEntity
  8
0
100
AcDbSpline
 62
7
  6
CONTINUOUS
 70
0
 71
3
 72
16
 73
12
 74
0
 42
0.0000001
 43
0.0000001
 44
0.0000000001
 40
0.0
 40
0.0
 40
0.0
 40
0.0
 40
0.0466024467
 40
0.0773304384
 40
0.1143696173
 40
0.2085431653
 40
0.3291276636
 40
0.4734576839
 40
0.6372785032
 40
0.8150078039
 40
1.0
 40
1.0
 40
1.0
 40
1.0
 10
152.4552680798
 20
184.3656794593
 30
0.0
 10
152.4552680798
 20
184.3357156112
 30
0.0
 10
152.4799228007
 20
184.2870533905
 30
0.0
 10
152.533015042
 20
184.2367489065
 30
0.0
 10
152.6188903172
 20
184.1768614293
 30
0.0
 10
152.7667389851
 20
184.1089317006
 30
0.0
 10
152.9869434153
 20
184.0385530348
 30
0.0
 10
153.2563465336
 20
183.978620685
 30
0.0
 10
153.5655498613
 20
183.9325474502
 30
0.0
 10
153.9030502831
 20
183.9035320029
 30
0.0
 10
154.1363241515
 20
183.8969627937
 30
0.0
 10
154.2552680798
 20
183.8969627937
 30
0.0
  0
LINE
  5
3E7
100
AcDbEntity
  8
0
100
AcDbLine
 62
7
  6
CONTINUOUS
 10
152.7552982176
 20
185.40063224
 11
152.8251499641
 21
185.3976060269
  0
SPLINE
  5
3E8
100
AcDbEntity
  8
0
100
AcDbSpline
 62
7
  6
CONTINUOUS
 70
0
 71
3
 72
16
 73
12
 74
0
 42
0.0000001
 43
0.0000001
 44
0.0000000001
 40
0.0
 40
0.0
 40
0.0
 40
0.0
 40
0.1849927797
 40
0.3627232247
 40
0.5265446001
 40
0.6708745384
 40
0.7914583132
 40
0.8856310562
 40
0.9226699446
 40
0.9533976963
 40
1.0
 40
1.0
 40
1.0
 40
1.0
 10
156.4752680798
 20
183.8969627937
 30
0.0
 10
156.5942123843
 20
183.8969627937
 30
0.0
 10
156.8274873644
 20
183.9035320844
 30
0.0
 10
157.1649892508
 20
183.932547725
 30
0.0
 10
157.4741935703
 20
183.9786214156
 30
0.0
 10
157.7435964644
 20
184.0385540422
 30
0.0
 10
157.9637998157
 20
184.1089327098
 30
0.0
 10
158.1116472569
 20
184.1768622965
 30
0.0
 10
158.1975217193
 20
184.2367494207
 30
0.0
 10
158.2506135871
 20
184.2870536869
 30
0.0
 10
158.2752680798
 20
184.3357157028
 30
0.0
 10
158.2752680798
 20
184.3656794593
 30
0.0
  0
SPLINE
  5
3E9
100
AcDbEntity
  8
0
100
AcDbSpline
 62
7
  6
CONTINUOUS
 70
0
 71
3
 72
9
 73
5
 74
0
 42
0.0000001
 43
0.0000001
 44
0.0000000001
 40
0.0
 40
0.0
 40
0.0
 40
0.0
 40
0.3077603498
 40
1.0
 40
1.0
 40
1.0
 40
1.0
 10
118.3325543111
 20
185.0915929891
 30
0.0
 10
118.3364315754
 20
185.0949949761
 30
0.0
 10
118.3483492323
 20
185.1064742049
 30
0.0
 10
118.3576621567
 20
185.1227085901
 30
0.0
 10
118.3576722231
 20
185.1343107566
 30
0.0
  0
SPLINE
  5
3EA
100
AcDbEntity
  8
0
100
AcDbSpline
 62
7
  6
CONTINUOUS
 70
0
 71
3
 72
9
 73
5
 74
0
 42
0.0000001
 43
0.0000001
 44
0.0000000001
 40
0.0
 40
0.0
 40
0.0
 40
0.0
 40
0.2180531979
 40
1.0
 40
1.0
 40
1.0
 40
1.0
 10
118.3576722231
 20
185.1343107566
 30
0.0
 10
118.3576750784
 20
185.1376016244
 30
0.0
 10
118.3553870052
 20
185.1527954182
 30
0.0
 10
118.3439683335
 20
185.1648690239
 30
0.0
 10
118.3346994772
 20
185.1721735496
 30
0.0
  0
SPLINE
  5
3EB
100
AcDbEntity
  8
0
100
AcDbSpline
 62
7
  6
CONTINUOUS
 70
0
 71
3
 72
14
 73
10
 74
0
 42
0.0000001
 43
0.0000001
 44
0.0000000001
 40
0.0
 40
0.0
 40
0.0
 40
0.0
 40
0.0453996064
 40
0.1166249116
 40
0.21356406
 40
0.3345635586
 40
0.4771093505
 40
0.638015595
 40
1.0
 40
1.0
 40
1.0
 40
1.0
 10
118.3346994772
 20
185.1721735496
 30
0.0
 10
118.3119219072
 20
185.1901239136
 30
0.0
 10
118.2406768105
 20
185.217636111
 30
0.0
 10
118.1083257099
 20
185.2480127542
 30
0.0
 10
117.9249652465
 20
185.2740675409
 30
0.0
 10
117.6958162396
 20
185.2958155302
 30
0.0
 10
117.4251569386
 20
185.3131080108
 30
0.0
 10
117.0004789283
 20
185.3313362309
 30
0.0
 10
116.6664809203
 20
185.3380915204
 30
0.0
 10
116.4352680798
 20
185.3409163761
 30
0.0
  0
SPLINE
  5
3EC
100
AcDbEntity
  8
KONSTRUKTIONSELEMENTE
100
AcDbSpline
 62
7
  6
CONTINUOUS
 70
0
 71
3
 72
14
 73
10
 74
0
 42
0.0000001
 43
0.0000001
 44
0.0000000001
 40
0.0
 40
0.0
 40
0.0
 40
0.0
 40
0.0681157877
 40
0.1356870415
 40
0.2673162885
 40
0.3946458075
 40
0.5186641021
 40
0.7605644731
 40
1.0
 40
1.0
 40
1.0
 40
1.0
 10
110.8952680798
 20
155.3430428261
 30
0.0
 10
110.6723489279
 20
155.3430428261
 30
0.0
 10
110.2272698194
 20
155.3036141258
 30
0.0
 10
109.3785597317
 20
155.0773022031
 30
0.0
 10
108.4270838743
 20
154.5520446618
 30
0.0
 10
107.5264729283
 20
153.6631757646
 30
0.0
 10
106.6450411071
 20
152.2990261222
 30
0.0
 10
106.0234100877
 20
150.3857363402
 30
0.0
 10
105.8952680798
 20
148.80620245
 30
0.0
 10
105.8952680798
 20
148.0226137051
 30
0.0
  0
SPLINE
  5
3ED
100
AcDbEntity
  8
KONSTRUKTIONSELEMENTE
100
AcDbSpline
 62
7
  6
CONTINUOUS
 70
0
 71
3
 72
14
 73
10
 74
0
 42
0.0000001
 43
0.0000001
 44
0.0000000001
 40
0.0
 40
0.0
 40
0.0
 40
0.0
 40
0.239433434
 40
0.4813301462
 40
0.6053487559
 40
0.7326793527
 40
0.8643110136
 40
0.931883786
 40
1.0
 40
1.0
 40
1.0
 40
1.0
 10
165.8952680798
 20
148.0226137051
 30
0.0
 10
165.8952680798
 20
148.8061954661
 30
0.0
 10
165.7671279164
 20
150.3857104337
 30
0.0
 10
165.1455088359
 20
152.2989826389
 30
0.0
 10
164.2640959102
 20
153.6631352175
 30
0.0
 10
163.3634836668
 20
154.552020414
 30
0.0
 10
162.4119971892
 20
155.0772940467
 30
0.0
 10
161.5632738419
 20
155.3036114833
 30
0.0
 10
161.1181885884
 20
155.3430428261
 30
0.0
 10
160.8952680798
 20
155.3430428261
 30
0.0
  0
SPLINE
  5
3EE
100
AcDbEntity
  8
0
100
AcDbSpline
 62
7
  6
CONTINUOUS
 70
0
 71
3
 72
14
 73
10
 74
0
 42
0.0000001
 43
0.0000001
 44
0.0000000001
 40
0.0
 40
0.0
 40
0.0
 40
0.0
 40
0.3610377693
 40
0.5216380827
 40
0.664036037
 40
0.7850738804
 40
0.8822576317
 40
0.9539441618
 40
1.0
 40
1.0
 40
1.0
 40
1.0
 10
116.4352680798
 20
184.8401395581
 30
0.0
 10
116.6657001633
 20
184.8372875643
 30
0.0
 10
116.9986426551
 20
184.8304723733
 30
0.0
 10
117.4220985756
 20
184.8121237429
 30
0.0
 10
117.6922742127
 20
184.7947182765
 30
0.0
 10
117.9213323491
 20
184.7728347167
 30
0.0
 10
118.1049763236
 20
184.746601429
 30
0.0
 10
118.2381253484
 20
184.7160126414
 30
0.0
 10
118.3099082302
 20
184.6883249963
 30
0.0
 10
118.3331884143
 20
184.6703740207
 30
0.0
  0
SPLINE
  5
3EF
100
AcDbEntity
  8
0
100
AcDbSpline
 62
7
  6
CONTINUOUS
 70
0
 71
3
 72
9
 73
5
 74
0
 42
0.0000001
 43
0.0000001
 44
0.0000000001
 40
0.0
 40
0.0
 40
0.0
 40
0.0
 40
0.2190542687
 40
1.0
 40
1.0
 40
1.0
 40
1.0
 10
113.4821568852
 20
184.6703577608
 30
0.0
 10
113.4848076918
 20
184.6724027237
 30
0.0
 10
113.4973139144
 20
184.6812141902
 30
0.0
 10
113.5110255156
 20
184.6881872008
 30
0.0
 10
113.5219252307
 20
184.6930509184
 30
0.0
  0
SPLINE
  5
3F0
100
AcDbEntity
  8
0
100
AcDbSpline
 62
7
  6
CONTINUOUS
 70
0
 71
3
 72
13
 73
9
 74
0
 42
0.0000001
 43
0.0000001
 44
0.0000000001
 40
0.0
 40
0.0
 40
0.0
 40
0.0
 40
0.0569398025
 40
0.1366326352
 40
0.2382527424
 40
0.3601535496
 40
0.6554438603
 40
1.0
 40
1.0
 40
1.0
 40
1.0
 10
113.5219252307
 20
184.6930509184
 30
0.0
 10
113.5542837342
 20
184.7074900684
 30
0.0
 10
113.6365204523
 20
184.7311671265
 30
0.0
 10
113.7822963468
 20
184.7579723989
 30
0.0
 10
113.9697321453
 20
184.7808657912
 30
0.0
 10
114.2914681341
 20
184.8079483489
 30
0.0
 10
114.7651813009
 20
184.8292686403
 30
0.0
 10
115.163280858
 20
184.8374425897
 30
0.0
 10
115.3776831805
 20
184.8401095916
 30
0.0
  0
SPLINE
  5
3F1
100
AcDbEntity
  8
0
100
AcDbSpline
 62
7
  6
CONTINUOUS
 70
0
 71
3
 72
27
 73
23
 74
0
 42
0.0000001
 43
0.0000001
 44
0.0000000001
 40
0.0
 40
0.0
 40
0.0
 40
0.0
 40
0.0244318156
 40
0.0432978676
 40
0.0664370731
 40
0.0932649466
 40
0.1231218362
 40
0.1554575285
 40
0.1897658822
 40
0.2628351434
 40
0.3399481955
 40
0.500000648
 40
0.660052944
 40
0.7371659714
 40
0.8102352914
 40
0.8445435755
 40
0.8768791343
 40
0.9067359662
 40
0.9335637788
 40
0.9567029199
 40
0.9755685776
 40
1.0
 40
1.0
 40
1.0
 40
1.0
 10
150.9552680798
 20
183.7037795975
 30
0.0
 10
150.9552680798
 20
183.6286992979
 30
0.0
 10
151.0650542466
 20
183.5151676138
 30
0.0
 10
151.2356841102
 20
183.4151818037
 30
0.0
 10
151.4309554128
 20
183.3276875919
 30
0.0
 10
151.6620467244
 20
183.246936499
 30
0.0
 10
151.925262405
 20
183.1712168542
 30
0.0
 10
152.213692405
 20
183.1022079324
 30
0.0
 10
152.6346989073
 20
183.0175095818
 30
0.0
 10
153.1954720253
 20
182.9319113919
 30
0.0
 10
154.1440949089
 20
182.8341803357
 30
0.0
 10
155.3652736374
 20
182.7875317761
 30
0.0
 10
156.5864522413
 20
182.8341811325
 30
0.0
 10
157.5350747192
 20
182.9319125746
 30
0.0
 10
158.0958476079
 20
183.0175114994
 30
0.0
 10
158.5168536374
 20
183.1022099996
 30
0.0
 10
158.8052826955
 20
183.1712193472
 30
0.0
 10
159.0684977042
 20
183.246938642
 30
0.0
 10
159.2995879117
 20
183.3276910898
 30
0.0
 10
159.4948579497
 20
183.4151842279
 30
0.0
 10
159.6654846781
 20
183.5151706687
 30
0.0
 10
159.7752680798
 20
183.6287005062
 30
0.0
 10
159.7752680798
 20
183.7037795975
 30
0.0
  0
SPLINE
  5
3F2
100
AcDbEntity
  8
0
100
AcDbSpline
 62
7
  6
CONTINUOUS
 70
0
 71
3
 72
27
 73
23
 74
0
 42
0.0000001
 43
0.0000001
 44
0.0000000001
 40
0.0
 40
0.0
 40
0.0
 40
0.0
 40
0.0242556927
 40
0.0430910248
 40
0.0662245136
 40
0.0930492955
 40
0.1229215742
 40
0.1552617382
 40
0.1895904082
 40
0.2626928799
 40
0.3398488442
 40
0.4999977002
 40
0.6601468333
 40
0.7373038448
 40
0.8104076521
 40
0.8447370832
 40
0.8770777391
 40
0.9069504363
 40
0.9337753561
 40
0.9569088458
 40
0.9757441464
 40
1.0
 40
1.0
 40
1.0
 40
1.0
 10
159.7752680798
 20
184.2196064288
 30
0.0
 10
159.7752680798
 20
184.1451448152
 30
0.0
 10
159.6646700146
 20
184.0330521177
 30
0.0
 10
159.4943191553
 20
183.9347003854
 30
0.0
 10
159.2988270809
 20
183.8483985495
 30
0.0
 10
159.0676154966
 20
183.7687930726
 30
0.0
 10
158.8043223939
 20
183.694176271
 30
0.0
 10
158.5158529611
 20
183.6261528507
 30
0.0
 10
158.0948692518
 20
183.5427135936
 30
0.0
 10
157.5342110262
 20
183.4583818735
 30
0.0
 10
156.5859087886
 20
183.3621178044
 30
0.0
 10
155.3652883844
 20
183.3161848003
 30
0.0
 10
154.1446646756
 20
183.3621152532
 30
0.0
 10
153.1963540859
 20
183.4583779909
 30
0.0
 10
152.6356861661
 20
183.5427101919
 30
0.0
 10
152.2146945121
 20
183.6261502662
 30
0.0
 10
151.9262200337
 20
183.6941746494
 30
0.0
 10
151.6629237338
 20
183.7687919845
 30
0.0
 10
151.4317105248
 20
183.848398044
 30
0.0
 10
151.2362181945
 20
183.9347000041
 30
0.0
 10
151.0658664485
 20
184.0330510765
 30
0.0
 10
150.9552680798
 20
184.1451443211
 30
0.0
 10
150.9552680798
 20
184.2196064288
 30
0.0
  0
SPLINE
  5
3F3
100
AcDbEntity
  8
0
100
AcDbSpline
 62
7
  6
CONTINUOUS
 70
0
 71
3
 72
15
 73
11
 74
0
 42
0.0000001
 43
0.0000001
 44
0.0000000001
 40
0.0
 40
0.0
 40
0.0
 40
0.0
 40
0.390957995
 40
0.7069148963
 40
0.8255163483
 40
0.8735521744
 40
0.9137398178
 40
0.9460177843
 40
0.9705490521
 40
1.0
 40
1.0
 40
1.0
 40
1.0
 10
115.3776831805
 20
185.340886795
 30
0.0
 10
115.1225883985
 20
185.3377544174
 30
0.0
 10
114.6614320877
 20
185.3277114578
 30
0.0
 10
114.1231396911
 20
185.2994841994
 30
0.0
 10
113.8101514301
 20
185.2638741846
 30
0.0
 10
113.6770375562
 20
185.240671712
 30
0.0
 10
113.6005559562
 20
185.223363898
 30
0.0
 10
113.5394511692
 20
185.2038354194
 30
0.0
 10
113.489738818
 20
185.1822943521
 30
0.0
 10
113.4576787726
 20
185.1535310115
 30
0.0
 10
113.4576940341
 20
185.1343132253
 30
0.0
  0
SPLINE
  5
3F4
100
AcDbEntity
  8
0
100
AcDbSpline
 62
7
  6
CONTINUOUS
 70
0
 71
3
 72
15
 73
11
 74
0
 42
0.0000001
 43
0.0000001
 44
0.0000000001
 40
0.0
 40
0.0
 40
0.0
 40
0.0
 40
0.089940515
 40
0.1819833039
 40
0.2792272684
 40
0.3859786508
 40
0.5076268686
 40
0.6498667466
 40
0.8158958069
 40
1.0
 40
1.0
 40
1.0
 40
1.0
 10
165.8952680798
 20
95.6263595898
 30
0.0
 10
165.8952680798
 20
95.8402213818
 30
0.0
 10
165.8622103484
 20
96.2739467811
 30
0.0
 10
165.6942153214
 20
96.9202818391
 30
0.0
 10
165.3827726324
 20
97.5572610102
 30
0.0
 10
164.8990959995
 20
98.1695867676
 30
0.0
 10
164.2125994475
 20
98.7326976384
 30
0.0
 10
163.2992019803
 20
99.2072758747
 30
0.0
 10
162.1679565818
 20
99.5349767969
 30
0.0
 10
161.3330335591
 20
99.6127229705
 30
0.0
 10
160.8952680798
 20
99.6127229705
 30
0.0
  0
SPLINE
  5
3F5
100
AcDbEntity
  8
KONSTRUKTIONSELEMENTE
100
AcDbSpline
 62
7
  6
CONTINUOUS
 70
0
 71
3
 72
15
 73
11
 74
0
 42
0.0000001
 43
0.0000001
 44
0.0000000001
 40
0.0
 40
0.0
 40
0.0
 40
0.0
 40
0.1841016268
 40
0.3501280561
 40
0.4923674128
 40
0.6140160815
 40
0.7207695092
 40
0.8180150964
 40
0.9100590025
 40
1.0
 40
1.0
 40
1.0
 40
1.0
 10
110.8952680798
 20
24.7185737876
 30
0.0
 10
110.4575086008
 20
24.7185737876
 30
0.0
 10
109.6225977826
 20
24.796316776
 30
0.0
 10
108.491363966
 20
25.1240089144
 30
0.0
 10
107.5779689641
 20
25.5985779317
 30
0.0
 10
106.8914626714
 20
26.161684286
 30
0.0
 10
106.407772898
 20
26.7740129844
 30
0.0
 10
106.0963239206
 20
27.4110023599
 30
0.0
 10
105.9283265909
 20
28.0573448881
 30
0.0
 10
105.8952680798
 20
28.4910741793
 30
0.0
 10
105.8952680798
 20
28.7049371683
 30
0.0
  0
SPLINE
  5
3F6
100
AcDbEntity
  8
0
100
AcDbSpline
 62
7
  6
CONTINUOUS
 70
0
 71
3
 72
15
 73
11
 74
0
 42
0.0000001
 43
0.0000001
 44
0.0000000001
 40
0.0
 40
0.0
 40
0.0
 40
0.0
 40
0.1841016268
 40
0.3501280561
 40
0.4923674128
 40
0.6140160815
 40
0.7207695092
 40
0.8180150964
 40
0.9100590025
 40
1.0
 40
1.0
 40
1.0
 40
1.0
 10
110.8952680798
 20
99.6127229705
 30
0.0
 10
110.4575086008
 20
99.6127229705
 30
0.0
 10
109.6225977826
 20
99.5349799821
 30
0.0
 10
108.491363966
 20
99.2072878437
 30
0.0
 10
107.5779689641
 20
98.7327188264
 30
0.0
 10
106.8914626714
 20
98.1696124721
 30
0.0
 10
106.407772898
 20
97.5572837737
 30
0.0
 10
106.0963239206
 20
96.9202943982
 30
0.0
 10
105.9283265909
 20
96.27395187
 30
0.0
 10
105.8952680798
 20
95.8402225788
 30
0.0
 10
105.8952680798
 20
95.6263595898
 30
0.0
  0
SPLINE
  5
3F7
100
AcDbEntity
  8
KONSTRUKTIONSELEMENTE
100
AcDbSpline
 62
7
  6
CONTINUOUS
 70
0
 71
3
 72
15
 73
11
 74
0
 42
0.0000001
 43
0.0000001
 44
0.0000000001
 40
0.0
 40
0.0
 40
0.0
 40
0.0
 40
0.089940515
 40
0.1819833039
 40
0.2792272684
 40
0.3859786508
 40
0.5076268686
 40
0.6498667466
 40
0.8158958069
 40
1.0
 40
1.0
 40
1.0
 40
1.0
 10
165.8952680798
 20
28.7049371683
 30
0.0
 10
165.8952680798
 20
28.4910753763
 30
0.0
 10
165.8622103484
 20
28.057349977
 30
0.0
 10
165.6942153214
 20
27.411014919
 30
0.0
 10
165.3827726324
 20
26.7740357479
 30
0.0
 10
164.8990959995
 20
26.1617099905
 30
0.0
 10
164.2125994475
 20
25.5985991197
 30
0.0
 10
163.2992019803
 20
25.1240208834
 30
0.0
 10
162.1679565818
 20
24.7963199612
 30
0.0
 10
161.3330335591
 20
24.7185737876
 30
0.0
 10
160.8952680798
 20
24.7185737876
 30
0.0
  0
ELLIPSE
  5
3F8
100
AcDbEntity
  8
0
100
AcDbEllipse
 62
7
  6
CONTINUOUS
 10
132.0257684404
 20
146.4006379738
 30
0.0
 11
0.0
 21
39.0
 31
0.0
 40
0.2042553727
 41
6.2831853471
 42
6.3058902445
  0
ELLIPSE
  5
3F9
100
AcDbEntity
  8
KONSTRUKTIONSELEMENTE
100
AcDbEllipse
 62
7
  6
CONTINUOUS
 10
118.8952680798
 20
139.2414173151
 30
0.0
 11
-0.0
 21
18.3117050706
 31
0.0
 40
0.7099284283
 41
-4.7123889804
 42
-4.358797643
  0
ELLIPSE
  5
3FA
100
AcDbEntity
  8
0
100
AcDbEllipse
 62
7
  6
CONTINUOUS
 10
125.1569738458
 20
146.4006379738
 30
0.0
 11
-0.0
 21
39.0
 31
0.0
 40
0.1702127606
 41
0.2120557815
 42
0.2433124178
  0
ELLIPSE
  5
3FB
100
AcDbEntity
  8
0
100
AcDbEllipse
 62
7
  6
CONTINUOUS
 10
126.5541368578
 20
146.4006379738
 30
0.0
 11
0.0
 21
39.0
 31
0.0
 40
0.3404255211
 41
0.1965079825
 42
0.2120557815
  0
ELLIPSE
  5
3FC
100
AcDbEntity
  8
0
100
AcDbEllipse
 62
7
  6
CONTINUOUS
 10
129.1463352288
 20
146.4006379738
 30
0.0
 11
-0.0
 21
39.0
 31
0.0
 40
0.6808510423
 41
0.1810081638
 42
0.1965079825
  0
ELLIPSE
  5
3FD
100
AcDbEntity
  8
0
100
AcDbEllipse
 62
7
  6
CONTINUOUS
 10
138.7066317761
 20
146.4006379738
 30
0.0
 11
79.659647915
 21
-0.0
 31
0.0
 40
0.4895828819
 41
1.7414958985
 42
1.7518044906
  0
ELLIPSE
  5
3FE
100
AcDbEntity
  8
0
100
AcDbEllipse
 62
7
  6
CONTINUOUS
 10
124.5895980623
 20
146.4006379738
 30
0.0
 11
0.0
 21
39.0
 31
0.0
 40
0.2042553727
 41
6.2604803698
 42
6.2831852673
  0
ELLIPSE
  5
3FF
100
AcDbEntity
  8
0
100
AcDbEllipse
 62
7
  6
CONTINUOUS
 10
124.1676124559
 20
146.4006379738
 30
0.0
 11
0.0
 21
39.0
 31
0.0
 40
0.6808509827
 41
-0.0379364445
 42
-0.0227049373
  0
ELLIPSE
  5
400
100
AcDbEntity
  8
0
100
AcDbEllipse
 62
7
  6
CONTINUOUS
 10
122.9087467136
 20
146.4006379738
 30
0.0
 11
59.7446949469
 21
0.0
 31
0.0
 40
0.6527776238
 41
1.5125368893
 42
1.5328598823
  0
ELLIPSE
  5
401
100
AcDbEntity
  8
0
100
AcDbEllipse
 62
7
  6
CONTINUOUS
 10
112.4726040073
 20
146.4006379738
 30
0.0
 11
238.9782948908
 21
0.0
 31
0.0
 40
0.1631947371
 41
1.5074526931
 42
1.5125368893
  0
ELLIPSE
  5
402
100
AcDbEntity
  8
0
100
AcDbEllipse
 62
7
  6
CONTINUOUS
 10
144.1427588221
 20
146.4006379738
 30
0.0
 11
238.978239101
 21
-0.0
 31
0.0
 40
0.1631947752
 41
1.6290557642
 42
1.6341399605
  0
ELLIPSE
  5
403
100
AcDbEntity
  8
0
100
AcDbEllipse
 62
7
  6
CONTINUOUS
 10
133.7066205825
 20
146.4006379738
 30
0.0
 11
59.7447158682
 21
-0.0
 31
0.0
 40
0.6527773952
 41
1.6087327713
 42
1.6290557642
  0
ELLIPSE
  5
404
100
AcDbEntity
  8
0
100
AcDbEllipse
 62
7
  6
CONTINUOUS
 10
132.4477540467
 20
146.4006379738
 30
0.0
 11
0.0
 21
39.0
 31
0.0
 40
0.6808509827
 41
0.0227049373
 42
0.0379364445
  0
ELLIPSE
  5
405
100
AcDbEntity
  8
0
100
AcDbEllipse
 62
7
  6
CONTINUOUS
 10
133.0662327198
 20
146.4006379738
 30
0.0
 11
32.4230788739
 21
37.6586822261
 31
0.0
 40
0.2468797618
 41
1.2934005606
 42
1.3669730353
  0
ELLIPSE
  5
406
100
AcDbEntity
  8
0
100
AcDbEllipse
 62
7
  6
CONTINUOUS
 10
141.1177698855
 20
146.4006379738
 30
0.0
 11
49.4915471636
 21
36.6275504366
 31
0.0
 40
0.2396479112
 41
1.4551835584
 42
1.4668141577
  0
ELLIPSE
  5
407
100
AcDbEntity
  8
0
100
AcDbEllipse
 62
7
  6
CONTINUOUS
 10
147.1377734969
 20
146.4006379738
 30
0.0
 11
150.7406049838
 21
34.4526994394
 31
0.0
 40
0.1139916809
 41
1.6007935238
 42
1.6046685097
  0
ELLIPSE
  5
408
100
AcDbEntity
  8
0
100
AcDbEllipse
 62
7
  6
CONTINUOUS
 10
131.1194419688
 20
146.4006379738
 30
0.0
 11
150.7403890659
 21
-34.4527006727
 31
0.0
 40
0.1139918278
 41
1.5369242157
 42
1.5407992015
  0
ELLIPSE
  5
409
100
AcDbEntity
  8
0
100
AcDbEllipse
 62
7
  6
CONTINUOUS
 10
136.7631775928
 20
146.4006379738
 30
0.0
 11
55.9279195031
 21
-36.2885419933
 31
0.0
 40
0.2299472488
 41
1.6512313416
 42
1.6589840752
  0
ELLIPSE
  5
40A
100
AcDbEntity
  8
0
100
AcDbEllipse
 62
7
  6
CONTINUOUS
 10
138.887497156
 20
146.4006379738
 30
0.0
 11
-23.6104177486
 21
38.1289227208
 31
0.0
 40
0.2258524835
 41
-1.3003660217
 42
-1.2887291309
  0
ELLIPSE
  5
40B
100
AcDbEntity
  8
0
100
AcDbEllipse
 62
7
  6
CONTINUOUS
 10
139.883038078
 20
146.4006379738
 30
0.0
 11
-11.3308146141
 21
38.4667229657
 31
0.0
 40
0.1412416139
 41
-1.2146415836
 42
-1.2029939144
  0
ELLIPSE
  5
40C
100
AcDbEntity
  8
0
100
AcDbEllipse
 62
7
  6
CONTINUOUS
 10
134.499853712
 20
146.4006379738
 30
0.0
 11
-17.34660786
 21
38.3552808588
 31
0.0
 40
0.1922583826
 41
-1.290919542
 42
-1.275343873
  0
ELLIPSE
  5
40D
100
AcDbEntity
  8
0
100
AcDbEllipse
 62
7
  6
CONTINUOUS
 10
133.3521429431
 20
146.4006379738
 30
0.0
 11
-26.809092019
 21
37.9743139559
 31
0.0
 40
0.2365042303
 41
-1.3852332007
 42
-1.3696277075
  0
ELLIPSE
  5
40E
100
AcDbEntity
  8
0
100
AcDbEllipse
 62
7
  6
CONTINUOUS
 10
128.6091599545
 20
146.4006379738
 30
0.0
 11
62.3325058614
 21
-35.9940851592
 31
0.0
 40
0.2191944043
 41
1.5472871229
 42
1.5590132169
  0
ELLIPSE
  5
40F
100
AcDbEntity
  8
0
100
AcDbEllipse
 62
7
  6
CONTINUOUS
 10
109.9035788166
 20
146.4006379738
 30
0.0
 11
188.462838436
 21
-34.2939544568
 31
0.0
 40
0.0928450841
 41
1.4343620941
 42
1.4382753149
  0
ELLIPSE
  5
410
100
AcDbEntity
  8
0
100
AcDbEllipse
 62
7
  6
CONTINUOUS
 10
168.3535916213
 20
146.4006379738
 30
0.0
 11
188.4626226374
 21
34.2939551175
 31
0.0
 40
0.0928451836
 41
1.7033173009
 42
1.7072305217
  0
ELLIPSE
  5
411
100
AcDbEntity
  8
0
100
AcDbEllipse
 62
7
  6
CONTINUOUS
 10
149.648053297
 20
146.4006379738
 30
0.0
 11
62.3325789959
 21
35.994082041
 31
0.0
 40
0.2191942789
 41
1.582579665
 42
1.5943057589
  0
ELLIPSE
  5
412
100
AcDbEntity
  8
0
100
AcDbEllipse
 62
7
  6
CONTINUOUS
 10
144.9050604395
 20
146.4006379738
 30
0.0
 11
26.809092019
 21
37.9743139559
 31
0.0
 40
0.2365042303
 41
1.3696277075
 42
1.3852332007
  0
ELLIPSE
  5
413
100
AcDbEntity
  8
0
100
AcDbEllipse
 62
7
  6
CONTINUOUS
 10
143.2982616075
 20
146.4006379738
 30
0.0
 11
13.7039177559
 21
38.4345932228
 31
0.0
 40
0.1636920029
 41
1.2430197948
 42
1.262485182
  0
ELLIPSE
  5
414
100
AcDbEntity
  8
0
100
AcDbEllipse
 62
7
  6
CONTINUOUS
 10
145.7290179671
 20
146.4006379738
 30
0.0
 11
-27.4250997383
 21
37.9420811437
 31
0.0
 40
0.2381242117
 41
-1.2689181135
 42
-1.2537658719
  0
ELLIPSE
  5
415
100
AcDbEntity
  8
0
100
AcDbEllipse
 62
7
  6
CONTINUOUS
 10
147.1115181925
 20
146.4006379738
 30
0.0
 11
27.4250997383
 21
37.9420811437
 31
0.0
 40
0.2381242117
 41
1.2537658719
 42
1.2689181135
  0
ELLIPSE
  5
416
100
AcDbEntity
  8
KONSTRUKTIONSELEMENTE
100
AcDbEllipse
 62
7
  6
CONTINUOUS
 10
118.8952680798
 20
139.8267113533
 30
0.0
 11
-0.0
 21
15.0599270988
 31
0.0
 40
0.86321799
 41
-4.2345054363
 42
-3.9927609086
  0
ELLIPSE
  5
417
100
AcDbEntity
  8
KONSTRUKTIONSELEMENTE
100
AcDbEllipse
 62
7
  6
CONTINUOUS
 10
152.8952680798
 20
139.8267113533
 30
0.0
 11
-0.0
 21
15.0599270988
 31
0.0
 40
0.86321799
 41
-2.2904243985
 42
-2.0486798709
  0
ELLIPSE
  5
418
100
AcDbEntity
  8
KONSTRUKTIONSELEMENTE
100
AcDbEllipse
 62
7
  6
CONTINUOUS
 10
152.8952680798
 20
139.2414173151
 30
0.0
 11
-0.0
 21
18.3117050706
 31
0.0
 40
0.7099284283
 41
-1.9243876641
 42
-1.5707963268
  0
ELLIPSE
  5
419
100
AcDbEntity
  8
0
100
AcDbEllipse
 62
7
  6
CONTINUOUS
 10
177.0172990382
 20
146.4006379738
 30
0.0
 11
79.6598688502
 21
-0.0
 31
0.0
 40
0.4895815241
 41
1.9695722676
 42
1.9750855504
  0
ELLIPSE
  5
41A
100
AcDbEntity
  8
0
100
AcDbEllipse
 62
7
  6
CONTINUOUS
 10
161.5516207047
 20
146.4006379738
 30
0.0
 11
39.8297065168
 21
-0.0
 31
0.0
 40
0.979168651
 41
1.9585837195
 42
1.9695722676
  0
ELLIPSE
  5
41B
100
AcDbEntity
  8
0
100
AcDbEllipse
 62
7
  6
CONTINUOUS
 10
151.5107995649
 20
146.4006379738
 30
0.0
 11
-0.0
 21
39.0
 31
0.0
 40
0.3404254913
 41
0.3713960628
 42
0.3877873927
  0
ELLIPSE
  5
41C
100
AcDbEntity
  8
0
100
AcDbEllipse
 62
7
  6
CONTINUOUS
 10
140.9728462302
 20
146.4006379738
 30
0.0
 11
-0.0
 21
39.0
 31
0.0
 40
0.2042556244
 41
0.3014911879
 42
0.3281775292
  0
ELLIPSE
  5
41D
100
AcDbEntity
  8
0
100
AcDbEllipse
 62
7
  6
CONTINUOUS
 10
145.7037309824
 20
146.4006379738
 30
0.0
 11
0.0
 21
39.0
 31
0.0
 40
0.6127654705
 41
0.2750244964
 42
0.3014911879
  0
ELLIPSE
  5
41E
100
AcDbEntity
  8
0
100
AcDbEllipse
 62
7
  6
CONTINUOUS
 10
157.2414399056
 20
146.4006379738
 30
0.0
 11
66.3829847574
 21
-0.0
 31
0.0
 40
0.5874999466
 41
1.8300364639
 42
1.8458208232
  0
ELLIPSE
  5
41F
100
AcDbEntity
  8
0
100
AcDbEllipse
 62
7
  6
CONTINUOUS
 10
181.0654190735
 20
146.4006379738
 30
0.0
 11
159.3197377004
 21
-0.0
 31
0.0
 40
0.244790762
 41
1.8247898877
 42
1.8300364639
  0
ELLIPSE
  5
420
100
AcDbEntity
  8
0
100
AcDbEllipse
 62
7
  6
CONTINUOUS
 10
136.0043076145
 20
146.4006379738
 30
0.0
 11
-0.0
 21
39.0
 31
0.0
 40
0.255319362
 41
-0.3932753731
 42
-0.3713960628
  0
ELLIPSE
  5
421
100
AcDbEntity
  8
0
100
AcDbEllipse
 62
7
  6
CONTINUOUS
 10
129.6445569966
 20
146.4006379738
 30
0.0
 11
-0.0
 21
39.0
 31
0.0
 40
0.6808512211
 41
-0.4098155427
 42
-0.3932753731
  0
ELLIPSE
  5
422
100
AcDbEntity
  8
0
100
AcDbEllipse
 62
7
  6
CONTINUOUS
 10
116.4197856292
 20
146.4006379738
 30
0.0
 11
59.7445597752
 21
0.0
 31
0.0
 40
0.6527791007
 41
1.1498879171
 42
1.1609807841
  0
ELLIPSE
  5
423
100
AcDbEntity
  8
0
100
AcDbEllipse
 62
7
  6
CONTINUOUS
 10
165.8482086521
 20
146.4006379738
 30
0.0
 11
59.7445876702
 21
-0.0
 31
0.0
 40
0.6527787959
 41
1.9806118695
 42
1.9917047365
  0
ELLIPSE
  5
424
100
AcDbEntity
  8
0
100
AcDbEllipse
 62
7
  6
CONTINUOUS
 10
152.6234224654
 20
146.4006379738
 30
0.0
 11
0.0
 21
39.0
 31
0.0
 40
0.6808509827
 41
0.3932753731
 42
0.4098155427
  0
ELLIPSE
  5
425
100
AcDbEntity
  8
0
100
AcDbEllipse
 62
7
  6
CONTINUOUS
 10
146.2636754109
 20
146.4006379738
 30
0.0
 11
0.0
 21
39.0
 31
0.0
 40
0.255319362
 41
0.3713960628
 42
0.3932753731
  0
ELLIPSE
  5
426
100
AcDbEntity
  8
0
100
AcDbEllipse
 62
7
  6
CONTINUOUS
 10
145.9604836685
 20
146.4006379738
 30
0.0
 11
-0.0
 21
39.0
 31
0.0
 40
0.255319362
 41
0.3174750861
 42
0.3389191792
  0
ELLIPSE
  5
427
100
AcDbEntity
  8
0
100
AcDbEllipse
 62
7
  6
CONTINUOUS
 10
149.068872924
 20
146.4006379738
 30
0.0
 11
-0.0
 21
39.0
 31
0.0
 40
0.510637263
 41
0.2961810087
 42
0.3174750861
  0
ELLIPSE
  5
428
100
AcDbEntity
  8
0
100
AcDbEllipse
 62
7
  6
CONTINUOUS
 10
154.8814472102
 20
146.4006379738
 30
0.0
 11
39.8298204706
 21
0.0
 31
0.0
 40
0.9791658496
 41
1.8458208232
 42
1.8669773355
  0
ELLIPSE
  5
429
100
AcDbEntity
  8
0
100
AcDbEllipse
 62
7
  6
CONTINUOUS
 10
187.3313853092
 20
146.4006379738
 30
0.0
 11
159.3197377004
 21
-0.0
 31
0.0
 40
0.244790762
 41
1.8405517844
 42
1.8458208232
  0
ELLIPSE
  5
42A
100
AcDbEntity
  8
0
100
AcDbEllipse
 62
7
  6
CONTINUOUS
 10
103.2238317617
 20
146.4006379738
 30
0.0
 11
159.3197377004
 21
0.0
 31
0.0
 40
0.244790762
 41
1.2957718304
 42
1.3010408692
  0
ELLIPSE
  5
42B
100
AcDbEntity
  8
0
100
AcDbEllipse
 62
7
  6
CONTINUOUS
 10
135.6737698607
 20
146.4006379738
 30
0.0
 11
39.8298204706
 21
0.0
 31
0.0
 40
0.9791658496
 41
1.2746153181
 42
1.2957718304
  0
ELLIPSE
  5
42C
100
AcDbEntity
  8
0
100
AcDbEllipse
 62
7
  6
CONTINUOUS
 10
141.4863441469
 20
146.4006379738
 30
0.0
 11
0.0
 21
39.0
 31
0.0
 40
0.510637263
 41
-0.3174750861
 42
-0.2961810087
  0
ELLIPSE
  5
42D
100
AcDbEntity
  8
0
100
AcDbEllipse
 62
7
  6
CONTINUOUS
 10
144.5947334024
 20
146.4006379738
 30
0.0
 11
0.0
 21
39.0
 31
0.0
 40
0.255319362
 41
-0.3389191792
 42
-0.3174750861
  0
ELLIPSE
  5
42E
100
AcDbEntity
  8
0
100
AcDbEllipse
 62
7
  6
CONTINUOUS
 10
148.6810126682
 20
146.4006379738
 30
0.0
 11
-0.0
 21
39.0
 31
0.0
 40
0.3404254913
 41
0.1503413503
 42
0.1657580113
  0
ELLIPSE
  5
42F
100
AcDbEntity
  8
0
100
AcDbEllipse
 62
7
  6
CONTINUOUS
 10
153.0622762067
 20
146.4006379738
 30
0.0
 11
39.8297065168
 21
-0.0
 31
0.0
 40
0.979168651
 41
1.7365543381
 42
1.7468540336
  0
ELLIPSE
  5
430
100
AcDbEntity
  8
0
100
AcDbEllipse
 62
7
  6
CONTINUOUS
 10
167.0147291966
 20
146.4006379738
 30
0.0
 11
119.4899148556
 21
-0.0
 31
0.0
 40
0.3263873779
 41
1.7468540336
 42
1.7520108672
  0
ELLIPSE
  5
431
100
AcDbEntity
  8
0
100
AcDbEllipse
 62
7
  6
CONTINUOUS
 10
123.5405074176
 20
146.4006379738
 30
0.0
 11
119.4898032753
 21
0.0
 31
0.0
 40
0.3263876827
 41
1.3895817864
 42
1.39473862
  0
ELLIPSE
  5
432
100
AcDbEntity
  8
0
100
AcDbEllipse
 62
7
  6
CONTINUOUS
 10
137.4929408642
 20
146.4006379738
 30
0.0
 11
39.8297065168
 21
0.0
 31
0.0
 40
0.979168651
 41
1.39473862
 42
1.4050383155
  0
ELLIPSE
  5
433
100
AcDbEntity
  8
0
100
AcDbEllipse
 62
7
  6
CONTINUOUS
 10
141.8742044027
 20
146.4006379738
 30
0.0
 11
-0.0
 21
39.0
 31
0.0
 40
0.3404254913
 41
-0.1657580113
 42
-0.1503413503
  0
ELLIPSE
  5
434
100
AcDbEntity
  8
0
100
AcDbEllipse
 62
7
  6
CONTINUOUS
 10
162.9721661491
 20
146.4006379738
 30
0.0
 11
119.4898590655
 21
-0.0
 31
0.0
 40
0.3263875303
 41
1.7468540336
 42
1.7520108672
  0
ELLIPSE
  5
435
100
AcDbEntity
  8
0
100
AcDbEllipse
 62
7
  6
CONTINUOUS
 10
149.0197229309
 20
146.4006379738
 30
0.0
 11
39.8297065168
 21
-0.0
 31
0.0
 40
0.979168651
 41
1.7365543381
 42
1.7468540336
  0
ELLIPSE
  5
436
100
AcDbEntity
  8
0
100
AcDbEllipse
 62
7
  6
CONTINUOUS
 10
144.6384593924
 20
146.4006379738
 30
0.0
 11
0.0
 21
39.0
 31
0.0
 40
0.3404254913
 41
0.1503413503
 42
0.1657580113
  0
ELLIPSE
  5
437
100
AcDbEntity
  8
0
100
AcDbEllipse
 62
7
  6
CONTINUOUS
 10
119.2958267894
 20
146.4006379738
 30
0.0
 11
119.4898032753
 21
0.0
 31
0.0
 40
0.3263876827
 41
1.3895817864
 42
1.39473862
  0
ELLIPSE
  5
438
100
AcDbEntity
  8
0
100
AcDbEllipse
 62
7
  6
CONTINUOUS
 10
133.2482577931
 20
146.4006379738
 30
0.0
 11
39.8297204643
 21
0.0
 31
0.0
 40
0.9791683081
 41
1.39473862
 42
1.4050383155
  0
ELLIPSE
  5
439
100
AcDbEntity
  8
0
100
AcDbEllipse
 62
7
  6
CONTINUOUS
 10
137.629523633
 20
146.4006379738
 30
0.0
 11
-0.0
 21
39.0
 31
0.0
 40
0.3404254913
 41
-0.1657580113
 42
-0.1503413503
  0
ELLIPSE
  5
43A
100
AcDbEntity
  8
0
100
AcDbEllipse
 62
7
  6
CONTINUOUS
 10
142.2630560244
 20
146.4006379738
 30
0.0
 11
11.3308201027
 21
38.4667229073
 31
0.0
 40
0.1412416693
 41
1.2224135112
 42
1.2340827264
  0
ELLIPSE
  5
43B
100
AcDbEntity
  8
0
100
AcDbEllipse
 62
7
  6
CONTINUOUS
 10
143.6474788582
 20
146.4006379738
 30
0.0
 11
23.6104118084
 21
38.128922986
 31
0.0
 40
0.22585246
 41
1.3314547475
 42
1.3431390801
  0
ELLIPSE
  5
43C
100
AcDbEntity
  8
0
100
AcDbEllipse
 62
7
  6
CONTINUOUS
 10
147.4731993136
 20
146.4006379738
 30
0.0
 11
55.9279195031
 21
36.2885419933
 31
0.0
 40
0.2299472488
 41
1.544771311
 42
1.5525700807
  0
ELLIPSE
  5
43D
100
AcDbEntity
  8
0
100
AcDbEllipse
 62
7
  6
CONTINUOUS
 10
159.6794181799
 20
146.4006379738
 30
0.0
 11
150.7403890659
 21
34.4527006727
 31
0.0
 40
0.1139918278
 41
1.6746299402
 42
1.6785322759
  0
ELLIPSE
  5
43E
100
AcDbEntity
  8
0
100
AcDbEllipse
 62
7
  6
CONTINUOUS
 10
118.5777564303
 20
146.4006379738
 30
0.0
 11
150.7406049838
 21
-34.4526994394
 31
0.0
 40
0.1139916809
 41
1.4630603059
 42
1.4669626417
  0
ELLIPSE
  5
43F
100
AcDbEntity
  8
0
100
AcDbEllipse
 62
7
  6
CONTINUOUS
 10
130.7840172035
 20
146.4006379738
 30
0.0
 11
55.9278093005
 21
-36.2885474319
 31
0.0
 40
0.2299474275
 41
1.5890229958
 42
1.5968217655
  0
ELLIPSE
  5
440
100
AcDbEntity
  8
0
100
AcDbEllipse
 62
7
  6
CONTINUOUS
 10
135.374853712
 20
146.4006379738
 30
0.0
 11
-17.34660786
 21
38.3552808588
 31
0.0
 40
0.1922583826
 41
-1.290919542
 42
-1.275343873
  0
ELLIPSE
  5
441
100
AcDbEntity
  8
0
100
AcDbEllipse
 62
7
  6
CONTINUOUS
 10
196.3233278302
 20
146.4006379738
 30
0.0
 11
117.9578827205
 21
0.0
 31
0.0
 40
0.3263876827
 41
2.0088497701
 42
2.0145340374
  0
ELLIPSE
  5
442
100
AcDbEntity
  8
0
100
AcDbEllipse
 62
7
  6
CONTINUOUS
 10
168.5259758696
 20
146.4006379738
 30
0.0
 11
52.4255256653
 21
-0.0
 31
0.0
 40
0.7343750875
 41
1.9918862756
 42
2.0088497701
  0
ELLIPSE
  5
443
100
AcDbEntity
  8
0
100
AcDbEllipse
 62
7
  6
CONTINUOUS
 10
159.1506698584
 20
146.4006379738
 30
0.0
 11
-0.0
 21
38.5
 31
0.0
 40
0.7659558946
 41
0.3986696028
 42
0.4210899488
  0
ELLIPSE
  5
444
100
AcDbEntity
  8
0
100
AcDbEllipse
 62
7
  6
CONTINUOUS
 10
150.7558254353
 20
146.4006379738
 30
0.0
 11
-0.0
 21
38.5
 31
0.0
 40
0.2042556065
 41
0.3709373576
 42
0.3986696028
  0
ELLIPSE
  5
445
100
AcDbEntity
  8
0
100
AcDbEllipse
 62
7
  6
CONTINUOUS
 10
140.4422727004
 20
146.4006379738
 30
0.0
 11
-13.7039157426
 21
38.4345932562
 31
0.0
 40
0.1636919852
 41
-1.2274758771
 42
-1.2080751681
  0
ELLIPSE
  5
446
100
AcDbEntity
  8
0
100
AcDbEllipse
 62
7
  6
CONTINUOUS
 10
139.5500600944
 20
146.4006379738
 30
0.0
 11
-26.8090945516
 21
37.9743138248
 31
0.0
 40
0.2365042372
 41
-1.3152177292
 42
-1.2997158661
  0
ELLIPSE
  5
447
100
AcDbEntity
  8
0
100
AcDbEllipse
 62
7
  6
CONTINUOUS
 10
137.7480434512
 20
146.4006379738
 30
0.0
 11
62.3325845905
 21
-35.9940818024
 31
0.0
 40
0.2191942693
 41
1.6445303264
 42
1.6561482898
  0
ELLIPSE
  5
448
100
AcDbEntity
  8
0
100
AcDbEllipse
 62
7
  6
CONTINUOUS
 10
132.6536029392
 20
146.4006379738
 30
0.0
 11
188.4626391454
 21
-34.2939550669
 31
0.0
 40
0.092845176
 41
1.5471367623
 42
1.5510081225
  0
ELLIPSE
  5
449
100
AcDbEntity
  8
0
100
AcDbEllipse
 62
7
  6
CONTINUOUS
 10
145.6036083541
 20
146.4006379738
 30
0.0
 11
188.4628549441
 21
34.2939544063
 31
0.0
 40
0.0928450765
 41
1.5905845689
 42
1.594455929
  0
ELLIPSE
  5
44A
100
AcDbEntity
  8
0
100
AcDbEllipse
 62
7
  6
CONTINUOUS
 10
140.5091561819
 20
146.4006379738
 30
0.0
 11
62.332511456
 21
35.9940849206
 31
0.0
 40
0.2191943947
 41
1.4854441356
 42
1.497062099
  0
ELLIPSE
  5
44B
100
AcDbEntity
  8
0
100
AcDbEllipse
 62
7
  6
CONTINUOUS
 10
147.4790182801
 20
146.4006379738
 30
0.0
 11
-27.4250997383
 21
37.9420811437
 31
0.0
 40
0.2381242117
 41
-1.2386138977
 42
-1.2234587329
  0
ELLIPSE
  5
44C
100
AcDbEntity
  8
0
100
AcDbEllipse
 62
7
  6
CONTINUOUS
 10
145.3615178795
 20
146.4006379738
 30
0.0
 11
27.4250997383
 21
37.9420811437
 31
0.0
 40
0.2381242117
 41
1.2234587329
 42
1.2386138977
  0
ELLIPSE
  5
44D
100
AcDbEntity
  8
0
100
AcDbEllipse
 62
7
  6
CONTINUOUS
 10
140.2172476604
 20
146.4006379738
 30
0.0
 11
119.4892311302
 21
-0.0
 31
0.0
 40
0.3263892456
 41
1.6494028944
 42
1.6544944524
  0
ELLIPSE
  5
44E
100
AcDbEntity
  8
0
100
AcDbEllipse
 62
7
  6
CONTINUOUS
 10
146.8768953416
 20
146.4006379738
 30
0.0
 11
199.1496721255
 21
-0.0
 31
0.0
 40
0.1958326096
 41
1.6544944524
 42
1.6595881571
  0
ELLIPSE
  5
44F
100
AcDbEntity
  8
0
100
AcDbEllipse
 62
7
  6
CONTINUOUS
 10
109.7384660722
 20
146.4006379738
 30
0.0
 11
199.1497279157
 21
0.0
 31
0.0
 40
0.1958325548
 41
1.4820044965
 42
1.4870982012
  0
ELLIPSE
  5
450
100
AcDbEntity
  8
0
100
AcDbEllipse
 62
7
  6
CONTINUOUS
 10
116.3981277456
 20
146.4006379738
 30
0.0
 11
119.4891195505
 21
0.0
 31
0.0
 40
0.3263895503
 41
1.4870982012
 42
1.4921897592
  0
ELLIPSE
  5
451
100
AcDbEntity
  8
0
100
AcDbEllipse
 62
7
  6
CONTINUOUS
 10
119.5257619899
 20
146.4006379738
 30
0.0
 11
79.6596548888
 21
0.0
 31
0.0
 40
0.4895828391
 41
1.4921897592
 42
1.5023668567
  0
ELLIPSE
  5
452
100
AcDbEntity
  8
0
100
AcDbEllipse
 62
7
  6
CONTINUOUS
 10
122.2491721364
 20
146.4006379738
 30
0.0
 11
39.8297871351
 21
-0.0
 31
0.0
 40
0.9791666691
 41
1.5023668567
 42
1.5176195493
  0
ELLIPSE
  5
453
100
AcDbEntity
  8
0
100
AcDbEllipse
 62
7
  6
CONTINUOUS
 10
123.0959810784
 20
146.4006379738
 30
0.0
 11
-0.0
 21
39.0
 31
0.0
 40
0.6127658212
 41
-0.0531767775
 42
-0.0277813561
  0
ELLIPSE
  5
454
100
AcDbEntity
  8
0
100
AcDbEllipse
 62
7
  6
CONTINUOUS
 10
142.8275046048
 20
146.4006379738
 30
0.0
 11
-0.0
 21
38.5
 31
0.0
 40
0.255319362
 41
0.3109272521
 42
0.3326028237
  0
ELLIPSE
  5
455
100
AcDbEntity
  8
0
100
AcDbEllipse
 62
7
  6
CONTINUOUS
 10
151.8495247461
 20
146.4006379738
 30
0.0
 11
39.3191534281
 21
0.0
 31
0.0
 40
0.9791665548
 41
1.865566016
 42
1.8817235789
  0
ELLIPSE
  5
456
100
AcDbEntity
  8
0
100
AcDbEllipse
 62
7
  6
CONTINUOUS
 10
174.6956075288
 20
146.4006379738
 30
0.0
 11
117.9578827205
 21
0.0
 31
0.0
 40
0.3263876827
 41
1.8601979755
 42
1.865566016
  0
ELLIPSE
  5
457
100
AcDbEntity
  8
0
100
AcDbEllipse
 62
7
  6
CONTINUOUS
 10
135.5142916536
 20
146.4006379738
 30
0.0
 11
0.0
 21
38.5
 31
0.0
 40
0.2042551568
 41
-0.4042543834
 42
-0.3764591298
  0
ELLIPSE
  5
458
100
AcDbEntity
  8
0
100
AcDbEllipse
 62
7
  6
CONTINUOUS
 10
130.8746219218
 20
146.4006379738
 30
0.0
 11
0.0
 21
38.5
 31
0.0
 40
0.510638791
 41
-0.4267298275
 42
-0.4042543834
  0
ELLIPSE
  5
459
100
AcDbEntity
  8
0
100
AcDbEllipse
 62
7
  6
CONTINUOUS
 10
122.737593499
 20
146.4006379738
 30
0.0
 11
39.3191851888
 21
0.0
 31
0.0
 40
0.9791657639
 41
1.1213589478
 42
1.1440664993
  0
ELLIPSE
  5
45A
100
AcDbEntity
  8
0
100
AcDbEllipse
 62
7
  6
CONTINUOUS
 10
142.2784602399
 20
146.4006379738
 30
0.0
 11
-0.0
 21
39.0
 31
0.0
 40
0.3404254913
 41
-0.3389191792
 42
-0.322821518
  0
ELLIPSE
  5
45B
100
AcDbEntity
  8
0
100
AcDbEllipse
 62
7
  6
CONTINUOUS
 10
105.6551200844
 20
146.4006379738
 30
0.0
 11
78.6381522762
 21
-0.0
 31
0.0
 40
0.4895842398
 41
1.1099120857
 42
1.1213589478
  0
ELLIPSE
  5
45C
100
AcDbEntity
  8
0
100
AcDbEllipse
 62
7
  6
CONTINUOUS
 10
176.6128689229
 20
146.4006379738
 30
0.0
 11
78.6381660449
 21
0.0
 31
0.0
 40
0.4895841541
 41
2.0202337058
 42
2.0316805679
  0
ELLIPSE
  5
45D
100
AcDbEntity
  8
0
100
AcDbEllipse
 62
7
  6
CONTINUOUS
 10
159.5303880309
 20
146.4006379738
 30
0.0
 11
39.3191817467
 21
-0.0
 31
0.0
 40
0.9791658496
 41
1.9975261543
 42
2.0202337058
  0
ELLIPSE
  5
45E
100
AcDbEntity
  8
0
100
AcDbEllipse
 62
7
  6
CONTINUOUS
 10
151.3933599642
 20
146.4006379738
 30
0.0
 11
0.0
 21
38.5
 31
0.0
 40
0.510638724
 41
0.4042543834
 42
0.4267298275
  0
ELLIPSE
  5
45F
100
AcDbEntity
  8
0
100
AcDbEllipse
 62
7
  6
CONTINUOUS
 10
138.0665458484
 20
146.4006379738
 30
0.0
 11
0.0
 21
39.0
 31
0.0
 40
0.6808509827
 41
-0.322821518
 42
-0.3068100896
  0
ELLIPSE
  5
460
100
AcDbEntity
  8
0
100
AcDbEllipse
 62
7
  6
CONTINUOUS
 10
146.7536909771
 20
146.4006379738
 30
0.0
 11
0.0
 21
38.5
 31
0.0
 40
0.204255139
 41
0.3764591298
 42
0.4042543834
  0
ELLIPSE
  5
461
100
AcDbEntity
  8
0
100
AcDbEllipse
 62
7
  6
CONTINUOUS
 10
109.9978671911
 20
146.4006379738
 30
0.0
 11
119.4899148556
 21
-0.0
 31
0.0
 40
0.3263873779
 41
1.2639862372
 42
1.2693051389
  0
ELLIPSE
  5
462
100
AcDbEntity
  8
0
100
AcDbEllipse
 62
7
  6
CONTINUOUS
 10
180.5573161804
 20
146.4006379738
 30
0.0
 11
119.4898032753
 21
0.0
 31
0.0
 40
0.3263876827
 41
1.8722875147
 42
1.8776064164
  0
ELLIPSE
  5
463
100
AcDbEntity
  8
0
100
AcDbEllipse
 62
7
  6
CONTINUOUS
 10
152.4886712225
 20
146.4006379738
 30
0.0
 11
-0.0
 21
39.0
 31
0.0
 40
0.6808509827
 41
0.3068100896
 42
0.322821518
  0
ELLIPSE
  5
464
100
AcDbEntity
  8
0
100
AcDbEllipse
 62
7
  6
CONTINUOUS
 10
148.276756831
 20
146.4006379738
 30
0.0
 11
0.0
 21
39.0
 31
0.0
 40
0.3404254913
 41
0.322821518
 42
0.3389191792
  0
ELLIPSE
  5
465
100
AcDbEntity
  8
0
100
AcDbEllipse
 62
7
  6
CONTINUOUS
 10
148.276756831
 20
146.4006379738
 30
0.0
 11
0.0
 21
38.5
 31
0.0
 40
0.3404254913
 41
0.3271691571
 42
0.3435010941
  0
ELLIPSE
  5
466
100
AcDbEntity
  8
0
100
AcDbEllipse
 62
7
  6
CONTINUOUS
 10
152.4886712225
 20
146.4006379738
 30
0.0
 11
0.0
 21
38.5
 31
0.0
 40
0.6808509827
 41
0.3109272521
 42
0.3271691571
  0
ELLIPSE
  5
467
100
AcDbEntity
  8
0
100
AcDbEllipse
 62
7
  6
CONTINUOUS
 10
146.7536909771
 20
146.4006379738
 30
0.0
 11
-0.0
 21
39.0
 31
0.0
 40
0.204255139
 41
0.3713960628
 42
0.3987759408
  0
ELLIPSE
  5
468
100
AcDbEntity
  8
0
100
AcDbEllipse
 62
7
  6
CONTINUOUS
 10
180.5573161804
 20
146.4006379738
 30
0.0
 11
117.9578827205
 21
-0.0
 31
0.0
 40
0.3263876827
 41
1.8763286478
 42
1.8817235789
  0
ELLIPSE
  5
469
100
AcDbEntity
  8
0
100
AcDbEllipse
 62
7
  6
CONTINUOUS
 10
151.3933599642
 20
146.4006379738
 30
0.0
 11
0.0
 21
39.0
 31
0.0
 40
0.510638724
 41
0.3987759408
 42
0.4209084097
  0
ELLIPSE
  5
46A
100
AcDbEntity
  8
0
100
AcDbEllipse
 62
7
  6
CONTINUOUS
 10
109.9978671911
 20
146.4006379738
 30
0.0
 11
117.9579928703
 21
0.0
 31
0.0
 40
0.3263873779
 41
1.2598690747
 42
1.2652640058
  0
ELLIPSE
  5
46B
100
AcDbEntity
  8
0
100
AcDbEllipse
 62
7
  6
CONTINUOUS
 10
159.5303880309
 20
146.4006379738
 30
0.0
 11
39.8298204706
 21
-0.0
 31
0.0
 40
0.9791658496
 41
1.9917047365
 42
2.0140587429
  0
ELLIPSE
  5
46C
100
AcDbEntity
  8
0
100
AcDbEllipse
 62
7
  6
CONTINUOUS
 10
176.6128689229
 20
146.4006379738
 30
0.0
 11
79.6594409286
 21
-0.0
 31
0.0
 40
0.4895841541
 41
2.0140587429
 42
2.0253245225
  0
ELLIPSE
  5
46D
100
AcDbEntity
  8
0
100
AcDbEllipse
 62
7
  6
CONTINUOUS
 10
138.0665458484
 20
146.4006379738
 30
0.0
 11
0.0
 21
38.5
 31
0.0
 40
0.6808509827
 41
-0.3271691571
 42
-0.3109272521
  0
ELLIPSE
  5
46E
100
AcDbEntity
  8
0
100
AcDbEllipse
 62
7
  6
CONTINUOUS
 10
142.2784602399
 20
146.4006379738
 30
0.0
 11
-0.0
 21
38.5
 31
0.0
 40
0.3404254913
 41
5.9430104026
 42
5.95601615
  0
ELLIPSE
  5
46F
100
AcDbEntity
  8
0
100
AcDbEllipse
 62
7
  6
CONTINUOUS
 10
105.6551200844
 20
146.4006379738
 30
0.0
 11
79.6594269811
 21
-0.0
 31
0.0
 40
0.4895842398
 41
1.116268131
 42
1.1275339107
  0
ELLIPSE
  5
470
100
AcDbEntity
  8
0
100
AcDbEllipse
 62
7
  6
CONTINUOUS
 10
122.737593499
 20
146.4006379738
 30
0.0
 11
39.8298239575
 21
0.0
 31
0.0
 40
0.9791657639
 41
1.1275339107
 42
1.1498879171
  0
ELLIPSE
  5
471
100
AcDbEntity
  8
0
100
AcDbEllipse
 62
7
  6
CONTINUOUS
 10
130.8746219218
 20
146.4006379738
 30
0.0
 11
-0.0
 21
39.0
 31
0.0
 40
0.510638791
 41
-0.4209084097
 42
-0.3987759408
  0
ELLIPSE
  5
472
100
AcDbEntity
  8
0
100
AcDbEllipse
 62
7
  6
CONTINUOUS
 10
135.5142916536
 20
146.4006379738
 30
0.0
 11
-0.0
 21
39.0
 31
0.0
 40
0.2042551568
 41
-0.3987759408
 42
-0.3713960628
  0
ELLIPSE
  5
473
100
AcDbEntity
  8
0
100
AcDbEllipse
 62
7
  6
CONTINUOUS
 10
148.9087040632
 20
146.4006379738
 30
0.0
 11
119.4891474454
 21
-0.0
 31
0.0
 40
0.3263894741
 41
1.7673043093
 42
1.7724813805
  0
ELLIPSE
  5
474
100
AcDbEntity
  8
0
100
AcDbEllipse
 62
7
  6
CONTINUOUS
 10
130.2917250725
 20
146.4006379738
 30
0.0
 11
0.0
 21
39.0
 31
0.0
 40
0.6808509827
 41
0.2016850537
 42
0.2172497834
  0
ELLIPSE
  5
475
100
AcDbEntity
  8
0
100
AcDbEllipse
 62
7
  6
CONTINUOUS
 10
123.5754136443
 20
146.4006379738
 30
0.0
 11
0.0
 21
38.5
 31
0.0
 40
0.1702127606
 41
-0.0281422476
 42
-0.0000001686
  0
ELLIPSE
  5
476
100
AcDbEntity
  8
0
100
AcDbEllipse
 62
7
  6
CONTINUOUS
 10
123.0959810784
 20
146.4006379738
 30
0.0
 11
-0.0
 21
38.5
 31
0.0
 40
0.6127658212
 41
6.2293172577
 42
6.2550430596
  0
ELLIPSE
  5
477
100
AcDbEntity
  8
0
100
AcDbEllipse
 62
7
  6
CONTINUOUS
 10
122.2491721364
 20
146.4006379738
 30
0.0
 11
39.3191488385
 21
0.0
 31
0.0
 40
0.9791666691
 41
7.7860759693
 42
7.8001135845
  0
ELLIPSE
  5
478
100
AcDbEntity
  8
0
100
AcDbEllipse
 62
7
  6
CONTINUOUS
 10
174.6956075288
 20
146.4006379738
 30
0.0
 11
119.4898032753
 21
0.0
 31
0.0
 40
0.3263876827
 41
1.8563826813
 42
1.8616758079
  0
ELLIPSE
  5
479
100
AcDbEntity
  8
0
100
AcDbEllipse
 62
7
  6
CONTINUOUS
 10
151.8495247461
 20
146.4006379738
 30
0.0
 11
39.8297917843
 21
0.0
 31
0.0
 40
0.9791665548
 41
1.8616758079
 42
1.8776064164
  0
ELLIPSE
  5
47A
100
AcDbEntity
  8
0
100
AcDbEllipse
 62
7
  6
CONTINUOUS
 10
134.3661940484
 20
146.4006379738
 30
0.0
 11
39.319144249
 21
0.0
 31
0.0
 40
0.9791667834
 41
1.6246643762
 42
1.6401159083
  0
ELLIPSE
  5
47B
100
AcDbEntity
  8
0
100
AcDbEllipse
 62
7
  6
CONTINUOUS
 10
133.5193852422
 20
146.4006379738
 30
0.0
 11
-0.0
 21
38.5
 31
0.0
 40
0.6127657675
 41
0.0281422476
 42
0.0538680495
  0
ELLIPSE
  5
47C
100
AcDbEntity
  8
0
100
AcDbEllipse
 62
7
  6
CONTINUOUS
 10
142.8275046048
 20
146.4006379738
 30
0.0
 11
-0.0
 21
39.0
 31
0.0
 40
0.255319362
 41
0.3068100896
 42
0.3281775292
  0
ELLIPSE
  5
47D
100
AcDbEntity
  8
0
100
AcDbEllipse
 62
7
  6
CONTINUOUS
 10
133.0399527183
 20
146.4006379738
 30
0.0
 11
-0.0
 21
38.5
 31
0.0
 40
0.1702127457
 41
0.0000001686
 42
0.0281422476
  0
ELLIPSE
  5
47E
100
AcDbEntity
  8
0
100
AcDbEllipse
 62
7
  6
CONTINUOUS
 10
126.2853438276
 20
146.4006379738
 30
0.0
 11
-0.0
 21
39.0
 31
0.0
 40
0.2042554442
 41
0.2172497834
 42
0.2433124178
  0
ELLIPSE
  5
47F
100
AcDbEntity
  8
0
100
AcDbEllipse
 62
7
  6
CONTINUOUS
 10
139.667190235
 20
146.4006379738
 30
0.0
 11
-0.0
 21
38.5
 31
0.0
 40
0.510637263
 41
-0.194062115
 42
-0.1835946014
  0
ELLIPSE
  5
480
100
AcDbEntity
  8
0
100
AcDbEllipse
 62
7
  6
CONTINUOUS
 10
133.3483887882
 20
146.4006379738
 30
0.0
 11
52.4255256653
 21
0.0
 31
0.0
 40
0.7343750875
 41
1.3609921059
 42
1.3767342118
  0
ELLIPSE
  5
481
100
AcDbEntity
  8
0
100
AcDbEllipse
 62
7
  6
CONTINUOUS
 10
119.7000684644
 20
146.4006379738
 30
0.0
 11
117.9578827205
 21
0.0
 31
0.0
 40
0.3263876827
 41
7.6389185178
 42
7.644177413
  0
ELLIPSE
  5
482
100
AcDbEntity
  8
0
100
AcDbEllipse
 62
7
  6
CONTINUOUS
 10
170.8551486065
 20
146.4006379738
 30
0.0
 11
117.9578827205
 21
-0.0
 31
0.0
 40
0.3263876827
 41
1.7806005477
 42
1.785859443
  0
ELLIPSE
  5
483
100
AcDbEntity
  8
0
100
AcDbEllipse
 62
7
  6
CONTINUOUS
 10
157.2068282827
 20
146.4006379738
 30
0.0
 11
52.4255256653
 21
-0.0
 31
0.0
 40
0.7343750875
 41
1.7648584418
 42
1.7806005477
  0
ELLIPSE
  5
484
100
AcDbEntity
  8
0
100
AcDbEllipse
 62
7
  6
CONTINUOUS
 10
152.783661485
 20
146.4006379738
 30
0.0
 11
0.0
 21
38.5
 31
0.0
 40
0.7659558946
 41
0.1731473946
 42
0.194062115
  0
ELLIPSE
  5
485
100
AcDbEntity
  8
0
100
AcDbEllipse
 62
7
  6
CONTINUOUS
 10
149.0579507065
 20
146.4006379738
 30
0.0
 11
0.0
 21
38.5
 31
0.0
 40
0.2042556065
 41
0.1471101438
 42
0.1731473946
  0
ELLIPSE
  5
486
100
AcDbEntity
  8
0
100
AcDbEllipse
 62
7
  6
CONTINUOUS
 10
126.2853438276
 20
146.4006379738
 30
0.0
 11
-0.0
 21
38.5
 31
0.0
 40
0.2042554442
 41
0.220117363
 42
0.2465374851
  0
ELLIPSE
  5
487
100
AcDbEntity
  8
0
100
AcDbEllipse
 62
7
  6
CONTINUOUS
 10
130.2917250725
 20
146.4006379738
 30
0.0
 11
0.0
 21
38.5
 31
0.0
 40
0.6808509827
 41
0.2043411668
 42
0.220117363
  0
ELLIPSE
  5
488
100
AcDbEntity
  8
0
100
AcDbEllipse
 62
7
  6
CONTINUOUS
 10
148.9087040632
 20
146.4006379738
 30
0.0
 11
117.9572352987
 21
-0.0
 31
0.0
 40
0.3263894741
 41
1.7698903946
 42
1.7751374936
  0
ELLIPSE
  5
489
100
AcDbEntity
  8
0
100
AcDbEllipse
 62
7
  6
CONTINUOUS
 10
137.2525853522
 20
146.4006379738
 30
0.0
 11
-0.0
 21
38.5
 31
0.0
 40
0.2042556244
 41
-0.1731473946
 42
-0.1471101438
  0
ELLIPSE
  5
48A
100
AcDbEntity
  8
0
100
AcDbEllipse
 62
7
  6
CONTINUOUS
 10
133.5268742476
 20
146.4006379738
 30
0.0
 11
0.0
 21
38.5
 31
0.0
 40
0.7659559616
 41
-0.194062115
 42
-0.1731473946
  0
ELLIPSE
  5
48B
100
AcDbEntity
  8
0
100
AcDbEllipse
 62
7
  6
CONTINUOUS
 10
129.1037070626
 20
146.4006379738
 30
0.0
 11
52.4255302548
 21
0.0
 31
0.0
 40
0.7343750233
 41
1.3615741596
 42
1.3767342118
  0
ELLIPSE
  5
48C
100
AcDbEntity
  8
0
100
AcDbEllipse
 62
7
  6
CONTINUOUS
 10
133.0399527183
 20
146.4006379738
 30
0.0
 11
0.0
 21
39.0
 31
0.0
 40
0.1702127457
 41
0.0000000624
 42
0.0277813561
  0
ELLIPSE
  5
48D
100
AcDbEntity
  8
0
100
AcDbEllipse
 62
7
  6
CONTINUOUS
 10
133.5193852422
 20
146.4006379738
 30
0.0
 11
-0.0
 21
39.0
 31
0.0
 40
0.6127657675
 41
0.0277813561
 42
0.0531767775
  0
ELLIPSE
  5
48E
100
AcDbEntity
  8
0
100
AcDbEllipse
 62
7
  6
CONTINUOUS
 10
134.3661940484
 20
146.4006379738
 30
0.0
 11
39.829782486
 21
-0.0
 31
0.0
 40
0.9791667834
 41
1.6239731043
 42
1.6392257969
  0
ELLIPSE
  5
48F
100
AcDbEntity
  8
0
100
AcDbEllipse
 62
7
  6
CONTINUOUS
 10
137.089603559
 20
146.4006379738
 30
0.0
 11
79.6596409413
 21
-0.0
 31
0.0
 40
0.4895829248
 41
1.6392257969
 42
1.6494028944
  0
ELLIPSE
  5
490
100
AcDbEntity
  8
0
100
AcDbEllipse
 62
7
  6
CONTINUOUS
 10
139.667190235
 20
146.4006379738
 30
0.0
 11
0.0
 21
39.0
 31
0.0
 40
0.510637263
 41
-0.1915430498
 42
-0.1812145404
  0
ELLIPSE
  5
491
100
AcDbEntity
  8
0
100
AcDbEllipse
 62
7
  6
CONTINUOUS
 10
133.3483887882
 20
146.4006379738
 30
0.0
 11
53.1063766479
 21
0.0
 31
0.0
 40
0.7343750875
 41
1.3637212878
 42
1.379253277
  0
ELLIPSE
  5
492
100
AcDbEntity
  8
0
100
AcDbEllipse
 62
7
  6
CONTINUOUS
 10
119.7000684644
 20
146.4006379738
 30
0.0
 11
119.4898032753
 21
0.0
 31
0.0
 40
0.3263876827
 41
1.3585328882
 42
1.3637212878
  0
ELLIPSE
  5
493
100
AcDbEntity
  8
0
100
AcDbEllipse
 62
7
  6
CONTINUOUS
 10
170.8551486065
 20
146.4006379738
 30
0.0
 11
119.4898032753
 21
-0.0
 31
0.0
 40
0.3263876827
 41
1.7778713658
 42
1.7830597654
  0
ELLIPSE
  5
494
100
AcDbEntity
  8
0
100
AcDbEllipse
 62
7
  6
CONTINUOUS
 10
157.2068282827
 20
146.4006379738
 30
0.0
 11
53.1063766479
 21
0.0
 31
0.0
 40
0.7343750875
 41
1.7623393766
 42
1.7778713658
  0
ELLIPSE
  5
495
100
AcDbEntity
  8
0
100
AcDbEllipse
 62
7
  6
CONTINUOUS
 10
152.783661485
 20
146.4006379738
 30
0.0
 11
-0.0
 21
39.0
 31
0.0
 40
0.7659558946
 41
0.170905541
 42
0.1915430498
  0
ELLIPSE
  5
496
100
AcDbEntity
  8
0
100
AcDbEllipse
 62
7
  6
CONTINUOUS
 10
149.0579507065
 20
146.4006379738
 30
0.0
 11
-0.0
 21
39.0
 31
0.0
 40
0.2042556065
 41
0.1452106582
 42
0.170905541
  0
ELLIPSE
  5
497
100
AcDbEntity
  8
0
100
AcDbEllipse
 62
7
  6
CONTINUOUS
 10
166.812606801
 20
146.4006379738
 30
0.0
 11
117.9579377954
 21
-0.0
 31
0.0
 40
0.3263875303
 41
1.7806005477
 42
1.785859443
  0
ELLIPSE
  5
498
100
AcDbEntity
  8
0
100
AcDbEllipse
 62
7
  6
CONTINUOUS
 10
132.0287865023
 20
146.4006379738
 30
0.0
 11
32.1953910874
 21
37.6722586322
 31
0.0
 40
0.2466334862
 41
1.2607457856
 42
1.3652701381
  0
ELLIPSE
  5
499
100
AcDbEntity
  8
0
100
AcDbEllipse
 62
7
  6
CONTINUOUS
 10
150.7558254353
 20
146.4006379738
 30
0.0
 11
0.0
 21
39.0
 31
0.0
 40
0.2042556065
 41
0.3659557282
 42
0.3932753731
  0
ELLIPSE
  5
49A
100
AcDbEntity
  8
0
100
AcDbEllipse
 62
7
  6
CONTINUOUS
 10
137.2525853522
 20
146.4006379738
 30
0.0
 11
0.0
 21
39.0
 31
0.0
 40
0.2042556244
 41
-0.170905541
 42
-0.1452106582
  0
ELLIPSE
  5
49B
100
AcDbEntity
  8
0
100
AcDbEllipse
 62
7
  6
CONTINUOUS
 10
153.1642750069
 20
146.4006379738
 30
0.0
 11
52.4255256653
 21
-0.0
 31
0.0
 40
0.7343750875
 41
1.7648584418
 42
1.7806005477
  0
ELLIPSE
  5
49C
100
AcDbEntity
  8
0
100
AcDbEllipse
 62
7
  6
CONTINUOUS
 10
133.5268742476
 20
146.4006379738
 30
0.0
 11
0.0
 21
39.0
 31
0.0
 40
0.7659559616
 41
-0.1915430498
 42
-0.170905541
  0
ELLIPSE
  5
49D
100
AcDbEntity
  8
0
100
AcDbEllipse
 62
7
  6
CONTINUOUS
 10
129.1037070626
 20
146.4006379738
 30
0.0
 11
53.1063812971
 21
0.0
 31
0.0
 40
0.7343750233
 41
1.3637212878
 42
1.379253277
  0
ELLIPSE
  5
49E
100
AcDbEntity
  8
0
100
AcDbEllipse
 62
7
  6
CONTINUOUS
 10
115.4553819595
 20
146.4006379738
 30
0.0
 11
119.4898311704
 21
0.0
 31
0.0
 40
0.3263876065
 41
1.3585328882
 42
1.3637212878
  0
ELLIPSE
  5
49F
100
AcDbEntity
  8
0
100
AcDbEllipse
 62
7
  6
CONTINUOUS
 10
166.812606801
 20
146.4006379738
 30
0.0
 11
119.4898590655
 21
0.0
 31
0.0
 40
0.3263875303
 41
1.7778713658
 42
1.7830597654
  0
ELLIPSE
  5
4A0
100
AcDbEntity
  8
0
100
AcDbEllipse
 62
7
  6
CONTINUOUS
 10
153.1642750069
 20
146.4006379738
 30
0.0
 11
53.1063766479
 21
-0.0
 31
0.0
 40
0.7343750875
 41
1.7623393766
 42
1.7778713658
  0
ELLIPSE
  5
4A1
100
AcDbEntity
  8
0
100
AcDbEllipse
 62
7
  6
CONTINUOUS
 10
146.8454735601
 20
146.4006379738
 30
0.0
 11
-0.0
 21
39.0
 31
0.0
 40
0.510637263
 41
0.1812145404
 42
0.1915430498
  0
ELLIPSE
  5
4A2
100
AcDbEntity
  8
0
100
AcDbEllipse
 62
7
  6
CONTINUOUS
 10
146.8454735601
 20
146.4006379738
 30
0.0
 11
0.0
 21
38.5
 31
0.0
 40
0.510637263
 41
0.1835946014
 42
0.194062115
  0
ELLIPSE
  5
4A3
100
AcDbEntity
  8
0
100
AcDbEllipse
 62
7
  6
CONTINUOUS
 10
159.1506698584
 20
146.4006379738
 30
0.0
 11
-0.0
 21
39.0
 31
0.0
 40
0.7659558946
 41
0.3932753731
 42
0.4153552244
  0
ELLIPSE
  5
4A4
100
AcDbEntity
  8
0
100
AcDbEllipse
 62
7
  6
CONTINUOUS
 10
168.5259758696
 20
146.4006379738
 30
0.0
 11
53.1063766479
 21
-0.0
 31
0.0
 40
0.7343750875
 41
1.9861515512
 42
2.0028529677
  0
ELLIPSE
  5
4A5
100
AcDbEntity
  8
0
100
AcDbEllipse
 62
7
  6
CONTINUOUS
 10
196.3233278302
 20
146.4006379738
 30
0.0
 11
119.4898032753
 21
0.0
 31
0.0
 40
0.3263876827
 41
2.0028529677
 42
2.0084485107
  0
ELLIPSE
  5
4A6
100
AcDbEntity
  8
0
100
AcDbEllipse
 62
7
  6
CONTINUOUS
 10
123.5754136443
 20
146.4006379738
 30
0.0
 11
-0.0
 21
39.0
 31
0.0
 40
0.1702127606
 41
-0.0277813561
 42
-0.0000000624
  0
ELLIPSE
  5
4A7
100
AcDbEntity
  8
0
100
AcDbEllipse
 62
7
  6
CONTINUOUS
 10
132.0287865023
 20
62.1656483791
 30
0.0
 11
26.3073077117
 21
35.245526853
 31
0.0
 40
0.5888867502
 41
3.9689818261
 42
4.0735061785
  0
ELLIPSE
  5
4A8
100
AcDbEntity
  8
0
100
AcDbEllipse
 62
7
  6
CONTINUOUS
 10
142.2630560244
 20
62.1656483791
 30
0.0
 11
6.412225402
 21
38.4578109815
 31
0.0
 40
0.2810070941
 41
-2.716479456
 42
-2.7048102409
  0
ELLIPSE
  5
4A9
100
AcDbEntity
  8
0
100
AcDbEllipse
 62
7
  6
CONTINUOUS
 10
143.6474788582
 20
62.1656483791
 30
0.0
 11
16.3019160234
 21
37.5960545341
 31
0.0
 40
0.5087606736
 41
-2.5578583233
 42
-2.5461739906
  0
ELLIPSE
  5
4AA
100
AcDbEntity
  8
0
100
AcDbEllipse
 62
7
  6
CONTINUOUS
 10
147.4731993136
 20
62.1656483791
 30
0.0
 11
54.9358950907
 21
25.6162665542
 31
0.0
 40
0.5231771568
 41
-1.939958133
 42
-1.9321593633
  0
ELLIPSE
  5
4AB
100
AcDbEntity
  8
0
100
AcDbEllipse
 62
7
  6
CONTINUOUS
 10
159.6794181799
 20
62.1656483791
 30
0.0
 11
150.7323729136
 21
19.0197510272
 31
0.0
 40
0.2220747666
 41
-1.7325945245
 42
-1.7286921888
  0
ELLIPSE
  5
4AC
100
AcDbEntity
  8
0
100
AcDbEllipse
 62
7
  6
CONTINUOUS
 10
118.5777564303
 20
62.1656483791
 30
0.0
 11
150.7325888888
 21
-19.0197482486
 31
0.0
 40
0.2220744588
 41
-1.4129005478
 42
-1.4089982121
  0
ELLIPSE
  5
4AD
100
AcDbEntity
  8
0
100
AcDbEllipse
 62
7
  6
CONTINUOUS
 10
130.7840172035
 20
62.1656483791
 30
0.0
 11
54.9357762037
 21
-25.616296804
 31
0.0
 40
0.5231777982
 41
-1.2094322378
 42
-1.2016334681
  0
ELLIPSE
  5
4AE
100
AcDbEntity
  8
0
100
AcDbEllipse
 62
7
  6
CONTINUOUS
 10
135.374853712
 20
62.1656483791
 30
0.0
 11
-10.6658398837
 21
38.2554019466
 31
0.0
 40
0.4062430215
 41
-3.6365603844
 42
-3.6209847154
  0
ELLIPSE
  5
4AF
100
AcDbEntity
  8
0
100
AcDbEllipse
 62
7
  6
CONTINUOUS
 10
140.4422727004
 20
62.1656483791
 30
0.0
 11
-7.9817247831
 21
38.4080928904
 31
0.0
 40
0.3330917117
 41
-3.6317230674
 42
-3.6123223583
  0
ELLIPSE
  5
4B0
100
AcDbEntity
  8
0
100
AcDbEllipse
 62
7
  6
CONTINUOUS
 10
139.5500600944
 20
62.1656483791
 30
0.0
 11
-19.7511778896
 21
36.9500596545
 31
0.0
 40
0.5475128102
 41
-3.8628289444
 42
-3.8473270813
  0
ELLIPSE
  5
4B1
100
AcDbEntity
  8
0
100
AcDbEllipse
 62
7
  6
CONTINUOUS
 10
137.7480434512
 20
62.1656483791
 30
0.0
 11
61.7267256175
 21
-24.0994648481
 31
0.0
 40
0.4864087583
 41
-1.3425737297
 42
-1.3309557664
  0
ELLIPSE
  5
4B2
100
AcDbEntity
  8
0
100
AcDbEllipse
 62
7
  6
CONTINUOUS
 10
132.6536029392
 20
62.1656483791
 30
0.0
 11
188.4600102942
 21
-18.6734613486
 31
0.0
 40
0.1786493675
 41
-1.5164154539
 42
-1.5125440937
  0
ELLIPSE
  5
4B3
100
AcDbEntity
  8
0
100
AcDbEllipse
 62
7
  6
CONTINUOUS
 10
145.6036083541
 20
62.1656483791
 30
0.0
 11
188.4602261079
 21
18.6734599532
 31
0.0
 40
0.178649167
 41
-1.6290485185
 42
-1.6251771583
  0
ELLIPSE
  5
4B4
100
AcDbEntity
  8
0
100
AcDbEllipse
 62
7
  6
CONTINUOUS
 10
140.5091561819
 20
62.1656483791
 30
0.0
 11
61.7266491855
 21
24.0994796819
 31
0.0
 40
0.4864091677
 41
-1.8106373813
 42
-1.7990194179
  0
ELLIPSE
  5
4B5
100
AcDbEntity
  8
0
100
AcDbEllipse
 62
7
  6
CONTINUOUS
 10
147.4790182801
 20
62.1656483791
 30
0.0
 11
-20.458399553
 21
36.7952070154
 31
0.0
 40
0.5537934751
 41
-3.9580805216
 42
-3.9429253568
  0
ELLIPSE
  5
4B6
100
AcDbEntity
  8
0
100
AcDbEllipse
 62
7
  6
CONTINUOUS
 10
145.3615178795
 20
62.1656483791
 30
0.0
 11
20.458399553
 21
36.7952070154
 31
0.0
 40
0.5537934751
 41
-2.3402599504
 42
-2.3251047856
  0
ELLIPSE
  5
4B7
100
AcDbEntity
  8
0
100
AcDbEllipse
 62
7
  6
CONTINUOUS
 10
145.7290179671
 20
62.1656483791
 30
0.0
 11
-20.458399553
 21
36.7952070154
 31
0.0
 40
0.5537934751
 41
-3.9277733826
 42
-3.912621141
  0
ELLIPSE
  5
4B8
100
AcDbEntity
  8
0
100
AcDbEllipse
 62
7
  6
CONTINUOUS
 10
147.1115181925
 20
62.1656483791
 30
0.0
 11
20.458399553
 21
36.7952070154
 31
0.0
 40
0.5537934751
 41
-2.3705641661
 42
-2.3554119245
  0
ELLIPSE
  5
4B9
100
AcDbEntity
  8
0
100
AcDbEllipse
 62
7
  6
CONTINUOUS
 10
133.0662327198
 20
62.1656483791
 30
0.0
 11
26.598805084
 21
35.1568235115
 31
0.0
 40
0.589961971
 41
-2.3085145236
 42
-2.2349420489
  0
ELLIPSE
  5
4BA
100
AcDbEntity
  8
0
100
AcDbEllipse
 62
7
  6
CONTINUOUS
 10
141.1177698855
 20
62.1656483791
 30
0.0
 11
47.817408739
 21
27.671155496
 31
0.0
 40
0.5598083607
 41
-1.9556304298
 42
-1.9439998305
  0
ELLIPSE
  5
4BB
100
AcDbEntity
  8
0
100
AcDbEllipse
 62
7
  6
CONTINUOUS
 10
147.1377734969
 20
62.1656483791
 30
0.0
 11
150.7325888888
 21
19.0197482486
 31
0.0
 40
0.2220744588
 41
-1.6587306035
 42
-1.6548556176
  0
ELLIPSE
  5
4BC
100
AcDbEntity
  8
0
100
AcDbEllipse
 62
7
  6
CONTINUOUS
 10
131.1194419688
 20
62.1656483791
 30
0.0
 11
150.7323729136
 21
-19.0197510272
 31
0.0
 40
0.2220747666
 41
-1.4867369529
 42
-1.4828619671
  0
ELLIPSE
  5
4BD
100
AcDbEntity
  8
0
100
AcDbEllipse
 62
7
  6
CONTINUOUS
 10
136.7631775928
 20
62.1656483791
 30
0.0
 11
54.9358950907
 21
-25.6162665542
 31
0.0
 40
0.5231771568
 41
-1.2715960229
 42
-1.2638432892
  0
ELLIPSE
  5
4BE
100
AcDbEntity
  8
0
100
AcDbEllipse
 62
7
  6
CONTINUOUS
 10
138.887497156
 20
62.1656483791
 30
0.0
 11
-16.3019220666
 21
37.5960535639
 31
0.0
 40
0.5087607548
 41
-3.7797370999
 42
-3.7681002091
  0
ELLIPSE
  5
4BF
100
AcDbEntity
  8
0
100
AcDbEllipse
 62
7
  6
CONTINUOUS
 10
139.883038078
 20
62.1656483791
 30
0.0
 11
-6.4122219086
 21
38.4578110647
 31
0.0
 40
0.28100697
 41
-3.5977945805
 42
-3.5861469112
  0
ELLIPSE
  5
4C0
100
AcDbEntity
  8
0
100
AcDbEllipse
 62
7
  6
CONTINUOUS
 10
134.499853712
 20
62.1656483791
 30
0.0
 11
-10.6658398837
 21
38.2554019466
 31
0.0
 40
0.4062430215
 41
-3.6365603844
 42
-3.6209847154
  0
ELLIPSE
  5
4C1
100
AcDbEntity
  8
0
100
AcDbEllipse
 62
7
  6
CONTINUOUS
 10
133.3521429431
 20
62.1656483791
 30
0.0
 11
-19.751175009
 21
36.95006027
 31
0.0
 40
0.5475127836
 41
-3.7929170254
 42
-3.7773115322
  0
ELLIPSE
  5
4C2
100
AcDbEntity
  8
0
100
AcDbEllipse
 62
7
  6
CONTINUOUS
 10
128.6091599545
 20
62.1656483791
 30
0.0
 11
61.7266433387
 21
-24.0994808166
 31
0.0
 40
0.486409199
 41
-1.2454378793
 42
-1.2337117853
  0
ELLIPSE
  5
4C3
100
AcDbEntity
  8
0
100
AcDbEllipse
 62
7
  6
CONTINUOUS
 10
109.9035788166
 20
62.1656483791
 30
0.0
 11
188.4602095987
 21
-18.67346006
 31
0.0
 40
0.1786491823
 41
-1.4036827194
 42
-1.3997694987
  0
ELLIPSE
  5
4C4
100
AcDbEntity
  8
0
100
AcDbEllipse
 62
7
  6
CONTINUOUS
 10
168.3535916213
 20
62.1656483791
 30
0.0
 11
188.459993785
 21
18.6734614553
 31
0.0
 40
0.1786493828
 41
-1.7418231964
 42
-1.7379099756
  0
ELLIPSE
  5
4C5
100
AcDbEntity
  8
0
100
AcDbEllipse
 62
7
  6
CONTINUOUS
 10
149.648053297
 20
62.1656483791
 30
0.0
 11
61.7267197707
 21
24.0994659828
 31
0.0
 40
0.4864087896
 41
-1.9078803742
 42
-1.8961542803
  0
ELLIPSE
  5
4C6
100
AcDbEntity
  8
0
100
AcDbEllipse
 62
7
  6
CONTINUOUS
 10
144.9050604395
 20
62.1656483791
 30
0.0
 11
19.751175009
 21
36.95006027
 31
0.0
 40
0.5475127836
 41
-2.5058737749
 42
-2.4902682818
  0
ELLIPSE
  5
4C7
100
AcDbEntity
  8
0
100
AcDbEllipse
 62
7
  6
CONTINUOUS
 10
143.2982616075
 20
62.1656483791
 30
0.0
 11
7.9817261686
 21
38.4080928348
 31
0.0
 40
0.3330917545
 41
-2.7058722179
 42
-2.6864068307
  0
ENDSEC
  0
SECTION
  2
OBJECTS
  0
DICTIONARY
  5
C
100
AcDbDictionary
280
0
281
1
  3
ACAD_GROUP
350
D
  3
ACAD_MLINESTYLE
350
17
  3
ACAD_LAYOUT
350
1A
  3
ACAD_PLOTSETTINGS
350
19
  3
ACAD_PLOTSTYLENAME
350
E
  0
DICTIONARY
  5
D
102
{ACAD_REACTORS
330
C
102
}
100
AcDbDictionary
280
0
281
1
  0
ACDBDICTIONARYWDFLT
  5
E
102
{ACAD_REACTORS
330
C
102
}
100
AcDbDictionary
281
1
  3
Normal
350
F
100
AcDbDictionaryWithDefault
340
F
  0
DICTIONARY
  5
17
102
{ACAD_REACTORS
330
C
102
}
100
AcDbDictionary
280
0
281
1
  3
Standard
350
18
  0
DICTIONARY
  5
19
102
{ACAD_REACTORS
330
C
102
}
100
AcDbDictionary
281
1
  0
DICTIONARY
  5
1A
102
{ACAD_REACTORS
330
C
102
}
100
AcDbDictionary
281
1
  3
Model
350
4C8
  3
Layout1
350
4C9
  0
ACDBPLACEHOLDER
  5
F
102
{ACAD_REACTORS
330
E
102
}
  0
MLINESTYLE
  5
18
102
{ACAD_REACTORS
330
17
102
}
100
AcDbMlineStyle
  2
STANDARD
 70
0
  3

 62
256
 51
90.0
 52
90.0
 71
2
 49
0.5
 62
256
  6
BYLAYER
 49
-0.5
 62
256
  6
BYLAYER
  0
LAYOUT
  5
4C8
102
{ACAD_REACTORS
330
1A
102
}
100
AcDbPlotSettings
  1

  2
none_device
  4
ISO_A3_(420.00_x_297.00_MM)
  6

 40
0.0
 41
0.0
 42
0.0
 43
0.0
 44
420.0
 45
297.0
 46
0.0
 47
0.0
 48
0.0
 49
0.0
140
0.0
141
0.0
142
1.0
143
1.0
 70
1024
 72
1
 73
0
 74
0
  7

 75
0
147
1.0
148
0.0
149
0.0
100
AcDbLayout
  1
Model
 70
0
 71
0
 10
0.0
 20
0.0
 11
420.0
 21
297.0
 12
0.0
 22
0.0
 32
0.0
 14
0.0
 24
0.0
 34
0.0
 15
0.0
 25
0.0
 35
0.0
146
0.0
 13
0.0
 23
0.0
 33
0.0
 16
1.0
 26
0.0
 36
0.0
 17
0.0
 27
1.0
 37
0.0
 76
0
330
20E
345
0
346
0
  0
LAYOUT
  5
4C9
102
{ACAD_REACTORS
330
1A
102
}
100
AcDbPlotSettings
  1

  2
none_device
  4
ISO_A3_(420.00_x_297.00_MM)
  6

 40
0.0
 41
0.0
 42
0.0
 43
0.0
 44
420.0
 45
297.0
 46
0.0
 47
0.0
 48
0.0
 49
0.0
140
0.0
141
0.0
142
1.0
143
1.0
 70
0
 72
1
 73
0
 74
0
  7

 75
0
147
1.0
148
0.0
149
0.0
100
AcDbLayout
  1
Layout1
 70
0
 71
1
 10
0.0
 20
0.0
 11
420.0
 21
297.0
 12
0.0
 22
0.0
 32
0.0
 14
0.0
 24
0.0
 34
0.0
 15
0.0
 25
0.0
 35
0.0
146
0.0
 13
0.0
 23
0.0
 33
0.0
 16
1.0
 26
0.0
 36
0.0
 17
0.0
 27
1.0
 37
0.0
 76
0
330
20F
345
0
346
0
  0
ENDSEC
  0
EOF
