999
DXF file: 001-m32120-p4.dxf
999
Pro/ENGINEER 2011490 by Parametric Technology Corporation
  0
SECTION
  2
HEADER
  9
$ACADVER
  1
AC1015
  9
$DWGCODEPAGE
  3
ANSI_1252
  9
$EXTMAX
 10
420.0
 20
297.0
 30
0.0
  9
$EXTMIN
 10
0.0
 20
0.0
 30
0.0
  9
$LIMMIN
 10
0.0
 20
0.0
  9
$LIMMAX
 10
420.0
 20
297.0
  9
$VIEWCTR
 10
210.0
 20
148.5
  9
$VIEWSIZE
 40
297.0
  9
$CLAYER
  8
0
  9
$LTSCALE
 40
23.1
  9
$CELTYPE
  6
BYLAYER
  9
$DIMSCALE
 40
1.0
  9
$DIMASZ
 40
3.5
  9
$DIMEXO
 40
2.625
  9
$DIMDLI
 40
15.96
  9
$DIMEXE
 40
7.56
  9
$DIMCEN
 40
3.78
  9
$DIMLFAC
 40
1.0
  9
$DIMBLK
  1
_FILLED
  9
$DIMTXT
 40
3.5
  9
$DIMTOL
 70
1
  9
$DIMLIM
 70
0
  9
$DIMTFAC
 40
1.0
  9
$DIMTP
 40
0.005
  9
$DIMTM
 40
0.005
  9
$PDMODE
 70
3
  9
$PDSIZE
 40
0.3125
  9
$HANDSEED
  5
3B8
  9
$TILEMODE
 70
1
  9
$MEASUREMENT
 70
1
  9
$INSUNITS
 70
4
  0
ENDSEC
  0
SECTION
  2
CLASSES
  0
CLASS
  1
ACDBDICTIONARYWDFLT
  2
AcDbDictionaryWithDefault
  3
AutoCAD 2000
 90
0
280
0
281
0
  0
CLASS
  1
ACDBPLACEHOLDER
  2
AcDbPlaceHolder
  3
AutoCAD 2000
 90
0
280
0
281
0
  0
CLASS
  1
LAYOUT
  2
AcDbLayout
  3
AutoCAD 2000
 90
0
280
0
281
0
  0
ENDSEC
  0
SECTION
  2
TABLES
  0
TABLE
  2
VPORT
  5
8
100
AcDbSymbolTable
 70
2
  0
VPORT
  5
1F4
100
AcDbSymbolTableRecord
100
AcDbViewportTableRecord
  2
*ACTIVE
 70
0
 10
0.0
 20
0.0
 11
1.0
 21
1.0
 12
210.0
 22
148.5
 13
0.0
 23
0.0
 14
1.0
 24
1.0
 15
0.0
 25
0.0
 16
0.0
 26
0.0
 36
1.0
 17
0.0
 27
0.0
 37
0.0
 40
297.0
 41
1.4141414141
 42
50.0
 43
0.0
 44
0.0
 50
0.0
 51
0.0
 71
0
 72
100
 73
1
 74
1
 75
0
 76
0
 77
0
 78
0
  0
ENDTAB
  0
TABLE
  2
LTYPE
  5
5
100
AcDbSymbolTable
 70
6
  0
LTYPE
  5
14
100
AcDbSymbolTableRecord
100
AcDbLinetypeTableRecord
  2
BYBLOCK
 70
0
  3

 72
65
 73
0
 40
0.0
  0
LTYPE
  5
15
100
AcDbSymbolTableRecord
100
AcDbLinetypeTableRecord
  2
BYLAYER
 70
0
  3

 72
65
 73
0
 40
0.0
  0
LTYPE
  5
16
100
AcDbSymbolTableRecord
100
AcDbLinetypeTableRecord
  2
CONTINUOUS
 70
64
  3
Solid line
 72
65
 73
0
 40
0.0
  0
LTYPE
  5
1F5
100
AcDbSymbolTableRecord
100
AcDbLinetypeTableRecord
  2
CENTER
 70
64
  3
____ _ ____ _ ____ _ ____ _ ____ _ ____ _ ____
 72
65
 73
4
 40
0.6
 49
0.375
 74
0
 49
-0.075
 74
0
 49
0.075
 74
0
 49
-0.075
 74
0
  0
LTYPE
  5
1F6
100
AcDbSymbolTableRecord
100
AcDbLinetypeTableRecord
  2
HIDDEN
 70
64
  3
- - - - - - - - - - - - - - - - - - - -
 72
65
 73
2
 40
0.2
 49
0.1
 74
0
 49
-0.1
 74
0
  0
LTYPE
  5
1F7
100
AcDbSymbolTableRecord
100
AcDbLinetypeTableRecord
  2
PHANTOM
 70
64
  3
_____ _ _ _____ _ _ _____ _ _ _____
 72
65
 73
6
 40
0.8
 49
0.45
 74
0
 49
-0.05
 74
0
 49
0.1
 74
0
 49
-0.05
 74
0
 49
0.1
 74
0
 49
-0.05
 74
0
  0
LTYPE
  5
1F8
100
AcDbSymbolTableRecord
100
AcDbLinetypeTableRecord
  2
DOT
 70
64
  3
. . . . . . . . . . . . . . . . . . . .
 72
65
 73
2
 40
0.2
 49
0.1
 74
0
 49
-0.1
 74
0
  0
LTYPE
  5
1F9
100
AcDbSymbolTableRecord
100
AcDbLinetypeTableRecord
  2
DASHED
 70
64
  3
- - - - - - - - - - - - - - - - - - - -
 72
65
 73
2
 40
0.2
 49
0.1
 74
0
 49
-0.1
 74
0
  0
ENDTAB
  0
TABLE
  2
LAYER
  5
2
100
AcDbSymbolTable
 70
36
  0
LAYER
  5
10
100
AcDbSymbolTableRecord
100
AcDbLayerTableRecord
  2
0
 70
0
 62
7
  6
CONTINUOUS
370
-3
390
F
  0
LAYER
  5
1FA
100
AcDbSymbolTableRecord
100
AcDbLayerTableRecord
  2
DEFAULT_1
 70
0
 62
7
  6
CENTER
370
-3
390
F
  0
LAYER
  5
1FB
100
AcDbSymbolTableRecord
100
AcDbLayerTableRecord
  2
DEFAULT_2
 70
0
 62
8
  6
HIDDEN
370
-3
390
F
  0
LAYER
  5
1FC
100
AcDbSymbolTableRecord
100
AcDbLayerTableRecord
  2
DEFAULT_3
 70
0
 62
7
  6
PHANTOM
370
-3
390
F
  0
LAYER
  5
1FD
100
AcDbSymbolTableRecord
100
AcDbLayerTableRecord
  2
AUSFORMSCHRAEGEN
 70
0
 62
7
  6
CONTINUOUS
370
-3
390
F
  0
LAYER
  5
1FE
100
AcDbSymbolTableRecord
100
AcDbLayerTableRecord
  2
BEZUGSACHSEN
 70
0
 62
7
  6
CONTINUOUS
370
-3
390
F
  0
LAYER
  5
1FF
100
AcDbSymbolTableRecord
100
AcDbLayerTableRecord
  2
BEZUGSEBENEN
 70
0
 62
7
  6
CONTINUOUS
370
-3
390
F
  0
LAYER
  5
200
100
AcDbSymbolTableRecord
100
AcDbLayerTableRecord
  2
BG_STARTBEZUEGE
 70
0
 62
7
  6
CONTINUOUS
370
-3
390
F
  0
LAYER
  5
201
100
AcDbSymbolTableRecord
100
AcDbLayerTableRecord
  2
FASEN
 70
0
 62
7
  6
CONTINUOUS
370
-3
390
F
  0
LAYER
  5
202
100
AcDbSymbolTableRecord
100
AcDbLayerTableRecord
  2
FLAECHENVERBUND
 70
0
 62
7
  6
CONTINUOUS
370
-3
390
F
  0
LAYER
  5
203
100
AcDbSymbolTableRecord
100
AcDbLayerTableRecord
  2
HILFEN
 70
0
 62
7
  6
CONTINUOUS
370
-3
390
F
  0
LAYER
  5
204
100
AcDbSymbolTableRecord
100
AcDbLayerTableRecord
  2
KONSTRUKTIONSELEMENTE
 70
0
 62
7
  6
CONTINUOUS
370
-3
390
F
  0
LAYER
  5
205
100
AcDbSymbolTableRecord
100
AcDbLayerTableRecord
  2
KURVEN
 70
0
 62
7
  6
CONTINUOUS
370
-3
390
F
  0
LAYER
  5
206
100
AcDbSymbolTableRecord
100
AcDbLayerTableRecord
  2
NORM
 70
0
 62
7
  6
CONTINUOUS
370
-3
390
F
  0
LAYER
  5
207
100
AcDbSymbolTableRecord
100
AcDbLayerTableRecord
  2
PLATZIERUNG
 70
0
 62
7
  6
CONTINUOUS
370
-3
390
F
  0
LAYER
  5
208
100
AcDbSymbolTableRecord
100
AcDbLayerTableRecord
  2
RUNDUNGEN
 70
0
 62
7
  6
CONTINUOUS
370
-3
390
F
  0
LAYER
  5
209
100
AcDbSymbolTableRecord
100
AcDbLayerTableRecord
  2
TEIL_STARTBEZUEGE
 70
0
 62
7
  6
CONTINUOUS
370
-3
390
F
  0
LAYER
  5
20A
100
AcDbSymbolTableRecord
100
AcDbLayerTableRecord
  2
T_STARTBEZUEGE
 70
0
 62
7
  6
CONTINUOUS
370
-3
390
F
  0
LAYER
  5
20B
100
AcDbSymbolTableRecord
100
AcDbLayerTableRecord
  2
ZEICHNUNGSBEMASSUNGEN
 70
0
 62
7
  6
CONTINUOUS
370
-3
390
F
  0
ENDTAB
  0
TABLE
  2
STYLE
  5
3
100
AcDbSymbolTable
 70
1
  0
STYLE
  5
11
100
AcDbSymbolTableRecord
100
AcDbTextStyleTableRecord
  2
STANDARD
 70
0
 40
0.0
 41
0.7
 50
0.0
 71
0
 42
0.2
  3
txt
  4

  0
STYLE
  5
20C
100
AcDbSymbolTableRecord
100
AcDbTextStyleTableRecord
  2
TEXTSTYLE_1
 70
0
 40
0.0
 41
0.8
 50
0.0
 71
0
 42
0.2
  3
gdt
  4

  0
ENDTAB
  0
TABLE
  2
VIEW
  5
6
100
AcDbSymbolTable
 70
0
  0
ENDTAB
  0
TABLE
  2
UCS
  5
7
100
AcDbSymbolTable
 70
0
  0
ENDTAB
  0
TABLE
  2
APPID
  5
9
100
AcDbSymbolTable
 70
1
  0
APPID
  5
20D
100
AcDbSymbolTableRecord
100
AcDbRegAppTableRecord
  2
ACAD
 70
0
  0
ENDTAB
  0
TABLE
  2
BLOCK_RECORD
  5
1
100
AcDbSymbolTable
 70
0
  0
BLOCK_RECORD
  5
20E
100
AcDbSymbolTableRecord
100
AcDbBlockTableRecord
  2
*Model_Space
  0
BLOCK_RECORD
  5
20F
100
AcDbSymbolTableRecord
100
AcDbBlockTableRecord
  2
*Paper_Space
  0
ENDTAB
  0
TABLE
  2
DIMSTYLE
  5
A
100
AcDbSymbolTable
 70
1
100
AcDbDimStyleTable
 71
0
  0
DIMSTYLE
105
210
100
AcDbSymbolTableRecord
100
AcDbDimStyleTableRecord
  2
STANDARD
 70
0
  3

  4

 40
1.0
 41
3.5
 42
0.0625
 43
0.38
 44
0.18
 45
0.0
 46
0.0
 47
0.005
 48
0.005
140
3.5
141
0.09
142
0.0
143
25.4
144
1.0
145
0.0
146
1.0
147
0.09
 71
1.0
 72
0.0
 73
0
 74
0
 75
0
 76
0
 77
1
 78
8
170
0
171
2
172
0
173
0
174
0
175
0
176
0
177
0
178
5
270
2
271
3
272
3
273
2
274
2
275
0
280
0
281
0
282
0
283
1
284
8
285
0
286
0
287
3
288
0
340
11
  0
ENDTAB
  0
ENDSEC
  0
SECTION
  2
BLOCKS
  0
BLOCK
  5
20
100
AcDbEntity
  8
0
100
AcDbBlockBegin
  2
*Model_Space
 70
0
 10
0.0
 20
0.0
 30
0.0
  3
*Model_Space
  1

  0
ENDBLK
  5
21
100
AcDbEntity
  8
0
100
AcDbBlockEnd
  0
BLOCK
  5
1C
100
AcDbEntity
  8
0
100
AcDbBlockBegin
  2
*Paper_Space
 70
0
 10
0.0
 20
0.0
 30
0.0
  3
*Paper_Space
  1

  0
ENDBLK
  5
1D
100
AcDbEntity
  8
0
100
AcDbBlockEnd
  0
ENDSEC
  0
SECTION
  2
ENTITIES
  0
MTEXT
  5
211
100
AcDbEntity
  8
0
100
AcDbMText
 62
5
  6
CONTINUOUS
  7
STANDARD
 71
2
 72
1
 10
143.5037362599
 20
65.6253411678
 30
0.0
 11
1.0
 21
0.0
 31
0.0
 44
0.9
  1
VLBS-6,7t\PRUD
 40
6.0
 41
40.0
  0
MTEXT
  5
212
100
AcDbEntity
  8
0
100
AcDbMText
 62
5
  6
CONTINUOUS
  7
STANDARD
 71
2
 72
1
 10
143.2752518926
 20
155.4336261242
 30
0.0
 11
1.0
 21
0.0
 31
0.0
 44
0.9
  1
VLBS-6,7t\PRUD
 40
6.0
 41
40.0
  0
MTEXT
  5
213
100
AcDbEntity
  8
0
100
AcDbMText
 62
5
  6
CONTINUOUS
  7
STANDARD
 71
2
 72
1
 10
255.132676159
 20
196.9764785911
 30
0.0
 11
0.0
 21
1.0
 31
0.0
 44
0.9
  1
VLBS-6,7t\PRUD
 40
6.0
 41
40.0
  0
LINE
  5
214
100
AcDbEntity
  8
0
100
AcDbLine
 62
7
  6
CONTINUOUS
 10
0.0
 20
0.0
 11
0.0
 21
297.0
  0
LINE
  5
215
100
AcDbEntity
  8
0
100
AcDbLine
 62
7
  6
CONTINUOUS
 10
0.0
 20
0.0
 11
420.0
 21
0.0
  0
LINE
  5
216
100
AcDbEntity
  8
0
100
AcDbLine
 62
7
  6
CONTINUOUS
 10
0.0
 20
297.0
 11
420.0
 21
297.0
  0
LINE
  5
217
100
AcDbEntity
  8
0
100
AcDbLine
 62
7
  6
CONTINUOUS
 10
420.0
 20
0.0
 11
420.0
 21
297.0
  0
LINE
  5
218
100
AcDbEntity
  8
RUNDUNGEN
100
AcDbLine
 62
7
  6
CONTINUOUS
 10
138.0329774348
 20
273.6360432033
 11
104.8547828902
 21
259.8931850479
  0
LINE
  5
219
100
AcDbEntity
  8
KONSTRUKTIONSELEMENTE
100
AcDbLine
 62
7
  6
CONTINUOUS
 10
113.9856253649
 20
133.4413175249
 11
170.1771053084
 21
133.4413175249
  0
LINE
  5
21A
100
AcDbEntity
  8
BEZUGSACHSEN
100
AcDbLine
 62
7
  6
CONTINUOUS
 10
195.5813654367
 20
135.9413175249
 11
171.0581525134
 21
135.9413175249
  0
LINE
  5
21B
100
AcDbEntity
  8
BEZUGSACHSEN
100
AcDbLine
 62
7
  6
CONTINUOUS
 10
113.1043665817
 20
135.9413175249
 11
88.5813652367
 21
135.9413175249
  0
LINE
  5
21C
100
AcDbEntity
  8
KONSTRUKTIONSELEMENTE
100
AcDbLine
 62
7
  6
CONTINUOUS
 10
171.6054592311
 20
136.4413175249
 11
112.5572714423
 21
136.4413175249
  0
LINE
  5
21D
100
AcDbEntity
  8
RUNDUNGEN
100
AcDbLine
 62
7
  6
CONTINUOUS
 10
84.5813652367
 20
216.9413175249
 11
84.5813652367
 21
139.9413175249
  0
LINE
  5
21E
100
AcDbEntity
  8
RUNDUNGEN
100
AcDbLine
 62
7
  6
CONTINUOUS
 10
99.1294978137
 20
254.1678999714
 11
85.3866396583
 21
220.9897054268
  0
LINE
  5
21F
100
AcDbEntity
  8
0
100
AcDbLine
 62
7
  6
CONTINUOUS
 10
115.0813653367
 20
148.8152104124
 11
169.0813653367
 21
148.8152104124
  0
LINE
  5
220
100
AcDbEntity
  8
0
100
AcDbLine
 62
7
  6
CONTINUOUS
 10
188.7305758717
 20
167.1144753529
 11
190.8463653517
 21
167.1144753529
  0
LINE
  5
221
100
AcDbEntity
  8
RUNDUNGEN
100
AcDbLine
 62
7
  6
CONTINUOUS
 10
108.5813652367
 20
169.4413175249
 11
108.5813652367
 21
178.2704110926
  0
LINE
  5
222
100
AcDbEntity
  8
RUNDUNGEN
100
AcDbLine
 62
7
  6
CONTINUOUS
 10
108.5813652367
 20
213.1389389121
 11
108.5813652367
 21
216.9413175249
  0
LINE
  5
223
100
AcDbEntity
  8
KONSTRUKTIONSELEMENTE
100
AcDbLine
 62
7
  6
CONTINUOUS
 10
112.0813653367
 20
145.3559061776
 11
112.0813653367
 21
139.2799069804
  0
LINE
  5
224
100
AcDbEntity
  8
0
100
AcDbLine
 62
7
  6
CONTINUOUS
 10
112.0813653367
 20
145.3559061776
 11
112.0813653367
 21
174.4413175249
  0
LINE
  5
225
100
AcDbEntity
  8
0
100
AcDbLine
 62
7
  6
CONTINUOUS
 10
190.7763653517
 20
168.7044753529
 11
188.8011021877
 21
168.7044753529
  0
LINE
  5
226
100
AcDbEntity
  8
0
100
AcDbLine
 62
7
  6
CONTINUOUS
 10
187.1437337617
 20
172.0160543149
 11
191.6397864067
 21
172.0160543149
  0
LINE
  5
227
100
AcDbEntity
  8
0
100
AcDbLine
 62
7
  6
CONTINUOUS
 10
193.7555758867
 20
173.6028964249
 11
192.4332074617
 21
173.6028964249
  0
LINE
  5
228
100
AcDbEntity
  8
0
100
AcDbLine
 62
7
  6
CONTINUOUS
 10
191.6397864067
 20
173.6028964249
 11
185.8213653367
 21
173.6028964249
  0
LINE
  5
229
100
AcDbEntity
  8
0
100
AcDbLine
 62
7
  6
CONTINUOUS
 10
117.8713653367
 20
177.8881564413
 11
117.8713653367
 21
177.2245342753
  0
LINE
  5
22A
100
AcDbEntity
  8
0
100
AcDbLine
 62
7
  6
CONTINUOUS
 10
117.8713653367
 20
176.8666361298
 11
117.8713653367
 21
174.7359598564
  0
LINE
  5
22B
100
AcDbEntity
  8
0
100
AcDbLine
 62
7
  6
CONTINUOUS
 10
117.8713653367
 20
174.7359598564
 11
119.3713653367
 21
174.7359598564
  0
LINE
  5
22C
100
AcDbEntity
  8
0
100
AcDbLine
 62
7
  6
CONTINUOUS
 10
119.9713653367
 20
174.7359598564
 11
126.6913653367
 21
174.7359598564
  0
LINE
  5
22D
100
AcDbEntity
  8
0
100
AcDbLine
 62
7
  6
CONTINUOUS
 10
150.5076539928
 20
174.9236591282
 11
151.848079365
 21
174.9236591282
  0
LINE
  5
22E
100
AcDbEntity
  8
0
100
AcDbLine
 62
7
  6
CONTINUOUS
 10
188.9950495567
 20
175.1897385349
 11
193.7555758867
 21
175.1897385349
  0
LINE
  5
22F
100
AcDbEntity
  8
0
100
AcDbLine
 62
7
  6
CONTINUOUS
 10
117.8713653367
 20
175.2845842155
 11
119.3713653367
 21
175.2845842155
  0
LINE
  5
230
100
AcDbEntity
  8
0
100
AcDbLine
 62
7
  6
CONTINUOUS
 10
119.9713653367
 20
175.2845842155
 11
126.6913653367
 21
175.2845842155
  0
LINE
  5
231
100
AcDbEntity
  8
0
100
AcDbLine
 62
7
  6
CONTINUOUS
 10
150.5076539928
 20
175.4686095811
 11
151.848079365
 21
175.4686095811
  0
LINE
  5
232
100
AcDbEntity
  8
0
100
AcDbLine
 62
7
  6
CONTINUOUS
 10
150.5076539928
 20
175.8526962886
 11
150.8906326706
 21
175.8526962886
  0
LINE
  5
233
100
AcDbEntity
  8
0
100
AcDbLine
 62
7
  6
CONTINUOUS
 10
152.4225476498
 20
175.9251897161
 11
152.9970156664
 21
175.9251897161
  0
LINE
  5
234
100
AcDbEntity
  8
0
100
AcDbLine
 62
7
  6
CONTINUOUS
 10
119.9713653367
 20
176.021511716
 11
121.6213653367
 21
176.021511716
  0
LINE
  5
235
100
AcDbEntity
  8
0
100
AcDbLine
 62
7
  6
CONTINUOUS
 10
123.0913653367
 20
176.021511716
 11
126.6913653367
 21
176.021511716
  0
LINE
  5
236
100
AcDbEntity
  8
0
100
AcDbLine
 62
7
  6
CONTINUOUS
 10
132.0349670891
 20
176.3960667036
 11
140.3413653367
 21
176.3960667036
  0
LINE
  5
237
100
AcDbEntity
  8
0
100
AcDbLine
 62
7
  6
CONTINUOUS
 10
193.7555758867
 20
176.7765806449
 11
188.9950495567
 21
176.7765806449
  0
LINE
  5
238
100
AcDbEntity
  8
0
100
AcDbLine
 62
7
  6
CONTINUOUS
 10
152.4225476498
 20
176.7899578942
 11
152.9970156664
 21
176.7899578942
  0
LINE
  5
239
100
AcDbEntity
  8
0
100
AcDbLine
 62
7
  6
CONTINUOUS
 10
131.3413653367
 20
176.9138046952
 11
140.3413653367
 21
176.9138046952
  0
LINE
  5
23A
100
AcDbEntity
  8
0
100
AcDbLine
 62
7
  6
CONTINUOUS
 10
131.3413653367
 20
177.1906767617
 11
139.1924291693
 21
177.1906767617
  0
LINE
  5
23B
100
AcDbEntity
  8
0
100
AcDbLine
 62
7
  6
CONTINUOUS
 10
117.8713653367
 20
177.2245342753
 11
118.309363085
 21
177.2245342753
  0
LINE
  5
23C
100
AcDbEntity
  8
0
100
AcDbLine
 62
7
  6
CONTINUOUS
 10
122.6780169589
 20
177.2245342753
 11
123.1080026321
 21
177.2245342753
  0
LINE
  5
23D
100
AcDbEntity
  8
0
100
AcDbLine
 62
7
  6
CONTINUOUS
 10
152.4225476498
 20
177.3008669443
 11
152.9970156664
 21
177.3008669443
  0
LINE
  5
23E
100
AcDbEntity
  8
0
100
AcDbLine
 62
7
  6
CONTINUOUS
 10
146.6778666789
 20
177.4405290771
 11
147.6353133733
 21
177.4405290771
  0
LINE
  5
23F
100
AcDbEntity
  8
KONSTRUKTIONSELEMENTE
100
AcDbLine
 62
7
  6
CONTINUOUS
 10
115.0813653367
 20
177.4413175249
 11
117.8713653367
 21
177.4413175249
  0
LINE
  5
240
100
AcDbEntity
  8
KONSTRUKTIONSELEMENTE
100
AcDbLine
 62
7
  6
CONTINUOUS
 10
126.6913653367
 20
177.4413175249
 11
139.1924291693
 21
177.4413175249
  0
LINE
  5
241
100
AcDbEntity
  8
KONSTRUKTIONSELEMENTE
100
AcDbLine
 62
7
  6
CONTINUOUS
 10
140.3413653367
 20
177.4413175249
 11
146.6778666789
 21
177.4413175249
  0
LINE
  5
242
100
AcDbEntity
  8
KONSTRUKTIONSELEMENTE
100
AcDbLine
 62
7
  6
CONTINUOUS
 10
147.6353133733
 20
177.4413175249
 11
151.6698307277
 21
177.4413175249
  0
LINE
  5
243
100
AcDbEntity
  8
KONSTRUKTIONSELEMENTE
100
AcDbLine
 62
7
  6
CONTINUOUS
 10
153.7497323989
 20
177.4413175249
 11
154.7204198504
 21
177.4413175249
  0
LINE
  5
244
100
AcDbEntity
  8
KONSTRUKTIONSELEMENTE
100
AcDbLine
 62
7
  6
CONTINUOUS
 10
156.8268028463
 20
177.4413175249
 11
159.7178666789
 21
177.4413175249
  0
LINE
  5
245
100
AcDbEntity
  8
KONSTRUKTIONSELEMENTE
100
AcDbLine
 62
7
  6
CONTINUOUS
 10
165.7178666789
 20
177.4413175249
 11
169.0813653367
 21
177.4413175249
  0
LINE
  5
246
100
AcDbEntity
  8
0
100
AcDbLine
 62
7
  6
CONTINUOUS
 10
152.2310580427
 20
177.4808181866
 11
153.1885050053
 21
177.4808181866
  0
LINE
  5
247
100
AcDbEntity
  8
0
100
AcDbLine
 62
7
  6
CONTINUOUS
 10
117.8713653367
 20
177.7281133277
 11
123.1663653367
 21
177.7281133277
  0
LINE
  5
248
100
AcDbEntity
  8
0
100
AcDbLine
 62
7
  6
CONTINUOUS
 10
117.8713653367
 20
177.8881564413
 11
123.1663653367
 21
177.8881564413
  0
LINE
  5
249
100
AcDbEntity
  8
0
100
AcDbLine
 62
7
  6
CONTINUOUS
 10
117.8713653367
 20
177.8966536748
 11
123.1663653367
 21
177.8966536748
  0
LINE
  5
24A
100
AcDbEntity
  8
0
100
AcDbLine
 62
7
  6
CONTINUOUS
 10
139.1924291693
 20
177.9214750048
 11
140.3413653367
 21
177.9214750048
  0
LINE
  5
24B
100
AcDbEntity
  8
0
100
AcDbLine
 62
7
  6
CONTINUOUS
 10
159.7329043676
 20
177.93281798
 11
160.617866681
 21
177.93281798
  0
LINE
  5
24C
100
AcDbEntity
  8
0
100
AcDbLine
 62
7
  6
CONTINUOUS
 10
164.8178666748
 20
177.93281798
 11
165.7028289902
 21
177.93281798
  0
LINE
  5
24D
100
AcDbEntity
  8
0
100
AcDbLine
 62
7
  6
CONTINUOUS
 10
131.3413653367
 20
177.938694466
 11
140.3413653367
 21
177.938694466
  0
LINE
  5
24E
100
AcDbEntity
  8
0
100
AcDbLine
 62
7
  6
CONTINUOUS
 10
146.6778666789
 20
177.9405420028
 11
147.6353133733
 21
177.9405420028
  0
LINE
  5
24F
100
AcDbEntity
  8
0
100
AcDbLine
 62
7
  6
CONTINUOUS
 10
124.8913653366
 20
177.9413175249
 11
126.6657874349
 21
177.9413175249
  0
LINE
  5
250
100
AcDbEntity
  8
0
100
AcDbLine
 62
7
  6
CONTINUOUS
 10
188.9950495567
 20
179.9502648649
 11
193.7555758867
 21
179.9502648649
  0
LINE
  5
251
100
AcDbEntity
  8
0
100
AcDbLine
 62
7
  6
CONTINUOUS
 10
124.8897237428
 20
177.9412659326
 11
124.8913653366
 21
177.9411666827
  0
LINE
  5
252
100
AcDbEntity
  8
0
100
AcDbLine
 62
7
  6
CONTINUOUS
 10
126.6913653367
 20
177.9411040794
 11
126.6905638086
 21
177.9412012611
  0
LINE
  5
253
100
AcDbEntity
  8
0
100
AcDbLine
 62
7
  6
CONTINUOUS
 10
119.3713653367
 20
176.7831711644
 11
119.3713653367
 21
174.7359598564
  0
LINE
  5
254
100
AcDbEntity
  8
0
100
AcDbLine
 62
7
  6
CONTINUOUS
 10
119.9713653367
 20
176.021511716
 11
119.9713653367
 21
174.7359598564
  0
LINE
  5
255
100
AcDbEntity
  8
0
100
AcDbLine
 62
7
  6
CONTINUOUS
 10
121.6213653367
 20
176.7831711644
 11
121.6213653367
 21
176.021511716
  0
LINE
  5
256
100
AcDbEntity
  8
0
100
AcDbLine
 62
7
  6
CONTINUOUS
 10
123.0913653367
 20
176.3463862843
 11
123.0913653367
 21
176.021511716
  0
LINE
  5
257
100
AcDbEntity
  8
BEZUGSACHSEN
100
AcDbLine
 62
7
  6
CONTINUOUS
 10
172.0813654367
 20
181.5304016262
 11
161.8813653367
 21
181.5304016262
  0
LINE
  5
258
100
AcDbEntity
  8
RUNDUNGEN
100
AcDbLine
 62
7
  6
CONTINUOUS
 10
112.0813652367
 20
181.5304016262
 11
122.2813653367
 21
181.5304016262
  0
LINE
  5
259
100
AcDbEntity
  8
0
100
AcDbLine
 62
7
  6
CONTINUOUS
 10
193.7555758867
 20
181.5371069749
 11
188.9950495567
 21
181.5371069749
  0
LINE
  5
25A
100
AcDbEntity
  8
0
100
AcDbLine
 62
7
  6
CONTINUOUS
 10
126.6913653367
 20
176.021511716
 11
126.6913653367
 21
174.7359598564
  0
LINE
  5
25B
100
AcDbEntity
  8
0
100
AcDbLine
 62
7
  6
CONTINUOUS
 10
126.6913653367
 20
176.6013893698
 11
126.6913653367
 21
177.9382799075
  0
LINE
  5
25C
100
AcDbEntity
  8
0
100
AcDbLine
 62
7
  6
CONTINUOUS
 10
185.8213653367
 20
188.1489490999
 11
189.1361021887
 21
188.1489490999
  0
LINE
  5
25D
100
AcDbEntity
  8
0
100
AcDbLine
 62
7
  6
CONTINUOUS
 10
190.4584706137
 20
188.1489490999
 11
191.6397864067
 21
188.1489490999
  0
LINE
  5
25E
100
AcDbEntity
  8
0
100
AcDbLine
 62
7
  6
CONTINUOUS
 10
193.7555758867
 20
189.4713175249
 11
192.4332074617
 21
189.4713175249
  0
LINE
  5
25F
100
AcDbEntity
  8
0
100
AcDbLine
 62
7
  6
CONTINUOUS
 10
191.6397864067
 20
189.4713175249
 11
185.8213653367
 21
189.4713175249
  0
LINE
  5
260
100
AcDbEntity
  8
0
100
AcDbLine
 62
7
  6
CONTINUOUS
 10
131.3413653367
 20
177.938694466
 11
131.3413653367
 21
177.4386507445
  0
LINE
  5
261
100
AcDbEntity
  8
0
100
AcDbLine
 62
7
  6
CONTINUOUS
 10
131.3413653367
 20
177.1906767617
 11
131.3413653367
 21
175.5531365919
  0
LINE
  5
262
100
AcDbEntity
  8
0
100
AcDbLine
 62
7
  6
CONTINUOUS
 10
131.3413653367
 20
173.5750959544
 11
131.3413653367
 21
172.2622260498
  0
LINE
  5
263
100
AcDbEntity
  8
0
100
AcDbLine
 62
7
  6
CONTINUOUS
 10
165.7028289902
 20
177.93281798
 11
165.717866621
 21
177.9240741719
  0
LINE
  5
264
100
AcDbEntity
  8
0
100
AcDbLine
 62
7
  6
CONTINUOUS
 10
139.1924291693
 20
177.9214750048
 11
139.1924291693
 21
177.1906767617
  0
LINE
  5
265
100
AcDbEntity
  8
0
100
AcDbLine
 62
7
  6
CONTINUOUS
 10
140.3413653367
 20
177.938694466
 11
140.3413653367
 21
176.3960667036
  0
LINE
  5
266
100
AcDbEntity
  8
0
100
AcDbLine
 62
7
  6
CONTINUOUS
 10
140.3413653367
 20
175.3290836599
 11
140.3413653367
 21
174.052922183
  0
LINE
  5
267
100
AcDbEntity
  8
0
100
AcDbLine
 62
7
  6
CONTINUOUS
 10
146.6778666789
 20
177.9405420028
 11
146.6778666789
 21
177.4405290771
  0
LINE
  5
268
100
AcDbEntity
  8
0
100
AcDbLine
 62
7
  6
CONTINUOUS
 10
146.6778666789
 20
176.7959014688
 11
146.6778666789
 21
176.050041747
  0
LINE
  5
269
100
AcDbEntity
  8
0
100
AcDbLine
 62
7
  6
CONTINUOUS
 10
146.8693560178
 20
176.2666352967
 11
146.8693560178
 21
175.7370582758
  0
LINE
  5
26A
100
AcDbEntity
  8
0
100
AcDbLine
 62
7
  6
CONTINUOUS
 10
147.4438240344
 20
175.9251897161
 11
147.4438240344
 21
175.389143469
  0
LINE
  5
26B
100
AcDbEntity
  8
0
100
AcDbLine
 62
7
  6
CONTINUOUS
 10
147.6353133733
 20
177.9405420028
 11
147.6353133733
 21
177.4405290771
  0
LINE
  5
26C
100
AcDbEntity
  8
0
100
AcDbLine
 62
7
  6
CONTINUOUS
 10
147.6353133733
 20
176.8481440071
 11
147.6353133733
 21
176.5151492942
  0
LINE
  5
26D
100
AcDbEntity
  8
0
100
AcDbLine
 62
7
  6
CONTINUOUS
 10
147.8268027121
 20
176.9971815793
 11
147.8268027121
 21
176.4809301257
  0
LINE
  5
26E
100
AcDbEntity
  8
0
100
AcDbLine
 62
7
  6
CONTINUOUS
 10
148.2097813899
 20
177.1348175502
 11
148.2097813899
 21
176.6210012749
  0
LINE
  5
26F
100
AcDbEntity
  8
0
100
AcDbLine
 62
7
  6
CONTINUOUS
 10
148.2097813899
 20
175.7034201316
 11
148.2097813899
 21
175.1630859344
  0
LINE
  5
270
100
AcDbEntity
  8
0
100
AcDbLine
 62
7
  6
CONTINUOUS
 10
148.7842494065
 20
177.4124865541
 11
148.7842494065
 21
176.7080041517
  0
LINE
  5
271
100
AcDbEntity
  8
0
100
AcDbLine
 62
7
  6
CONTINUOUS
 10
149.1672286207
 20
175.5483485649
 11
149.1672286207
 21
175.0049746459
  0
LINE
  5
272
100
AcDbEntity
  8
0
100
AcDbLine
 62
7
  6
CONTINUOUS
 10
149.9331859762
 20
176.8481440071
 11
149.9331859762
 21
176.050041747
  0
LINE
  5
273
100
AcDbEntity
  8
0
100
AcDbLine
 62
7
  6
CONTINUOUS
 10
150.1246753151
 20
176.2666352967
 11
150.1246753151
 21
175.877008809
  0
LINE
  5
274
100
AcDbEntity
  8
0
100
AcDbLine
 62
7
  6
CONTINUOUS
 10
150.5076539928
 20
175.4686095811
 11
150.5076539928
 21
174.9236591282
  0
LINE
  5
275
100
AcDbEntity
  8
0
100
AcDbLine
 62
7
  6
CONTINUOUS
 10
150.8906326706
 20
176.8991004764
 11
150.8906326706
 21
176.5151492942
  0
LINE
  5
276
100
AcDbEntity
  8
0
100
AcDbLine
 62
7
  6
CONTINUOUS
 10
151.0821220095
 20
177.044318912
 11
151.0821220095
 21
176.5289040718
  0
LINE
  5
277
100
AcDbEntity
  8
0
100
AcDbLine
 62
7
  6
CONTINUOUS
 10
151.4651006872
 20
177.1781902182
 11
151.4651006872
 21
176.6651365357
  0
LINE
  5
278
100
AcDbEntity
  8
0
100
AcDbLine
 62
7
  6
CONTINUOUS
 10
151.848079365
 20
177.261209795
 11
151.848079365
 21
176.7496094404
  0
LINE
  5
279
100
AcDbEntity
  8
0
100
AcDbLine
 62
7
  6
CONTINUOUS
 10
151.848079365
 20
175.4686095811
 11
151.848079365
 21
174.9236591282
  0
LINE
  5
27A
100
AcDbEntity
  8
0
100
AcDbLine
 62
7
  6
CONTINUOUS
 10
152.4225476498
 20
177.3008669443
 11
152.4225476498
 21
176.7899578942
  0
LINE
  5
27B
100
AcDbEntity
  8
0
100
AcDbLine
 62
7
  6
CONTINUOUS
 10
152.9970156664
 20
177.3008669443
 11
152.9970156664
 21
176.7899578942
  0
LINE
  5
27C
100
AcDbEntity
  8
0
100
AcDbLine
 62
7
  6
CONTINUOUS
 10
153.1885050053
 20
175.5483485649
 11
153.1885050053
 21
175.0049746459
  0
LINE
  5
27D
100
AcDbEntity
  8
0
100
AcDbLine
 62
7
  6
CONTINUOUS
 10
153.5714836831
 20
177.261209795
 11
153.5714836831
 21
176.7496094404
  0
LINE
  5
27E
100
AcDbEntity
  8
0
100
AcDbLine
 62
7
  6
CONTINUOUS
 10
154.1459518338
 20
177.1781902182
 11
154.1459518338
 21
176.6651365357
  0
LINE
  5
27F
100
AcDbEntity
  8
0
100
AcDbLine
 62
7
  6
CONTINUOUS
 10
154.1459518338
 20
175.7034201316
 11
154.1459518338
 21
175.1630859344
  0
LINE
  5
280
100
AcDbEntity
  8
0
100
AcDbLine
 62
7
  6
CONTINUOUS
 10
154.5289305115
 20
177.044318912
 11
154.5289305115
 21
176.5289040718
  0
LINE
  5
281
100
AcDbEntity
  8
0
100
AcDbLine
 62
7
  6
CONTINUOUS
 10
154.7204198504
 20
177.8929216695
 11
154.7204198504
 21
177.3236027973
  0
LINE
  5
282
100
AcDbEntity
  8
0
100
AcDbLine
 62
7
  6
CONTINUOUS
 10
154.7204198504
 20
176.8991004764
 11
154.7204198504
 21
176.5151492942
  0
LINE
  5
283
100
AcDbEntity
  8
0
100
AcDbLine
 62
7
  6
CONTINUOUS
 10
154.9119092563
 20
175.9251897161
 11
154.9119092563
 21
175.389143469
  0
LINE
  5
284
100
AcDbEntity
  8
0
100
AcDbLine
 62
7
  6
CONTINUOUS
 10
155.4863773233
 20
176.2666352967
 11
155.4863773233
 21
175.7370582758
  0
LINE
  5
285
100
AcDbEntity
  8
0
100
AcDbLine
 62
7
  6
CONTINUOUS
 10
155.6778666789
 20
177.8962463964
 11
155.6778666789
 21
177.8595723448
  0
LINE
  5
286
100
AcDbEntity
  8
0
100
AcDbLine
 62
7
  6
CONTINUOUS
 10
155.6778666789
 20
176.8481440071
 11
155.6778666789
 21
176.050041747
  0
LINE
  5
287
100
AcDbEntity
  8
0
100
AcDbLine
 62
7
  6
CONTINUOUS
 10
156.8268028463
 20
177.8085728468
 11
156.8268028463
 21
177.2022247919
  0
LINE
  5
288
100
AcDbEntity
  8
0
100
AcDbLine
 62
7
  6
CONTINUOUS
 10
159.7178666789
 20
177.4221367191
 11
159.7178666789
 21
177.9224432055
  0
LINE
  5
289
100
AcDbEntity
  8
0
100
AcDbLine
 62
7
  6
CONTINUOUS
 10
160.6394057098
 20
177.93281798
 11
160.6394057098
 21
177.9135381002
  0
LINE
  5
28A
100
AcDbEntity
  8
0
100
AcDbLine
 62
7
  6
CONTINUOUS
 10
164.796327648
 20
177.93281798
 11
164.796327648
 21
177.9135375521
  0
LINE
  5
28B
100
AcDbEntity
  8
0
100
AcDbLine
 62
7
  6
CONTINUOUS
 10
165.7178666789
 20
177.4221440049
 11
165.7178666789
 21
177.9224420916
  0
LINE
  5
28C
100
AcDbEntity
  8
0
100
AcDbLine
 62
7
  6
CONTINUOUS
 10
172.0813653367
 20
174.4413175249
 11
172.0813653367
 21
145.3559061776
  0
LINE
  5
28D
100
AcDbEntity
  8
KONSTRUKTIONSELEMENTE
100
AcDbLine
 62
7
  6
CONTINUOUS
 10
172.0813653367
 20
145.3559061776
 11
172.0813653367
 21
139.2799069804
  0
LINE
  5
28E
100
AcDbEntity
  8
BEZUGSACHSEN
100
AcDbLine
 62
7
  6
CONTINUOUS
 10
175.5813654367
 20
169.4413175249
 11
175.5813654367
 21
178.2704110926
  0
LINE
  5
28F
100
AcDbEntity
  8
BEZUGSACHSEN
100
AcDbLine
 62
7
  6
CONTINUOUS
 10
175.5813654367
 20
213.1389389121
 11
175.5813654367
 21
216.9413175249
  0
LINE
  5
290
100
AcDbEntity
  8
0
100
AcDbLine
 62
7
  6
CONTINUOUS
 10
159.7178667273
 20
177.9240775584
 11
159.7329043676
 21
177.93281798
  0
LINE
  5
291
100
AcDbEntity
  8
0
100
AcDbLine
 62
7
  6
CONTINUOUS
 10
188.4749179762
 20
185.6539705779
 11
185.8213653367
 21
184.1219412472
  0
LINE
  5
292
100
AcDbEntity
  8
0
100
AcDbLine
 62
7
  6
CONTINUOUS
 10
185.8213653367
 20
182.5950017149
 11
189.2922308552
 21
184.5989068564
  0
LINE
  5
293
100
AcDbEntity
  8
0
100
AcDbLine
 62
7
  6
CONTINUOUS
 10
185.8213653367
 20
189.4713175249
 11
185.8213653367
 21
188.1489490999
  0
LINE
  5
294
100
AcDbEntity
  8
0
100
AcDbLine
 62
7
  6
CONTINUOUS
 10
185.8213653367
 20
184.1219412472
 11
185.8213653367
 21
182.5950017149
  0
LINE
  5
295
100
AcDbEntity
  8
0
100
AcDbLine
 62
7
  6
CONTINUOUS
 10
185.8213653367
 20
173.6028964249
 11
185.8213653367
 21
170.0236858879
  0
LINE
  5
296
100
AcDbEntity
  8
0
100
AcDbLine
 62
7
  6
CONTINUOUS
 10
187.1437337617
 20
170.3618437789
 11
187.1437337617
 21
172.0160543149
  0
LINE
  5
297
100
AcDbEntity
  8
0
100
AcDbLine
 62
7
  6
CONTINUOUS
 10
189.1361021887
 20
188.1489490999
 11
189.1361021887
 21
186.7991752272
  0
LINE
  5
298
100
AcDbEntity
  8
0
100
AcDbLine
 62
7
  6
CONTINUOUS
 10
190.4584706137
 20
185.9626333039
 11
190.4584706137
 21
188.1489490999
  0
LINE
  5
299
100
AcDbEntity
  8
0
100
AcDbLine
 62
7
  6
CONTINUOUS
 10
191.6397864067
 20
172.0160543149
 11
191.6397864067
 21
173.6028964249
  0
LINE
  5
29A
100
AcDbEntity
  8
0
100
AcDbLine
 62
7
  6
CONTINUOUS
 10
191.6397864067
 20
188.1489490999
 11
191.6397864067
 21
189.4713175249
  0
LINE
  5
29B
100
AcDbEntity
  8
0
100
AcDbLine
 62
7
  6
CONTINUOUS
 10
192.4332074617
 20
189.4713175249
 11
192.4332074617
 21
185.9626333039
  0
LINE
  5
29C
100
AcDbEntity
  8
0
100
AcDbLine
 62
7
  6
CONTINUOUS
 10
192.4332074617
 20
173.6028964249
 11
192.4332074617
 21
170.3618436954
  0
LINE
  5
29D
100
AcDbEntity
  8
0
100
AcDbLine
 62
7
  6
CONTINUOUS
 10
193.7555758867
 20
170.0236858879
 11
193.7555758867
 21
173.6028964249
  0
LINE
  5
29E
100
AcDbEntity
  8
0
100
AcDbLine
 62
7
  6
CONTINUOUS
 10
193.7555758867
 20
175.1897385349
 11
193.7555758867
 21
176.7765806449
  0
LINE
  5
29F
100
AcDbEntity
  8
0
100
AcDbLine
 62
7
  6
CONTINUOUS
 10
193.7555758867
 20
179.9502648649
 11
193.7555758867
 21
181.5371069749
  0
LINE
  5
2A0
100
AcDbEntity
  8
0
100
AcDbLine
 62
7
  6
CONTINUOUS
 10
193.7555758867
 20
185.4336859339
 11
193.7555758867
 21
189.4713175249
  0
LINE
  5
2A1
100
AcDbEntity
  8
BEZUGSACHSEN
100
AcDbLine
 62
7
  6
CONTINUOUS
 10
199.5813654367
 20
216.9413175249
 11
199.5813654367
 21
139.9413175249
  0
LINE
  5
2A2
100
AcDbEntity
  8
BEZUGSACHSEN
100
AcDbLine
 62
7
  6
CONTINUOUS
 10
185.0332328596
 20
254.1678999714
 11
198.776091015
 21
220.9897054268
  0
LINE
  5
2A3
100
AcDbEntity
  8
BEZUGSACHSEN
100
AcDbLine
 62
7
  6
CONTINUOUS
 10
146.1297532385
 20
273.6360432033
 11
179.3079477831
 21
259.8931850479
  0
LINE
  5
2A4
100
AcDbEntity
  8
KONSTRUKTIONSELEMENTE
100
AcDbLine
 62
7
  6
CONTINUOUS
 10
283.3294028424
 20
133.4413175249
 11
280.3294028424
 21
133.4413175249
  0
LINE
  5
2A5
100
AcDbEntity
  8
KONSTRUKTIONSELEMENTE
100
AcDbLine
 62
7
  6
CONTINUOUS
 10
244.5979697435
 20
133.4413175249
 11
241.5979697435
 21
133.4413175249
  0
LINE
  5
2A6
100
AcDbEntity
  8
BEZUGSACHSEN
100
AcDbLine
 62
7
  6
CONTINUOUS
 10
262.7136862929
 20
135.9413175249
 11
262.2136862929
 21
135.9413175249
  0
LINE
  5
2A7
100
AcDbEntity
  8
KONSTRUKTIONSELEMENTE
100
AcDbLine
 62
7
  6
CONTINUOUS
 10
284.8583837845
 20
136.4413175249
 11
283.8583837845
 21
136.4413175249
  0
LINE
  5
2A8
100
AcDbEntity
  8
KONSTRUKTIONSELEMENTE
100
AcDbLine
 62
7
  6
CONTINUOUS
 10
241.0689888014
 20
136.4413175249
 11
240.0689888014
 21
136.4413175249
  0
LINE
  5
2A9
100
AcDbEntity
  8
KONSTRUKTIONSELEMENTE
100
AcDbLine
 62
7
  6
CONTINUOUS
 10
240.0689888014
 20
136.4413175249
 11
231.9636862929
 21
148.8152104124
  0
LINE
  5
2AA
100
AcDbEntity
  8
KONSTRUKTIONSELEMENTE
100
AcDbLine
 62
7
  6
CONTINUOUS
 10
241.5979697435
 20
133.4413175249
 11
241.0689888014
 21
136.4413175249
  0
LINE
  5
2AB
100
AcDbEntity
  8
0
100
AcDbLine
 62
7
  6
CONTINUOUS
 10
273.7136862929
 20
181.5371069749
 11
274.2136862929
 21
181.5371069749
  0
LINE
  5
2AC
100
AcDbEntity
  8
0
100
AcDbLine
 62
7
  6
CONTINUOUS
 10
273.7136862929
 20
182.5950017149
 11
274.2136862929
 21
182.5950017149
  0
LINE
  5
2AD
100
AcDbEntity
  8
0
100
AcDbLine
 62
7
  6
CONTINUOUS
 10
273.7136862929
 20
184.1219412472
 11
274.2136862929
 21
184.1219412472
  0
LINE
  5
2AE
100
AcDbEntity
  8
0
100
AcDbLine
 62
7
  6
CONTINUOUS
 10
246.6886862929
 20
173.5449451464
 11
246.6886862929
 21
172.9589462353
  0
LINE
  5
2AF
100
AcDbEntity
  8
0
100
AcDbLine
 62
7
  6
CONTINUOUS
 10
247.0636870082
 20
173.7679204587
 11
247.0636870082
 21
173.1869972019
  0
LINE
  5
2B0
100
AcDbEntity
  8
0
100
AcDbLine
 62
7
  6
CONTINUOUS
 10
247.2511862929
 20
173.8767075117
 11
247.2511862929
 21
173.2982284725
  0
LINE
  5
2B1
100
AcDbEntity
  8
0
100
AcDbLine
 62
7
  6
CONTINUOUS
 10
247.4386855777
 20
173.9837242264
 11
247.4386855777
 21
173.4076294214
  0
LINE
  5
2B2
100
AcDbEntity
  8
KONSTRUKTIONSELEMENTE
100
AcDbLine
 62
7
  6
CONTINUOUS
 10
233.2659128131
 20
154.332618115
 11
231.9636862929
 21
148.8152104124
  0
LINE
  5
2B3
100
AcDbEntity
  8
0
100
AcDbLine
 62
7
  6
CONTINUOUS
 10
273.7136862929
 20
188.1489490999
 11
274.2136862929
 21
188.1489490999
  0
LINE
  5
2B4
100
AcDbEntity
  8
0
100
AcDbLine
 62
7
  6
CONTINUOUS
 10
248.0011855777
 20
174.2943634055
 11
248.0011855777
 21
173.7250781589
  0
LINE
  5
2B5
100
AcDbEntity
  8
0
100
AcDbLine
 62
7
  6
CONTINUOUS
 10
248.7511870082
 20
174.6849840066
 11
248.7511870082
 21
174.1240340914
  0
LINE
  5
2B6
100
AcDbEntity
  8
0
100
AcDbLine
 62
7
  6
CONTINUOUS
 10
249.6886855777
 20
175.1369734429
 11
249.6886855777
 21
174.5853657994
  0
LINE
  5
2B7
100
AcDbEntity
  8
0
100
AcDbLine
 62
7
  6
CONTINUOUS
 10
250.0136862929
 20
175.2845842155
 11
250.0136862929
 21
174.7359598564
  0
LINE
  5
2B8
100
AcDbEntity
  8
BEZUGSACHSEN
100
AcDbLine
 62
7
  6
CONTINUOUS
 10
251.2136862929
 20
270.4413171749
 11
251.2136862929
 21
146.9413175249
  0
LINE
  5
2B9
100
AcDbEntity
  8
0
100
AcDbLine
 62
7
  6
CONTINUOUS
 10
273.7136862929
 20
189.4713175249
 11
274.2136862929
 21
189.4713175249
  0
LINE
  5
2BA
100
AcDbEntity
  8
KONSTRUKTIONSELEMENTE
100
AcDbLine
 62
7
  6
CONTINUOUS
 10
273.7399977423
 20
151.5455592448
 11
280.3294028424
 21
133.4413175249
  0
LINE
  5
2BB
100
AcDbEntity
  8
KONSTRUKTIONSELEMENTE
100
AcDbLine
 62
7
  6
CONTINUOUS
 10
244.5979697435
 20
133.4413175249
 11
251.1873748435
 21
151.5455592448
  0
LINE
  5
2BC
100
AcDbEntity
  8
BEZUGSACHSEN
100
AcDbLine
 62
7
  6
CONTINUOUS
 10
273.7136862929
 20
270.4413171749
 11
273.7136862929
 21
269.9405250733
  0
LINE
  5
2BD
100
AcDbEntity
  8
RUNDUNGEN
100
AcDbLine
 62
7
  6
CONTINUOUS
 10
273.7136862929
 20
269.9405250733
 11
273.7136862929
 21
146.9413175249
  0
LINE
  5
2BE
100
AcDbEntity
  8
0
100
AcDbLine
 62
7
  6
CONTINUOUS
 10
274.2136862929
 20
189.4713175249
 11
274.2136862929
 21
182.5950017149
  0
LINE
  5
2BF
100
AcDbEntity
  8
0
100
AcDbLine
 62
7
  6
CONTINUOUS
 10
274.2136862929
 20
181.5371069749
 11
274.2136862929
 21
175.5871415785
  0
LINE
  5
2C0
100
AcDbEntity
  8
0
100
AcDbLine
 62
7
  6
CONTINUOUS
 10
274.9136862929
 20
175.2845842155
 11
274.9136862929
 21
174.7359598564
  0
LINE
  5
2C1
100
AcDbEntity
  8
0
100
AcDbLine
 62
7
  6
CONTINUOUS
 10
275.5636863823
 20
174.9847377493
 11
275.5636863823
 21
174.4300188212
  0
LINE
  5
2C2
100
AcDbEntity
  8
0
100
AcDbLine
 62
7
  6
CONTINUOUS
 10
278.1886862929
 20
173.5750959544
 11
278.1886862929
 21
172.9897886142
  0
LINE
  5
2C3
100
AcDbEntity
  8
0
100
AcDbLine
 62
7
  6
CONTINUOUS
 10
279.3136862929
 20
172.8642894204
 11
279.3136862929
 21
172.2622260498
  0
LINE
  5
2C4
100
AcDbEntity
  8
0
100
AcDbLine
 62
7
  6
CONTINUOUS
 10
291.6614597727
 20
154.332618115
 11
292.9636862929
 21
148.8152104124
  0
LINE
  5
2C5
100
AcDbEntity
  8
KONSTRUKTIONSELEMENTE
100
AcDbLine
 62
7
  6
CONTINUOUS
 10
283.8583837845
 20
136.4413175249
 11
283.3294028424
 21
133.4413175249
  0
LINE
  5
2C6
100
AcDbEntity
  8
KONSTRUKTIONSELEMENTE
100
AcDbLine
 62
7
  6
CONTINUOUS
 10
290.6977294476
 20
145.3559061776
 11
284.8583837845
 21
136.4413175249
  0
LINE
  5
2C7
100
AcDbEntity
  8
0
100
AcDbLine
 62
7
  6
CONTINUOUS
 10
290.6977294476
 20
145.3559061776
 11
292.9636862929
 21
148.8152104124
  0
LINE
  5
2C8
100
AcDbEntity
  8
0
100
AcDbLine
 62
7
  6
CONTINUOUS
 10
255.2136862929
 20
274.4413176249
 11
269.7136862929
 21
274.4413176249
  0
LINE
  5
2C9
100
AcDbEntity
  8
BEZUGSACHSEN
100
AcDbLine
 62
7
  6
CONTINUOUS
 10
84.5813652367
 20
50.3129014792
 11
84.5813652367
 21
64.8129014792
  0
LINE
  5
2CA
100
AcDbEntity
  8
0
100
AcDbLine
 62
7
  6
CONTINUOUS
 10
112.0813653367
 20
29.3288583245
 11
112.0813653367
 21
46.3129014792
  0
LINE
  5
2CB
100
AcDbEntity
  8
0
100
AcDbLine
 62
7
  6
CONTINUOUS
 10
112.0813653367
 20
68.8129014792
 11
112.0813653367
 21
83.840897611
  0
LINE
  5
2CC
100
AcDbEntity
  8
KONSTRUKTIONSELEMENTE
100
AcDbLine
 62
7
  6
CONTINUOUS
 10
112.0813653367
 20
83.840897611
 11
112.0813653367
 21
85.7969446338
  0
LINE
  5
2CD
100
AcDbEntity
  8
0
100
AcDbLine
 62
7
  6
CONTINUOUS
 10
115.0813653367
 20
27.0629014792
 11
169.0813653367
 21
27.0629014792
  0
LINE
  5
2CE
100
AcDbEntity
  8
0
100
AcDbLine
 62
7
  6
CONTINUOUS
 10
117.8713653367
 20
46.3129014792
 11
117.8713653367
 21
45.1129014792
  0
LINE
  5
2CF
100
AcDbEntity
  8
0
100
AcDbLine
 62
7
  6
CONTINUOUS
 10
119.3713653367
 20
46.3129014792
 11
119.3713653367
 21
45.1129014792
  0
LINE
  5
2D0
100
AcDbEntity
  8
0
100
AcDbLine
 62
7
  6
CONTINUOUS
 10
119.9713653367
 20
46.3129014792
 11
119.9713653367
 21
45.1129014792
  0
LINE
  5
2D1
100
AcDbEntity
  8
0
100
AcDbLine
 62
7
  6
CONTINUOUS
 10
132.8732800477
 20
72.5879021944
 11
132.1073226922
 21
72.0254021944
  0
LINE
  5
2D2
100
AcDbEntity
  8
0
100
AcDbLine
 62
7
  6
CONTINUOUS
 10
133.4477480643
 20
72.7754014792
 11
132.8732800477
 21
72.5879021944
  0
LINE
  5
2D3
100
AcDbEntity
  8
0
100
AcDbLine
 62
7
  6
CONTINUOUS
 10
126.6913653367
 20
46.3129014792
 11
126.6913653367
 21
45.1129014792
  0
LINE
  5
2D4
100
AcDbEntity
  8
0
100
AcDbLine
 62
7
  6
CONTINUOUS
 10
131.5328546755
 20
71.2754007639
 11
131.3413653367
 21
70.3379021944
  0
LINE
  5
2D5
100
AcDbEntity
  8
0
100
AcDbLine
 62
7
  6
CONTINUOUS
 10
132.6817907088
 20
71.0879014792
 11
132.4903013699
 21
70.5254014792
  0
LINE
  5
2D6
100
AcDbEntity
  8
0
100
AcDbLine
 62
7
  6
CONTINUOUS
 10
132.1073226922
 20
72.0254021944
 11
131.5328546755
 21
71.2754007639
  0
LINE
  5
2D7
100
AcDbEntity
  8
0
100
AcDbLine
 62
7
  6
CONTINUOUS
 10
133.0647693865
 20
71.4629021944
 11
132.6817907088
 21
71.0879014792
  0
LINE
  5
2D8
100
AcDbEntity
  8
0
100
AcDbLine
 62
7
  6
CONTINUOUS
 10
136.5115780227
 20
72.9629007639
 11
135.7456206672
 21
72.2129014792
  0
LINE
  5
2D9
100
AcDbEntity
  8
0
100
AcDbLine
 62
7
  6
CONTINUOUS
 10
137.4690249853
 20
72.2129014792
 11
136.8945567005
 21
71.8379007639
  0
LINE
  5
2DA
100
AcDbEntity
  8
0
100
AcDbLine
 62
7
  6
CONTINUOUS
 10
133.4477480643
 20
71.6504014792
 11
133.0647693865
 21
71.4629021944
  0
LINE
  5
2DB
100
AcDbEntity
  8
0
100
AcDbLine
 62
7
  6
CONTINUOUS
 10
137.2775356464
 20
73.3379014792
 11
136.5115780227
 21
72.9629007639
  0
LINE
  5
2DC
100
AcDbEntity
  8
0
100
AcDbLine
 62
7
  6
CONTINUOUS
 10
153.1885050053
 20
45.7204014848
 11
151.848079365
 21
45.5329014792
  0
LINE
  5
2DD
100
AcDbEntity
  8
0
100
AcDbLine
 62
7
  6
CONTINUOUS
 10
117.8713653367
 20
45.1129014792
 11
119.3713653367
 21
45.1129014792
  0
LINE
  5
2DE
100
AcDbEntity
  8
0
100
AcDbLine
 62
7
  6
CONTINUOUS
 10
119.9713653367
 20
45.1129014792
 11
126.6913653367
 21
45.1129014792
  0
LINE
  5
2DF
100
AcDbEntity
  8
0
100
AcDbLine
 62
7
  6
CONTINUOUS
 10
133.6592980123
 20
46.3129014792
 11
139.1924291693
 21
44.4629013898
  0
LINE
  5
2E0
100
AcDbEntity
  8
0
100
AcDbLine
 62
7
  6
CONTINUOUS
 10
131.3413653367
 20
70.3379021944
 11
131.3413653367
 21
69.4004014792
  0
LINE
  5
2E1
100
AcDbEntity
  8
0
100
AcDbLine
 62
7
  6
CONTINUOUS
 10
131.3413653367
 20
41.8379014792
 11
131.3413653367
 21
40.7129014792
  0
LINE
  5
2E2
100
AcDbEntity
  8
0
100
AcDbLine
 62
7
  6
CONTINUOUS
 10
132.4903013699
 20
70.5254014792
 11
132.4903013699
 21
69.4004014792
  0
LINE
  5
2E3
100
AcDbEntity
  8
0
100
AcDbLine
 62
7
  6
CONTINUOUS
 10
133.4477480643
 20
72.7754014792
 11
133.4477480643
 21
71.6504014792
  0
LINE
  5
2E4
100
AcDbEntity
  8
0
100
AcDbLine
 62
7
  6
CONTINUOUS
 10
135.3626419895
 20
71.4629021944
 11
135.1711526506
 21
70.5254014792
  0
LINE
  5
2E5
100
AcDbEntity
  8
0
100
AcDbLine
 62
7
  6
CONTINUOUS
 10
136.5115780227
 20
71.2754007639
 11
136.3200886838
 21
70.5254014792
  0
LINE
  5
2E6
100
AcDbEntity
  8
0
100
AcDbLine
 62
7
  6
CONTINUOUS
 10
136.3200886838
 20
69.4004014792
 11
136.1700885587
 21
68.8129014792
  0
LINE
  5
2E7
100
AcDbEntity
  8
0
100
AcDbLine
 62
7
  6
CONTINUOUS
 10
135.1711526506
 20
69.4004014792
 11
134.9796633117
 21
68.8379014792
  0
LINE
  5
2E8
100
AcDbEntity
  8
0
100
AcDbLine
 62
7
  6
CONTINUOUS
 10
135.7456206672
 20
72.2129014792
 11
135.3626419895
 21
71.4629021944
  0
LINE
  5
2E9
100
AcDbEntity
  8
0
100
AcDbLine
 62
7
  6
CONTINUOUS
 10
136.8945567005
 20
71.8379007639
 11
136.5115780227
 21
71.2754007639
  0
LINE
  5
2EA
100
AcDbEntity
  8
0
100
AcDbLine
 62
7
  6
CONTINUOUS
 10
134.9796633117
 20
68.8379014792
 11
134.9626420372
 21
68.8129014792
  0
LINE
  5
2EB
100
AcDbEntity
  8
0
100
AcDbLine
 62
7
  6
CONTINUOUS
 10
150.5076539928
 20
45.5329014792
 11
151.848079365
 21
45.5329014792
  0
LINE
  5
2EC
100
AcDbEntity
  8
0
100
AcDbLine
 62
7
  6
CONTINUOUS
 10
193.7555758867
 20
45.8129014792
 11
185.8213653367
 21
45.8129014792
  0
LINE
  5
2ED
100
AcDbEntity
  8
RUNDUNGEN
100
AcDbLine
 62
7
  6
CONTINUOUS
 10
139.5637111643
 20
46.3129014792
 11
88.5813652367
 21
46.3129014792
  0
LINE
  5
2EE
100
AcDbEntity
  8
BEZUGSACHSEN
100
AcDbLine
 62
7
  6
CONTINUOUS
 10
139.5637111643
 20
46.3129014792
 11
195.5813654367
 21
46.3129014792
  0
LINE
  5
2EF
100
AcDbEntity
  8
0
100
AcDbLine
 62
7
  6
CONTINUOUS
 10
149.1672286207
 20
45.7204014848
 11
150.5076539928
 21
45.5329014792
  0
LINE
  5
2F0
100
AcDbEntity
  8
0
100
AcDbLine
 62
7
  6
CONTINUOUS
 10
137.04136514
 20
46.3129014792
 11
140.3413653367
 21
45.2129014792
  0
LINE
  5
2F1
100
AcDbEntity
  8
0
100
AcDbLine
 62
7
  6
CONTINUOUS
 10
148.2097813899
 20
46.0954014792
 11
149.1672286207
 21
45.7204014848
  0
LINE
  5
2F2
100
AcDbEntity
  8
0
100
AcDbLine
 62
7
  6
CONTINUOUS
 10
135.1711526506
 20
70.5254014792
 11
135.1711526506
 21
69.4004014792
  0
LINE
  5
2F3
100
AcDbEntity
  8
0
100
AcDbLine
 62
7
  6
CONTINUOUS
 10
136.3200886838
 20
70.5254014792
 11
136.3200886838
 21
69.4004014792
  0
LINE
  5
2F4
100
AcDbEntity
  8
0
100
AcDbLine
 62
7
  6
CONTINUOUS
 10
140.3413653367
 20
69.0254007639
 11
140.2979611626
 21
68.8129014792
  0
LINE
  5
2F5
100
AcDbEntity
  8
0
100
AcDbLine
 62
7
  6
CONTINUOUS
 10
139.1924291693
 20
69.0254007639
 11
139.1381739875
 21
68.8129014792
  0
LINE
  5
2F6
100
AcDbEntity
  8
0
100
AcDbLine
 62
7
  6
CONTINUOUS
 10
147.9136112124
 20
46.3129014792
 11
148.2097813899
 21
46.0954014792
  0
LINE
  5
2F7
100
AcDbEntity
  8
0
100
AcDbLine
 62
7
  6
CONTINUOUS
 10
132.4903013699
 20
69.4004014792
 11
132.6817907088
 21
68.8379014792
  0
LINE
  5
2F8
100
AcDbEntity
  8
0
100
AcDbLine
 62
7
  6
CONTINUOUS
 10
131.3413653367
 20
69.4004014792
 11
131.4913654618
 21
68.8129014792
  0
LINE
  5
2F9
100
AcDbEntity
  8
0
100
AcDbLine
 62
7
  6
CONTINUOUS
 10
139.1924291693
 20
70.5254014792
 11
139.1924291693
 21
69.0254007639
  0
LINE
  5
2FA
100
AcDbEntity
  8
0
100
AcDbLine
 62
7
  6
CONTINUOUS
 10
140.3413653367
 20
70.5254014792
 11
140.3413653367
 21
69.0254007639
  0
LINE
  5
2FB
100
AcDbEntity
  8
0
100
AcDbLine
 62
7
  6
CONTINUOUS
 10
140.3413653367
 20
45.2129014792
 11
140.3413653367
 21
43.7129015686
  0
LINE
  5
2FC
100
AcDbEntity
  8
0
100
AcDbLine
 62
7
  6
CONTINUOUS
 10
132.6817907088
 20
68.8379014792
 11
132.6988119833
 21
68.8129014792
  0
LINE
  5
2FD
100
AcDbEntity
  8
0
100
AcDbLine
 62
7
  6
CONTINUOUS
 10
139.0009398304
 20
71.2754007639
 11
139.1924291693
 21
70.5254014792
  0
LINE
  5
2FE
100
AcDbEntity
  8
0
100
AcDbLine
 62
7
  6
CONTINUOUS
 10
139.766897253
 20
72.2129014792
 11
140.149875981
 21
71.4629021944
  0
LINE
  5
2FF
100
AcDbEntity
  8
0
100
AcDbLine
 62
7
  6
CONTINUOUS
 10
140.149875981
 20
71.4629021944
 11
140.3413653367
 21
70.5254014792
  0
LINE
  5
300
100
AcDbEntity
  8
0
100
AcDbLine
 62
7
  6
CONTINUOUS
 10
149.5502072985
 20
70.0954021944
 11
149.5502072985
 21
68.8129014792
  0
LINE
  5
301
100
AcDbEntity
  8
0
100
AcDbLine
 62
7
  6
CONTINUOUS
 10
150.316164654
 20
70.0954021944
 11
150.316164654
 21
68.8129014792
  0
LINE
  5
302
100
AcDbEntity
  8
0
100
AcDbLine
 62
7
  6
CONTINUOUS
 10
139.0009398304
 20
72.9629007639
 11
139.766897253
 21
72.2129014792
  0
LINE
  5
303
100
AcDbEntity
  8
0
100
AcDbLine
 62
7
  6
CONTINUOUS
 10
138.6179610186
 20
71.8379007639
 11
139.0009398304
 21
71.2754007639
  0
LINE
  5
304
100
AcDbEntity
  8
0
100
AcDbLine
 62
7
  6
CONTINUOUS
 10
155.6778666789
 20
69.7204014792
 11
155.5233985987
 21
68.8129014792
  0
LINE
  5
305
100
AcDbEntity
  8
0
100
AcDbLine
 62
7
  6
CONTINUOUS
 10
154.9119092563
 20
69.7204014792
 11
154.7265476528
 21
68.8129014792
  0
LINE
  5
306
100
AcDbEntity
  8
0
100
AcDbLine
 62
7
  6
CONTINUOUS
 10
139.1924291693
 20
44.4629013898
 11
131.3413653367
 21
41.8379014792
  0
LINE
  5
307
100
AcDbEntity
  8
0
100
AcDbLine
 62
7
  6
CONTINUOUS
 10
140.3413653367
 20
43.7129015686
 11
131.3413653367
 21
40.7129014792
  0
LINE
  5
308
100
AcDbEntity
  8
BEZUGSACHSEN
100
AcDbLine
 62
7
  6
CONTINUOUS
 10
88.5813652367
 20
68.8129014792
 11
195.5813654367
 21
68.8129014792
  0
LINE
  5
309
100
AcDbEntity
  8
0
100
AcDbLine
 62
7
  6
CONTINUOUS
 10
154.9119092563
 20
69.7204014792
 11
155.6778666789
 21
69.7204014792
  0
LINE
  5
30A
100
AcDbEntity
  8
0
100
AcDbLine
 62
7
  6
CONTINUOUS
 10
149.5502072985
 20
70.0954021944
 11
150.316164654
 21
70.0954021944
  0
LINE
  5
30B
100
AcDbEntity
  8
0
100
AcDbLine
 62
7
  6
CONTINUOUS
 10
138.2349823408
 20
73.3379014792
 11
139.0009398304
 21
72.9629007639
  0
LINE
  5
30C
100
AcDbEntity
  8
0
100
AcDbLine
 62
7
  6
CONTINUOUS
 10
138.0434930019
 20
72.2129014792
 11
138.6179610186
 21
71.8379007639
  0
LINE
  5
30D
100
AcDbEntity
  8
0
100
AcDbLine
 62
7
  6
CONTINUOUS
 10
154.4421220372
 20
46.3129014792
 11
154.1459518338
 21
46.0954014792
  0
LINE
  5
30E
100
AcDbEntity
  8
0
100
AcDbLine
 62
7
  6
CONTINUOUS
 10
154.1459518338
 20
46.0954014792
 11
153.1885050053
 21
45.7204014848
  0
LINE
  5
30F
100
AcDbEntity
  8
0
100
AcDbLine
 62
7
  6
CONTINUOUS
 10
137.4690249853
 20
72.2129014792
 11
138.0434930019
 21
72.2129014792
  0
LINE
  5
310
100
AcDbEntity
  8
0
100
AcDbLine
 62
7
  6
CONTINUOUS
 10
137.2775356464
 20
73.3379014792
 11
138.2349823408
 21
73.3379014792
  0
LINE
  5
311
100
AcDbEntity
  8
KONSTRUKTIONSELEMENTE
100
AcDbLine
 62
7
  6
CONTINUOUS
 10
172.0813653367
 20
85.7969446338
 11
172.0813653367
 21
83.840897611
  0
LINE
  5
312
100
AcDbEntity
  8
0
100
AcDbLine
 62
7
  6
CONTINUOUS
 10
172.0813653367
 20
83.840897611
 11
172.0813653367
 21
68.8129014792
  0
LINE
  5
313
100
AcDbEntity
  8
0
100
AcDbLine
 62
7
  6
CONTINUOUS
 10
172.0813653367
 20
46.3129014792
 11
172.0813653367
 21
29.3288583245
  0
LINE
  5
314
100
AcDbEntity
  8
KONSTRUKTIONSELEMENTE
100
AcDbLine
 62
7
  6
CONTINUOUS
 10
115.0813653367
 20
88.0629014792
 11
169.0813653367
 21
88.0629014792
  0
LINE
  5
315
100
AcDbEntity
  8
0
100
AcDbLine
 62
7
  6
CONTINUOUS
 10
185.8213653367
 20
46.3129014792
 11
185.8213653367
 21
45.8129014792
  0
LINE
  5
316
100
AcDbEntity
  8
0
100
AcDbLine
 62
7
  6
CONTINUOUS
 10
191.6397864067
 20
46.3129014792
 11
191.6397864067
 21
45.8129014792
  0
LINE
  5
317
100
AcDbEntity
  8
0
100
AcDbLine
 62
7
  6
CONTINUOUS
 10
192.4332074617
 20
46.3129014792
 11
192.4332074617
 21
45.8129014792
  0
LINE
  5
318
100
AcDbEntity
  8
0
100
AcDbLine
 62
7
  6
CONTINUOUS
 10
193.7555758867
 20
46.3129014792
 11
193.7555758867
 21
45.8129014792
  0
LINE
  5
319
100
AcDbEntity
  8
BEZUGSACHSEN
100
AcDbLine
 62
7
  6
CONTINUOUS
 10
199.5813654367
 20
64.8129014792
 11
199.5813654367
 21
50.3129014792
  0
ARC
  5
31A
100
AcDbEntity
  8
RUNDUNGEN
100
AcDbCircle
 62
7
  6
CONTINUOUS
 10
119.5813652367
 20
169.4413175249
 40
11.0
100
AcDbArc
 50
180.0
 51
227.0127508465
  0
ARC
  5
31B
100
AcDbEntity
  8
RUNDUNGEN
100
AcDbCircle
 62
7
  6
CONTINUOUS
 10
88.5813652367
 20
139.9413175249
 40
4.0
100
AcDbArc
 50
180.0
 51
270.0
  0
ARC
  5
31C
100
AcDbEntity
  8
BEZUGSACHSEN
100
AcDbCircle
 62
7
  6
CONTINUOUS
 10
122.2813653367
 20
185.3304016262
 40
3.8
100
AcDbArc
 50
270.0
 51
57.9383738092
  0
ARC
  5
31D
100
AcDbEntity
  8
RUNDUNGEN
100
AcDbCircle
 62
7
  6
CONTINUOUS
 10
122.2813653367
 20
185.3304016262
 40
3.8
100
AcDbArc
 50
270.0
 51
57.9383738092
  0
ARC
  5
31E
100
AcDbEntity
  8
RUNDUNGEN
100
AcDbCircle
 62
7
  6
CONTINUOUS
 10
112.0813652367
 20
178.0304016262
 40
3.5
100
AcDbArc
 50
90.0
 51
180.0
  0
ARC
  5
31F
100
AcDbEntity
  8
0
100
AcDbCircle
 62
7
  6
CONTINUOUS
 10
115.0813653367
 20
174.4413175249
 40
3.0
100
AcDbArc
 50
90.0
 51
180.0
  0
ARC
  5
320
100
AcDbEntity
  8
RUNDUNGEN
100
AcDbCircle
 62
7
  6
CONTINUOUS
 10
95.1603126367
 20
216.9413175249
 40
10.5789474
100
AcDbArc
 50
157.5
 51
180.0
  0
ARC
  5
321
100
AcDbEntity
  8
BEZUGSACHSEN
100
AcDbCircle
 62
7
  6
CONTINUOUS
 10
108.9031707921
 20
250.1195120695
 40
10.5789474
100
AcDbArc
 50
112.5
 51
157.5
  0
ARC
  5
322
100
AcDbEntity
  8
RUNDUNGEN
100
AcDbCircle
 62
7
  6
CONTINUOUS
 10
108.9031707921
 20
250.1195120695
 40
10.5789474
100
AcDbArc
 50
112.5
 51
157.5
  0
ARC
  5
323
100
AcDbEntity
  8
BEZUGSACHSEN
100
AcDbCircle
 62
7
  6
CONTINUOUS
 10
164.5813654367
 20
169.4413175249
 40
11.0
100
AcDbArc
 50
312.9872491535
 51
360.0
  0
ARC
  5
324
100
AcDbEntity
  8
BEZUGSACHSEN
100
AcDbCircle
 62
7
  6
CONTINUOUS
 10
195.5813654367
 20
139.9413175249
 40
4.0
100
AcDbArc
 50
270.0
 51
360.0
  0
ARC
  5
325
100
AcDbEntity
  8
BEZUGSACHSEN
100
AcDbCircle
 62
7
  6
CONTINUOUS
 10
161.8813653367
 20
185.3304016262
 40
3.8
100
AcDbArc
 50
122.0616261908
 51
270.0
  0
ARC
  5
326
100
AcDbEntity
  8
BEZUGSACHSEN
100
AcDbCircle
 62
7
  6
CONTINUOUS
 10
172.0813654367
 20
178.0304016262
 40
3.5
100
AcDbArc
 50
1.4090868945
 51
90.0
  0
ARC
  5
327
100
AcDbEntity
  8
0
100
AcDbCircle
 62
7
  6
CONTINUOUS
 10
188.9950495567
 20
178.3634227549
 40
3.17368422
100
AcDbArc
 50
90.0
 51
270.0
  0
ARC
  5
328
100
AcDbEntity
  8
0
100
AcDbCircle
 62
7
  6
CONTINUOUS
 10
169.0813653367
 20
174.4413175249
 40
3.0
100
AcDbArc
 50
0.0
 51
90.0
  0
ARC
  5
329
100
AcDbEntity
  8
0
100
AcDbCircle
 62
7
  6
CONTINUOUS
 10
188.7305758717
 20
170.0236858879
 40
2.909210535
100
AcDbArc
 50
180.0
 51
270.0
  0
ARC
  5
32A
100
AcDbEntity
  8
0
100
AcDbCircle
 62
7
  6
CONTINUOUS
 10
190.8463653517
 20
170.0236858879
 40
2.909210535
100
AcDbArc
 50
270.0
 51
360.0
  0
ARC
  5
32B
100
AcDbEntity
  8
0
100
AcDbCircle
 62
7
  6
CONTINUOUS
 10
191.4458390377
 20
185.4336859339
 40
2.309736849
100
AcDbArc
 50
201.1872687082
 51
360.0
  0
ARC
  5
32C
100
AcDbEntity
  8
0
100
AcDbCircle
 62
7
  6
CONTINUOUS
 10
190.7758390357
 20
170.3618436954
 40
1.657368426
100
AcDbArc
 50
270.01819492
 51
360.0
  0
ARC
  5
32D
100
AcDbEntity
  8
0
100
AcDbCircle
 62
7
  6
CONTINUOUS
 10
188.8011021877
 20
170.3618437789
 40
1.657368426
100
AcDbArc
 50
180.0
 51
270.0
  0
ARC
  5
32E
100
AcDbEntity
  8
0
100
AcDbCircle
 62
7
  6
CONTINUOUS
 10
188.9950495567
 20
178.3634227549
 40
1.58684211
100
AcDbArc
 50
90.0
 51
270.0
  0
ARC
  5
32F
100
AcDbEntity
  8
0
100
AcDbCircle
 62
7
  6
CONTINUOUS
 10
187.8137337637
 20
186.7991752272
 40
1.322368425
100
AcDbArc
 50
300.0
 51
360.0
  0
ARC
  5
330
100
AcDbEntity
  8
0
100
AcDbCircle
 62
7
  6
CONTINUOUS
 10
191.4458390377
 20
185.9626333039
 40
0.987368424
100
AcDbArc
 50
180.0
 51
360.0
  0
ARC
  5
331
100
AcDbEntity
  8
RUNDUNGEN
100
AcDbCircle
 62
7
  6
CONTINUOUS
 10
142.0813653367
 20
216.9413175249
 40
33.5000001
100
AcDbArc
 50
180.0
 51
237.9383740056
  0
ARC
  5
332
100
AcDbEntity
  8
BEZUGSACHSEN
100
AcDbCircle
 62
7
  6
CONTINUOUS
 10
142.0813653367
 20
216.9413175249
 40
33.5000001
100
AcDbArc
 50
302.0616259944
 51
180.0
  0
ARC
  5
333
100
AcDbEntity
  8
BEZUGSACHSEN
100
AcDbCircle
 62
7
  6
CONTINUOUS
 10
189.0024180367
 20
216.9413175249
 40
10.5789474
100
AcDbArc
 50
0.0
 51
22.5
  0
ARC
  5
334
100
AcDbEntity
  8
BEZUGSACHSEN
100
AcDbCircle
 62
7
  6
CONTINUOUS
 10
175.2595598812
 20
250.1195120695
 40
10.5789474
100
AcDbArc
 50
22.5
 51
67.5
  0
ARC
  5
335
100
AcDbEntity
  8
BEZUGSACHSEN
100
AcDbCircle
 62
7
  6
CONTINUOUS
 10
142.0813653367
 20
263.8623702249
 40
10.5789474
100
AcDbArc
 50
67.5
 51
112.5
  0
ARC
  5
336
100
AcDbEntity
  8
0
100
AcDbCircle
 62
7
  6
CONTINUOUS
 10
262.4636862929
 20
147.4413175249
 40
30.5
100
AcDbArc
 50
56.4641241304
 51
65.9080605252
  0
ARC
  5
337
100
AcDbEntity
  8
0
100
AcDbCircle
 62
7
  6
CONTINUOUS
 10
262.4636862929
 20
147.4413175249
 40
30.5
100
AcDbArc
 50
111.6471316135
 51
121.1454977168
  0
ARC
  5
338
100
AcDbEntity
  8
0
100
AcDbCircle
 62
7
  6
CONTINUOUS
 10
262.4636862929
 20
147.4413175249
 40
30.5
100
AcDbArc
 50
65.908394113
 51
68.3536592875
  0
ARC
  5
339
100
AcDbEntity
  8
0
100
AcDbCircle
 62
7
  6
CONTINUOUS
 10
262.4636862929
 20
147.4413175249
 40
30.0
100
AcDbArc
 50
112.0337092081
 51
166.72
  0
ARC
  5
33A
100
AcDbEntity
  8
0
100
AcDbCircle
 62
7
  6
CONTINUOUS
 10
262.4636862929
 20
147.4413175249
 40
30.0
100
AcDbArc
 50
13.28
 51
67.9662907919
  0
ARC
  5
33B
100
AcDbEntity
  8
KONSTRUKTIONSELEMENTE
100
AcDbCircle
 62
7
  6
CONTINUOUS
 10
262.4636862929
 20
147.4413175249
 40
12.0
100
AcDbArc
 50
159.6678648501
 51
160.0
  0
ARC
  5
33C
100
AcDbEntity
  8
KONSTRUKTIONSELEMENTE
100
AcDbCircle
 62
7
  6
CONTINUOUS
 10
262.4636862929
 20
147.4413175249
 40
12.0
100
AcDbArc
 50
20.0
 51
20.3321247293
  0
ARC
  5
33D
100
AcDbEntity
  8
BEZUGSACHSEN
100
AcDbCircle
 62
7
  6
CONTINUOUS
 10
262.7136862929
 20
146.9413175249
 40
11.0
100
AcDbArc
 50
270.0
 51
360.0
  0
ARC
  5
33E
100
AcDbEntity
  8
RUNDUNGEN
100
AcDbCircle
 62
7
  6
CONTINUOUS
 10
262.7136862929
 20
146.9413175249
 40
11.0
100
AcDbArc
 50
270.0
 51
360.0
  0
ARC
  5
33F
100
AcDbEntity
  8
BEZUGSACHSEN
100
AcDbCircle
 62
7
  6
CONTINUOUS
 10
262.2136862929
 20
146.9413175249
 40
11.0
100
AcDbArc
 50
180.0
 51
270.0
  0
ARC
  5
340
100
AcDbEntity
  8
BEZUGSACHSEN
100
AcDbCircle
 62
7
  6
CONTINUOUS
 10
255.2136862929
 20
270.4413176249
 40
4.0
100
AcDbArc
 50
90.0
 51
180.0
  0
ARC
  5
341
100
AcDbEntity
  8
BEZUGSACHSEN
100
AcDbCircle
 62
7
  6
CONTINUOUS
 10
269.7136862929
 20
270.4413176249
 40
4.0
100
AcDbArc
 50
0.0
 51
90.0
  0
ARC
  5
342
100
AcDbEntity
  8
RUNDUNGEN
100
AcDbCircle
 62
7
  6
CONTINUOUS
 10
88.5813652367
 20
50.3129014792
 40
4.0
100
AcDbArc
 50
180.0
 51
270.0
  0
ARC
  5
343
100
AcDbEntity
  8
BEZUGSACHSEN
100
AcDbCircle
 62
7
  6
CONTINUOUS
 10
195.5813654367
 20
50.3129014792
 40
4.0
100
AcDbArc
 50
270.0
 51
360.0
  0
ARC
  5
344
100
AcDbEntity
  8
BEZUGSACHSEN
100
AcDbCircle
 62
7
  6
CONTINUOUS
 10
88.5813652367
 20
64.8129014792
 40
4.0
100
AcDbArc
 50
90.0
 51
180.0
  0
ARC
  5
345
100
AcDbEntity
  8
BEZUGSACHSEN
100
AcDbCircle
 62
7
  6
CONTINUOUS
 10
195.5813654367
 20
64.8129014792
 40
4.0
100
AcDbArc
 50
0.0
 51
90.0
  0
SPLINE
  5
346
100
AcDbEntity
  8
0
100
AcDbSpline
 62
7
  6
CONTINUOUS
 70
0
 71
3
 72
11
 73
7
 74
0
 42
0.0000001
 43
0.0000001
 44
0.0000000001
 40
0.0
 40
0.0
 40
0.0
 40
0.0
 40
0.2335401554
 40
0.4999999533
 40
0.7664597614
 40
1.0
 40
1.0
 40
1.0
 40
1.0
 10
164.6661722095
 20
177.8882298155
 30
0.0
 10
164.3631539111
 20
177.903516423
 30
0.0
 10
163.7135879062
 20
177.9185047235
 30
0.0
 10
162.7178675911
 20
177.9241623982
 30
0.0
 10
161.7221471679
 20
177.9185047414
 30
0.0
 10
161.0725810413
 20
177.9035164792
 30
0.0
 10
160.7695626335
 20
177.888229895
 30
0.0
  0
SPLINE
  5
347
100
AcDbEntity
  8
0
100
AcDbSpline
 62
7
  6
CONTINUOUS
 70
0
 71
3
 72
33
 73
29
 74
0
 42
0.0000001
 43
0.0000001
 44
0.0000000001
 40
0.0
 40
0.0
 40
0.0
 40
0.0
 40
0.001046218
 40
0.0030740152
 40
0.0105517195
 40
0.0226554428
 40
0.0393127685
 40
0.0603640158
 40
0.0856141031
 40
0.114824676
 40
0.1477129103
 40
0.2232560435
 40
0.3093819716
 40
0.4028215025
 40
0.4999958847
 40
0.5971704373
 40
0.6906104448
 40
0.7767371192
 40
0.8522813251
 40
0.8851701709
 40
0.9143813755
 40
0.9396321703
 40
0.960684169
 40
0.9773422985
 40
0.9894468272
 40
0.9969253281
 40
0.998953511
 40
1.0
 40
1.0
 40
1.0
 40
1.0
 10
160.6178993466
 20
177.9242488453
 30
0.0
 10
160.6178971845
 20
177.9227771181
 30
0.0
 10
160.621579674
 20
177.9193020769
 30
0.0
 10
160.6347443331
 20
177.9136927826
 30
0.0
 10
160.664752448
 20
177.9057752276
 30
0.0
 10
160.7145230279
 20
177.8963250095
 30
0.0
 10
160.7839132785
 20
177.8855402773
 30
0.0
 10
160.8716768998
 20
177.8740225252
 30
0.0
 10
160.9772382464
 20
177.8619750377
 30
0.0
 10
161.099500057
 20
177.8497443383
 30
0.0
 10
161.2923881785
 20
177.832819517
 30
0.0
 10
161.5654213997
 20
177.8136132878
 30
0.0
 10
161.9238612608
 20
177.7956805281
 30
0.0
 10
162.3130061928
 20
177.7840075307
 30
0.0
 10
162.7178489628
 20
177.7799535673
 30
0.0
 10
163.1226924104
 20
177.7840068252
 30
0.0
 10
163.5118393221
 20
177.7956792012
 30
0.0
 10
163.8702824398
 20
177.813611504
 30
0.0
 10
164.1433191044
 20
177.832817498
 30
0.0
 10
164.3362105077
 20
177.8497421913
 30
0.0
 10
164.4584750743
 20
177.8619729004
 30
0.0
 10
164.5640393784
 20
177.8740204237
 30
0.0
 10
164.6518061818
 20
177.8855383504
 30
0.0
 10
164.7211998026
 20
177.8963230872
 30
0.0
 10
164.7709736864
 20
177.9057739213
 30
0.0
 10
164.8009848264
 20
177.9136909872
 30
0.0
 10
164.8141513738
 20
177.9193011193
 30
0.0
 10
164.8178353272
 20
177.9227754727
 30
0.0
 10
164.8178339486
 20
177.924247582
 30
0.0
  0
SPLINE
  5
348
100
AcDbEntity
  8
0
100
AcDbSpline
 62
7
  6
CONTINUOUS
 70
0
 71
3
 72
13
 73
9
 74
0
 42
0.0000001
 43
0.0000001
 44
0.0000000001
 40
0.0
 40
0.0
 40
0.0
 40
0.0
 40
0.0159235126
 40
0.0630700023
 40
0.141516912
 40
0.2512750753
 40
0.5643021305
 40
1.0
 40
1.0
 40
1.0
 40
1.0
 10
124.8913349607
 20
177.9412179988
 30
0.0
 10
124.8913358002
 20
177.9408466985
 30
0.0
 10
124.8890138194
 20
177.9412642795
 30
0.0
 10
124.8865558946
 20
177.9403702046
 30
0.0
 10
124.8806189966
 20
177.9402519023
 30
0.0
 10
124.8692479869
 20
177.9391806357
 30
0.0
 10
124.8490607653
 20
177.9379669495
 30
0.0
 10
124.8317151867
 20
177.9367945443
 30
0.0
 10
124.821575567
 20
177.9361590516
 30
0.0
  0
SPLINE
  5
349
100
AcDbEntity
  8
0
100
AcDbSpline
 62
7
  6
CONTINUOUS
 70
0
 71
3
 72
9
 73
5
 74
0
 42
0.0000001
 43
0.0000001
 44
0.0000000001
 40
0.0
 40
0.0
 40
0.0
 40
0.0
 40
0.3755514282
 40
1.0
 40
1.0
 40
1.0
 40
1.0
 10
124.821575567
 20
177.9361590516
 30
0.0
 10
124.6146672865
 20
177.923191238
 30
0.0
 10
124.0631391996
 20
177.8982601933
 30
0.0
 10
123.5110773558
 20
177.8881564413
 30
0.0
 10
123.1663653367
 20
177.8881564413
 30
0.0
  0
SPLINE
  5
34A
100
AcDbEntity
  8
0
100
AcDbSpline
 62
7
  6
CONTINUOUS
 70
0
 71
3
 72
20
 73
16
 74
0
 42
0.0000001
 43
0.0000001
 44
0.0000000001
 40
0.0
 40
0.0
 40
0.0
 40
0.0
 40
0.0227394787
 40
0.0509790052
 40
0.0883396252
 40
0.1359607255
 40
0.1936485482
 40
0.2604484411
 40
0.3348760809
 40
0.415062337
 40
0.5839877008
 40
0.7488637114
 40
0.8920289094
 40
0.951020664
 40
1.0
 40
1.0
 40
1.0
 40
1.0
 10
117.8713653367
 20
176.8666361298
 30
0.0
 10
117.8713653367
 20
176.9054816037
 30
0.0
 10
117.9013745326
 20
176.9931520958
 30
0.0
 10
118.0160205687
 20
177.0964736324
 30
0.0
 10
118.188609561
 20
177.1857216928
 30
0.0
 10
118.4205060972
 20
177.262964329
 30
0.0
 10
118.7075081119
 20
177.3280059489
 30
0.0
 10
119.0434707433
 20
177.3802867535
 30
0.0
 10
119.4197761413
 20
177.4196387528
 30
0.0
 10
119.9714151527
 20
177.4553655638
 30
0.0
 10
120.6790632848
 20
177.4664912569
 30
0.0
 10
121.4934186727
 20
177.4327061374
 30
0.0
 10
122.1178005484
 20
177.3625831758
 30
0.0
 10
122.5374971539
 20
177.272240747
 30
0.0
 10
122.7139162552
 20
177.2164948616
 30
0.0
 10
122.7913653367
 20
177.1848340527
 30
0.0
  0
SPLINE
  5
34B
100
AcDbEntity
  8
0
100
AcDbSpline
 62
7
  6
CONTINUOUS
 70
0
 71
3
 72
17
 73
13
 74
0
 42
0.0000001
 43
0.0000001
 44
0.0000000001
 40
0.0
 40
0.0
 40
0.0
 40
0.0
 40
0.0071770341
 40
0.0210467543
 40
0.0425954852
 40
0.0719940592
 40
0.1542052157
 40
0.2671217981
 40
0.4096824825
 40
0.5804750996
 40
0.7778966263
 40
1.0
 40
1.0
 40
1.0
 40
1.0
 10
165.7178224788
 20
177.9242270247
 30
0.0
 10
165.7178045537
 20
177.922075623
 30
0.0
 10
165.7124758564
 20
177.9170151338
 30
0.0
 10
165.7013480689
 20
177.9118989463
 30
0.0
 10
165.6827986448
 20
177.9052019909
 30
0.0
 10
165.6444753972
 20
177.8945270443
 30
0.0
 10
165.5785912755
 20
177.8800690797
 30
0.0
 10
165.4790486297
 20
177.8619138525
 30
0.0
 10
165.3527985705
 20
177.8419756752
 30
0.0
 10
165.2011463315
 20
177.8208586005
 30
0.0
 10
165.0255145422
 20
177.7991412228
 30
0.0
 10
164.9004967669
 20
177.7854446132
 30
0.0
 10
164.8342681601
 20
177.7786088459
 30
0.0
  0
SPLINE
  5
34C
100
AcDbEntity
  8
0
100
AcDbSpline
 62
7
  6
CONTINUOUS
 70
0
 71
3
 72
11
 73
7
 74
0
 42
0.0000001
 43
0.0000001
 44
0.0000000001
 40
0.0
 40
0.0
 40
0.0
 40
0.0
 40
0.2294991796
 40
0.4996964214
 40
0.7700524174
 40
1.0
 40
1.0
 40
1.0
 40
1.0
 10
164.8342681601
 20
177.7786088459
 30
0.0
 10
164.5121674051
 20
177.7453633056
 30
0.0
 10
163.8086984709
 20
177.6932575282
 30
0.0
 10
162.7221004175
 20
177.6656104142
 30
0.0
 10
161.6348585395
 20
177.6928589386
 30
0.0
 10
160.9305165507
 20
177.744777838
 30
0.0
 10
160.607773147
 20
177.7779590511
 30
0.0
  0
SPLINE
  5
34D
100
AcDbEntity
  8
0
100
AcDbSpline
 62
7
  6
CONTINUOUS
 70
0
 71
3
 72
17
 73
13
 74
0
 42
0.0000001
 43
0.0000001
 44
0.0000000001
 40
0.0
 40
0.0
 40
0.0
 40
0.0
 40
0.2220483177
 40
0.4194540399
 40
0.5902582255
 40
0.7328426141
 40
0.845787386
 40
0.9280194495
 40
0.9574237627
 40
0.9789738096
 40
0.9928381741
 40
1.0
 40
1.0
 40
1.0
 40
1.0
 10
160.607773147
 20
177.7779590511
 30
0.0
 10
160.5410913379
 20
177.7848146005
 30
0.0
 10
160.4152080306
 20
177.7985572652
 30
0.0
 10
160.2383477653
 20
177.8203623348
 30
0.0
 10
160.0856130809
 20
177.8415760722
 30
0.0
 10
159.9584465755
 20
177.8616125515
 30
0.0
 10
159.8581738243
 20
177.8798603617
 30
0.0
 10
159.791801076
 20
177.8943923803
 30
0.0
 10
159.7531941047
 20
177.9051190727
 30
0.0
 10
159.7345052518
 20
177.9118485912
 30
0.0
 10
159.7233031947
 20
177.9169833466
 30
0.0
 10
159.7179276808
 20
177.9220667483
 30
0.0
 10
159.7179107722
 20
177.9242287376
 30
0.0
  0
SPLINE
  5
34E
100
AcDbEntity
  8
0
100
AcDbSpline
 62
7
  6
CONTINUOUS
 70
0
 71
3
 72
9
 73
5
 74
0
 42
0.0000001
 43
0.0000001
 44
0.0000000001
 40
0.0
 40
0.0
 40
0.0
 40
0.0
 40
0.2178876751
 40
1.0
 40
1.0
 40
1.0
 40
1.0
 10
123.2898489709
 20
176.0216496211
 30
0.0
 10
123.3124215169
 20
176.0316318327
 30
0.0
 10
123.418083605
 20
176.072771779
 30
0.0
 10
123.5291377796
 20
176.0986022758
 30
0.0
 10
123.6163653367
 20
176.1141015857
 30
0.0
  0
SPLINE
  5
34F
100
AcDbEntity
  8
0
100
AcDbSpline
 62
7
  6
CONTINUOUS
 70
0
 71
3
 72
33
 73
29
 74
0
 42
0.0000001
 43
0.0000001
 44
0.0000000001
 40
0.0
 40
0.0
 40
0.0
 40
0.0
 40
0.0010851317
 40
0.003158971
 40
0.0107304713
 40
0.0229277367
 40
0.0396650202
 40
0.0607863441
 40
0.0860837494
 40
0.1153216569
 40
0.1482135996
 40
0.2237017985
 40
0.3097115998
 40
0.4030046178
 40
0.5000233817
 40
0.5970411859
 40
0.6903315108
 40
0.7763369925
 40
0.8518191443
 40
0.8847076271
 40
0.9139417955
 40
0.9392351634
 40
0.960352153
 40
0.9770849747
 40
0.9892777206
 40
0.9968447589
 40
0.9989164348
 40
1.0
 40
1.0
 40
1.0
 40
1.0
 10
159.7179113502
 20
177.4238808432
 30
0.0
 10
159.7179673
 20
177.4216970985
 30
0.0
 10
159.7232774287
 20
177.4166105574
 30
0.0
 10
159.7421828184
 20
177.4077642628
 30
0.0
 10
159.7852108058
 20
177.3950813181
 30
0.0
 10
159.8565102384
 20
177.3791910234
 30
0.0
 10
159.9557892395
 20
177.3607370149
 30
0.0
 10
160.0812513176
 20
177.3405744634
 30
0.0
 10
160.2320782309
 20
177.3191801762
 30
0.0
 10
160.4066940349
 20
177.2971809252
 30
0.0
 10
160.6820309367
 20
177.2664375639
 30
0.0
 10
161.0717997667
 20
177.2310683263
 30
0.0
 10
161.583682964
 20
177.197688785
 30
0.0
 10
162.1395750354
 20
177.1758119076
 30
0.0
 10
162.7180107441
 20
177.1681923712
 30
0.0
 10
163.2964409328
 20
177.1758193358
 30
0.0
 10
163.852316681
 20
177.1977027848
 30
0.0
 10
164.36417322
 20
177.2310870528
 30
0.0
 10
164.7539138778
 20
177.2664587337
 30
0.0
 10
165.0292238642
 20
177.2972028605
 30
0.0
 10
165.2038169089
 20
177.319201782
 30
0.0
 10
165.3546193178
 20
177.3405953025
 30
0.0
 10
165.4800555224
 20
177.3607558494
 30
0.0
 10
165.5793075185
 20
177.3792090183
 30
0.0
 10
165.650580184
 20
177.3950939408
 30
0.0
 10
165.6935847097
 20
177.4077793773
 30
0.0
 10
165.7124741568
 20
177.4166189666
 30
0.0
 10
165.7177732242
 20
177.4217101215
 30
0.0
 10
165.717822818
 20
177.4238908654
 30
0.0
  0
SPLINE
  5
350
100
AcDbEntity
  8
0
100
AcDbSpline
 62
7
  6
CONTINUOUS
 70
0
 71
3
 72
9
 73
5
 74
0
 42
0.0000001
 43
0.0000001
 44
0.0000000001
 40
0.0
 40
0.0
 40
0.0
 40
0.0
 40
0.3005154642
 40
1.0
 40
1.0
 40
1.0
 40
1.0
 10
164.8178339486
 20
177.924247582
 30
0.0
 10
164.817831724
 20
177.9266229658
 30
0.0
 10
164.8084750163
 20
177.930935185
 30
0.0
 10
164.8017840956
 20
177.9319253236
 30
0.0
 10
164.796327648
 20
177.93281798
 30
0.0
  0
SPLINE
  5
351
100
AcDbEntity
  8
0
100
AcDbSpline
 62
7
  6
CONTINUOUS
 70
0
 71
3
 72
19
 73
15
 74
0
 42
0.0000001
 43
0.0000001
 44
0.0000000001
 40
0.0
 40
0.0
 40
0.0
 40
0.0
 40
0.0261998229
 40
0.0607448194
 40
0.1075235759
 40
0.1671889663
 40
0.3198849021
 40
0.4999999036
 40
0.6801151156
 40
0.8328108528
 40
0.8924764397
 40
0.9392551349
 40
0.9738000978
 40
1.0
 40
1.0
 40
1.0
 40
1.0
 10
121.6213653367
 20
176.7831711644
 30
0.0
 10
121.6213653367
 20
176.8043891949
 30
0.0
 10
121.6014178339
 20
176.8533527065
 30
0.0
 10
121.5320856616
 20
176.9087256994
 30
0.0
 10
121.4286351042
 20
176.958038954
 30
0.0
 10
121.2273489393
 20
177.019387434
 30
0.0
 10
120.9118056713
 20
177.0668667403
 30
0.0
 10
120.4963654244
 20
177.0860246797
 30
0.0
 10
120.0809253498
 20
177.0668667878
 30
0.0
 10
119.7653818845
 20
177.0193873966
 30
0.0
 10
119.5640958279
 20
176.9580389699
 30
0.0
 10
119.4606449606
 20
176.9087259632
 30
0.0
 10
119.3913131702
 20
176.8533526788
 30
0.0
 10
119.3713653367
 20
176.8043892591
 30
0.0
 10
119.3713653367
 20
176.7831711644
 30
0.0
  0
SPLINE
  5
352
100
AcDbEntity
  8
0
100
AcDbSpline
 62
7
  6
CONTINUOUS
 70
0
 71
3
 72
13
 73
9
 74
0
 42
0.0000001
 43
0.0000001
 44
0.0000000001
 40
0.0
 40
0.0
 40
0.0
 40
0.0
 40
0.3573354192
 40
0.6408127533
 40
0.7533577508
 40
0.847830061
 40
0.9278702904
 40
1.0
 40
1.0
 40
1.0
 40
1.0
 10
123.6163653367
 20
176.6368402261
 30
0.0
 10
123.5418146739
 20
176.6238306313
 30
0.0
 10
123.40918185
 20
176.5941059249
 30
0.0
 10
123.2588708076
 20
176.536896418
 30
0.0
 10
123.1709188849
 20
176.4808777822
 30
0.0
 10
123.1261335572
 20
176.4390705444
 30
0.0
 10
123.0979539353
 20
176.3941449461
 30
0.0
 10
123.0913653367
 20
176.3616620728
 30
0.0
 10
123.0913653367
 20
176.3463862843
 30
0.0
  0
SPLINE
  5
353
100
AcDbEntity
  8
0
100
AcDbSpline
 62
7
  6
CONTINUOUS
 70
0
 71
3
 72
10
 73
6
 74
0
 42
0.0000001
 43
0.0000001
 44
0.0000000001
 40
0.0
 40
0.0
 40
0.0
 40
0.0
 40
0.63455643
 40
0.8644680133
 40
1.0
 40
1.0
 40
1.0
 40
1.0
 10
123.1663653367
 20
177.7281133277
 30
0.0
 10
123.8919260557
 20
177.7281133277
 30
0.0
 10
124.8809362329
 20
177.7642683482
 30
0.0
 10
126.0200751534
 20
177.8636164525
 30
0.0
 10
126.4355276958
 20
177.9087105404
 30
0.0
 10
126.5893507983
 20
177.9275227174
 30
0.0
  0
SPLINE
  5
354
100
AcDbEntity
  8
0
100
AcDbSpline
 62
7
  6
CONTINUOUS
 70
0
 71
3
 72
14
 73
10
 74
0
 42
0.0000001
 43
0.0000001
 44
0.0000000001
 40
0.0
 40
0.0
 40
0.0
 40
0.0
 40
0.435763924
 40
0.6076418169
 40
0.7485246772
 40
0.8582095559
 40
0.9366594015
 40
0.9838884312
 40
1.0
 40
1.0
 40
1.0
 40
1.0
 10
126.5893507983
 20
177.9275227174
 30
0.0
 10
126.6041893389
 20
177.9293374335
 30
0.0
 10
126.6249012503
 20
177.9318888697
 30
0.0
 10
126.6503147273
 20
177.9352003849
 30
0.0
 10
126.6647955573
 20
177.9370295733
 30
0.0
 10
126.6756844131
 20
177.9387469082
 30
0.0
 10
126.6843408045
 20
177.9394890859
 30
0.0
 10
126.6879694774
 20
177.9409992693
 30
0.0
 10
126.6913315038
 20
177.9406573066
 30
0.0
 10
126.691331243
 20
177.9412100219
 30
0.0
  0
SPLINE
  5
355
100
AcDbEntity
  8
0
100
AcDbSpline
 62
7
  6
CONTINUOUS
 70
0
 71
3
 72
21
 73
17
 74
0
 42
0.0000001
 43
0.0000001
 44
0.0000000001
 40
0.0
 40
0.0
 40
0.0
 40
0.0
 40
0.0265380712
 40
0.0612539225
 40
0.1080595159
 40
0.1676600226
 40
0.2390484278
 40
0.3201957587
 40
0.4999930684
 40
0.679793821
 40
0.7609422732
 40
0.8323330264
 40
0.8919390007
 40
0.9387460042
 40
0.9734618435
 40
1.0
 40
1.0
 40
1.0
 40
1.0
 10
119.3713653367
 20
176.2630866414
 30
0.0
 10
119.3713653367
 20
176.284628861
 30
0.0
 10
119.3910771417
 20
176.3341963789
 30
0.0
 10
119.460338269
 20
176.3907458377
 30
0.0
 10
119.5637955789
 20
176.4409465005
 30
0.0
 10
119.7019750237
 20
176.483995797
 30
0.0
 10
119.8707151641
 20
176.5191489548
 30
0.0
 10
120.1383003839
 20
176.5548731056
 30
0.0
 10
120.4963512267
 20
176.5711351928
 30
0.0
 10
120.8544028292
 20
176.5548747132
 30
0.0
 10
121.1219942652
 20
176.5191538872
 30
0.0
 10
121.2907411848
 20
176.4839978378
 30
0.0
 10
121.4289286665
 20
176.4409495086
 30
0.0
 10
121.5323917692
 20
176.3907472613
 30
0.0
 10
121.601652932
 20
176.3341962444
 30
0.0
 10
121.6213653367
 20
176.2846289303
 30
0.0
 10
121.6213653367
 20
176.2630866414
 30
0.0
  0
SPLINE
  5
356
100
AcDbEntity
  8
0
100
AcDbSpline
 62
7
  6
CONTINUOUS
 70
0
 71
3
 72
9
 73
5
 74
0
 42
0.0000001
 43
0.0000001
 44
0.0000000001
 40
0.0
 40
0.0
 40
0.0
 40
0.0
 40
0.6994504372
 40
1.0
 40
1.0
 40
1.0
 40
1.0
 10
160.6394057098
 20
177.93281798
 30
0.0
 10
160.6339497207
 20
177.9319253986
 30
0.0
 10
160.6272585569
 20
177.9309342247
 30
0.0
 10
160.6179028366
 20
177.9266244133
 30
0.0
 10
160.6178993466
 20
177.9242488453
 30
0.0
  0
SPLINE
  5
357
100
AcDbEntity
  8
0
100
AcDbSpline
 62
7
  6
CONTINUOUS
 70
0
 71
3
 72
13
 73
9
 74
0
 42
0.0000001
 43
0.0000001
 44
0.0000000001
 40
0.0
 40
0.0
 40
0.0
 40
0.0
 40
0.075871499
 40
0.2879349312
 40
0.4999983634
 40
0.7120617956
 40
0.9241252278
 40
1.0
 40
1.0
 40
1.0
 40
1.0
 10
118.7572753093
 20
68.8161714998
 30
0.0
 10
118.8813733455
 20
68.9284839235
 30
0.0
 10
119.396092451
 20
69.3322891451
 30
0.0
 10
120.5497954297
 20
69.8566970939
 30
0.0
 10
122.2813653367
 20
70.0910036718
 30
0.0
 10
124.0129352437
 20
69.8566970939
 30
0.0
 10
125.1666457751
 20
69.332285712
 30
0.0
 10
125.6813690305
 20
68.9284747424
 30
0.0
 10
125.8054714256
 20
68.8161569635
 30
0.0
  0
ELLIPSE
  5
358
100
AcDbEntity
  8
KONSTRUKTIONSELEMENTE
100
AcDbEllipse
 62
7
  6
CONTINUOUS
 10
120.0813653367
 20
139.2799069804
 30
0.0
 11
0.0
 21
8.3546604395
 31
0.0
 40
0.9575493891
 41
1.5707963268
 42
1.9174593082
  0
ELLIPSE
  5
359
100
AcDbEntity
  8
0
100
AcDbEllipse
 62
7
  6
CONTINUOUS
 10
159.232676346
 20
147.4413175249
 30
0.0
 11
65.412773124
 21
0.0
 31
0.0
 40
0.4662697902
 41
1.639852305
 42
1.749033634
  0
ELLIPSE
  5
35A
100
AcDbEntity
  8
0
100
AcDbEllipse
 62
7
  6
CONTINUOUS
 10
159.232676346
 20
147.4413175249
 30
0.0
 11
65.412773124
 21
-0.0
 31
0.0
 40
0.4662697902
 41
1.6251673856
 42
1.6335867809
  0
ELLIPSE
  5
35B
100
AcDbEntity
  8
0
100
AcDbEllipse
 62
7
  6
CONTINUOUS
 10
151.504675813
 20
147.4413175249
 30
0.0
 11
57.1063834429
 21
-0.0
 31
0.0
 40
0.5340909047
 41
1.4774641752
 42
1.5144550601
  0
ELLIPSE
  5
35C
100
AcDbEntity
  8
0
100
AcDbEllipse
 62
7
  6
CONTINUOUS
 10
147.7527607042
 20
147.4413175249
 30
0.0
 11
0.0
 21
30.5
 31
0.0
 40
0.3404254913
 41
-0.3264217
 42
-0.3070134777
  0
ELLIPSE
  5
35D
100
AcDbEntity
  8
0
100
AcDbEllipse
 62
7
  6
CONTINUOUS
 10
144.423399399
 20
147.4413175249
 30
0.0
 11
0.0
 21
30.5
 31
0.0
 40
0.6808509827
 41
-0.3459583066
 42
-0.3264217
  0
ELLIPSE
  5
35E
100
AcDbEntity
  8
0
100
AcDbEllipse
 62
7
  6
CONTINUOUS
 10
140.902550014
 20
147.4413175249
 30
0.0
 11
31.1489287437
 21
-0.0
 31
0.0
 40
0.9791669001
 41
1.2117372781
 42
1.2248380202
  0
ELLIPSE
  5
35F
100
AcDbEntity
  8
0
100
AcDbEllipse
 62
7
  6
CONTINUOUS
 10
119.0114642374
 20
147.4413175249
 30
0.0
 11
93.446863281
 21
-0.0
 31
0.0
 40
0.3263886976
 41
1.2051628339
 42
1.2117372781
  0
ELLIPSE
  5
360
100
AcDbEntity
  8
0
100
AcDbEllipse
 62
7
  6
CONTINUOUS
 10
186.4080834791
 20
147.4413175249
 30
0.0
 11
93.4468196504
 21
0.0
 31
0.0
 40
0.32638885
 41
1.9298553755
 42
1.9364298197
  0
ELLIPSE
  5
361
100
AcDbEntity
  8
0
100
AcDbEllipse
 62
7
  6
CONTINUOUS
 10
169.9897815423
 20
147.4413175249
 30
0.0
 11
46.7234040232
 21
0.0
 31
0.0
 40
0.652777781
 41
1.9167546334
 42
1.9298553755
  0
ELLIPSE
  5
362
100
AcDbEntity
  8
0
100
AcDbEllipse
 62
7
  6
CONTINUOUS
 10
161.187653122
 20
147.4413175249
 30
0.0
 11
-0.0
 21
30.5
 31
0.0
 40
0.6808509827
 41
0.3264217
 42
0.3459583066
  0
ELLIPSE
  5
363
100
AcDbEntity
  8
0
100
AcDbEllipse
 62
7
  6
CONTINUOUS
 10
157.8582918168
 20
147.4413175249
 30
0.0
 11
0.0
 21
30.5
 31
0.0
 40
0.3404254913
 41
0.3070134777
 42
0.3264217
  0
ELLIPSE
  5
364
100
AcDbEntity
  8
0
100
AcDbEllipse
 62
7
  6
CONTINUOUS
 10
165.7119010713
 20
147.4413175249
 30
0.0
 11
77.87229401
 21
0.0
 31
0.0
 40
0.3916669001
 41
1.7447876253
 42
1.7572852462
  0
ELLIPSE
  5
365
100
AcDbEntity
  8
0
100
AcDbEllipse
 62
7
  6
CONTINUOUS
 10
139.7076600884
 20
147.4413175249
 30
0.0
 11
77.8723049177
 21
-0.0
 31
0.0
 40
0.3916668453
 41
1.3843074074
 42
1.3968050282
  0
ELLIPSE
  5
366
100
AcDbEntity
  8
0
100
AcDbEllipse
 62
7
  6
CONTINUOUS
 10
146.4455263022
 20
147.4413175249
 30
0.0
 11
41.5319135785
 21
-0.0
 31
0.0
 40
0.7343750233
 41
1.3655049112
 42
1.3843074074
  0
ELLIPSE
  5
367
100
AcDbEntity
  8
0
100
AcDbEllipse
 62
7
  6
CONTINUOUS
 10
151.1020354736
 20
147.4413175249
 30
0.0
 11
-0.0
 21
30.5
 31
0.0
 40
0.6127661718
 41
-0.2367969395
 42
-0.2052914156
  0
ELLIPSE
  5
368
100
AcDbEntity
  8
0
100
AcDbEllipse
 62
7
  6
CONTINUOUS
 10
154.0249308763
 20
147.4413175249
 30
0.0
 11
0.0
 21
30.5
 31
0.0
 40
0.2042552737
 41
-0.2685439635
 42
-0.2367969395
  0
ELLIPSE
  5
369
100
AcDbEntity
  8
0
100
AcDbEllipse
 62
7
  6
CONTINUOUS
 10
148.3691006994
 20
147.4413175249
 30
0.0
 11
0.0
 21
30.5
 31
0.0
 40
0.2042553143
 41
0.2431258436
 42
0.2749256842
  0
ELLIPSE
  5
36A
100
AcDbEntity
  8
0
100
AcDbEllipse
 62
7
  6
CONTINUOUS
 10
151.3685887754
 20
147.4413175249
 30
0.0
 11
-0.0
 21
30.5
 31
0.0
 40
0.6127657675
 41
0.2115749598
 42
0.2431258436
  0
ELLIPSE
  5
36B
100
AcDbEntity
  8
0
100
AcDbEllipse
 62
7
  6
CONTINUOUS
 10
156.1655251223
 20
147.4413175249
 30
0.0
 11
41.5319099426
 21
-0.0
 31
0.0
 40
0.7343750875
 41
1.76354499
 42
1.7823712866
  0
ELLIPSE
  5
36C
100
AcDbEntity
  8
0
100
AcDbEllipse
 62
7
  6
CONTINUOUS
 10
166.1102218591
 20
147.4413175249
 30
0.0
 11
93.4468864888
 21
0.0
 31
0.0
 40
0.3263886165
 41
1.7572852462
 42
1.76354499
  0
ELLIPSE
  5
36D
100
AcDbEntity
  8
0
100
AcDbEllipse
 62
7
  6
CONTINUOUS
 10
144.4974414069
 20
147.4413175249
 30
0.0
 11
0.0
 21
30.5
 31
0.0
 40
0.3404254913
 41
-0.3264217
 42
-0.3070134777
  0
ELLIPSE
  5
36E
100
AcDbEntity
  8
0
100
AcDbEllipse
 62
7
  6
CONTINUOUS
 10
141.1680801017
 20
147.4413175249
 30
0.0
 11
0.0
 21
30.5
 31
0.0
 40
0.6808509827
 41
-0.3459583066
 42
-0.3264217
  0
ELLIPSE
  5
36F
100
AcDbEntity
  8
0
100
AcDbEllipse
 62
7
  6
CONTINUOUS
 10
132.3659553801
 20
147.4413175249
 30
0.0
 11
46.7233931156
 21
0.0
 31
0.0
 40
0.6527779334
 41
1.2117372781
 42
1.2248380202
  0
ELLIPSE
  5
370
100
AcDbEntity
  8
0
100
AcDbEllipse
 62
7
  6
CONTINUOUS
 10
115.9476189474
 20
147.4413175249
 30
0.0
 11
93.4469069116
 21
-0.0
 31
0.0
 40
0.3263885452
 41
1.2051628339
 42
1.2117372781
  0
ELLIPSE
  5
371
100
AcDbEntity
  8
0
100
AcDbEllipse
 62
7
  6
CONTINUOUS
 10
82.5366062316
 20
147.4413175249
 30
0.0
 11
186.8935724624
 21
-0.0
 31
0.0
 40
0.1631944834
 41
1.1985717972
 42
1.2051628339
  0
ELLIPSE
  5
372
100
AcDbEntity
  8
0
100
AcDbEllipse
 62
7
  6
CONTINUOUS
 10
151.5861216341
 20
147.4413175249
 30
0.0
 11
-0.0
 21
30.5
 31
0.0
 40
0.2042552558
 41
0.2367969395
 42
0.2685439635
  0
ELLIPSE
  5
373
100
AcDbEntity
  8
0
100
AcDbEllipse
 62
7
  6
CONTINUOUS
 10
154.5090167809
 20
147.4413175249
 30
0.0
 11
0.0
 21
30.5
 31
0.0
 40
0.6127661182
 41
0.2052914156
 42
0.2367969395
  0
ELLIPSE
  5
374
100
AcDbEntity
  8
0
100
AcDbEllipse
 62
7
  6
CONTINUOUS
 10
157.0489299914
 20
147.4413175249
 30
0.0
 11
31.148932457
 21
0.0
 31
0.0
 40
0.9791667834
 41
1.7572852462
 42
1.7760877424
  0
ELLIPSE
  5
375
100
AcDbEntity
  8
KONSTRUKTIONSELEMENTE
100
AcDbEllipse
 62
7
  6
CONTINUOUS
 10
164.0813653367
 20
143.6457421027
 30
0.0
 11
-0.0
 21
15.7569240482
 31
0.0
 40
0.5077133059
 41
-2.2752468806
 42
-2.0456662618
  0
ELLIPSE
  5
376
100
AcDbEntity
  8
KONSTRUKTIONSELEMENTE
100
AcDbEllipse
 62
7
  6
CONTINUOUS
 10
164.0813653367
 20
139.2799069804
 30
0.0
 11
0.0
 21
8.3546604395
 31
0.0
 40
0.9575493891
 41
-1.9174593082
 42
-1.5707963268
  0
ELLIPSE
  5
377
100
AcDbEntity
  8
KONSTRUKTIONSELEMENTE
100
AcDbEllipse
 62
7
  6
CONTINUOUS
 10
120.0813653367
 20
143.6457421027
 30
0.0
 11
0.0
 21
15.7569240482
 31
0.0
 40
0.5077133059
 41
-4.2375190454
 42
-4.0079384265
  0
ELLIPSE
  5
378
100
AcDbEntity
  8
0
100
AcDbEllipse
 62
7
  6
CONTINUOUS
 10
134.4840841685
 20
147.4413175249
 30
0.0
 11
52.8275496308
 21
0.0
 31
0.0
 40
0.5773502692
 41
1.718849014
 42
1.7939821224
  0
ELLIPSE
  5
379
100
AcDbEntity
  8
0
100
AcDbEllipse
 62
7
  6
CONTINUOUS
 10
178.3729778979
 20
147.4413175249
 30
0.0
 11
91.2218876386
 21
0.0
 31
0.0
 40
0.334349582
 41
2.0147444417
 42
2.1124734727
  0
ELLIPSE
  5
37A
100
AcDbEntity
  8
0
100
AcDbEllipse
 62
7
  6
CONTINUOUS
 10
103.2913631283
 20
147.4413175249
 30
0.0
 11
91.5000054538
 21
-0.0
 31
0.0
 40
0.3333333135
 41
1.153907143
 42
1.2592221672
  0
ELLIPSE
  5
37B
100
AcDbEntity
  8
0
100
AcDbEllipse
 62
7
  6
CONTINUOUS
 10
152.0293550887
 20
147.4413175249
 30
0.0
 11
0.0
 21
30.5
 31
0.0
 40
0.3404256537
 41
-0.262173431
 42
-0.2431258436
  0
ELLIPSE
  5
37C
100
AcDbEntity
  8
0
100
AcDbEllipse
 62
7
  6
CONTINUOUS
 10
149.7493529402
 20
147.4413175249
 30
0.0
 11
56.1702400066
 21
-0.0
 31
0.0
 40
0.5340906501
 41
1.4444605322
 42
1.4810841021
  0
ELLIPSE
  5
37D
100
AcDbEntity
  8
0
100
AcDbEllipse
 62
7
  6
CONTINUOUS
 10
149.5297820496
 20
147.4413175249
 30
0.0
 11
-0.0
 21
30.5
 31
0.0
 40
0.6808509827
 41
-0.2431258436
 42
-0.2241678272
  0
ELLIPSE
  5
37E
100
AcDbEntity
  8
0
100
AcDbEllipse
 62
7
  6
CONTINUOUS
 10
143.7595723472
 20
147.4413175249
 30
0.0
 11
46.7233873137
 21
-0.0
 31
0.0
 40
0.6527780145
 41
1.3466284996
 42
1.359221367
  0
ELLIPSE
  5
37F
100
AcDbEntity
  8
0
100
AcDbEllipse
 62
7
  6
CONTINUOUS
 10
133.9476375204
 20
147.4413175249
 30
0.0
 11
93.4468864888
 21
-0.0
 31
0.0
 40
0.3263886165
 41
1.359221367
 42
1.3655049112
  0
ELLIPSE
  5
380
100
AcDbEntity
  8
0
100
AcDbEllipse
 62
7
  6
CONTINUOUS
 10
171.47193469
 20
147.4413175249
 30
0.0
 11
93.4469301194
 21
-0.0
 31
0.0
 40
0.3263884641
 41
1.7760877424
 42
1.7823712866
  0
ELLIPSE
  5
381
100
AcDbEntity
  8
0
100
AcDbEllipse
 62
7
  6
CONTINUOUS
 10
138.9008137278
 20
147.4413175249
 30
0.0
 11
51.9615242271
 21
0.0
 31
0.0
 40
0.5773502692
 41
1.8079850017
 42
1.8693616945
  0
ELLIPSE
  5
382
100
AcDbEntity
  8
0
100
AcDbEllipse
 62
7
  6
CONTINUOUS
 10
157.5222920462
 20
147.4413175249
 30
0.0
 11
0.0
 21
30.5
 31
0.0
 40
0.2042553029
 41
0.3005709113
 42
0.3329191435
  0
ELLIPSE
  5
383
100
AcDbEntity
  8
0
100
AcDbEllipse
 62
7
  6
CONTINUOUS
 10
161.5941214921
 20
147.4413175249
 30
0.0
 11
0.0
 21
30.5
 31
0.0
 40
0.6127659088
 41
0.3329191435
 42
0.3656334929
  0
ELLIPSE
  5
384
100
AcDbEntity
  8
0
100
AcDbEllipse
 62
7
  6
CONTINUOUS
 10
169.7612704883
 20
147.4413175249
 30
0.0
 11
41.5319135785
 21
0.0
 31
0.0
 40
0.7343750233
 41
1.9364298197
 42
1.9562543651
  0
ELLIPSE
  5
385
100
AcDbEntity
  8
0
100
AcDbEllipse
 62
7
  6
CONTINUOUS
 10
169.0813653367
 20
145.3559061776
 30
0.0
 11
0.0
 21
3.4593042348
 31
0.0
 40
0.8672264121
 41
-1.5707963268
 42
0.0
  0
ELLIPSE
  5
386
100
AcDbEntity
  8
0
100
AcDbEllipse
 62
7
  6
CONTINUOUS
 10
183.4246762851
 20
147.4413175249
 30
0.0
 11
77.8723432105
 21
0.0
 31
0.0
 40
0.3916666527
 41
1.9562543651
 42
1.9695593226
  0
ELLIPSE
  5
387
100
AcDbEntity
  8
0
100
AcDbEllipse
 62
7
  6
CONTINUOUS
 10
237.8497858864
 20
147.4413175249
 30
0.0
 11
218.0425643312
 21
0.0
 31
0.0
 40
0.1398809452
 41
1.9695593226
 42
1.9762397027
  0
ELLIPSE
  5
388
100
AcDbEntity
  8
0
100
AcDbEllipse
 62
7
  6
CONTINUOUS
 10
64.5059646804
 20
147.4413175249
 30
0.0
 11
218.0425207006
 21
-0.0
 31
0.0
 40
0.1398809732
 41
1.1653529509
 42
1.172033331
  0
ELLIPSE
  5
389
100
AcDbEntity
  8
0
100
AcDbEllipse
 62
7
  6
CONTINUOUS
 10
118.9310446353
 20
147.4413175249
 30
0.0
 11
77.8723759334
 21
0.0
 31
0.0
 40
0.3916664881
 41
1.172033331
 42
1.1853382884
  0
ELLIPSE
  5
38A
100
AcDbEntity
  8
0
100
AcDbEllipse
 62
7
  6
CONTINUOUS
 10
132.5944641024
 20
147.4413175249
 30
0.0
 11
41.5319099426
 21
-0.0
 31
0.0
 40
0.7343750875
 41
1.1853382884
 42
1.2051628339
  0
ELLIPSE
  5
38B
100
AcDbEntity
  8
0
100
AcDbEllipse
 62
7
  6
CONTINUOUS
 10
140.7616123837
 20
147.4413175249
 30
0.0
 11
0.0
 21
30.5
 31
0.0
 40
0.6127658552
 41
-0.3656334929
 42
-0.3329191435
  0
ELLIPSE
  5
38C
100
AcDbEntity
  8
0
100
AcDbEllipse
 62
7
  6
CONTINUOUS
 10
144.8334414731
 20
147.4413175249
 30
0.0
 11
0.0
 21
30.5
 31
0.0
 40
0.2042552851
 41
-0.3329191435
 42
-0.3005709113
  0
ELLIPSE
  5
38D
100
AcDbEntity
  8
0
100
AcDbEllipse
 62
7
  6
CONTINUOUS
 10
115.0813653367
 20
145.3559061776
 30
0.0
 11
0.0
 21
3.4593042348
 31
0.0
 40
0.8672264121
 41
0.0
 42
1.5707963268
  0
ELLIPSE
  5
38E
100
AcDbEntity
  8
0
100
AcDbEllipse
 62
7
  6
CONTINUOUS
 10
100.0118804407
 20
147.4413175249
 30
0.0
 11
89.7264468577
 21
0.0
 31
0.0
 40
0.334349582
 41
1.1401844286
 42
1.21411467
  0
ELLIPSE
  5
38F
100
AcDbEntity
  8
0
100
AcDbEllipse
 62
7
  6
CONTINUOUS
 10
158.8833920492
 20
147.4413175249
 30
0.0
 11
46.723376406
 21
0.0
 31
0.0
 40
0.6527781669
 41
1.7886633229
 42
1.8012740319
  0
ELLIPSE
  5
390
100
AcDbEntity
  8
0
100
AcDbEllipse
 62
7
  6
CONTINUOUS
 10
152.9536106116
 20
147.4413175249
 30
0.0
 11
-0.0
 21
30.5
 31
0.0
 40
0.6808509827
 41
0.2304777051
 42
0.2494646803
  0
ELLIPSE
  5
391
100
AcDbEntity
  8
0
100
AcDbEllipse
 62
7
  6
CONTINUOUS
 10
150.3902066619
 20
147.4413175249
 30
0.0
 11
0.0
 21
30.5
 31
0.0
 40
0.3404254913
 41
0.2494646803
 42
0.2685439635
  0
ELLIPSE
  5
392
100
AcDbEntity
  8
0
100
AcDbEllipse
 62
7
  6
CONTINUOUS
 10
148.0887607704
 20
147.4413175249
 30
0.0
 11
-0.0
 21
30.0
 31
0.0
 40
0.2042552851
 41
-0.3237673075
 42
-0.3057411088
  0
ELLIPSE
  5
393
100
AcDbEntity
  8
0
100
AcDbEllipse
 62
7
  6
CONTINUOUS
 10
181.8913638302
 20
147.4413175249
 30
0.0
 11
89.9999973178
 21
0.0
 31
0.0
 40
0.3333333433
 41
2.0506694849
 42
2.1671951833
  0
ELLIPSE
  5
394
100
AcDbEntity
  8
0
100
AcDbEllipse
 62
7
  6
CONTINUOUS
 10
149.7493529402
 20
147.4413175249
 30
0.0
 11
57.1064106733
 21
-0.0
 31
0.0
 40
0.5340906501
 41
1.4465424265
 42
1.4836368214
  0
ELLIPSE
  5
395
100
AcDbEntity
  8
0
100
AcDbEllipse
 62
7
  6
CONTINUOUS
 10
158.3893520618
 20
147.4413175249
 30
0.0
 11
31.148917604
 21
-0.0
 31
0.0
 40
0.9791672503
 41
1.7823712866
 42
1.794964154
  0
ELLIPSE
  5
396
100
AcDbEntity
  8
0
100
AcDbEllipse
 62
7
  6
CONTINUOUS
 10
150.3902066619
 20
147.4413175249
 30
0.0
 11
0.0
 21
30.0
 31
0.0
 40
0.3404254913
 41
0.2537131886
 42
0.2623747442
  0
ELLIPSE
  5
397
100
AcDbEntity
  8
0
100
AcDbEllipse
 62
7
  6
CONTINUOUS
 10
152.9536106116
 20
147.4413175249
 30
0.0
 11
-0.0
 21
30.0
 31
0.0
 40
0.6808509827
 41
0.2343902997
 42
0.2537131886
  0
ELLIPSE
  5
398
100
AcDbEntity
  8
0
100
AcDbEllipse
 62
7
  6
CONTINUOUS
 10
158.8833920492
 20
147.4413175249
 30
0.0
 11
45.9574194158
 21
0.0
 31
0.0
 40
0.6527781669
 41
1.7923545197
 42
1.8051866265
  0
ELLIPSE
  5
399
100
AcDbEntity
  8
0
100
AcDbEllipse
 62
7
  6
CONTINUOUS
 10
143.3382935803
 20
147.4413175249
 30
0.0
 11
-0.0
 21
30.5
 31
0.0
 40
0.6808509421
 41
-0.3722245296
 42
-0.3329191435
  0
ELLIPSE
  5
39A
100
AcDbEntity
  8
0
100
AcDbEllipse
 62
7
  6
CONTINUOUS
 10
148.0887607704
 20
147.4413175249
 30
0.0
 11
0.0
 21
30.5
 31
0.0
 40
0.2042552851
 41
-0.3329191435
 42
-0.3005709113
  0
ELLIPSE
  5
39B
100
AcDbEntity
  8
0
100
AcDbEllipse
 62
7
  6
CONTINUOUS
 10
156.0812704714
 20
147.4413175249
 30
0.0
 11
-0.0
 21
30.5
 31
0.0
 40
0.6808509827
 41
0.2241678272
 42
0.2431258436
  0
ELLIPSE
  5
39C
100
AcDbEntity
  8
0
100
AcDbEllipse
 62
7
  6
CONTINUOUS
 10
153.5816974323
 20
147.4413175249
 30
0.0
 11
-0.0
 21
30.5
 31
0.0
 40
0.3404256537
 41
0.2431258436
 42
0.262173431
  0
ELLIPSE
  5
39D
100
AcDbEntity
  8
0
100
AcDbEllipse
 62
7
  6
CONTINUOUS
 10
144.8334414731
 20
147.4413175249
 30
0.0
 11
-0.0
 21
30.0
 31
0.0
 40
0.2042552851
 41
-0.3386880924
 42
-0.3057411088
  0
ELLIPSE
  5
39E
100
AcDbEntity
  8
0
100
AcDbEllipse
 62
7
  6
CONTINUOUS
 10
138.9008137278
 20
147.4413175249
 30
0.0
 11
52.8275496308
 21
-0.0
 31
0.0
 40
0.5773502692
 41
1.8040239524
 42
1.8643202558
  0
ELLIPSE
  5
39F
100
AcDbEntity
  8
0
100
AcDbEllipse
 62
7
  6
CONTINUOUS
 10
140.7616123837
 20
147.4413175249
 30
0.0
 11
0.0
 21
30.0
 31
0.0
 40
0.6127658552
 41
-0.3720221531
 42
-0.3386880924
  0
ELLIPSE
  5
3A0
100
AcDbEntity
  8
0
100
AcDbEllipse
 62
7
  6
CONTINUOUS
 10
132.5944641024
 20
147.4413175249
 30
0.0
 11
40.85105896
 21
-0.0
 31
0.0
 40
0.7343750875
 41
1.1785663434
 42
1.1987741737
  0
ELLIPSE
  5
3A1
100
AcDbEntity
  8
0
100
AcDbEllipse
 62
7
  6
CONTINUOUS
 10
118.9310446353
 20
147.4413175249
 30
0.0
 11
76.5957796066
 21
-0.0
 31
0.0
 40
0.3916664881
 41
1.1650005893
 42
1.1785663434
  0
ELLIPSE
  5
3A2
100
AcDbEntity
  8
0
100
AcDbEllipse
 62
7
  6
CONTINUOUS
 10
64.5059646804
 20
147.4413175249
 30
0.0
 11
214.4680531481
 21
-0.0
 31
0.0
 40
0.1398809732
 41
1.1581881312
 42
1.1650005893
  0
ELLIPSE
  5
3A3
100
AcDbEntity
  8
0
100
AcDbEllipse
 62
7
  6
CONTINUOUS
 10
181.8913638302
 20
147.4413175249
 30
0.0
 11
91.4999972731
 21
0.0
 31
0.0
 40
0.3333333433
 41
2.0421562804
 42
2.1561077783
  0
ELLIPSE
  5
3A4
100
AcDbEntity
  8
0
100
AcDbEllipse
 62
7
  6
CONTINUOUS
 10
237.8497858864
 20
147.4413175249
 30
0.0
 11
214.4680960635
 21
0.0
 31
0.0
 40
0.1398809452
 41
1.9765920643
 42
1.9834045224
  0
ELLIPSE
  5
3A5
100
AcDbEntity
  8
0
100
AcDbEllipse
 62
7
  6
CONTINUOUS
 10
183.4246762851
 20
147.4413175249
 30
0.0
 11
76.5957474201
 21
0.0
 31
0.0
 40
0.3916666527
 41
1.9630263102
 42
1.9765920643
  0
ELLIPSE
  5
3A6
100
AcDbEntity
  8
0
100
AcDbEllipse
 62
7
  6
CONTINUOUS
 10
169.7612704883
 20
147.4413175249
 30
0.0
 11
40.8510625362
 21
0.0
 31
0.0
 40
0.7343750233
 41
1.9428184799
 42
1.9630263102
  0
ELLIPSE
  5
3A7
100
AcDbEntity
  8
0
100
AcDbEllipse
 62
7
  6
CONTINUOUS
 10
161.5941214921
 20
147.4413175249
 30
0.0
 11
0.0
 21
30.0
 31
0.0
 40
0.6127659088
 41
0.3386880924
 42
0.3720221531
  0
ELLIPSE
  5
3A8
100
AcDbEntity
  8
0
100
AcDbEllipse
 62
7
  6
CONTINUOUS
 10
157.5222920462
 20
147.4413175249
 30
0.0
 11
0.0
 21
30.0
 31
0.0
 40
0.2042553029
 41
0.3057411088
 42
0.3386880924
  0
ELLIPSE
  5
3A9
100
AcDbEntity
  8
0
100
AcDbEllipse
 62
7
  6
CONTINUOUS
 10
100.0118804407
 20
147.4413175249
 30
0.0
 11
91.2218876386
 21
-0.0
 31
0.0
 40
0.334349582
 41
1.1268482119
 42
1.2202162811
  0
ELLIPSE
  5
3AA
100
AcDbEntity
  8
0
100
AcDbEllipse
 62
7
  6
CONTINUOUS
 10
171.47193469
 20
147.4413175249
 30
0.0
 11
91.9150132322
 21
0.0
 31
0.0
 40
0.3263884641
 41
1.7795594183
 42
1.7859524967
  0
ELLIPSE
  5
3AB
100
AcDbEntity
  8
0
100
AcDbEllipse
 62
7
  6
CONTINUOUS
 10
133.9476375204
 20
147.4413175249
 30
0.0
 11
91.9149703169
 21
-0.0
 31
0.0
 40
0.3263886165
 41
1.3556401569
 42
1.3620332353
  0
ELLIPSE
  5
3AC
100
AcDbEntity
  8
0
100
AcDbEllipse
 62
7
  6
CONTINUOUS
 10
143.7595723472
 20
147.4413175249
 30
0.0
 11
45.9574301446
 21
0.0
 31
0.0
 40
0.6527780145
 41
1.3428268467
 42
1.3556401569
  0
ELLIPSE
  5
3AD
100
AcDbEntity
  8
0
100
AcDbEllipse
 62
7
  6
CONTINUOUS
 10
149.5297820496
 20
147.4413175249
 30
0.0
 11
0.0
 21
30.0
 31
0.0
 40
0.6808509827
 41
-0.2472618483
 42
-0.2279694801
  0
ELLIPSE
  5
3AE
100
AcDbEntity
  8
0
100
AcDbEllipse
 62
7
  6
CONTINUOUS
 10
152.0293550887
 20
147.4413175249
 30
0.0
 11
-0.0
 21
30.0
 31
0.0
 40
0.3404256537
 41
-0.2588108267
 42
-0.2472618483
  0
ELLIPSE
  5
3AF
100
AcDbEntity
  8
0
100
AcDbEllipse
 62
7
  6
CONTINUOUS
 10
153.5816974323
 20
147.4413175249
 30
0.0
 11
0.0
 21
30.0
 31
0.0
 40
0.3404256537
 41
0.2472618483
 42
0.2588108267
  0
ELLIPSE
  5
3B0
100
AcDbEntity
  8
0
100
AcDbEllipse
 62
7
  6
CONTINUOUS
 10
156.0812704714
 20
147.4413175249
 30
0.0
 11
-0.0
 21
30.0
 31
0.0
 40
0.6808509827
 41
0.2279694801
 42
0.2472618483
  0
ELLIPSE
  5
3B1
100
AcDbEntity
  8
0
100
AcDbEllipse
 62
7
  6
CONTINUOUS
 10
158.3893520618
 20
147.4413175249
 30
0.0
 11
30.6382796105
 21
-0.0
 31
0.0
 40
0.9791672503
 41
1.7859524967
 42
1.7987658069
  0
ELLIPSE
  5
3B2
100
AcDbEntity
  8
0
100
AcDbEllipse
 62
7
  6
CONTINUOUS
 10
115.0813653367
 20
29.3288583245
 30
0.0
 11
3.0
 21
-0.0
 31
0.0
 40
0.7553189484
 41
-3.1415926536
 42
-1.5707963268
  0
ELLIPSE
  5
3B3
100
AcDbEntity
  8
KONSTRUKTIONSELEMENTE
100
AcDbEllipse
 62
7
  6
CONTINUOUS
 10
115.0813653367
 20
85.7969446338
 30
0.0
 11
3.0
 21
0.0
 31
0.0
 40
0.7553189484
 41
1.5707963268
 42
3.1415926536
  0
ELLIPSE
  5
3B4
100
AcDbEntity
  8
KONSTRUKTIONSELEMENTE
100
AcDbEllipse
 62
7
  6
CONTINUOUS
 10
169.0813653367
 20
85.7969446338
 30
0.0
 11
3.0
 21
-0.0
 31
0.0
 40
0.7553189484
 41
0.0
 42
1.5707963268
  0
ELLIPSE
  5
3B5
100
AcDbEntity
  8
0
100
AcDbEllipse
 62
7
  6
CONTINUOUS
 10
169.0813653367
 20
29.3288583245
 30
0.0
 11
3.0
 21
-0.0
 31
0.0
 40
0.7553189484
 41
-1.5707963268
 42
0.0
  0
ENDSEC
  0
SECTION
  2
OBJECTS
  0
DICTIONARY
  5
C
100
AcDbDictionary
280
0
281
1
  3
ACAD_GROUP
350
D
  3
ACAD_MLINESTYLE
350
17
  3
ACAD_LAYOUT
350
1A
  3
ACAD_PLOTSETTINGS
350
19
  3
ACAD_PLOTSTYLENAME
350
E
  0
DICTIONARY
  5
D
102
{ACAD_REACTORS
330
C
102
}
100
AcDbDictionary
280
0
281
1
  0
ACDBDICTIONARYWDFLT
  5
E
102
{ACAD_REACTORS
330
C
102
}
100
AcDbDictionary
281
1
  3
Normal
350
F
100
AcDbDictionaryWithDefault
340
F
  0
DICTIONARY
  5
17
102
{ACAD_REACTORS
330
C
102
}
100
AcDbDictionary
280
0
281
1
  3
Standard
350
18
  0
DICTIONARY
  5
19
102
{ACAD_REACTORS
330
C
102
}
100
AcDbDictionary
281
1
  0
DICTIONARY
  5
1A
102
{ACAD_REACTORS
330
C
102
}
100
AcDbDictionary
281
1
  3
Model
350
3B6
  3
Layout1
350
3B7
  0
ACDBPLACEHOLDER
  5
F
102
{ACAD_REACTORS
330
E
102
}
  0
MLINESTYLE
  5
18
102
{ACAD_REACTORS
330
17
102
}
100
AcDbMlineStyle
  2
STANDARD
 70
0
  3

 62
256
 51
90.0
 52
90.0
 71
2
 49
0.5
 62
256
  6
BYLAYER
 49
-0.5
 62
256
  6
BYLAYER
  0
LAYOUT
  5
3B6
102
{ACAD_REACTORS
330
1A
102
}
100
AcDbPlotSettings
  1

  2
none_device
  4
ISO_A3_(420.00_x_297.00_MM)
  6

 40
0.0
 41
0.0
 42
0.0
 43
0.0
 44
420.0
 45
297.0
 46
0.0
 47
0.0
 48
0.0
 49
0.0
140
0.0
141
0.0
142
1.0
143
1.0
 70
1024
 72
1
 73
0
 74
0
  7

 75
0
147
1.0
148
0.0
149
0.0
100
AcDbLayout
  1
Model
 70
0
 71
0
 10
0.0
 20
0.0
 11
420.0
 21
297.0
 12
0.0
 22
0.0
 32
0.0
 14
0.0
 24
0.0
 34
0.0
 15
0.0
 25
0.0
 35
0.0
146
0.0
 13
0.0
 23
0.0
 33
0.0
 16
1.0
 26
0.0
 36
0.0
 17
0.0
 27
1.0
 37
0.0
 76
0
330
20E
345
0
346
0
  0
LAYOUT
  5
3B7
102
{ACAD_REACTORS
330
1A
102
}
100
AcDbPlotSettings
  1

  2
none_device
  4
ISO_A3_(420.00_x_297.00_MM)
  6

 40
0.0
 41
0.0
 42
0.0
 43
0.0
 44
420.0
 45
297.0
 46
0.0
 47
0.0
 48
0.0
 49
0.0
140
0.0
141
0.0
142
1.0
143
1.0
 70
0
 72
1
 73
0
 74
0
  7

 75
0
147
1.0
148
0.0
149
0.0
100
AcDbLayout
  1
Layout1
 70
0
 71
1
 10
0.0
 20
0.0
 11
420.0
 21
297.0
 12
0.0
 22
0.0
 32
0.0
 14
0.0
 24
0.0
 34
0.0
 15
0.0
 25
0.0
 35
0.0
146
0.0
 13
0.0
 23
0.0
 33
0.0
 16
1.0
 26
0.0
 36
0.0
 17
0.0
 27
1.0
 37
0.0
 76
0
330
20F
345
0
346
0
  0
ENDSEC
  0
EOF
