999
DXF file: 001-m32119-p4.dxf
999
Pro/ENGINEER 2011490 by Parametric Technology Corporation
  0
SECTION
  2
HEADER
  9
$ACADVER
  1
AC1015
  9
$DWGCODEPAGE
  3
ANSI_1252
  9
$EXTMAX
 10
420.0
 20
297.0
 30
0.0
  9
$EXTMIN
 10
0.0
 20
0.0
 30
0.0
  9
$LIMMIN
 10
0.0
 20
0.0
  9
$LIMMAX
 10
420.0
 20
297.0
  9
$VIEWCTR
 10
210.0
 20
148.5
  9
$VIEWSIZE
 40
297.0
  9
$CLAYER
  8
0
  9
$LTSCALE
 40
23.1
  9
$CELTYPE
  6
BYLAYER
  9
$DIMSCALE
 40
1.0
  9
$DIMASZ
 40
3.5
  9
$DIMEXO
 40
2.625
  9
$DIMDLI
 40
15.96
  9
$DIMEXE
 40
7.56
  9
$DIMCEN
 40
3.78
  9
$DIMLFAC
 40
1.0
  9
$DIMBLK
  1
_FILLED
  9
$DIMTXT
 40
3.5
  9
$DIMTOL
 70
1
  9
$DIMLIM
 70
0
  9
$DIMTFAC
 40
1.0
  9
$DIMTP
 40
0.005
  9
$DIMTM
 40
0.005
  9
$PDMODE
 70
3
  9
$PDSIZE
 40
0.3125
  9
$HANDSEED
  5
340
  9
$TILEMODE
 70
1
  9
$MEASUREMENT
 70
1
  9
$INSUNITS
 70
4
  0
ENDSEC
  0
SECTION
  2
CLASSES
  0
CLASS
  1
ACDBDICTIONARYWDFLT
  2
AcDbDictionaryWithDefault
  3
AutoCAD 2000
 90
0
280
0
281
0
  0
CLASS
  1
ACDBPLACEHOLDER
  2
AcDbPlaceHolder
  3
AutoCAD 2000
 90
0
280
0
281
0
  0
CLASS
  1
LAYOUT
  2
AcDbLayout
  3
AutoCAD 2000
 90
0
280
0
281
0
  0
ENDSEC
  0
SECTION
  2
TABLES
  0
TABLE
  2
VPORT
  5
8
100
AcDbSymbolTable
 70
2
  0
VPORT
  5
1F4
100
AcDbSymbolTableRecord
100
AcDbViewportTableRecord
  2
*ACTIVE
 70
0
 10
0.0
 20
0.0
 11
1.0
 21
1.0
 12
210.0
 22
148.5
 13
0.0
 23
0.0
 14
1.0
 24
1.0
 15
0.0
 25
0.0
 16
0.0
 26
0.0
 36
1.0
 17
0.0
 27
0.0
 37
0.0
 40
297.0
 41
1.4141414141
 42
50.0
 43
0.0
 44
0.0
 50
0.0
 51
0.0
 71
0
 72
100
 73
1
 74
1
 75
0
 76
0
 77
0
 78
0
  0
ENDTAB
  0
TABLE
  2
LTYPE
  5
5
100
AcDbSymbolTable
 70
6
  0
LTYPE
  5
14
100
AcDbSymbolTableRecord
100
AcDbLinetypeTableRecord
  2
BYBLOCK
 70
0
  3

 72
65
 73
0
 40
0.0
  0
LTYPE
  5
15
100
AcDbSymbolTableRecord
100
AcDbLinetypeTableRecord
  2
BYLAYER
 70
0
  3

 72
65
 73
0
 40
0.0
  0
LTYPE
  5
16
100
AcDbSymbolTableRecord
100
AcDbLinetypeTableRecord
  2
CONTINUOUS
 70
64
  3
Solid line
 72
65
 73
0
 40
0.0
  0
LTYPE
  5
1F5
100
AcDbSymbolTableRecord
100
AcDbLinetypeTableRecord
  2
CENTER
 70
64
  3
____ _ ____ _ ____ _ ____ _ ____ _ ____ _ ____
 72
65
 73
4
 40
0.6
 49
0.375
 74
0
 49
-0.075
 74
0
 49
0.075
 74
0
 49
-0.075
 74
0
  0
LTYPE
  5
1F6
100
AcDbSymbolTableRecord
100
AcDbLinetypeTableRecord
  2
HIDDEN
 70
64
  3
- - - - - - - - - - - - - - - - - - - -
 72
65
 73
2
 40
0.2
 49
0.1
 74
0
 49
-0.1
 74
0
  0
LTYPE
  5
1F7
100
AcDbSymbolTableRecord
100
AcDbLinetypeTableRecord
  2
PHANTOM
 70
64
  3
_____ _ _ _____ _ _ _____ _ _ _____
 72
65
 73
6
 40
0.8
 49
0.45
 74
0
 49
-0.05
 74
0
 49
0.1
 74
0
 49
-0.05
 74
0
 49
0.1
 74
0
 49
-0.05
 74
0
  0
LTYPE
  5
1F8
100
AcDbSymbolTableRecord
100
AcDbLinetypeTableRecord
  2
DOT
 70
64
  3
. . . . . . . . . . . . . . . . . . . .
 72
65
 73
2
 40
0.2
 49
0.1
 74
0
 49
-0.1
 74
0
  0
LTYPE
  5
1F9
100
AcDbSymbolTableRecord
100
AcDbLinetypeTableRecord
  2
DASHED
 70
64
  3
- - - - - - - - - - - - - - - - - - - -
 72
65
 73
2
 40
0.2
 49
0.1
 74
0
 49
-0.1
 74
0
  0
ENDTAB
  0
TABLE
  2
LAYER
  5
2
100
AcDbSymbolTable
 70
36
  0
LAYER
  5
10
100
AcDbSymbolTableRecord
100
AcDbLayerTableRecord
  2
0
 70
0
 62
7
  6
CONTINUOUS
370
-3
390
F
  0
LAYER
  5
1FA
100
AcDbSymbolTableRecord
100
AcDbLayerTableRecord
  2
DEFAULT_1
 70
0
 62
7
  6
CENTER
370
-3
390
F
  0
LAYER
  5
1FB
100
AcDbSymbolTableRecord
100
AcDbLayerTableRecord
  2
DEFAULT_2
 70
0
 62
8
  6
HIDDEN
370
-3
390
F
  0
LAYER
  5
1FC
100
AcDbSymbolTableRecord
100
AcDbLayerTableRecord
  2
DEFAULT_3
 70
0
 62
7
  6
PHANTOM
370
-3
390
F
  0
LAYER
  5
1FD
100
AcDbSymbolTableRecord
100
AcDbLayerTableRecord
  2
AUSFORMSCHRAEGEN
 70
0
 62
7
  6
CONTINUOUS
370
-3
390
F
  0
LAYER
  5
1FE
100
AcDbSymbolTableRecord
100
AcDbLayerTableRecord
  2
BEZUGSACHSEN
 70
0
 62
7
  6
CONTINUOUS
370
-3
390
F
  0
LAYER
  5
1FF
100
AcDbSymbolTableRecord
100
AcDbLayerTableRecord
  2
BEZUGSEBENEN
 70
0
 62
7
  6
CONTINUOUS
370
-3
390
F
  0
LAYER
  5
200
100
AcDbSymbolTableRecord
100
AcDbLayerTableRecord
  2
BG_STARTBEZUEGE
 70
0
 62
7
  6
CONTINUOUS
370
-3
390
F
  0
LAYER
  5
201
100
AcDbSymbolTableRecord
100
AcDbLayerTableRecord
  2
FASEN
 70
0
 62
7
  6
CONTINUOUS
370
-3
390
F
  0
LAYER
  5
202
100
AcDbSymbolTableRecord
100
AcDbLayerTableRecord
  2
FLAECHENVERBUND
 70
0
 62
7
  6
CONTINUOUS
370
-3
390
F
  0
LAYER
  5
203
100
AcDbSymbolTableRecord
100
AcDbLayerTableRecord
  2
HILFEN
 70
0
 62
7
  6
CONTINUOUS
370
-3
390
F
  0
LAYER
  5
204
100
AcDbSymbolTableRecord
100
AcDbLayerTableRecord
  2
KONSTRUKTIONSELEMENTE
 70
0
 62
7
  6
CONTINUOUS
370
-3
390
F
  0
LAYER
  5
205
100
AcDbSymbolTableRecord
100
AcDbLayerTableRecord
  2
KURVEN
 70
0
 62
7
  6
CONTINUOUS
370
-3
390
F
  0
LAYER
  5
206
100
AcDbSymbolTableRecord
100
AcDbLayerTableRecord
  2
NORM
 70
0
 62
7
  6
CONTINUOUS
370
-3
390
F
  0
LAYER
  5
207
100
AcDbSymbolTableRecord
100
AcDbLayerTableRecord
  2
PLATZIERUNG
 70
0
 62
7
  6
CONTINUOUS
370
-3
390
F
  0
LAYER
  5
208
100
AcDbSymbolTableRecord
100
AcDbLayerTableRecord
  2
RUNDUNGEN
 70
0
 62
7
  6
CONTINUOUS
370
-3
390
F
  0
LAYER
  5
209
100
AcDbSymbolTableRecord
100
AcDbLayerTableRecord
  2
TEIL_STARTBEZUEGE
 70
0
 62
7
  6
CONTINUOUS
370
-3
390
F
  0
LAYER
  5
20A
100
AcDbSymbolTableRecord
100
AcDbLayerTableRecord
  2
T_STARTBEZUEGE
 70
0
 62
7
  6
CONTINUOUS
370
-3
390
F
  0
LAYER
  5
20B
100
AcDbSymbolTableRecord
100
AcDbLayerTableRecord
  2
ZEICHNUNGSBEMASSUNGEN
 70
0
 62
7
  6
CONTINUOUS
370
-3
390
F
  0
ENDTAB
  0
TABLE
  2
STYLE
  5
3
100
AcDbSymbolTable
 70
1
  0
STYLE
  5
11
100
AcDbSymbolTableRecord
100
AcDbTextStyleTableRecord
  2
STANDARD
 70
0
 40
0.0
 41
0.7
 50
0.0
 71
0
 42
0.2
  3
txt
  4

  0
STYLE
  5
20C
100
AcDbSymbolTableRecord
100
AcDbTextStyleTableRecord
  2
TEXTSTYLE_1
 70
0
 40
0.0
 41
0.8
 50
0.0
 71
0
 42
0.2
  3
gdt
  4

  0
ENDTAB
  0
TABLE
  2
VIEW
  5
6
100
AcDbSymbolTable
 70
0
  0
ENDTAB
  0
TABLE
  2
UCS
  5
7
100
AcDbSymbolTable
 70
0
  0
ENDTAB
  0
TABLE
  2
APPID
  5
9
100
AcDbSymbolTable
 70
1
  0
APPID
  5
20D
100
AcDbSymbolTableRecord
100
AcDbRegAppTableRecord
  2
ACAD
 70
0
  0
ENDTAB
  0
TABLE
  2
BLOCK_RECORD
  5
1
100
AcDbSymbolTable
 70
0
  0
BLOCK_RECORD
  5
20E
100
AcDbSymbolTableRecord
100
AcDbBlockTableRecord
  2
*Model_Space
  0
BLOCK_RECORD
  5
20F
100
AcDbSymbolTableRecord
100
AcDbBlockTableRecord
  2
*Paper_Space
  0
ENDTAB
  0
TABLE
  2
DIMSTYLE
  5
A
100
AcDbSymbolTable
 70
1
100
AcDbDimStyleTable
 71
0
  0
DIMSTYLE
105
210
100
AcDbSymbolTableRecord
100
AcDbDimStyleTableRecord
  2
STANDARD
 70
0
  3

  4

 40
1.0
 41
3.5
 42
0.0625
 43
0.38
 44
0.18
 45
0.0
 46
0.0
 47
0.005
 48
0.005
140
3.5
141
0.09
142
0.0
143
25.4
144
1.0
145
0.0
146
1.0
147
0.09
 71
1.0
 72
0.0
 73
0
 74
0
 75
0
 76
0
 77
1
 78
8
170
0
171
2
172
0
173
0
174
0
175
0
176
0
177
0
178
5
270
2
271
3
272
3
273
2
274
2
275
0
280
0
281
0
282
0
283
1
284
8
285
0
286
0
287
3
288
0
340
11
  0
ENDTAB
  0
ENDSEC
  0
SECTION
  2
BLOCKS
  0
BLOCK
  5
20
100
AcDbEntity
  8
0
100
AcDbBlockBegin
  2
*Model_Space
 70
0
 10
0.0
 20
0.0
 30
0.0
  3
*Model_Space
  1

  0
ENDBLK
  5
21
100
AcDbEntity
  8
0
100
AcDbBlockEnd
  0
BLOCK
  5
1C
100
AcDbEntity
  8
0
100
AcDbBlockBegin
  2
*Paper_Space
 70
0
 10
0.0
 20
0.0
 30
0.0
  3
*Paper_Space
  1

  0
ENDBLK
  5
1D
100
AcDbEntity
  8
0
100
AcDbBlockEnd
  0
ENDSEC
  0
SECTION
  2
ENTITIES
  0
MTEXT
  5
211
100
AcDbEntity
  8
0
100
AcDbMText
 62
5
  6
CONTINUOUS
  7
STANDARD
 71
2
 72
1
 10
165.4448241279
 20
111.1886064689
 30
0.0
 11
1.0
 21
0.0
 31
0.0
 44
0.9
  1
VLBS 4t\PRUD
 40
5.0
 41
26.9047619048
  0
MTEXT
  5
212
100
AcDbEntity
  8
0
100
AcDbMText
 62
5
  6
CONTINUOUS
  7
STANDARD
 71
2
 72
1
 10
165.9571276445
 20
185.8980043663
 30
0.0
 11
1.0
 21
0.0
 31
0.0
 44
0.9
  1
VLBS 4t\PRUD
 40
5.0
 41
26.9047619048
  0
MTEXT
  5
213
100
AcDbEntity
  8
0
100
AcDbMText
 62
5
  6
CONTINUOUS
  7
STANDARD
 71
2
 72
1
 10
269.7477937472
 20
222.3507427307
 30
0.0
 11
0.0
 21
1.0
 31
0.0
 44
0.9
  1
VLBS 4t\PRUD
 40
5.0
 41
26.9047619048
  0
LINE
  5
214
100
AcDbEntity
  8
0
100
AcDbLine
 62
7
  6
CONTINUOUS
 10
0.0
 20
0.0
 11
0.0
 21
297.0
  0
LINE
  5
215
100
AcDbEntity
  8
0
100
AcDbLine
 62
7
  6
CONTINUOUS
 10
0.0
 20
0.0
 11
420.0
 21
0.0
  0
LINE
  5
216
100
AcDbEntity
  8
0
100
AcDbLine
 62
7
  6
CONTINUOUS
 10
0.0
 20
297.0
 11
420.0
 21
297.0
  0
LINE
  5
217
100
AcDbEntity
  8
0
100
AcDbLine
 62
7
  6
CONTINUOUS
 10
420.0
 20
0.0
 11
420.0
 21
297.0
  0
LINE
  5
218
100
AcDbEntity
  8
RUNDUNGEN
100
AcDbLine
 62
7
  6
CONTINUOUS
 10
143.4481973129
 20
168.4464860502
 11
188.5730240612
 21
168.4464860502
  0
LINE
  5
219
100
AcDbEntity
  8
BEZUGSACHSEN
100
AcDbLine
 62
7
  6
CONTINUOUS
 10
127.510609987
 20
169.9464860502
 11
143.2499893983
 21
169.9464860502
  0
LINE
  5
21A
100
AcDbEntity
  8
BEZUGSACHSEN
100
AcDbLine
 62
7
  6
CONTINUOUS
 10
188.7712319757
 20
169.9464860502
 11
204.510611387
 21
169.9464860502
  0
LINE
  5
21B
100
AcDbEntity
  8
RUNDUNGEN
100
AcDbLine
 62
7
  6
CONTINUOUS
 10
162.9290019102
 20
268.8335166531
 11
137.8639269858
 21
258.4512226775
  0
LINE
  5
21C
100
AcDbEntity
  8
0
100
AcDbLine
 62
7
  6
CONTINUOUS
 10
189.010610687
 20
170.7464860502
 11
143.010610687
 21
170.7464860502
  0
LINE
  5
21D
100
AcDbEntity
  8
RUNDUNGEN
100
AcDbLine
 62
7
  6
CONTINUOUS
 10
122.510609987
 20
225.9464860502
 11
122.510609987
 21
177.9464860502
  0
LINE
  5
21E
100
AcDbEntity
  8
BEZUGSACHSEN
100
AcDbLine
 62
7
  6
CONTINUOUS
 10
122.510609987
 20
174.9464860502
 11
122.510609987
 21
177.9464860502
  0
LINE
  5
21F
100
AcDbEntity
  8
RUNDUNGEN
100
AcDbLine
 62
7
  6
CONTINUOUS
 10
133.5058740597
 20
254.0931697514
 11
123.1235800842
 21
229.028094827
  0
LINE
  5
220
100
AcDbEntity
  8
0
100
AcDbLine
 62
7
  6
CONTINUOUS
 10
145.010610687
 20
180.2837479843
 11
187.010610687
 21
180.2837479843
  0
LINE
  5
221
100
AcDbEntity
  8
0
100
AcDbLine
 62
7
  6
CONTINUOUS
 10
201.845084432
 20
185.2985908462
 11
203.455610792
 21
185.2985908462
  0
LINE
  5
222
100
AcDbEntity
  8
0
100
AcDbLine
 62
7
  6
CONTINUOUS
 10
203.405610792
 20
186.5085908462
 11
201.898768644
 21
186.5085908462
  0
LINE
  5
223
100
AcDbEntity
  8
0
100
AcDbLine
 62
7
  6
CONTINUOUS
 10
200.637189662
 20
189.0296435802
 11
204.059558177
 21
189.0296435802
  0
LINE
  5
224
100
AcDbEntity
  8
0
100
AcDbLine
 62
7
  6
CONTINUOUS
 10
205.670084537
 20
190.2375383502
 11
204.663505562
 21
190.2375383502
  0
LINE
  5
225
100
AcDbEntity
  8
0
100
AcDbLine
 62
7
  6
CONTINUOUS
 10
204.059558177
 20
190.2375383502
 11
199.630610687
 21
190.2375383502
  0
LINE
  5
226
100
AcDbEntity
  8
0
100
AcDbLine
 62
7
  6
CONTINUOUS
 10
202.046400227
 20
191.4454331202
 11
205.670084537
 21
191.4454331202
  0
LINE
  5
227
100
AcDbEntity
  8
0
100
AcDbLine
 62
7
  6
CONTINUOUS
 10
205.670084537
 20
192.6533278902
 11
202.046400227
 21
192.6533278902
  0
LINE
  5
228
100
AcDbEntity
  8
RUNDUNGEN
100
AcDbLine
 62
7
  6
CONTINUOUS
 10
140.510609987
 20
194.4464860502
 11
140.510609987
 21
198.137012292
  0
LINE
  5
229
100
AcDbEntity
  8
RUNDUNGEN
100
AcDbLine
 62
7
  6
CONTINUOUS
 10
140.510609987
 20
223.3351666365
 11
140.510609987
 21
225.9464860502
  0
LINE
  5
22A
100
AcDbEntity
  8
0
100
AcDbLine
 62
7
  6
CONTINUOUS
 10
143.010610687
 20
170.7464860502
 11
143.010610687
 21
197.4464860502
  0
LINE
  5
22B
100
AcDbEntity
  8
0
100
AcDbLine
 62
7
  6
CONTINUOUS
 10
202.046400227
 20
195.0691174302
 11
205.670084537
 21
195.0691174302
  0
LINE
  5
22C
100
AcDbEntity
  8
0
100
AcDbLine
 62
7
  6
CONTINUOUS
 10
205.670084537
 20
196.2770122002
 11
202.046400227
 21
196.2770122002
  0
LINE
  5
22D
100
AcDbEntity
  8
0
100
AcDbLine
 62
7
  6
CONTINUOUS
 10
146.380610687
 20
196.7357615963
 11
147.630610687
 21
196.7357615963
  0
LINE
  5
22E
100
AcDbEntity
  8
0
100
AcDbLine
 62
7
  6
CONTINUOUS
 10
148.130610687
 20
196.7357615963
 11
153.730610687
 21
196.7357615963
  0
LINE
  5
22F
100
AcDbEntity
  8
0
100
AcDbLine
 62
7
  6
CONTINUOUS
 10
146.380610687
 20
197.3077585418
 11
147.630610687
 21
197.3077585418
  0
LINE
  5
230
100
AcDbEntity
  8
0
100
AcDbLine
 62
7
  6
CONTINUOUS
 10
148.130610687
 20
197.3077585418
 11
153.730610687
 21
197.3077585418
  0
LINE
  5
231
100
AcDbEntity
  8
0
100
AcDbLine
 62
7
  6
CONTINUOUS
 10
146.380610687
 20
199.8982085918
 11
146.380610687
 21
199.239667625
  0
LINE
  5
232
100
AcDbEntity
  8
0
100
AcDbLine
 62
7
  6
CONTINUOUS
 10
146.380610687
 20
198.8987010892
 11
146.380610687
 21
196.7357615963
  0
LINE
  5
233
100
AcDbEntity
  8
0
100
AcDbLine
 62
7
  6
CONTINUOUS
 10
147.630610687
 20
198.8159632158
 11
147.630610687
 21
196.7357615963
  0
LINE
  5
234
100
AcDbEntity
  8
0
100
AcDbLine
 62
7
  6
CONTINUOUS
 10
148.130610687
 20
198.0540764172
 11
148.130610687
 21
196.7357615963
  0
LINE
  5
235
100
AcDbEntity
  8
0
100
AcDbLine
 62
7
  6
CONTINUOUS
 10
148.130610687
 20
198.0540764172
 11
149.510610687
 21
198.0540764172
  0
LINE
  5
236
100
AcDbEntity
  8
0
100
AcDbLine
 62
7
  6
CONTINUOUS
 10
150.730610687
 20
198.0540764172
 11
153.730610687
 21
198.0540764172
  0
LINE
  5
237
100
AcDbEntity
  8
0
100
AcDbLine
 62
7
  6
CONTINUOUS
 10
172.0174191444
 20
198.8595970331
 11
172.7833766787
 21
198.8595970331
  0
LINE
  5
238
100
AcDbEntity
  8
0
100
AcDbLine
 62
7
  6
CONTINUOUS
 10
161.2880651751
 20
199.0181072795
 11
164.200610687
 21
199.0181072795
  0
LINE
  5
239
100
AcDbEntity
  8
0
100
AcDbLine
 62
7
  6
CONTINUOUS
 10
146.380610687
 20
199.239667625
 11
146.7172596142
 21
199.239667625
  0
LINE
  5
23A
100
AcDbEntity
  8
0
100
AcDbLine
 62
7
  6
CONTINUOUS
 10
150.4222421206
 20
199.239667625
 11
150.64417031
 21
199.239667625
  0
LINE
  5
23B
100
AcDbEntity
  8
0
100
AcDbLine
 62
7
  6
CONTINUOUS
 10
172.7833766787
 20
199.3576098842
 11
174.570610687
 21
199.3576098842
  0
LINE
  5
23C
100
AcDbEntity
  8
0
100
AcDbLine
 62
7
  6
CONTINUOUS
 10
172.0174191444
 20
199.3736239339
 11
172.7833766787
 21
199.3736239339
  0
LINE
  5
23D
100
AcDbEntity
  8
KONSTRUKTIONSELEMENTE
100
AcDbLine
 62
7
  6
CONTINUOUS
 10
145.010610687
 20
199.4464860502
 11
146.380610687
 21
199.4464860502
  0
LINE
  5
23E
100
AcDbEntity
  8
KONSTRUKTIONSELEMENTE
100
AcDbLine
 62
7
  6
CONTINUOUS
 10
153.730546191
 20
199.4464860502
 11
158.200610687
 21
199.4464860502
  0
LINE
  5
23F
100
AcDbEntity
  8
KONSTRUKTIONSELEMENTE
100
AcDbLine
 62
7
  6
CONTINUOUS
 10
164.200610687
 20
199.4464860502
 11
168.570610687
 21
199.4464860502
  0
LINE
  5
240
100
AcDbEntity
  8
KONSTRUKTIONSELEMENTE
100
AcDbLine
 62
7
  6
CONTINUOUS
 10
174.570610687
 20
199.4464860502
 11
178.9471120293
 21
199.4464860502
  0
LINE
  5
241
100
AcDbEntity
  8
KONSTRUKTIONSELEMENTE
100
AcDbLine
 62
7
  6
CONTINUOUS
 10
184.9471120293
 20
199.4464860502
 11
187.010610687
 21
199.4464860502
  0
LINE
  5
242
100
AcDbEntity
  8
0
100
AcDbLine
 62
7
  6
CONTINUOUS
 10
158.200610687
 20
199.528269656
 11
164.200610687
 21
199.528269656
  0
LINE
  5
243
100
AcDbEntity
  8
0
100
AcDbLine
 62
7
  6
CONTINUOUS
 10
158.200610687
 20
199.6646174477
 11
163.4346532421
 21
199.6646174477
  0
LINE
  5
244
100
AcDbEntity
  8
0
100
AcDbLine
 62
7
  6
CONTINUOUS
 10
146.380610687
 20
199.7445235185
 11
150.790610687
 21
199.7445235185
  0
LINE
  5
245
100
AcDbEntity
  8
0
100
AcDbLine
 62
7
  6
CONTINUOUS
 10
169.591887161
 20
199.8596852507
 11
172.0174191444
 21
199.8596852507
  0
LINE
  5
246
100
AcDbEntity
  8
0
100
AcDbLine
 62
7
  6
CONTINUOUS
 10
172.7833766787
 20
199.8596852507
 11
174.570610687
 21
199.8596852507
  0
LINE
  5
247
100
AcDbEntity
  8
0
100
AcDbLine
 62
7
  6
CONTINUOUS
 10
146.380610687
 20
199.8982085918
 11
150.790610687
 21
199.8982085918
  0
LINE
  5
248
100
AcDbEntity
  8
0
100
AcDbLine
 62
7
  6
CONTINUOUS
 10
158.200610687
 20
199.9083499164
 11
163.4346532421
 21
199.9083499164
  0
LINE
  5
249
100
AcDbEntity
  8
0
100
AcDbLine
 62
7
  6
CONTINUOUS
 10
168.570610687
 20
199.9140802331
 11
172.0174191444
 21
199.9140802331
  0
LINE
  5
24A
100
AcDbEntity
  8
0
100
AcDbLine
 62
7
  6
CONTINUOUS
 10
172.7833766787
 20
199.9140802331
 11
174.570610687
 21
199.9140802331
  0
LINE
  5
24B
100
AcDbEntity
  8
0
100
AcDbLine
 62
7
  6
CONTINUOUS
 10
170.4855044334
 20
199.9198439618
 11
170.9961426704
 21
199.9198439618
  0
LINE
  5
24C
100
AcDbEntity
  8
0
100
AcDbLine
 62
7
  6
CONTINUOUS
 10
178.9621497179
 20
199.9276405816
 11
179.8471120704
 21
199.9276405816
  0
LINE
  5
24D
100
AcDbEntity
  8
0
100
AcDbLine
 62
7
  6
CONTINUOUS
 10
184.0471119624
 20
199.9276405816
 11
184.9320743406
 21
199.9276405816
  0
LINE
  5
24E
100
AcDbEntity
  8
0
100
AcDbLine
 62
7
  6
CONTINUOUS
 10
152.2306106863
 20
199.9464860502
 11
153.7306106829
 21
199.9464860502
  0
LINE
  5
24F
100
AcDbEntity
  8
0
100
AcDbLine
 62
7
  6
CONTINUOUS
 10
163.4346532421
 20
199.9464860502
 11
164.200610687
 21
199.9464860502
  0
LINE
  5
250
100
AcDbEntity
  8
0
100
AcDbLine
 62
7
  6
CONTINUOUS
 10
172.0174191444
 20
199.9464860502
 11
172.7833766787
 21
199.9464860502
  0
LINE
  5
251
100
AcDbEntity
  8
0
100
AcDbLine
 62
7
  6
CONTINUOUS
 10
199.630610687
 20
201.3099070752
 11
202.153768651
 21
201.3099070752
  0
LINE
  5
252
100
AcDbEntity
  8
0
100
AcDbLine
 62
7
  6
CONTINUOUS
 10
203.160347626
 20
201.3099070752
 11
204.059558177
 21
201.3099070752
  0
LINE
  5
253
100
AcDbEntity
  8
BEZUGSACHSEN
100
AcDbLine
 62
7
  6
CONTINUOUS
 10
188.010611387
 20
201.4464860502
 11
181.5349215205
 21
201.4464860502
  0
LINE
  5
254
100
AcDbEntity
  8
RUNDUNGEN
100
AcDbLine
 62
7
  6
CONTINUOUS
 10
144.010609987
 20
201.4464860502
 11
150.4862998535
 21
201.4464860502
  0
LINE
  5
255
100
AcDbEntity
  8
0
100
AcDbLine
 62
7
  6
CONTINUOUS
 10
149.510610687
 20
198.8159632158
 11
149.510610687
 21
198.0540764172
  0
LINE
  5
256
100
AcDbEntity
  8
0
100
AcDbLine
 62
7
  6
CONTINUOUS
 10
150.730610687
 20
198.3816493972
 11
150.730610687
 21
198.0540764172
  0
LINE
  5
257
100
AcDbEntity
  8
0
100
AcDbLine
 62
7
  6
CONTINUOUS
 10
205.670084537
 20
202.3164860502
 11
204.663505562
 21
202.3164860502
  0
LINE
  5
258
100
AcDbEntity
  8
0
100
AcDbLine
 62
7
  6
CONTINUOUS
 10
204.059558177
 20
202.3164860502
 11
199.630610687
 21
202.3164860502
  0
LINE
  5
259
100
AcDbEntity
  8
0
100
AcDbLine
 62
7
  6
CONTINUOUS
 10
153.730610687
 20
198.0540764172
 11
153.730610687
 21
196.7357615963
  0
LINE
  5
25A
100
AcDbEntity
  8
0
100
AcDbLine
 62
7
  6
CONTINUOUS
 10
153.730610687
 20
198.6261478305
 11
153.730610687
 21
199.9464860497
  0
LINE
  5
25B
100
AcDbEntity
  8
0
100
AcDbLine
 62
7
  6
CONTINUOUS
 10
158.200610687
 20
199.9083499164
 11
158.200610687
 21
198.5800177468
  0
LINE
  5
25C
100
AcDbEntity
  8
0
100
AcDbLine
 62
7
  6
CONTINUOUS
 10
158.200610687
 20
197.7485351643
 11
158.200610687
 21
196.7918287835
  0
LINE
  5
25D
100
AcDbEntity
  8
0
100
AcDbLine
 62
7
  6
CONTINUOUS
 10
184.0471119624
 20
199.9126336095
 11
184.0255729983
 21
199.9276405816
  0
LINE
  5
25E
100
AcDbEntity
  8
0
100
AcDbLine
 62
7
  6
CONTINUOUS
 10
163.4346532421
 20
199.9464786385
 11
163.4346532421
 21
199.6646174477
  0
LINE
  5
25F
100
AcDbEntity
  8
0
100
AcDbLine
 62
7
  6
CONTINUOUS
 10
164.200610687
 20
198.6979452569
 11
164.200610687
 21
197.7708644615
  0
LINE
  5
260
100
AcDbEntity
  8
0
100
AcDbLine
 62
7
  6
CONTINUOUS
 10
164.200610687
 20
199.0181072795
 11
164.200610687
 21
199.9464712221
  0
LINE
  5
261
100
AcDbEntity
  8
0
100
AcDbLine
 62
7
  6
CONTINUOUS
 10
184.9320743406
 20
199.9276405816
 11
184.9471119412
 21
199.9126790214
  0
LINE
  5
262
100
AcDbEntity
  8
0
100
AcDbLine
 62
7
  6
CONTINUOUS
 10
168.570610687
 20
199.9140802331
 11
168.570610687
 21
199.3576098842
  0
LINE
  5
263
100
AcDbEntity
  8
0
100
AcDbLine
 62
7
  6
CONTINUOUS
 10
172.0174191444
 20
199.9464859669
 11
172.0174191444
 21
199.9140802331
  0
LINE
  5
264
100
AcDbEntity
  8
0
100
AcDbLine
 62
7
  6
CONTINUOUS
 10
172.0174191444
 20
199.8596852507
 11
172.0174191444
 21
199.5606276326
  0
LINE
  5
265
100
AcDbEntity
  8
0
100
AcDbLine
 62
7
  6
CONTINUOUS
 10
172.0174191444
 20
199.3736239339
 11
172.0174191444
 21
198.8595970331
  0
LINE
  5
266
100
AcDbEntity
  8
0
100
AcDbLine
 62
7
  6
CONTINUOUS
 10
172.7833766787
 20
199.8596852507
 11
172.7833766787
 21
198.8595970331
  0
LINE
  5
267
100
AcDbEntity
  8
0
100
AcDbLine
 62
7
  6
CONTINUOUS
 10
172.7833766787
 20
199.9140802331
 11
172.7833766787
 21
199.9464859669
  0
LINE
  5
268
100
AcDbEntity
  8
0
100
AcDbLine
 62
7
  6
CONTINUOUS
 10
174.570610687
 20
199.9140802331
 11
174.570610687
 21
199.3576098842
  0
LINE
  5
269
100
AcDbEntity
  8
0
100
AcDbLine
 62
7
  6
CONTINUOUS
 10
178.9471120293
 20
199.4095353584
 11
178.9471120293
 21
199.9103872704
  0
LINE
  5
26A
100
AcDbEntity
  8
0
100
AcDbLine
 62
7
  6
CONTINUOUS
 10
179.8686510602
 20
199.9276405816
 11
179.8686510602
 21
199.8941177443
  0
LINE
  5
26B
100
AcDbEntity
  8
0
100
AcDbLine
 62
7
  6
CONTINUOUS
 10
184.0255729983
 20
199.9276405816
 11
184.0255729983
 21
199.8941106661
  0
LINE
  5
26C
100
AcDbEntity
  8
0
100
AcDbLine
 62
7
  6
CONTINUOUS
 10
184.9471120293
 20
199.4095475805
 11
184.9471120293
 21
199.9103839013
  0
LINE
  5
26D
100
AcDbEntity
  8
0
100
AcDbLine
 62
7
  6
CONTINUOUS
 10
178.9471121066
 20
199.912684137
 11
178.9621497179
 21
199.9276405816
  0
LINE
  5
26E
100
AcDbEntity
  8
0
100
AcDbLine
 62
7
  6
CONTINUOUS
 10
189.010610687
 20
197.4464860502
 11
189.010610687
 21
170.7464860502
  0
LINE
  5
26F
100
AcDbEntity
  8
BEZUGSACHSEN
100
AcDbLine
 62
7
  6
CONTINUOUS
 10
191.510611387
 20
194.4464860502
 11
191.510611387
 21
198.137012292
  0
LINE
  5
270
100
AcDbEntity
  8
BEZUGSACHSEN
100
AcDbLine
 62
7
  6
CONTINUOUS
 10
191.510611387
 20
223.3351666365
 11
191.510611387
 21
225.9464860502
  0
LINE
  5
271
100
AcDbEntity
  8
0
100
AcDbLine
 62
7
  6
CONTINUOUS
 10
179.8686510602
 20
199.9276405816
 11
179.8471120704
 21
199.9126444238
  0
LINE
  5
272
100
AcDbEntity
  8
0
100
AcDbLine
 62
7
  6
CONTINUOUS
 10
199.630610687
 20
202.3164860502
 11
199.630610687
 21
201.3099070752
  0
LINE
  5
273
100
AcDbEntity
  8
0
100
AcDbLine
 62
7
  6
CONTINUOUS
 10
199.630610687
 20
198.2445726646
 11
199.630610687
 21
197.0822753802
  0
LINE
  5
274
100
AcDbEntity
  8
0
100
AcDbLine
 62
7
  6
CONTINUOUS
 10
199.630610687
 20
190.2375383502
 11
199.630610687
 21
187.5130645912
  0
LINE
  5
275
100
AcDbEntity
  8
0
100
AcDbLine
 62
7
  6
CONTINUOUS
 10
200.637189662
 20
187.7701698282
 11
200.637189662
 21
189.0296435802
  0
LINE
  5
276
100
AcDbEntity
  8
0
100
AcDbLine
 62
7
  6
CONTINUOUS
 10
202.153768651
 20
201.3099070752
 11
202.153768651
 21
200.2824672365
  0
LINE
  5
277
100
AcDbEntity
  8
0
100
AcDbLine
 62
7
  6
CONTINUOUS
 10
201.6504791635
 20
199.4107442732
 11
199.630610687
 21
198.2445726646
  0
LINE
  5
278
100
AcDbEntity
  8
0
100
AcDbLine
 62
7
  6
CONTINUOUS
 10
199.630610687
 20
197.0822753802
 11
202.2726128628
 21
198.6076360476
  0
LINE
  5
279
100
AcDbEntity
  8
0
100
AcDbLine
 62
7
  6
CONTINUOUS
 10
203.160347626
 20
199.6456965032
 11
203.160347626
 21
201.3099070752
  0
LINE
  5
27A
100
AcDbEntity
  8
0
100
AcDbLine
 62
7
  6
CONTINUOUS
 10
204.059558177
 20
189.0296435802
 11
204.059558177
 21
190.2375383502
  0
LINE
  5
27B
100
AcDbEntity
  8
0
100
AcDbLine
 62
7
  6
CONTINUOUS
 10
204.059558177
 20
201.3099070752
 11
204.059558177
 21
202.3164860502
  0
LINE
  5
27C
100
AcDbEntity
  8
0
100
AcDbLine
 62
7
  6
CONTINUOUS
 10
204.663505562
 20
202.3164860502
 11
204.663505562
 21
199.6456965032
  0
LINE
  5
27D
100
AcDbEntity
  8
0
100
AcDbLine
 62
7
  6
CONTINUOUS
 10
204.663505562
 20
190.2375383502
 11
204.663505562
 21
187.7701644487
  0
LINE
  5
27E
100
AcDbEntity
  8
0
100
AcDbLine
 62
7
  6
CONTINUOUS
 10
205.670084537
 20
187.5130645912
 11
205.670084537
 21
190.2375383502
  0
LINE
  5
27F
100
AcDbEntity
  8
0
100
AcDbLine
 62
7
  6
CONTINUOUS
 10
205.670084537
 20
191.4454331202
 11
205.670084537
 21
192.6533278902
  0
LINE
  5
280
100
AcDbEntity
  8
0
100
AcDbLine
 62
7
  6
CONTINUOUS
 10
205.670084537
 20
195.0691174302
 11
205.670084537
 21
196.2770122002
  0
LINE
  5
281
100
AcDbEntity
  8
0
100
AcDbLine
 62
7
  6
CONTINUOUS
 10
205.670084537
 20
199.2430649132
 11
205.670084537
 21
202.3164860502
  0
LINE
  5
282
100
AcDbEntity
  8
BEZUGSACHSEN
100
AcDbLine
 62
7
  6
CONTINUOUS
 10
209.510611387
 20
225.9464860502
 11
209.510611387
 21
174.9464860502
  0
LINE
  5
283
100
AcDbEntity
  8
BEZUGSACHSEN
100
AcDbLine
 62
7
  6
CONTINUOUS
 10
198.5153473143
 20
254.0931697514
 11
208.8976412899
 21
229.028094827
  0
LINE
  5
284
100
AcDbEntity
  8
BEZUGSACHSEN
100
AcDbLine
 62
7
  6
CONTINUOUS
 10
169.0922194638
 20
268.8335166531
 11
194.1572943882
 21
258.4512226775
  0
LINE
  5
285
100
AcDbEntity
  8
RUNDUNGEN
100
AcDbLine
 62
7
  6
CONTINUOUS
 10
289.8915589658
 20
168.4464860502
 11
286.8915589658
 21
168.4464860502
  0
LINE
  5
286
100
AcDbEntity
  8
RUNDUNGEN
100
AcDbLine
 62
7
  6
CONTINUOUS
 10
265.0873403376
 20
168.4464860502
 11
262.0873403376
 21
168.4464860502
  0
LINE
  5
287
100
AcDbEntity
  8
RUNDUNGEN
100
AcDbLine
 62
7
  6
CONTINUOUS
 10
291.9171110214
 20
170.7464860502
 11
290.2971110214
 21
170.7464860502
  0
LINE
  5
288
100
AcDbEntity
  8
RUNDUNGEN
100
AcDbLine
 62
7
  6
CONTINUOUS
 10
260.061788282
 20
170.7464860502
 11
261.681788282
 21
170.7464860502
  0
LINE
  5
289
100
AcDbEntity
  8
KONSTRUKTIONSELEMENTE
100
AcDbLine
 62
7
  6
CONTINUOUS
 10
260.061788282
 20
170.7464860502
 11
254.9894496517
 21
180.2837479843
  0
LINE
  5
28A
100
AcDbEntity
  8
RUNDUNGEN
100
AcDbLine
 62
7
  6
CONTINUOUS
 10
262.0873403376
 20
168.4464860502
 11
261.681788282
 21
170.7464860502
  0
LINE
  5
28B
100
AcDbEntity
  8
0
100
AcDbLine
 62
7
  6
CONTINUOUS
 10
284.3720224083
 20
198.2445726646
 11
284.4894496517
 21
198.2445726646
  0
LINE
  5
28C
100
AcDbEntity
  8
0
100
AcDbLine
 62
7
  6
CONTINUOUS
 10
283.9894496517
 20
201.3099070752
 11
284.4894496517
 21
201.3099070752
  0
LINE
  5
28D
100
AcDbEntity
  8
0
100
AcDbLine
 62
7
  6
CONTINUOUS
 10
283.9894496517
 20
202.3164860502
 11
284.4894496517
 21
202.3164860502
  0
LINE
  5
28E
100
AcDbEntity
  8
0
100
AcDbLine
 62
7
  6
CONTINUOUS
 10
264.4594496517
 20
196.5933618144
 11
264.4594496517
 21
195.9980985118
  0
LINE
  5
28F
100
AcDbEntity
  8
0
100
AcDbLine
 62
7
  6
CONTINUOUS
 10
264.7094501285
 20
196.7498084469
 11
264.7094501285
 21
196.1598033781
  0
LINE
  5
290
100
AcDbEntity
  8
0
100
AcDbLine
 62
7
  6
CONTINUOUS
 10
264.8344496517
 20
196.8262568595
 11
264.8344496517
 21
196.2387870538
  0
LINE
  5
291
100
AcDbEntity
  8
0
100
AcDbLine
 62
7
  6
CONTINUOUS
 10
264.9594491749
 20
196.901541983
 11
264.9594491749
 21
196.3165473115
  0
LINE
  5
292
100
AcDbEntity
  8
0
100
AcDbLine
 62
7
  6
CONTINUOUS
 10
265.3344491749
 20
197.1205580443
 11
265.3344491749
 21
196.5426448923
  0
LINE
  5
293
100
AcDbEntity
  8
KONSTRUKTIONSELEMENTE
100
AcDbLine
 62
7
  6
CONTINUOUS
 10
255.3084868384
 20
182.0930977812
 11
254.9894496517
 21
180.2837479843
  0
LINE
  5
294
100
AcDbEntity
  8
0
100
AcDbLine
 62
7
  6
CONTINUOUS
 10
265.5494496517
 20
197.2416024372
 11
265.5494496517
 21
196.6675288305
  0
LINE
  5
295
100
AcDbEntity
  8
BEZUGSACHSEN
100
AcDbLine
 62
7
  6
CONTINUOUS
 10
267.9894496517
 20
264.4464867502
 11
267.9894496517
 21
177.9464860502
  0
LINE
  5
296
100
AcDbEntity
  8
RUNDUNGEN
100
AcDbLine
 62
7
  6
CONTINUOUS
 10
265.0873403376
 20
168.4464860502
 11
267.1261798746
 21
180.0093196492
  0
LINE
  5
297
100
AcDbEntity
  8
RUNDUNGEN
100
AcDbLine
 62
7
  6
CONTINUOUS
 10
284.8527194288
 20
180.0093196492
 11
286.8915589658
 21
168.4464860502
  0
LINE
  5
298
100
AcDbEntity
  8
BEZUGSACHSEN
100
AcDbLine
 62
7
  6
CONTINUOUS
 10
283.9894496517
 20
264.4464867502
 11
283.9894496517
 21
264.2141189906
  0
LINE
  5
299
100
AcDbEntity
  8
RUNDUNGEN
100
AcDbLine
 62
7
  6
CONTINUOUS
 10
283.9894496517
 20
264.2141189906
 11
283.9894496517
 21
177.9464860502
  0
LINE
  5
29A
100
AcDbEntity
  8
0
100
AcDbLine
 62
7
  6
CONTINUOUS
 10
284.4894496517
 20
202.3164860502
 11
284.4894496517
 21
198.1943047877
  0
LINE
  5
29B
100
AcDbEntity
  8
0
100
AcDbLine
 62
7
  6
CONTINUOUS
 10
286.3094496517
 20
197.3077585418
 11
286.3094496517
 21
196.7357615963
  0
LINE
  5
29C
100
AcDbEntity
  8
0
100
AcDbLine
 62
7
  6
CONTINUOUS
 10
296.670412465
 20
182.0930977812
 11
296.9894496517
 21
180.2837479843
  0
LINE
  5
29D
100
AcDbEntity
  8
RUNDUNGEN
100
AcDbLine
 62
7
  6
CONTINUOUS
 10
290.2971110214
 20
170.7464860502
 11
289.8915589658
 21
168.4464860502
  0
LINE
  5
29E
100
AcDbEntity
  8
0
100
AcDbLine
 62
7
  6
CONTINUOUS
 10
291.9171110214
 20
170.7464860502
 11
296.9894496517
 21
180.2837479843
  0
LINE
  5
29F
100
AcDbEntity
  8
AUSFORMSCHRAEGEN
100
AcDbLine
 62
7
  6
CONTINUOUS
 10
272.9894496517
 20
269.4464867502
 11
278.9894496517
 21
269.4464867502
  0
LINE
  5
2A0
100
AcDbEntity
  8
BEZUGSACHSEN
100
AcDbLine
 62
7
  6
CONTINUOUS
 10
122.510609987
 20
108.03
 11
122.510609987
 21
102.03
  0
LINE
  5
2A1
100
AcDbEntity
  8
0
100
AcDbLine
 62
7
  6
CONTINUOUS
 10
143.010610687
 20
85.5551927789
 11
143.010610687
 21
97.03
  0
LINE
  5
2A2
100
AcDbEntity
  8
0
100
AcDbLine
 62
7
  6
CONTINUOUS
 10
143.010610687
 20
113.03
 11
143.010610687
 21
123.7413473072
  0
LINE
  5
2A3
100
AcDbEntity
  8
KONSTRUKTIONSELEMENTE
100
AcDbLine
 62
7
  6
CONTINUOUS
 10
143.010610687
 20
123.7413473072
 11
143.010610687
 21
124.5048072211
  0
LINE
  5
2A4
100
AcDbEntity
  8
0
100
AcDbLine
 62
7
  6
CONTINUOUS
 10
146.380610687
 20
97.03
 11
146.380610687
 21
94.71
  0
LINE
  5
2A5
100
AcDbEntity
  8
0
100
AcDbLine
 62
7
  6
CONTINUOUS
 10
145.010610687
 20
84.03
 11
187.010610687
 21
84.03
  0
LINE
  5
2A6
100
AcDbEntity
  8
0
100
AcDbLine
 62
7
  6
CONTINUOUS
 10
147.630610687
 20
97.03
 11
147.630610687
 21
94.71
  0
LINE
  5
2A7
100
AcDbEntity
  8
0
100
AcDbLine
 62
7
  6
CONTINUOUS
 10
148.130610687
 20
96.21
 11
148.130610687
 21
94.71
  0
LINE
  5
2A8
100
AcDbEntity
  8
0
100
AcDbLine
 62
7
  6
CONTINUOUS
 10
149.510610687
 20
97.03
 11
149.510610687
 21
96.21
  0
LINE
  5
2A9
100
AcDbEntity
  8
0
100
AcDbLine
 62
7
  6
CONTINUOUS
 10
150.730610687
 20
96.9777169493
 11
150.730610687
 21
96.21
  0
LINE
  5
2AA
100
AcDbEntity
  8
0
100
AcDbLine
 62
7
  6
CONTINUOUS
 10
159.221887161
 20
116.0600004768
 11
158.711248924
 21
115.6850004768
  0
LINE
  5
2AB
100
AcDbEntity
  8
0
100
AcDbLine
 62
7
  6
CONTINUOUS
 10
159.6048658388
 20
116.185
 11
159.221887161
 21
116.0600004768
  0
LINE
  5
2AC
100
AcDbEntity
  8
0
100
AcDbLine
 62
7
  6
CONTINUOUS
 10
153.730610687
 20
96.21
 11
153.730610687
 21
94.71
  0
LINE
  5
2AD
100
AcDbEntity
  8
0
100
AcDbLine
 62
7
  6
CONTINUOUS
 10
158.3282702463
 20
115.1849995232
 11
158.200610687
 21
114.5600004768
  0
LINE
  5
2AE
100
AcDbEntity
  8
0
100
AcDbLine
 62
7
  6
CONTINUOUS
 10
159.0942276018
 20
115.06
 11
158.9665680425
 21
114.685
  0
LINE
  5
2AF
100
AcDbEntity
  8
0
100
AcDbLine
 62
7
  6
CONTINUOUS
 10
161.1367809074
 20
115.81
 11
160.8814617889
 21
115.3100004768
  0
LINE
  5
2B0
100
AcDbEntity
  8
0
100
AcDbLine
 62
7
  6
CONTINUOUS
 10
161.9027382629
 20
115.5599995232
 11
161.6474191444
 21
115.1849995232
  0
LINE
  5
2B1
100
AcDbEntity
  8
0
100
AcDbLine
 62
7
  6
CONTINUOUS
 10
160.6261426704
 20
113.56
 11
160.3708235519
 21
113.185
  0
LINE
  5
2B2
100
AcDbEntity
  8
0
100
AcDbLine
 62
7
  6
CONTINUOUS
 10
158.711248924
 20
115.6850004768
 11
158.3282702463
 21
115.1849995232
  0
LINE
  5
2B3
100
AcDbEntity
  8
0
100
AcDbLine
 62
7
  6
CONTINUOUS
 10
159.3495467203
 20
115.3100004768
 11
159.0942276018
 21
115.06
  0
LINE
  5
2B4
100
AcDbEntity
  8
0
100
AcDbLine
 62
7
  6
CONTINUOUS
 10
161.6474191444
 20
116.3099995232
 11
161.1367809074
 21
115.81
  0
LINE
  5
2B5
100
AcDbEntity
  8
0
100
AcDbLine
 62
7
  6
CONTINUOUS
 10
162.2857171195
 20
115.81
 11
161.9027382629
 21
115.5599995232
  0
LINE
  5
2B6
100
AcDbEntity
  8
0
100
AcDbLine
 62
7
  6
CONTINUOUS
 10
159.6048658388
 20
115.435
 11
159.3495467203
 21
115.3100004768
  0
LINE
  5
2B7
100
AcDbEntity
  8
0
100
AcDbLine
 62
7
  6
CONTINUOUS
 10
162.1580575602
 20
116.56
 11
161.6474191444
 21
116.3099995232
  0
LINE
  5
2B8
100
AcDbEntity
  8
0
100
AcDbLine
 62
7
  6
CONTINUOUS
 10
160.3708235519
 20
113.185
 11
159.9878448741
 21
113.0600004768
  0
LINE
  5
2B9
100
AcDbEntity
  8
0
100
AcDbLine
 62
7
  6
CONTINUOUS
 10
146.380610687
 20
94.71
 11
147.630610687
 21
94.71
  0
LINE
  5
2BA
100
AcDbEntity
  8
0
100
AcDbLine
 62
7
  6
CONTINUOUS
 10
148.130610687
 20
94.71
 11
153.730610687
 21
94.71
  0
LINE
  5
2BB
100
AcDbEntity
  8
0
100
AcDbLine
 62
7
  6
CONTINUOUS
 10
158.200610687
 20
114.5600004768
 11
158.200610687
 21
113.935
  0
LINE
  5
2BC
100
AcDbEntity
  8
0
100
AcDbLine
 62
7
  6
CONTINUOUS
 10
158.200610687
 20
95.56
 11
158.200610687
 21
94.81
  0
LINE
  5
2BD
100
AcDbEntity
  8
0
100
AcDbLine
 62
7
  6
CONTINUOUS
 10
158.9665680425
 20
114.685
 11
158.9665680425
 21
113.935
  0
LINE
  5
2BE
100
AcDbEntity
  8
0
100
AcDbLine
 62
7
  6
CONTINUOUS
 10
159.6048658388
 20
116.185
 11
159.6048658388
 21
115.435
  0
LINE
  5
2BF
100
AcDbEntity
  8
0
100
AcDbLine
 62
7
  6
CONTINUOUS
 10
160.8814617889
 20
115.3100004768
 11
160.7538022296
 21
114.685
  0
LINE
  5
2C0
100
AcDbEntity
  8
0
100
AcDbLine
 62
7
  6
CONTINUOUS
 10
161.6474191444
 20
115.1849995232
 11
161.5197595851
 21
114.685
  0
LINE
  5
2C1
100
AcDbEntity
  8
0
100
AcDbLine
 62
7
  6
CONTINUOUS
 10
161.5197595851
 20
113.935
 11
161.3921000259
 21
113.4350004768
  0
LINE
  5
2C2
100
AcDbEntity
  8
0
100
AcDbLine
 62
7
  6
CONTINUOUS
 10
160.7538022296
 20
113.935
 11
160.6261426704
 21
113.56
  0
LINE
  5
2C3
100
AcDbEntity
  8
0
100
AcDbLine
 62
7
  6
CONTINUOUS
 10
161.3921000259
 20
113.4350004768
 11
161.1852916909
 21
113.03
  0
LINE
  5
2C4
100
AcDbEntity
  8
0
100
AcDbLine
 62
7
  6
CONTINUOUS
 10
163.3069936829
 20
113.185
 11
163.1486957924
 21
113.03
  0
LINE
  5
2C5
100
AcDbEntity
  8
0
100
AcDbLine
 62
7
  6
CONTINUOUS
 10
148.130610687
 20
96.21
 11
149.510610687
 21
96.21
  0
LINE
  5
2C6
100
AcDbEntity
  8
0
100
AcDbLine
 62
7
  6
CONTINUOUS
 10
150.730610687
 20
96.21
 11
153.730610687
 21
96.21
  0
LINE
  5
2C7
100
AcDbEntity
  8
0
100
AcDbLine
 62
7
  6
CONTINUOUS
 10
205.670084537
 20
96.53
 11
199.630610687
 21
96.53
  0
LINE
  5
2C8
100
AcDbEntity
  8
RUNDUNGEN
100
AcDbLine
 62
7
  6
CONTINUOUS
 10
164.8424190721
 20
97.03
 11
127.510609987
 21
97.03
  0
LINE
  5
2C9
100
AcDbEntity
  8
BEZUGSACHSEN
100
AcDbLine
 62
7
  6
CONTINUOUS
 10
164.8424190721
 20
97.03
 11
204.510611387
 21
97.03
  0
LINE
  5
2CA
100
AcDbEntity
  8
0
100
AcDbLine
 62
7
  6
CONTINUOUS
 10
160.7538022296
 20
114.685
 11
160.7538022296
 21
113.935
  0
LINE
  5
2CB
100
AcDbEntity
  8
0
100
AcDbLine
 62
7
  6
CONTINUOUS
 10
161.5197595851
 20
114.685
 11
161.5197595851
 21
113.935
  0
LINE
  5
2CC
100
AcDbEntity
  8
0
100
AcDbLine
 62
7
  6
CONTINUOUS
 10
164.200610687
 20
113.6849995232
 11
164.0729511166
 21
113.0600004768
  0
LINE
  5
2CD
100
AcDbEntity
  8
0
100
AcDbLine
 62
7
  6
CONTINUOUS
 10
163.4346532421
 20
113.6849995232
 11
163.3069936829
 21
113.185
  0
LINE
  5
2CE
100
AcDbEntity
  8
0
100
AcDbLine
 62
7
  6
CONTINUOUS
 10
164.0729511166
 20
113.0600004768
 11
164.0545678603
 21
113.03
  0
LINE
  5
2CF
100
AcDbEntity
  8
0
100
AcDbLine
 62
7
  6
CONTINUOUS
 10
158.3282702463
 20
113.4350004768
 11
158.5350785813
 21
113.03
  0
LINE
  5
2D0
100
AcDbEntity
  8
0
100
AcDbLine
 62
7
  6
CONTINUOUS
 10
158.9665680425
 20
113.935
 11
159.0942276018
 21
113.56
  0
LINE
  5
2D1
100
AcDbEntity
  8
0
100
AcDbLine
 62
7
  6
CONTINUOUS
 10
158.200610687
 20
113.935
 11
158.3282702463
 21
113.4350004768
  0
LINE
  5
2D2
100
AcDbEntity
  8
0
100
AcDbLine
 62
7
  6
CONTINUOUS
 10
163.4346532421
 20
114.685
 11
163.4346532421
 21
113.6849995232
  0
LINE
  5
2D3
100
AcDbEntity
  8
0
100
AcDbLine
 62
7
  6
CONTINUOUS
 10
164.200610687
 20
114.685
 11
164.200610687
 21
113.6849995232
  0
LINE
  5
2D4
100
AcDbEntity
  8
0
100
AcDbLine
 62
7
  6
CONTINUOUS
 10
164.200610687
 20
97.03
 11
164.200610687
 21
96.8100000596
  0
LINE
  5
2D5
100
AcDbEntity
  8
0
100
AcDbLine
 62
7
  6
CONTINUOUS
 10
159.0942276018
 20
113.56
 11
159.3495467203
 21
113.185
  0
LINE
  5
2D6
100
AcDbEntity
  8
0
100
AcDbLine
 62
7
  6
CONTINUOUS
 10
163.3069936829
 20
115.1849995232
 11
163.4346532421
 21
114.685
  0
LINE
  5
2D7
100
AcDbEntity
  8
0
100
AcDbLine
 62
7
  6
CONTINUOUS
 10
164.0729511166
 20
115.3100004768
 11
164.200610687
 21
114.685
  0
LINE
  5
2D8
100
AcDbEntity
  8
0
100
AcDbLine
 62
7
  6
CONTINUOUS
 10
163.051674475
 20
115.5599995232
 11
163.3069936829
 21
115.1849995232
  0
LINE
  5
2D9
100
AcDbEntity
  8
0
100
AcDbLine
 62
7
  6
CONTINUOUS
 10
163.8176319646
 20
115.81
 11
164.0729511166
 21
115.3100004768
  0
LINE
  5
2DA
100
AcDbEntity
  8
0
100
AcDbLine
 62
7
  6
CONTINUOUS
 10
162.597206583
 20
97.03
 11
158.200610687
 21
95.56
  0
LINE
  5
2DB
100
AcDbEntity
  8
0
100
AcDbLine
 62
7
  6
CONTINUOUS
 10
159.3495467203
 20
113.185
 11
159.7325257556
 21
113.0600004768
  0
LINE
  5
2DC
100
AcDbEntity
  8
0
100
AcDbLine
 62
7
  6
CONTINUOUS
 10
163.3069936829
 20
116.3099995232
 11
163.8176319646
 21
115.81
  0
LINE
  5
2DD
100
AcDbEntity
  8
0
100
AcDbLine
 62
7
  6
CONTINUOUS
 10
164.200610687
 20
96.8100000596
 11
158.200610687
 21
94.81
  0
LINE
  5
2DE
100
AcDbEntity
  8
BEZUGSACHSEN
100
AcDbLine
 62
7
  6
CONTINUOUS
 10
127.510609987
 20
113.03
 11
204.510611387
 21
113.03
  0
LINE
  5
2DF
100
AcDbEntity
  8
0
100
AcDbLine
 62
7
  6
CONTINUOUS
 10
159.7325257556
 20
113.0600004768
 11
159.9878448741
 21
113.0600004768
  0
LINE
  5
2E0
100
AcDbEntity
  8
0
100
AcDbLine
 62
7
  6
CONTINUOUS
 10
149.130610687
 20
113.97
 11
150.980610687
 21
113.97
  0
LINE
  5
2E1
100
AcDbEntity
  8
0
100
AcDbLine
 62
7
  6
CONTINUOUS
 10
162.7963553565
 20
116.56
 11
163.3069936829
 21
116.3099995232
  0
LINE
  5
2E2
100
AcDbEntity
  8
0
100
AcDbLine
 62
7
  6
CONTINUOUS
 10
162.6686957972
 20
115.81
 11
163.051674475
 21
115.5599995232
  0
LINE
  5
2E3
100
AcDbEntity
  8
0
100
AcDbLine
 62
7
  6
CONTINUOUS
 10
162.2857171195
 20
115.81
 11
162.6686957972
 21
115.81
  0
LINE
  5
2E4
100
AcDbEntity
  8
0
100
AcDbLine
 62
7
  6
CONTINUOUS
 10
162.1580575602
 20
116.56
 11
162.7963553565
 21
116.56
  0
LINE
  5
2E5
100
AcDbEntity
  8
KONSTRUKTIONSELEMENTE
100
AcDbLine
 62
7
  6
CONTINUOUS
 10
145.010610687
 20
126.03
 11
187.010610687
 21
126.03
  0
LINE
  5
2E6
100
AcDbEntity
  8
KONSTRUKTIONSELEMENTE
100
AcDbLine
 62
7
  6
CONTINUOUS
 10
189.010610687
 20
124.5048072211
 11
189.010610687
 21
123.7413473072
  0
LINE
  5
2E7
100
AcDbEntity
  8
0
100
AcDbLine
 62
7
  6
CONTINUOUS
 10
189.010610687
 20
123.7413473072
 11
189.010610687
 21
113.03
  0
LINE
  5
2E8
100
AcDbEntity
  8
0
100
AcDbLine
 62
7
  6
CONTINUOUS
 10
189.010610687
 20
97.03
 11
189.010610687
 21
85.5551927789
  0
LINE
  5
2E9
100
AcDbEntity
  8
0
100
AcDbLine
 62
7
  6
CONTINUOUS
 10
199.630610687
 20
97.03
 11
199.630610687
 21
96.53
  0
LINE
  5
2EA
100
AcDbEntity
  8
0
100
AcDbLine
 62
7
  6
CONTINUOUS
 10
204.059558177
 20
97.03
 11
204.059558177
 21
96.53
  0
LINE
  5
2EB
100
AcDbEntity
  8
0
100
AcDbLine
 62
7
  6
CONTINUOUS
 10
204.663505562
 20
97.0323382096
 11
204.663505562
 21
96.53
  0
LINE
  5
2EC
100
AcDbEntity
  8
0
100
AcDbLine
 62
7
  6
CONTINUOUS
 10
205.670084537
 20
97.1662954433
 11
205.670084537
 21
96.53
  0
LINE
  5
2ED
100
AcDbEntity
  8
BEZUGSACHSEN
100
AcDbLine
 62
7
  6
CONTINUOUS
 10
209.510611387
 20
102.03
 11
209.510611387
 21
108.03
  0
ARC
  5
2EE
100
AcDbEntity
  8
RUNDUNGEN
100
AcDbCircle
 62
7
  6
CONTINUOUS
 10
148.510609987
 20
194.4464860502
 40
8.0
100
AcDbArc
 50
180.0
 51
226.5649838881
  0
ARC
  5
2EF
100
AcDbEntity
  8
BEZUGSACHSEN
100
AcDbCircle
 62
7
  6
CONTINUOUS
 10
127.510609987
 20
174.9464860502
 40
5.0
100
AcDbArc
 50
180.0
 51
270.0
  0
ARC
  5
2F0
100
AcDbEntity
  8
RUNDUNGEN
100
AcDbCircle
 62
7
  6
CONTINUOUS
 10
144.010609987
 20
197.9464860502
 40
3.5
100
AcDbArc
 50
90.0
 51
180.0
  0
ARC
  5
2F1
100
AcDbEntity
  8
RUNDUNGEN
100
AcDbCircle
 62
7
  6
CONTINUOUS
 10
150.4862998535
 20
204.4464860502
 40
3.0
100
AcDbArc
 50
270.0
 51
62.2236809966
  0
ARC
  5
2F2
100
AcDbEntity
  8
0
100
AcDbCircle
 62
7
  6
CONTINUOUS
 10
145.010610687
 20
197.4464860502
 40
2.0
100
AcDbArc
 50
90.0
 51
180.0
  0
ARC
  5
2F3
100
AcDbEntity
  8
0
100
AcDbCircle
 62
7
  6
CONTINUOUS
 10
150.7474224713
 20
221.7148727419
 40
21.9718472388
100
AcDbArc
 50
273.9438140686
 51
277.8033332065
  0
ARC
  5
2F4
100
AcDbEntity
  8
0
100
AcDbCircle
 62
7
  6
CONTINUOUS
 10
150.7881368539
 20
221.4719970608
 40
21.5737886109
100
AcDbArc
 50
270.0065700189
 51
273.8337896411
  0
ARC
  5
2F5
100
AcDbEntity
  8
0
100
AcDbCircle
 62
7
  6
CONTINUOUS
 10
150.7879620427
 20
221.1700383481
 40
21.4255149933
100
AcDbArc
 50
270.0070829637
 51
273.9358694837
  0
ARC
  5
2F6
100
AcDbEntity
  8
RUNDUNGEN
100
AcDbCircle
 62
7
  6
CONTINUOUS
 10
161.810609987
 20
225.9464860502
 40
21.3
100
AcDbArc
 50
180.0
 51
242.2236809966
  0
ARC
  5
2F7
100
AcDbEntity
  8
BEZUGSACHSEN
100
AcDbCircle
 62
7
  6
CONTINUOUS
 10
130.563241787
 20
225.9464860502
 40
8.0526318
100
AcDbArc
 50
157.5
 51
180.0
  0
ARC
  5
2F8
100
AcDbEntity
  8
RUNDUNGEN
100
AcDbCircle
 62
7
  6
CONTINUOUS
 10
130.563241787
 20
225.9464860502
 40
8.0526318
100
AcDbArc
 50
157.5
 51
180.0
  0
ARC
  5
2F9
100
AcDbEntity
  8
BEZUGSACHSEN
100
AcDbCircle
 62
7
  6
CONTINUOUS
 10
140.9455357626
 20
251.0115609747
 40
8.0526318
100
AcDbArc
 50
112.5
 51
157.5
  0
ARC
  5
2FA
100
AcDbEntity
  8
RUNDUNGEN
100
AcDbCircle
 62
7
  6
CONTINUOUS
 10
140.9455357626
 20
251.0115609747
 40
8.0526318
100
AcDbArc
 50
112.5
 51
157.5
  0
ARC
  5
2FB
100
AcDbEntity
  8
BEZUGSACHSEN
100
AcDbCircle
 62
7
  6
CONTINUOUS
 10
183.510611387
 20
194.4464860502
 40
8.0
100
AcDbArc
 50
313.4350161119
 51
360.0
  0
ARC
  5
2FC
100
AcDbEntity
  8
BEZUGSACHSEN
100
AcDbCircle
 62
7
  6
CONTINUOUS
 10
204.510611387
 20
174.9464860502
 40
5.0
100
AcDbArc
 50
270.0
 51
360.0
  0
ARC
  5
2FD
100
AcDbEntity
  8
BEZUGSACHSEN
100
AcDbCircle
 62
7
  6
CONTINUOUS
 10
188.010611387
 20
197.9464860502
 40
3.5
100
AcDbArc
 50
1.3258896893
 51
90.0
  0
ARC
  5
2FE
100
AcDbEntity
  8
BEZUGSACHSEN
100
AcDbCircle
 62
7
  6
CONTINUOUS
 10
181.5349215205
 20
204.4464860502
 40
3.0
100
AcDbArc
 50
117.7763190034
 51
270.0
  0
ARC
  5
2FF
100
AcDbEntity
  8
0
100
AcDbCircle
 62
7
  6
CONTINUOUS
 10
202.046400227
 20
193.8612226602
 40
2.41578954
100
AcDbArc
 50
90.0
 51
270.0
  0
ARC
  5
300
100
AcDbEntity
  8
0
100
AcDbCircle
 62
7
  6
CONTINUOUS
 10
201.845084432
 20
187.5130645912
 40
2.214473745
100
AcDbArc
 50
180.0
 51
270.0
  0
ARC
  5
301
100
AcDbEntity
  8
0
100
AcDbCircle
 62
7
  6
CONTINUOUS
 10
203.455610792
 20
187.5130645912
 40
2.214473745
100
AcDbArc
 50
270.0
 51
360.0
  0
ARC
  5
302
100
AcDbEntity
  8
0
100
AcDbCircle
 62
7
  6
CONTINUOUS
 10
187.010610687
 20
197.4464860502
 40
2.0
100
AcDbArc
 50
0.0
 51
90.0
  0
ARC
  5
303
100
AcDbEntity
  8
0
100
AcDbCircle
 62
7
  6
CONTINUOUS
 10
203.911926594
 20
199.2430649132
 40
1.758157943
100
AcDbArc
 50
201.1872687082
 51
360.0
  0
ARC
  5
304
100
AcDbEntity
  8
0
100
AcDbCircle
 62
7
  6
CONTINUOUS
 10
203.40192658
 20
187.7701644487
 40
1.261578982
100
AcDbArc
 50
270.1673221427
 51
360.0
  0
ARC
  5
305
100
AcDbEntity
  8
0
100
AcDbCircle
 62
7
  6
CONTINUOUS
 10
201.898768644
 20
187.7701698282
 40
1.261578982
100
AcDbArc
 50
180.0
 51
270.0
  0
ARC
  5
306
100
AcDbEntity
  8
0
100
AcDbCircle
 62
7
  6
CONTINUOUS
 10
202.046400227
 20
193.8612226602
 40
1.20789477
100
AcDbArc
 50
90.0
 51
270.0
  0
ARC
  5
307
100
AcDbEntity
  8
0
100
AcDbCircle
 62
7
  6
CONTINUOUS
 10
201.147189676
 20
200.2824672365
 40
1.006578975
100
AcDbArc
 50
300.0
 51
360.0
  0
ARC
  5
308
100
AcDbEntity
  8
0
100
AcDbCircle
 62
7
  6
CONTINUOUS
 10
203.911926594
 20
199.6456965032
 40
0.751578968
100
AcDbArc
 50
180.0
 51
360.0
  0
ARC
  5
309
100
AcDbEntity
  8
BEZUGSACHSEN
100
AcDbCircle
 62
7
  6
CONTINUOUS
 10
166.010610687
 20
225.9464860502
 40
25.5000007
100
AcDbArc
 50
0.0
 51
180.0
  0
ARC
  5
30A
100
AcDbEntity
  8
BEZUGSACHSEN
100
AcDbCircle
 62
7
  6
CONTINUOUS
 10
170.210611387
 20
225.9464860502
 40
21.3
100
AcDbArc
 50
297.7763190034
 51
360.0
  0
ARC
  5
30B
100
AcDbEntity
  8
BEZUGSACHSEN
100
AcDbCircle
 62
7
  6
CONTINUOUS
 10
201.457979587
 20
225.9464860502
 40
8.0526318
100
AcDbArc
 50
0.0
 51
22.5
  0
ARC
  5
30C
100
AcDbEntity
  8
BEZUGSACHSEN
100
AcDbCircle
 62
7
  6
CONTINUOUS
 10
191.0756856114
 20
251.0115609747
 40
8.0526318
100
AcDbArc
 50
22.5
 51
67.5
  0
ARC
  5
30D
100
AcDbEntity
  8
BEZUGSACHSEN
100
AcDbCircle
 62
7
  6
CONTINUOUS
 10
166.010610687
 20
261.3938549502
 40
8.0526318
100
AcDbArc
 50
67.5
 51
112.5
  0
ARC
  5
30E
100
AcDbEntity
  8
0
100
AcDbCircle
 62
7
  6
CONTINUOUS
 10
275.9894496517
 20
178.4464860502
 40
21.5
100
AcDbArc
 50
111.8469430541
 51
122.4306964191
  0
ARC
  5
30F
100
AcDbEntity
  8
0
100
AcDbCircle
 62
7
  6
CONTINUOUS
 10
275.9894496517
 20
178.4464860502
 40
21.5
100
AcDbArc
 50
61.3145979859
 51
68.1486327382
  0
ARC
  5
310
100
AcDbEntity
  8
0
100
AcDbCircle
 62
7
  6
CONTINUOUS
 10
275.9894496517
 20
178.4464860502
 40
21.0
100
AcDbArc
 50
112.4066558619
 51
170.0
  0
ARC
  5
311
100
AcDbEntity
  8
0
100
AcDbCircle
 62
7
  6
CONTINUOUS
 10
275.9894496517
 20
178.4464860502
 40
21.0
100
AcDbArc
 50
10.0
 51
67.5933441381
  0
ARC
  5
312
100
AcDbEntity
  8
RUNDUNGEN
100
AcDbCircle
 62
7
  6
CONTINUOUS
 10
275.9894496517
 20
178.4464860502
 40
9.0
100
AcDbArc
 50
152.7444577699
 51
170.0
  0
ARC
  5
313
100
AcDbEntity
  8
RUNDUNGEN
100
AcDbCircle
 62
7
  6
CONTINUOUS
 10
275.9894496517
 20
178.4464860502
 40
9.0
100
AcDbArc
 50
10.0
 51
27.2555421415
  0
ARC
  5
314
100
AcDbEntity
  8
BEZUGSACHSEN
100
AcDbCircle
 62
7
  6
CONTINUOUS
 10
275.9894496517
 20
177.9464860502
 40
8.0
100
AcDbArc
 50
180.0
 51
360.0
  0
ARC
  5
315
100
AcDbEntity
  8
BEZUGSACHSEN
100
AcDbCircle
 62
7
  6
CONTINUOUS
 10
272.9894496517
 20
264.4464867502
 40
5.0
100
AcDbArc
 50
90.0
 51
180.0
  0
ARC
  5
316
100
AcDbEntity
  8
BEZUGSACHSEN
100
AcDbCircle
 62
7
  6
CONTINUOUS
 10
278.9894496517
 20
264.4464867502
 40
5.0
100
AcDbArc
 50
0.0
 51
90.0
  0
ARC
  5
317
100
AcDbEntity
  8
BEZUGSACHSEN
100
AcDbCircle
 62
7
  6
CONTINUOUS
 10
127.510609987
 20
108.03
 40
5.0
100
AcDbArc
 50
90.0
 51
180.0
  0
ARC
  5
318
100
AcDbEntity
  8
RUNDUNGEN
100
AcDbCircle
 62
7
  6
CONTINUOUS
 10
127.510609987
 20
102.03
 40
5.0
100
AcDbArc
 50
180.0
 51
270.0
  0
ARC
  5
319
100
AcDbEntity
  8
BEZUGSACHSEN
100
AcDbCircle
 62
7
  6
CONTINUOUS
 10
204.510611387
 20
102.03
 40
5.0
100
AcDbArc
 50
270.0
 51
360.0
  0
ARC
  5
31A
100
AcDbEntity
  8
BEZUGSACHSEN
100
AcDbCircle
 62
7
  6
CONTINUOUS
 10
204.510611387
 20
108.03
 40
5.0
100
AcDbArc
 50
0.0
 51
90.0
  0
ARC
  5
31B
100
AcDbEntity
  8
0
100
AcDbCircle
 62
7
  6
CONTINUOUS
 10
150.980610687
 20
112.47
 40
1.5
100
AcDbArc
 50
21.9288119548
 51
90.0
  0
ARC
  5
31C
100
AcDbEntity
  8
0
100
AcDbCircle
 62
7
  6
CONTINUOUS
 10
149.130610687
 20
112.47
 40
1.5
100
AcDbArc
 50
90.0
 51
158.0729879777
  0
ARC
  5
31D
100
AcDbEntity
  8
0
100
AcDbCircle
 62
7
  6
CONTINUOUS
 10
151.610610687
 20
96.9777169493
 40
0.88
100
AcDbArc
 50
176.5918977083
 51
180.0
  0
SPLINE
  5
31E
100
AcDbEntity
  8
0
100
AcDbSpline
 62
7
  6
CONTINUOUS
 70
0
 71
3
 72
11
 73
7
 74
0
 42
0.0000001
 43
0.0000001
 44
0.0000000001
 40
0.0
 40
0.0
 40
0.0
 40
0.0
 40
0.2315200757
 40
0.5000012022
 40
0.7684817046
 40
1.0
 40
1.0
 40
1.0
 40
1.0
 10
183.9851132547
 20
199.8792896445
 30
0.0
 10
183.6712666163
 20
199.9023124557
 30
0.0
 10
182.9915618918
 20
199.9228871646
 30
0.0
 10
181.9470939832
 20
199.9302049828
 30
0.0
 10
180.9026284963
 20
199.9228866452
 30
0.0
 10
180.2229270623
 20
199.9023108653
 30
0.0
 10
179.9090828867
 20
199.8792875589
 30
0.0
  0
SPLINE
  5
31F
100
AcDbEntity
  8
0
100
AcDbSpline
 62
7
  6
CONTINUOUS
 70
0
 71
3
 72
29
 73
25
 74
0
 42
0.0000001
 43
0.0000001
 44
0.0000000001
 40
0.0
 40
0.0
 40
0.0
 40
0.0
 40
0.0037914014
 40
0.0116835105
 40
0.024071192
 40
0.0409054995
 40
0.0620685379
 40
0.0873629863
 40
0.1493540649
 40
0.224598207
 40
0.3103117039
 40
0.4032743318
 40
0.4999672397
 40
0.5966767325
 40
0.6896585993
 40
0.7753807957
 40
0.8506288914
 40
0.9126236129
 40
0.9379201949
 40
0.9590855398
 40
0.9759222111
 40
0.9883122706
 40
0.9962067293
 40
1.0
 40
1.0
 40
1.0
 40
1.0
 10
179.8471987173
 20
199.9129278728
 30
0.0
 10
179.8472247678
 20
199.9075610958
 30
0.0
 10
179.8630283737
 20
199.8955405341
 30
0.0
 10
179.8927176991
 20
199.8836666462
 30
0.0
 10
179.9439589034
 20
199.8676680496
 30
0.0
 10
180.0128954606
 20
199.8511402664
 30
0.0
 10
180.1008354825
 20
199.8330923199
 30
0.0
 10
180.251966135
 20
199.8065080974
 30
0.0
 10
180.4798840839
 20
199.7743416238
 30
0.0
 10
180.7937024858
 20
199.7406742327
 30
0.0
 10
181.1521705303
 20
199.7134984249
 30
0.0
 10
181.5416188802
 20
199.6958088732
 30
0.0
 10
181.9469933884
 20
199.6896377254
 30
0.0
 10
182.3523951089
 20
199.6958058536
 30
0.0
 10
182.7419069222
 20
199.7134878072
 30
0.0
 10
183.1004201803
 20
199.7406650682
 30
0.0
 10
183.4142618373
 20
199.7743318935
 30
0.0
 10
183.6421937137
 20
199.80649805
 30
0.0
 10
183.7933359942
 20
199.833082464
 30
0.0
 10
183.8812857215
 20
199.8511304865
 30
0.0
 10
183.9502324358
 20
199.8676599251
 30
0.0
 10
184.0014837854
 20
199.8836570682
 30
0.0
 10
184.0311826045
 20
199.8955363876
 30
0.0
 10
184.0469935413
 20
199.9075520012
 30
0.0
 10
184.0470249066
 20
199.9129213957
 30
0.0
  0
SPLINE
  5
320
100
AcDbEntity
  8
0
100
AcDbSpline
 62
7
  6
CONTINUOUS
 70
0
 71
3
 72
22
 73
18
 74
0
 42
0.0000001
 43
0.0000001
 44
0.0000000001
 40
0.0
 40
0.0
 40
0.0
 40
0.0
 40
0.0260648353
 40
0.0563283081
 40
0.0944808585
 40
0.1420803622
 40
0.1695211239
 40
0.1992985196
 40
0.2653680521
 40
0.3389668618
 40
0.418315478
 40
0.5013241675
 40
0.5857182859
 40
0.749324769
 40
0.8916606048
 40
0.9506016768
 40
1.0
 40
1.0
 40
1.0
 40
1.0
 10
146.380610687
 20
198.8987010892
 30
0.0
 10
146.380610687
 20
198.9362694205
 30
0.0
 10
146.402833554
 20
199.0184375868
 30
0.0
 10
146.4958684604
 20
199.1221069935
 30
0.0
 10
146.6389130604
 20
199.2109830473
 30
0.0
 10
146.7909494113
 20
199.2717476974
 30
0.0
 10
146.935456991
 20
199.315907667
 30
0.0
 10
147.1078470501
 20
199.3593202994
 30
0.0
 10
147.348206677
 20
199.4038826592
 30
0.0
 10
147.6615860453
 20
199.4429496703
 30
0.0
 10
148.0007660389
 20
199.4692508562
 30
0.0
 10
148.3562327571
 20
199.4829480021
 30
0.0
 10
148.8334283176
 20
199.4844438463
 30
0.0
 10
149.3957137009
 20
199.4574562665
 30
0.0
 10
149.9186174571
 20
199.388888056
 30
0.0
 10
150.2693438548
 20
199.3006147367
 30
0.0
 10
150.4163498118
 20
199.2461721221
 30
0.0
 10
150.480610687
 20
199.2155133608
 30
0.0
  0
SPLINE
  5
321
100
AcDbEntity
  8
0
100
AcDbSpline
 62
7
  6
CONTINUOUS
 70
0
 71
3
 72
9
 73
5
 74
0
 42
0.0000001
 43
0.0000001
 44
0.0000000001
 40
0.0
 40
0.0
 40
0.0
 40
0.0
 40
0.2221737001
 40
1.0
 40
1.0
 40
1.0
 40
1.0
 10
150.910650658
 20
198.0542781428
 30
0.0
 10
150.9287966722
 20
198.0634113726
 30
0.0
 10
151.0123171675
 20
198.1008527059
 30
0.0
 10
151.101059373
 20
198.1256121772
 30
0.0
 10
151.170610687
 20
198.140476642
 30
0.0
  0
SPLINE
  5
322
100
AcDbEntity
  8
0
100
AcDbSpline
 62
7
  6
CONTINUOUS
 70
0
 71
3
 72
14
 73
10
 74
0
 42
0.0000001
 43
0.0000001
 44
0.0000000001
 40
0.0
 40
0.0
 40
0.0
 40
0.0
 40
0.0258745122
 40
0.0792904277
 40
0.1626181255
 40
0.2755866853
 40
0.4172605149
 40
0.5862912866
 40
1.0
 40
1.0
 40
1.0
 40
1.0
 10
184.9470663691
 20
199.9129156398
 30
0.0
 10
184.9470205496
 20
199.9051765199
 30
0.0
 10
184.9249299622
 20
199.8876105166
 30
0.0
 10
184.8832171888
 20
199.8688027307
 30
0.0
 10
184.8113114676
 20
199.843387776
 30
0.0
 10
184.7145865024
 20
199.8161114954
 30
0.0
 10
184.5912610957
 20
199.7858818927
 30
0.0
 10
184.3794613722
 20
199.7405730323
 30
0.0
 10
184.2076703669
 20
199.7103886334
 30
0.0
 10
184.0854440581
 20
199.6910719885
 30
0.0
  0
SPLINE
  5
323
100
AcDbEntity
  8
0
100
AcDbSpline
 62
7
  6
CONTINUOUS
 70
0
 71
3
 72
11
 73
7
 74
0
 42
0.0000001
 43
0.0000001
 44
0.0000000001
 40
0.0
 40
0.0
 40
0.0
 40
0.0
 40
0.2292065038
 40
0.4999993941
 40
0.7707925392
 40
1.0
 40
1.0
 40
1.0
 40
1.0
 10
184.0854440581
 20
199.6910719885
 30
0.0
 10
183.7615786997
 20
199.6398883096
 30
0.0
 10
183.0499819681
 20
199.5597959787
 30
0.0
 10
181.9471215817
 20
199.5173732109
 30
0.0
 10
180.8442597513
 20
199.5597945048
 30
0.0
 10
180.1326612245
 20
199.6398863417
 30
0.0
 10
179.8087944325
 20
199.6910697195
 30
0.0
  0
SPLINE
  5
324
100
AcDbEntity
  8
0
100
AcDbSpline
 62
7
  6
CONTINUOUS
 70
0
 71
3
 72
14
 73
10
 74
0
 42
0.0000001
 43
0.0000001
 44
0.0000000001
 40
0.0
 40
0.0
 40
0.0
 40
0.0
 40
0.4137149714
 40
0.5827474075
 40
0.7244215371
 40
0.8373895082
 40
0.9207153655
 40
0.9741285638
 40
1.0
 40
1.0
 40
1.0
 40
1.0
 10
179.8087944325
 20
199.6910697195
 30
0.0
 10
179.686563935
 20
199.7103868273
 30
0.0
 10
179.5147673055
 20
199.7405720711
 30
0.0
 10
179.3029611959
 20
199.7858822301
 30
0.0
 10
179.1796330304
 20
199.8161127171
 30
0.0
 10
179.0829070402
 20
199.8433892457
 30
0.0
 10
179.0110013111
 20
199.8688054534
 30
0.0
 10
178.9692904517
 20
199.8876115986
 30
0.0
 10
178.9472011537
 20
199.9051798903
 30
0.0
 10
178.9471575224
 20
199.9129182489
 30
0.0
  0
SPLINE
  5
325
100
AcDbEntity
  8
0
100
AcDbSpline
 62
7
  6
CONTINUOUS
 70
0
 71
3
 72
21
 73
17
 74
0
 42
0.0000001
 43
0.0000001
 44
0.0000000001
 40
0.0
 40
0.0
 40
0.0
 40
0.0
 40
0.0297209958
 40
0.0661904166
 40
0.1134044579
 40
0.1725288147
 40
0.2429286192
 40
0.3228666183
 40
0.4999999185
 40
0.6771331726
 40
0.7570711316
 40
0.8274710946
 40
0.8865955675
 40
0.933809416
 40
0.9702788716
 40
1.0
 40
1.0
 40
1.0
 40
1.0
 10
149.510610687
 20
198.8159632158
 30
0.0
 10
149.510610687
 20
198.8365457144
 30
0.0
 10
149.4956884915
 20
198.8826580646
 30
0.0
 10
149.4387002468
 20
198.9390540326
 30
0.0
 10
149.3522803281
 20
198.9883213079
 30
0.0
 10
149.2370017498
 20
199.0306074058
 30
0.0
 10
149.0958916558
 20
199.0650989582
 30
0.0
 10
148.8716275942
 20
199.1001580699
 30
0.0
 10
148.57061092
 20
199.1161926119
 30
0.0
 10
148.2695942816
 20
199.1001581065
 30
0.0
 10
148.0453301466
 20
199.0650991129
 30
0.0
 10
147.9042199322
 20
199.0306073267
 30
0.0
 10
147.7889412689
 20
198.9883214599
 30
0.0
 10
147.7025211383
 20
198.9390543826
 30
0.0
 10
147.6455333999
 20
198.8826581097
 30
0.0
 10
147.630610687
 20
198.8365458062
 30
0.0
 10
147.630610687
 20
198.8159632158
 30
0.0
  0
SPLINE
  5
326
100
AcDbEntity
  8
0
100
AcDbSpline
 62
7
  6
CONTINUOUS
 70
0
 71
3
 72
21
 73
17
 74
0
 42
0.0000001
 43
0.0000001
 44
0.0000000001
 40
0.0
 40
0.0
 40
0.0
 40
0.0
 40
0.030269761
 40
0.0670649677
 40
0.1143768586
 40
0.1733982069
 40
0.2436348545
 40
0.3233429393
 40
0.4999989245
 40
0.6766538
 40
0.756362048
 40
0.8266009998
 40
0.8856230953
 40
0.9329342442
 40
0.9697297727
 40
1.0
 40
1.0
 40
1.0
 40
1.0
 10
147.630610687
 20
198.2874940891
 30
0.0
 10
147.630610687
 20
198.3085391445
 30
0.0
 10
147.6453099525
 20
198.3554764398
 30
0.0
 10
147.7020468533
 20
198.4135382713
 30
0.0
 10
147.7884492339
 20
198.4641533439
 30
0.0
 10
147.9036746097
 20
198.5076495873
 30
0.0
 10
148.044808194
 20
198.5430562492
 30
0.0
 10
148.2692094254
 20
198.5791366582
 30
0.0
 10
148.5706074711
 20
198.5955923116
 30
0.0
 10
148.8720058489
 20
198.5791381907
 30
0.0
 10
149.0964078682
 20
198.5430567032
 30
0.0
 10
149.2375436713
 20
198.5076498815
 30
0.0
 10
149.352771159
 20
198.4641549075
 30
0.0
 10
149.4391740218
 20
198.4135394158
 30
0.0
 10
149.4959093161
 20
198.3554767152
 30
0.0
 10
149.510610687
 20
198.3085394687
 30
0.0
 10
149.510610687
 20
198.2874940891
 30
0.0
  0
SPLINE
  5
327
100
AcDbEntity
  8
0
100
AcDbSpline
 62
7
  6
CONTINUOUS
 70
0
 71
3
 72
29
 73
25
 74
0
 42
0.0000001
 43
0.0000001
 44
0.0000000001
 40
0.0
 40
0.0
 40
0.0
 40
0.0
 40
0.0039412561
 40
0.0120126054
 40
0.0245667316
 40
0.0415616916
 40
0.062852366
 40
0.088233546
 40
0.1502836961
 40
0.2254243277
 40
0.3109158569
 40
0.4036163321
 40
0.5000243054
 40
0.5964311722
 40
0.6891286322
 40
0.7746155123
 40
0.8497498032
 40
0.9117924845
 40
0.9371694888
 40
0.9584556704
 40
0.9754460265
 40
0.9879954899
 40
0.9960623444
 40
1.0
 40
1.0
 40
1.0
 40
1.0
 10
178.9471583318
 20
199.4120127126
 30
0.0
 10
178.9472870065
 20
199.4040118515
 30
0.0
 10
178.9697803247
 20
199.3859068939
 30
0.0
 10
179.0125369947
 20
199.3662901499
 30
0.0
 10
179.0858872861
 20
199.339968067
 30
0.0
 10
179.1845463215
 20
199.3116537444
 30
0.0
 10
179.3102106551
 20
199.2803265567
 30
0.0
 10
179.5258283053
 20
199.2334232883
 30
0.0
 10
179.8509376465
 20
199.1753814698
 30
0.0
 10
180.2988854693
 20
199.1135954368
 30
0.0
 10
180.8108744035
 20
199.0630282897
 30
0.0
 10
181.3675464336
 20
199.0298635158
 30
0.0
 10
181.9472658553
 20
199.0183110545
 30
0.0
 10
182.5269789193
 20
199.0298754052
 30
0.0
 10
183.0836324679
 20
199.0630507735
 30
0.0
 10
183.5955920842
 20
199.1136254948
 30
0.0
 10
184.04350148
 20
199.1754155194
 30
0.0
 10
184.3685736783
 20
199.2334581855
 30
0.0
 10
184.5841579776
 20
199.2803599395
 30
0.0
 10
184.7097952454
 20
199.3116857498
 30
0.0
 10
184.80842579
 20
199.3399947228
 30
0.0
 10
184.8817483423
 20
199.3663185636
 30
0.0
 10
184.9244781131
 20
199.3859206465
 30
0.0
 10
184.9469524713
 20
199.4040366194
 30
0.0
 10
184.9470666364
 20
199.4120303898
 30
0.0
  0
SPLINE
  5
328
100
AcDbEntity
  8
0
100
AcDbSpline
 62
7
  6
CONTINUOUS
 70
0
 71
3
 72
11
 73
7
 74
0
 42
0.0000001
 43
0.0000001
 44
0.0000000001
 40
0.0
 40
0.0
 40
0.0
 40
0.0
 40
0.3457206769
 40
0.623415118
 40
0.8338295114
 40
1.0
 40
1.0
 40
1.0
 40
1.0
 10
151.170610687
 20
198.6727873787
 30
0.0
 10
151.1074138382
 20
198.6596364441
 30
0.0
 10
150.9944274247
 20
198.6294723217
 30
0.0
 10
150.8524832457
 20
198.5635319979
 30
0.0
 10
150.7566876011
 20
198.4832292971
 30
0.0
 10
150.730610687
 20
198.4126756471
 30
0.0
 10
150.730610687
 20
198.3816493972
 30
0.0
  0
SPLINE
  5
329
100
AcDbEntity
  8
0
100
AcDbSpline
 62
7
  6
CONTINUOUS
 70
0
 71
3
 72
15
 73
11
 74
0
 42
0.0000001
 43
0.0000001
 44
0.0000000001
 40
0.0
 40
0.0
 40
0.0
 40
0.0
 40
0.1191659991
 40
0.2461106704
 40
0.3730553418
 40
0.5000000132
 40
0.6269446845
 40
0.7538893559
 40
0.8808340273
 40
1.0
 40
1.0
 40
1.0
 40
1.0
 10
146.381686723
 20
113.0301438288
 30
0.0
 10
146.3926677804
 20
113.3372113843
 30
0.0
 10
146.5886563333
 20
113.9686130383
 30
0.0
 10
147.3893406934
 20
114.7837891113
 30
0.0
 10
148.6126357645
 20
115.339829679
 30
0.0
 10
150.055610687
 20
115.5350851605
 30
0.0
 10
151.4985856095
 20
115.339829679
 30
0.0
 10
152.7218806807
 20
114.7837891113
 30
0.0
 10
153.5225649842
 20
113.9686130958
 30
0.0
 10
153.7185535517
 20
113.3372115194
 30
0.0
 10
153.7295346437
 20
113.0301440325
 30
0.0
  0
ELLIPSE
  5
32A
100
AcDbEntity
  8
0
100
AcDbEllipse
 62
7
  6
CONTINUOUS
 10
167.3889334376
 20
178.4464860502
 30
0.0
 11
24.5406761935
 21
-0.0
 31
0.0
 40
0.8760964788
 41
1.3810552219
 42
1.4809078851
  0
ELLIPSE
  5
32B
100
AcDbEntity
  8
0
100
AcDbEllipse
 62
7
  6
CONTINUOUS
 10
186.5242590784
 20
178.4464860502
 30
0.0
 11
64.3039535813
 21
-0.0
 31
0.0
 40
0.334349582
 41
1.93806733
 42
2.0269130141
  0
ELLIPSE
  5
32C
100
AcDbEntity
  8
0
100
AcDbEllipse
 62
7
  6
CONTINUOUS
 10
142.540609396
 20
178.4464860502
 30
0.0
 11
64.5000038445
 21
0.0
 31
0.0
 40
0.3333333135
 41
1.2283270944
 42
1.3255547265
  0
ELLIPSE
  5
32D
100
AcDbEntity
  8
RUNDUNGEN
100
AcDbEllipse
 62
7
  6
CONTINUOUS
 10
148.010610687
 20
174.3364895287
 30
0.0
 11
-0.0
 21
14.3969262079
 31
0.0
 40
0.3472963553
 41
-4.4603706651
 42
-4.290904629
  0
ELLIPSE
  5
32E
100
AcDbEntity
  8
RUNDUNGEN
100
AcDbEllipse
 62
7
  6
CONTINUOUS
 10
184.010610687
 20
174.3364895287
 30
0.0
 11
0.0
 21
14.3969262079
 31
0.0
 40
0.3472963553
 41
-1.9922806782
 42
-1.8228146421
  0
ELLIPSE
  5
32F
100
AcDbEntity
  8
0
100
AcDbEllipse
 62
7
  6
CONTINUOUS
 10
160.1083058277
 20
178.4464860502
 30
0.0
 11
37.2390923627
 21
-0.0
 31
0.0
 40
0.5773502692
 41
1.7429082425
 42
1.8323040628
  0
ELLIPSE
  5
330
100
AcDbEntity
  8
0
100
AcDbEllipse
 62
7
  6
CONTINUOUS
 10
188.8606097733
 20
178.4464860502
 30
0.0
 11
62.9999981225
 21
-0.0
 31
0.0
 40
0.3333333433
 41
1.972979848
 42
2.079066324
  0
ELLIPSE
  5
331
100
AcDbEntity
  8
0
100
AcDbEllipse
 62
7
  6
CONTINUOUS
 10
163.7975740478
 20
178.4464860502
 30
0.0
 11
36.3730669589
 21
0.0
 31
0.0
 40
0.5773502692
 41
1.8512271986
 42
1.9253282767
  0
ELLIPSE
  5
332
100
AcDbEntity
  8
0
100
AcDbEllipse
 62
7
  6
CONTINUOUS
 10
188.8606097733
 20
178.4464860502
 30
0.0
 11
64.4999980778
 21
-0.0
 31
0.0
 40
0.3333333433
 41
1.9631081015
 42
2.0661568133
  0
ELLIPSE
  5
333
100
AcDbEntity
  8
0
100
AcDbEllipse
 62
7
  6
CONTINUOUS
 10
140.3450474058
 20
178.4464860502
 30
0.0
 11
64.3039535813
 21
-0.0
 31
0.0
 40
0.334349582
 41
1.2035253236
 42
1.2894238396
  0
ELLIPSE
  5
334
100
AcDbEntity
  8
0
100
AcDbEllipse
 62
7
  6
CONTINUOUS
 10
145.010610687
 20
177.4160050964
 30
0.0
 11
-0.0
 21
2.8677428879
 31
0.0
 40
0.6974125918
 41
0.0
 42
1.5707963268
  0
ELLIPSE
  5
335
100
AcDbEntity
  8
0
100
AcDbEllipse
 62
7
  6
CONTINUOUS
 10
187.010610687
 20
177.4160050964
 30
0.0
 11
0.0
 21
2.8677428879
 31
0.0
 40
0.6974125918
 41
-1.5707963268
 42
0.0
  0
ELLIPSE
  5
336
100
AcDbEntity
  8
0
100
AcDbEllipse
 62
7
  6
CONTINUOUS
 10
166.3531639128
 20
178.4464860502
 30
0.0
 11
24.7021272779
 21
0.0
 31
0.0
 40
0.8703703838
 41
1.3394354772
 42
1.4809078851
  0
ELLIPSE
  5
337
100
AcDbEntity
  8
0
100
AcDbEllipse
 62
7
  6
CONTINUOUS
 10
163.7975740478
 20
178.4464860502
 30
0.0
 11
37.2390923627
 21
0.0
 31
0.0
 40
0.5773502692
 41
1.8445354373
 42
1.9167331732
  0
ELLIPSE
  5
338
100
AcDbEntity
  8
0
100
AcDbEllipse
 62
7
  6
CONTINUOUS
 10
166.3531639128
 20
178.4464860502
 30
0.0
 11
24.1276592016
 21
-0.0
 31
0.0
 40
0.8703703838
 41
1.3338227066
 42
1.4787616919
  0
ELLIPSE
  5
339
100
AcDbEntity
  8
0
100
AcDbEllipse
 62
7
  6
CONTINUOUS
 10
140.3450474058
 20
178.4464860502
 30
0.0
 11
62.8085128004
 21
-0.0
 31
0.0
 40
0.334349582
 41
1.2293499253
 42
1.2825350009
  0
ELLIPSE
  5
33A
100
AcDbEntity
  8
0
100
AcDbEllipse
 62
7
  6
CONTINUOUS
 10
145.010610687
 20
85.5551927789
 30
0.0
 11
2.0
 21
0.0
 31
0.0
 40
0.7625963894
 41
3.1415926536
 42
4.7123889804
  0
ELLIPSE
  5
33B
100
AcDbEntity
  8
KONSTRUKTIONSELEMENTE
100
AcDbEllipse
 62
7
  6
CONTINUOUS
 10
145.010610687
 20
124.5048072211
 30
0.0
 11
2.0
 21
-0.0
 31
0.0
 40
0.7625963894
 41
1.5707963268
 42
3.1415926536
  0
ELLIPSE
  5
33C
100
AcDbEntity
  8
0
100
AcDbEllipse
 62
7
  6
CONTINUOUS
 10
187.010610687
 20
85.5551927789
 30
0.0
 11
2.0
 21
-0.0
 31
0.0
 40
0.7625963894
 41
-1.5707963268
 42
-0.0
  0
ELLIPSE
  5
33D
100
AcDbEntity
  8
KONSTRUKTIONSELEMENTE
100
AcDbEllipse
 62
7
  6
CONTINUOUS
 10
187.010610687
 20
124.5048072211
 30
0.0
 11
2.0
 21
0.0
 31
0.0
 40
0.7625963894
 41
-0.0
 42
1.5707963268
  0
ENDSEC
  0
SECTION
  2
OBJECTS
  0
DICTIONARY
  5
C
100
AcDbDictionary
280
0
281
1
  3
ACAD_GROUP
350
D
  3
ACAD_MLINESTYLE
350
17
  3
ACAD_LAYOUT
350
1A
  3
ACAD_PLOTSETTINGS
350
19
  3
ACAD_PLOTSTYLENAME
350
E
  0
DICTIONARY
  5
D
102
{ACAD_REACTORS
330
C
102
}
100
AcDbDictionary
280
0
281
1
  0
ACDBDICTIONARYWDFLT
  5
E
102
{ACAD_REACTORS
330
C
102
}
100
AcDbDictionary
281
1
  3
Normal
350
F
100
AcDbDictionaryWithDefault
340
F
  0
DICTIONARY
  5
17
102
{ACAD_REACTORS
330
C
102
}
100
AcDbDictionary
280
0
281
1
  3
Standard
350
18
  0
DICTIONARY
  5
19
102
{ACAD_REACTORS
330
C
102
}
100
AcDbDictionary
281
1
  0
DICTIONARY
  5
1A
102
{ACAD_REACTORS
330
C
102
}
100
AcDbDictionary
281
1
  3
Model
350
33E
  3
Layout1
350
33F
  0
ACDBPLACEHOLDER
  5
F
102
{ACAD_REACTORS
330
E
102
}
  0
MLINESTYLE
  5
18
102
{ACAD_REACTORS
330
17
102
}
100
AcDbMlineStyle
  2
STANDARD
 70
0
  3

 62
256
 51
90.0
 52
90.0
 71
2
 49
0.5
 62
256
  6
BYLAYER
 49
-0.5
 62
256
  6
BYLAYER
  0
LAYOUT
  5
33E
102
{ACAD_REACTORS
330
1A
102
}
100
AcDbPlotSettings
  1

  2
none_device
  4
ISO_A3_(420.00_x_297.00_MM)
  6

 40
0.0
 41
0.0
 42
0.0
 43
0.0
 44
420.0
 45
297.0
 46
0.0
 47
0.0
 48
0.0
 49
0.0
140
0.0
141
0.0
142
1.0
143
1.0
 70
1024
 72
1
 73
0
 74
0
  7

 75
0
147
1.0
148
0.0
149
0.0
100
AcDbLayout
  1
Model
 70
0
 71
0
 10
0.0
 20
0.0
 11
420.0
 21
297.0
 12
0.0
 22
0.0
 32
0.0
 14
0.0
 24
0.0
 34
0.0
 15
0.0
 25
0.0
 35
0.0
146
0.0
 13
0.0
 23
0.0
 33
0.0
 16
1.0
 26
0.0
 36
0.0
 17
0.0
 27
1.0
 37
0.0
 76
0
330
20E
345
0
346
0
  0
LAYOUT
  5
33F
102
{ACAD_REACTORS
330
1A
102
}
100
AcDbPlotSettings
  1

  2
none_device
  4
ISO_A3_(420.00_x_297.00_MM)
  6

 40
0.0
 41
0.0
 42
0.0
 43
0.0
 44
420.0
 45
297.0
 46
0.0
 47
0.0
 48
0.0
 49
0.0
140
0.0
141
0.0
142
1.0
143
1.0
 70
0
 72
1
 73
0
 74
0
  7

 75
0
147
1.0
148
0.0
149
0.0
100
AcDbLayout
  1
Layout1
 70
0
 71
1
 10
0.0
 20
0.0
 11
420.0
 21
297.0
 12
0.0
 22
0.0
 32
0.0
 14
0.0
 24
0.0
 34
0.0
 15
0.0
 25
0.0
 35
0.0
146
0.0
 13
0.0
 23
0.0
 33
0.0
 16
1.0
 26
0.0
 36
0.0
 17
0.0
 27
1.0
 37
0.0
 76
0
330
20F
345
0
346
0
  0
ENDSEC
  0
EOF
