999
DXF file: 001-m34884-p4.dxf
999
Pro/ENGINEER 2011490 by Parametric Technology Corporation
  0
SECTION
  2
HEADER
  9
$ACADVER
  1
AC1015
  9
$DWGCODEPAGE
  3
ANSI_1252
  9
$EXTMAX
 10
297.0
 20
210.0
 30
0.0
  9
$EXTMIN
 10
0.0
 20
0.0
 30
0.0
  9
$LIMMIN
 10
0.0
 20
0.0
  9
$LIMMAX
 10
297.0
 20
210.0
  9
$VIEWCTR
 10
148.5
 20
105.0
  9
$VIEWSIZE
 40
210.0
  9
$CLAYER
  8
0
  9
$LTSCALE
 40
16.335
  9
$CELTYPE
  6
BYLAYER
  9
$DIMSCALE
 40
1.0
  9
$DIMASZ
 40
3.5
  9
$DIMEXO
 40
1.85625
  9
$DIMDLI
 40
11.286
  9
$DIMEXE
 40
5.346
  9
$DIMCEN
 40
2.673
  9
$DIMLFAC
 40
1.0
  9
$DIMBLK
  1
_FILLED
  9
$DIMTXT
 40
3.5
  9
$DIMTOL
 70
1
  9
$DIMLIM
 70
0
  9
$DIMTFAC
 40
1.0
  9
$DIMTP
 40
0.005
  9
$DIMTM
 40
0.005
  9
$PDMODE
 70
3
  9
$PDSIZE
 40
0.3125
  9
$HANDSEED
  5
380
  9
$TILEMODE
 70
1
  9
$MEASUREMENT
 70
1
  9
$INSUNITS
 70
4
  0
ENDSEC
  0
SECTION
  2
CLASSES
  0
CLASS
  1
ACDBDICTIONARYWDFLT
  2
AcDbDictionaryWithDefault
  3
AutoCAD 2000
 90
0
280
0
281
0
  0
CLASS
  1
ACDBPLACEHOLDER
  2
AcDbPlaceHolder
  3
AutoCAD 2000
 90
0
280
0
281
0
  0
CLASS
  1
LAYOUT
  2
AcDbLayout
  3
AutoCAD 2000
 90
0
280
0
281
0
  0
ENDSEC
  0
SECTION
  2
TABLES
  0
TABLE
  2
VPORT
  5
8
100
AcDbSymbolTable
 70
2
  0
VPORT
  5
1F4
100
AcDbSymbolTableRecord
100
AcDbViewportTableRecord
  2
*ACTIVE
 70
0
 10
0.0
 20
0.0
 11
1.0
 21
1.0
 12
148.5
 22
105.0
 13
0.0
 23
0.0
 14
1.0
 24
1.0
 15
0.0
 25
0.0
 16
0.0
 26
0.0
 36
1.0
 17
0.0
 27
0.0
 37
0.0
 40
210.0
 41
1.4142857143
 42
50.0
 43
0.0
 44
0.0
 50
0.0
 51
0.0
 71
0
 72
100
 73
1
 74
1
 75
0
 76
0
 77
0
 78
0
  0
ENDTAB
  0
TABLE
  2
LTYPE
  5
5
100
AcDbSymbolTable
 70
6
  0
LTYPE
  5
14
100
AcDbSymbolTableRecord
100
AcDbLinetypeTableRecord
  2
BYBLOCK
 70
0
  3

 72
65
 73
0
 40
0.0
  0
LTYPE
  5
15
100
AcDbSymbolTableRecord
100
AcDbLinetypeTableRecord
  2
BYLAYER
 70
0
  3

 72
65
 73
0
 40
0.0
  0
LTYPE
  5
16
100
AcDbSymbolTableRecord
100
AcDbLinetypeTableRecord
  2
CONTINUOUS
 70
64
  3
Solid line
 72
65
 73
0
 40
0.0
  0
LTYPE
  5
1F5
100
AcDbSymbolTableRecord
100
AcDbLinetypeTableRecord
  2
CENTER
 70
64
  3
____ _ ____ _ ____ _ ____ _ ____ _ ____ _ ____
 72
65
 73
4
 40
0.6
 49
0.375
 74
0
 49
-0.075
 74
0
 49
0.075
 74
0
 49
-0.075
 74
0
  0
LTYPE
  5
1F6
100
AcDbSymbolTableRecord
100
AcDbLinetypeTableRecord
  2
HIDDEN
 70
64
  3
- - - - - - - - - - - - - - - - - - - -
 72
65
 73
2
 40
0.2
 49
0.1
 74
0
 49
-0.1
 74
0
  0
LTYPE
  5
1F7
100
AcDbSymbolTableRecord
100
AcDbLinetypeTableRecord
  2
PHANTOM
 70
64
  3
_____ _ _ _____ _ _ _____ _ _ _____
 72
65
 73
6
 40
0.8
 49
0.45
 74
0
 49
-0.05
 74
0
 49
0.1
 74
0
 49
-0.05
 74
0
 49
0.1
 74
0
 49
-0.05
 74
0
  0
LTYPE
  5
1F8
100
AcDbSymbolTableRecord
100
AcDbLinetypeTableRecord
  2
DOT
 70
64
  3
. . . . . . . . . . . . . . . . . . . .
 72
65
 73
2
 40
0.2
 49
0.1
 74
0
 49
-0.1
 74
0
  0
LTYPE
  5
1F9
100
AcDbSymbolTableRecord
100
AcDbLinetypeTableRecord
  2
DASHED
 70
64
  3
- - - - - - - - - - - - - - - - - - - -
 72
65
 73
2
 40
0.2
 49
0.1
 74
0
 49
-0.1
 74
0
  0
ENDTAB
  0
TABLE
  2
LAYER
  5
2
100
AcDbSymbolTable
 70
36
  0
LAYER
  5
10
100
AcDbSymbolTableRecord
100
AcDbLayerTableRecord
  2
0
 70
0
 62
7
  6
CONTINUOUS
370
-3
390
F
  0
LAYER
  5
1FA
100
AcDbSymbolTableRecord
100
AcDbLayerTableRecord
  2
DEFAULT_1
 70
0
 62
7
  6
CENTER
370
-3
390
F
  0
LAYER
  5
1FB
100
AcDbSymbolTableRecord
100
AcDbLayerTableRecord
  2
DEFAULT_2
 70
0
 62
8
  6
HIDDEN
370
-3
390
F
  0
LAYER
  5
1FC
100
AcDbSymbolTableRecord
100
AcDbLayerTableRecord
  2
DEFAULT_3
 70
0
 62
7
  6
PHANTOM
370
-3
390
F
  0
LAYER
  5
1FD
100
AcDbSymbolTableRecord
100
AcDbLayerTableRecord
  2
AUSFORMSCHRAEGEN
 70
0
 62
7
  6
CONTINUOUS
370
-3
390
F
  0
LAYER
  5
1FE
100
AcDbSymbolTableRecord
100
AcDbLayerTableRecord
  2
BEZUGSACHSEN
 70
0
 62
7
  6
CONTINUOUS
370
-3
390
F
  0
LAYER
  5
1FF
100
AcDbSymbolTableRecord
100
AcDbLayerTableRecord
  2
BEZUGSEBENEN
 70
0
 62
7
  6
CONTINUOUS
370
-3
390
F
  0
LAYER
  5
200
100
AcDbSymbolTableRecord
100
AcDbLayerTableRecord
  2
BG_STARTBEZUEGE
 70
0
 62
7
  6
CONTINUOUS
370
-3
390
F
  0
LAYER
  5
201
100
AcDbSymbolTableRecord
100
AcDbLayerTableRecord
  2
FASEN
 70
0
 62
7
  6
CONTINUOUS
370
-3
390
F
  0
LAYER
  5
202
100
AcDbSymbolTableRecord
100
AcDbLayerTableRecord
  2
HILFEN
 70
0
 62
7
  6
CONTINUOUS
370
-3
390
F
  0
LAYER
  5
203
100
AcDbSymbolTableRecord
100
AcDbLayerTableRecord
  2
KONSTRUKTIONSELEMENTE
 70
0
 62
7
  6
CONTINUOUS
370
-3
390
F
  0
LAYER
  5
204
100
AcDbSymbolTableRecord
100
AcDbLayerTableRecord
  2
KURVEN
 70
0
 62
7
  6
CONTINUOUS
370
-3
390
F
  0
LAYER
  5
205
100
AcDbSymbolTableRecord
100
AcDbLayerTableRecord
  2
NORM
 70
0
 62
7
  6
CONTINUOUS
370
-3
390
F
  0
LAYER
  5
206
100
AcDbSymbolTableRecord
100
AcDbLayerTableRecord
  2
PLATZIERUNG
 70
0
 62
7
  6
CONTINUOUS
370
-3
390
F
  0
LAYER
  5
207
100
AcDbSymbolTableRecord
100
AcDbLayerTableRecord
  2
RUNDUNGEN
 70
0
 62
7
  6
CONTINUOUS
370
-3
390
F
  0
LAYER
  5
208
100
AcDbSymbolTableRecord
100
AcDbLayerTableRecord
  2
TEIL_STARTBEZUEGE
 70
0
 62
7
  6
CONTINUOUS
370
-3
390
F
  0
LAYER
  5
209
100
AcDbSymbolTableRecord
100
AcDbLayerTableRecord
  2
T_STARTBEZUEGE
 70
0
 62
7
  6
CONTINUOUS
370
-3
390
F
  0
LAYER
  5
20A
100
AcDbSymbolTableRecord
100
AcDbLayerTableRecord
  2
ZEICHNUNGSBEMASSUNGEN
 70
0
 62
7
  6
CONTINUOUS
370
-3
390
F
  0
ENDTAB
  0
TABLE
  2
STYLE
  5
3
100
AcDbSymbolTable
 70
1
  0
STYLE
  5
11
100
AcDbSymbolTableRecord
100
AcDbTextStyleTableRecord
  2
STANDARD
 70
0
 40
0.0
 41
0.7
 50
0.0
 71
0
 42
0.2
  3
txt
  4

  0
STYLE
  5
20B
100
AcDbSymbolTableRecord
100
AcDbTextStyleTableRecord
  2
TEXTSTYLE_1
 70
0
 40
0.0
 41
0.8
 50
0.0
 71
0
 42
0.2
  3
gdt
  4

  0
ENDTAB
  0
TABLE
  2
VIEW
  5
6
100
AcDbSymbolTable
 70
0
  0
ENDTAB
  0
TABLE
  2
UCS
  5
7
100
AcDbSymbolTable
 70
0
  0
ENDTAB
  0
TABLE
  2
APPID
  5
9
100
AcDbSymbolTable
 70
1
  0
APPID
  5
20C
100
AcDbSymbolTableRecord
100
AcDbRegAppTableRecord
  2
ACAD
 70
0
  0
ENDTAB
  0
TABLE
  2
BLOCK_RECORD
  5
1
100
AcDbSymbolTable
 70
0
  0
BLOCK_RECORD
  5
20D
100
AcDbSymbolTableRecord
100
AcDbBlockTableRecord
  2
*Model_Space
  0
BLOCK_RECORD
  5
20E
100
AcDbSymbolTableRecord
100
AcDbBlockTableRecord
  2
*Paper_Space
  0
ENDTAB
  0
TABLE
  2
DIMSTYLE
  5
A
100
AcDbSymbolTable
 70
1
100
AcDbDimStyleTable
 71
0
  0
DIMSTYLE
105
20F
100
AcDbSymbolTableRecord
100
AcDbDimStyleTableRecord
  2
STANDARD
 70
0
  3

  4

 40
1.0
 41
3.5
 42
0.0625
 43
0.38
 44
0.18
 45
0.0
 46
0.0
 47
0.005
 48
0.005
140
3.5
141
0.09
142
0.0
143
25.4
144
1.0
145
0.0
146
1.0
147
0.09
 71
1.0
 72
0.0
 73
0
 74
0
 75
0
 76
0
 77
1
 78
8
170
0
171
2
172
0
173
0
174
0
175
0
176
0
177
0
178
5
270
2
271
3
272
3
273
2
274
2
275
0
280
0
281
0
282
0
283
1
284
8
285
0
286
0
287
3
288
0
340
11
  0
ENDTAB
  0
ENDSEC
  0
SECTION
  2
BLOCKS
  0
BLOCK
  5
20
100
AcDbEntity
  8
0
100
AcDbBlockBegin
  2
*Model_Space
 70
0
 10
0.0
 20
0.0
 30
0.0
  3
*Model_Space
  1

  0
ENDBLK
  5
21
100
AcDbEntity
  8
0
100
AcDbBlockEnd
  0
BLOCK
  5
1C
100
AcDbEntity
  8
0
100
AcDbBlockBegin
  2
*Paper_Space
 70
0
 10
0.0
 20
0.0
 30
0.0
  3
*Paper_Space
  1

  0
ENDBLK
  5
1D
100
AcDbEntity
  8
0
100
AcDbBlockEnd
  0
ENDSEC
  0
SECTION
  2
ENTITIES
  0
MTEXT
  5
210
100
AcDbEntity
  8
0
100
AcDbMText
 62
5
  6
CONTINUOUS
  7
STANDARD
 71
2
 72
1
 10
96.2646827954
 20
36.4392382666
 30
0.0
 11
1.0
 21
0.0
 31
0.0
 44
0.9
  1
VLBS 2,5t\PRUD
 40
4.0
 41
26.6666666667
  0
MTEXT
  5
211
100
AcDbEntity
  8
0
100
AcDbMText
 62
5
  6
CONTINUOUS
  7
STANDARD
 71
2
 72
1
 10
97.1710863097
 20
121.1896745803
 30
0.0
 11
1.0
 21
0.0
 31
0.0
 44
0.9
  1
VLBS 2,5t\PRUD
 40
4.0
 41
26.6666666667
  0
MTEXT
  5
212
100
AcDbEntity
  8
0
100
AcDbMText
 62
5
  6
CONTINUOUS
  7
STANDARD
 71
2
 72
1
 10
238.2553033632
 20
139.2779058397
 30
0.0
 11
0.0
 21
1.0
 31
0.0
 44
0.9
  1
VLBS 2,5t\PRUD
 40
4.0
 41
26.6666666667
  0
LINE
  5
213
100
AcDbEntity
  8
0
100
AcDbLine
 62
7
  6
CONTINUOUS
 10
0.0
 20
0.0
 11
0.0
 21
210.0
  0
LINE
  5
214
100
AcDbEntity
  8
0
100
AcDbLine
 62
7
  6
CONTINUOUS
 10
0.0
 20
0.0
 11
297.0
 21
0.0
  0
LINE
  5
215
100
AcDbEntity
  8
0
100
AcDbLine
 62
7
  6
CONTINUOUS
 10
0.0
 20
210.0
 11
297.0
 21
210.0
  0
LINE
  5
216
100
AcDbEntity
  8
0
100
AcDbLine
 62
7
  6
CONTINUOUS
 10
297.0
 20
0.0
 11
297.0
 21
210.0
  0
LINE
  5
217
100
AcDbEntity
  8
RUNDUNGEN
100
AcDbLine
 62
7
  6
CONTINUOUS
 10
76.2964395109
 20
97.0739481227
 11
115.9585604891
 21
97.0739481227
  0
LINE
  5
218
100
AcDbEntity
  8
BEZUGSACHSEN
100
AcDbLine
 62
7
  6
CONTINUOUS
 10
61.6275005
 20
98.3239481227
 11
76.1922684434
 21
98.3239481227
  0
LINE
  5
219
100
AcDbEntity
  8
BEZUGSACHSEN
100
AcDbLine
 62
7
  6
CONTINUOUS
 10
116.0627315566
 20
98.3239481227
 11
130.6274995
 21
98.3239481227
  0
LINE
  5
21A
100
AcDbEntity
  8
RUNDUNGEN
100
AcDbLine
 62
7
  6
CONTINUOUS
 10
93.4084335673
 20
186.5330916815
 11
71.2090024946
 21
177.3377862542
  0
LINE
  5
21B
100
AcDbEntity
  8
RUNDUNGEN
100
AcDbLine
 62
7
  6
CONTINUOUS
 10
116.126242174
 20
100.0739481227
 11
76.128757826
 21
100.0739481227
  0
LINE
  5
21C
100
AcDbEntity
  8
RUNDUNGEN
100
AcDbLine
 62
7
  6
CONTINUOUS
 10
57.6275005
 20
148.5739481227
 11
57.6275005
 21
105.3239481227
  0
LINE
  5
21D
100
AcDbEntity
  8
BEZUGSACHSEN
100
AcDbLine
 62
7
  6
CONTINUOUS
 10
57.6275005
 20
102.3239481227
 11
57.6275005
 21
105.3239481227
  0
LINE
  5
21E
100
AcDbEntity
  8
RUNDUNGEN
100
AcDbLine
 62
7
  6
CONTINUOUS
 10
67.3636618685
 20
173.4924456281
 11
58.1683564412
 21
151.2930145554
  0
LINE
  5
21F
100
AcDbEntity
  8
0
100
AcDbLine
 62
7
  6
CONTINUOUS
 10
77.6275
 20
106.4678409463
 11
114.6275
 21
106.4678409463
  0
LINE
  5
220
100
AcDbEntity
  8
0
100
AcDbLine
 62
7
  6
CONTINUOUS
 10
127.661447325
 20
115.1481589827
 11
129.082499925
 21
115.1481589827
  0
LINE
  5
221
100
AcDbEntity
  8
0
100
AcDbLine
 62
7
  6
CONTINUOUS
 10
129.042499925
 20
116.2181589827
 11
127.708815745
 21
116.2181589827
  0
LINE
  5
222
100
AcDbEntity
  8
0
100
AcDbLine
 62
7
  6
CONTINUOUS
 10
126.595657875
 20
118.4402641727
 11
129.61539465
 21
118.4402641727
  0
LINE
  5
223
100
AcDbEntity
  8
RUNDUNGEN
100
AcDbLine
 62
7
  6
CONTINUOUS
 10
73.6275005
 20
120.3239481227
 11
73.6275005
 21
124.7009661318
  0
LINE
  5
224
100
AcDbEntity
  8
RUNDUNGEN
100
AcDbLine
 62
7
  6
CONTINUOUS
 10
73.6275005
 20
146.3163389326
 11
73.6275005
 21
148.5739481227
  0
LINE
  5
225
100
AcDbEntity
  8
RUNDUNGEN
100
AcDbLine
 62
7
  6
CONTINUOUS
 10
76.1275
 20
104.8425580179
 11
76.1275
 21
100.1738701549
  0
LINE
  5
226
100
AcDbEntity
  8
0
100
AcDbLine
 62
7
  6
CONTINUOUS
 10
76.1275
 20
104.8425580179
 11
76.1275
 21
123.5739481227
  0
LINE
  5
227
100
AcDbEntity
  8
0
100
AcDbLine
 62
7
  6
CONTINUOUS
 10
131.03644725
 20
119.5060536227
 11
130.148289375
 21
119.5060536227
  0
LINE
  5
228
100
AcDbEntity
  8
0
100
AcDbLine
 62
7
  6
CONTINUOUS
 10
129.61539465
 20
119.5060536227
 11
125.7075
 21
119.5060536227
  0
LINE
  5
229
100
AcDbEntity
  8
0
100
AcDbLine
 62
7
  6
CONTINUOUS
 10
127.8390789
 20
120.5718430727
 11
131.03644725
 21
120.5718430727
  0
LINE
  5
22A
100
AcDbEntity
  8
0
100
AcDbLine
 62
7
  6
CONTINUOUS
 10
131.03644725
 20
121.6376325227
 11
127.8390789
 21
121.6376325227
  0
LINE
  5
22B
100
AcDbEntity
  8
KONSTRUKTIONSELEMENTE
100
AcDbLine
 62
7
  6
CONTINUOUS
 10
80.2075
 20
125.3446034122
 11
80.2075
 21
124.9366140511
  0
LINE
  5
22C
100
AcDbEntity
  8
KONSTRUKTIONSELEMENTE
100
AcDbLine
 62
7
  6
CONTINUOUS
 10
80.2075
 20
124.6404917877
 11
80.2075
 21
123.1820033971
  0
LINE
  5
22D
100
AcDbEntity
  8
0
100
AcDbLine
 62
7
  6
CONTINUOUS
 10
80.2075
 20
123.1820033971
 11
81.2075
 21
123.1820033971
  0
LINE
  5
22E
100
AcDbEntity
  8
0
100
AcDbLine
 62
7
  6
CONTINUOUS
 10
81.6075
 20
123.1820033971
 11
86.0875
 21
123.1820033971
  0
LINE
  5
22F
100
AcDbEntity
  8
KONSTRUKTIONSELEMENTE
100
AcDbLine
 62
7
  6
CONTINUOUS
 10
80.2075
 20
123.5155389571
 11
81.2075
 21
123.5155389571
  0
LINE
  5
230
100
AcDbEntity
  8
KONSTRUKTIONSELEMENTE
100
AcDbLine
 62
7
  6
CONTINUOUS
 10
81.6075
 20
123.5155389571
 11
86.0875
 21
123.5155389571
  0
LINE
  5
231
100
AcDbEntity
  8
0
100
AcDbLine
 62
7
  6
CONTINUOUS
 10
104.746727833
 20
123.6820865369
 11
105.3318342282
 21
123.6820865369
  0
LINE
  5
232
100
AcDbEntity
  8
0
100
AcDbLine
 62
7
  6
CONTINUOUS
 10
127.8390789
 20
123.7692114227
 11
131.03644725
 21
123.7692114227
  0
LINE
  5
233
100
AcDbEntity
  8
KONSTRUKTIONSELEMENTE
100
AcDbLine
 62
7
  6
CONTINUOUS
 10
104.746727833
 20
124.0060564289
 11
105.3318342282
 21
124.0060564289
  0
LINE
  5
234
100
AcDbEntity
  8
KONSTRUKTIONSELEMENTE
100
AcDbLine
 62
7
  6
CONTINUOUS
 10
81.6075
 20
124.0421334892
 11
82.7075
 21
124.0421334892
  0
LINE
  5
235
100
AcDbEntity
  8
KONSTRUKTIONSELEMENTE
100
AcDbLine
 62
7
  6
CONTINUOUS
 10
83.6875
 20
124.0421334892
 11
86.0875
 21
124.0421334892
  0
LINE
  5
236
100
AcDbEntity
  8
0
100
AcDbLine
 62
7
  6
CONTINUOUS
 10
90.3633086342
 20
124.4457583276
 11
95.4575
 21
124.4457583276
  0
LINE
  5
237
100
AcDbEntity
  8
0
100
AcDbLine
 62
7
  6
CONTINUOUS
 10
101.1190681173
 20
124.7198014713
 11
101.3531109704
 21
124.7198014713
  0
LINE
  5
238
100
AcDbEntity
  8
KONSTRUKTIONSELEMENTE
100
AcDbLine
 62
7
  6
CONTINUOUS
 10
89.9575
 20
124.75612621
 11
95.4575
 21
124.75612621
  0
LINE
  5
239
100
AcDbEntity
  8
0
100
AcDbLine
 62
7
  6
CONTINUOUS
 10
131.03644725
 20
124.8350008727
 11
127.8390789
 21
124.8350008727
  0
LINE
  5
23A
100
AcDbEntity
  8
KONSTRUKTIONSELEMENTE
100
AcDbLine
 62
7
  6
CONTINUOUS
 10
89.9575
 20
124.9231018838
 11
94.7553723422
 21
124.9231018838
  0
LINE
  5
23B
100
AcDbEntity
  8
0
100
AcDbLine
 62
7
  6
CONTINUOUS
 10
80.2075
 20
124.9366140511
 11
80.6566549937
 21
124.9366140511
  0
LINE
  5
23C
100
AcDbEntity
  8
0
100
AcDbLine
 62
7
  6
CONTINUOUS
 10
83.2528824379
 20
124.9366140511
 11
83.7375
 21
124.9366140511
  0
LINE
  5
23D
100
AcDbEntity
  8
KONSTRUKTIONSELEMENTE
100
AcDbLine
 62
7
  6
CONTINUOUS
 10
101.1190681173
 20
125.025560349
 11
101.3531109704
 21
125.025560349
  0
LINE
  5
23E
100
AcDbEntity
  8
KONSTRUKTIONSELEMENTE
100
AcDbLine
 62
7
  6
CONTINUOUS
 10
77.6275
 20
125.0739481227
 11
80.2075
 21
125.0739481227
  0
LINE
  5
23F
100
AcDbEntity
  8
KONSTRUKTIONSELEMENTE
100
AcDbLine
 62
7
  6
CONTINUOUS
 10
86.0875
 20
125.0739481227
 11
94.7553723422
 21
125.0739481227
  0
LINE
  5
240
100
AcDbEntity
  8
KONSTRUKTIONSELEMENTE
100
AcDbLine
 62
7
  6
CONTINUOUS
 10
95.4575
 20
125.0739481227
 11
100.3290943719
 21
125.0739481227
  0
LINE
  5
241
100
AcDbEntity
  8
KONSTRUKTIONSELEMENTE
100
AcDbLine
 62
7
  6
CONTINUOUS
 10
102.2427018517
 20
125.0739481227
 11
104.746727833
 21
125.0739481227
  0
LINE
  5
242
100
AcDbEntity
  8
KONSTRUKTIONSELEMENTE
100
AcDbLine
 62
7
  6
CONTINUOUS
 10
106.033961886
 20
125.0739481227
 11
109.0418342282
 21
125.0739481227
  0
LINE
  5
243
100
AcDbEntity
  8
KONSTRUKTIONSELEMENTE
100
AcDbLine
 62
7
  6
CONTINUOUS
 10
113.0418342282
 20
125.0739481227
 11
114.6275
 21
125.0739481227
  0
LINE
  5
244
100
AcDbEntity
  8
KONSTRUKTIONSELEMENTE
100
AcDbLine
 62
7
  6
CONTINUOUS
 10
101.1190681173
 20
125.1465832346
 11
101.3531109704
 21
125.1465832346
  0
LINE
  5
245
100
AcDbEntity
  8
KONSTRUKTIONSELEMENTE
100
AcDbLine
 62
7
  6
CONTINUOUS
 10
104.746727833
 20
125.1465832346
 11
105.3318342282
 21
125.1465832346
  0
LINE
  5
246
100
AcDbEntity
  8
KONSTRUKTIONSELEMENTE
100
AcDbLine
 62
7
  6
CONTINUOUS
 10
80.2075
 20
125.2388215484
 11
83.7375
 21
125.2388215484
  0
LINE
  5
247
100
AcDbEntity
  8
KONSTRUKTIONSELEMENTE
100
AcDbLine
 62
7
  6
CONTINUOUS
 10
80.2075
 20
125.3446034122
 11
83.7375
 21
125.3446034122
  0
LINE
  5
248
100
AcDbEntity
  8
KONSTRUKTIONSELEMENTE
100
AcDbLine
 62
7
  6
CONTINUOUS
 10
94.7553723422
 20
125.3625344186
 11
95.4575
 21
125.3625344186
  0
LINE
  5
249
100
AcDbEntity
  8
KONSTRUKTIONSELEMENTE
100
AcDbLine
 62
7
  6
CONTINUOUS
 10
109.0518593539
 20
125.3643712153
 11
109.6418342284
 21
125.3643712153
  0
LINE
  5
24A
100
AcDbEntity
  8
KONSTRUKTIONSELEMENTE
100
AcDbLine
 62
7
  6
CONTINUOUS
 10
112.4418342281
 20
125.3643712153
 11
113.0318091024
 21
125.3643712153
  0
LINE
  5
24B
100
AcDbEntity
  8
KONSTRUKTIONSELEMENTE
100
AcDbLine
 62
7
  6
CONTINUOUS
 10
89.9575
 20
125.3721270416
 11
95.4575
 21
125.3721270416
  0
LINE
  5
24C
100
AcDbEntity
  8
KONSTRUKTIONSELEMENTE
100
AcDbLine
 62
7
  6
CONTINUOUS
 10
99.8318342282
 20
125.3730983279
 11
102.8743873848
 21
125.3730983279
  0
LINE
  5
24D
100
AcDbEntity
  8
KONSTRUKTIONSELEMENTE
100
AcDbLine
 62
7
  6
CONTINUOUS
 10
84.8716377416
 20
125.3739481227
 11
86.0638383836
 21
125.3739481227
  0
LINE
  5
24E
100
AcDbEntity
  8
KONSTRUKTIONSELEMENTE
100
AcDbLine
 62
7
  6
CONTINUOUS
 10
86.0875
 20
125.3735452883
 11
86.0853664537
 21
125.3738272614
  0
LINE
  5
24F
100
AcDbEntity
  8
KONSTRUKTIONSELEMENTE
100
AcDbLine
 62
7
  6
CONTINUOUS
 10
81.2075
 20
124.5817242208
 11
81.2075
 21
123.1820033971
  0
LINE
  5
250
100
AcDbEntity
  8
KONSTRUKTIONSELEMENTE
100
AcDbLine
 62
7
  6
CONTINUOUS
 10
81.6075
 20
124.0421334892
 11
81.6075
 21
123.1820033971
  0
LINE
  5
251
100
AcDbEntity
  8
KONSTRUKTIONSELEMENTE
100
AcDbLine
 62
7
  6
CONTINUOUS
 10
82.7075
 20
124.5817242208
 11
82.7075
 21
124.0421334892
  0
LINE
  5
252
100
AcDbEntity
  8
KONSTRUKTIONSELEMENTE
100
AcDbLine
 62
7
  6
CONTINUOUS
 10
83.6875
 20
124.2729448069
 11
83.6875
 21
124.0421334892
  0
LINE
  5
253
100
AcDbEntity
  8
BEZUGSACHSEN
100
AcDbLine
 62
7
  6
CONTINUOUS
 10
116.1274995
 20
127.0739481227
 11
110.4275
 21
127.0739481227
  0
LINE
  5
254
100
AcDbEntity
  8
RUNDUNGEN
100
AcDbLine
 62
7
  6
CONTINUOUS
 10
76.1275005
 20
127.0739481227
 11
81.8275
 21
127.0739481227
  0
LINE
  5
255
100
AcDbEntity
  8
0
100
AcDbLine
 62
7
  6
CONTINUOUS
 10
125.7075
 20
129.2757902477
 11
127.93381574
 21
129.2757902477
  0
LINE
  5
256
100
AcDbEntity
  8
0
100
AcDbLine
 62
7
  6
CONTINUOUS
 10
128.821973615
 20
129.2757902477
 11
129.61539465
 21
129.2757902477
  0
LINE
  5
257
100
AcDbEntity
  8
0
100
AcDbLine
 62
7
  6
CONTINUOUS
 10
131.03644725
 20
130.1639481227
 11
130.148289375
 21
130.1639481227
  0
LINE
  5
258
100
AcDbEntity
  8
0
100
AcDbLine
 62
7
  6
CONTINUOUS
 10
129.61539465
 20
130.1639481227
 11
125.7075
 21
130.1639481227
  0
LINE
  5
259
100
AcDbEntity
  8
KONSTRUKTIONSELEMENTE
100
AcDbLine
 62
7
  6
CONTINUOUS
 10
86.0875
 20
125.1567577074
 11
86.0875
 21
124.5058411595
  0
LINE
  5
25A
100
AcDbEntity
  8
KONSTRUKTIONSELEMENTE
100
AcDbLine
 62
7
  6
CONTINUOUS
 10
86.0875
 20
124.0421334892
 11
86.0875
 21
123.1820033971
  0
LINE
  5
25B
100
AcDbEntity
  8
0
100
AcDbLine
 62
7
  6
CONTINUOUS
 10
86.0875
 20
125.1567577074
 11
86.0875
 21
125.3707378478
  0
LINE
  5
25C
100
AcDbEntity
  8
KONSTRUKTIONSELEMENTE
100
AcDbLine
 62
7
  6
CONTINUOUS
 10
89.9575
 20
125.3721270416
 11
89.9575
 21
125.0720975077
  0
LINE
  5
25D
100
AcDbEntity
  8
KONSTRUKTIONSELEMENTE
100
AcDbLine
 62
7
  6
CONTINUOUS
 10
89.9575
 20
124.9231018838
 11
89.9575
 21
123.9374850486
  0
LINE
  5
25E
100
AcDbEntity
  8
KONSTRUKTIONSELEMENTE
100
AcDbLine
 62
7
  6
CONTINUOUS
 10
89.9575
 20
122.74255795
 11
89.9575
 21
121.9548323625
  0
LINE
  5
25F
100
AcDbEntity
  8
KONSTRUKTIONSELEMENTE
100
AcDbLine
 62
7
  6
CONTINUOUS
 10
112.4418342281
 20
125.3567098146
 11
112.4274748742
 21
125.3643712153
  0
LINE
  5
260
100
AcDbEntity
  8
KONSTRUKTIONSELEMENTE
100
AcDbLine
 62
7
  6
CONTINUOUS
 10
94.7553723422
 20
125.3625344186
 11
94.7553723422
 21
124.9231018838
  0
LINE
  5
261
100
AcDbEntity
  8
KONSTRUKTIONSELEMENTE
100
AcDbLine
 62
7
  6
CONTINUOUS
 10
95.4575
 20
125.3625344186
 11
95.4575
 21
124.4457583276
  0
LINE
  5
262
100
AcDbEntity
  8
KONSTRUKTIONSELEMENTE
100
AcDbLine
 62
7
  6
CONTINUOUS
 10
95.4575
 20
123.8000649225
 11
95.4575
 21
123.0331043327
  0
LINE
  5
263
100
AcDbEntity
  8
KONSTRUKTIONSELEMENTE
100
AcDbLine
 62
7
  6
CONTINUOUS
 10
113.0318091024
 20
125.3643712153
 11
113.0418342274
 21
125.3565691117
  0
LINE
  5
264
100
AcDbEntity
  8
KONSTRUKTIONSELEMENTE
100
AcDbLine
 62
7
  6
CONTINUOUS
 10
99.8318342282
 20
125.3730983279
 11
99.8318342282
 21
125.0730845468
  0
LINE
  5
265
100
AcDbEntity
  8
KONSTRUKTIONSELEMENTE
100
AcDbLine
 62
7
  6
CONTINUOUS
 10
99.8318342282
 20
124.7939470507
 11
99.8318342282
 21
124.3593546901
  0
LINE
  5
266
100
AcDbEntity
  8
KONSTRUKTIONSELEMENTE
100
AcDbLine
 62
7
  6
CONTINUOUS
 10
99.9488554908
 20
124.4260852212
 11
99.9488554908
 21
124.1098769257
  0
LINE
  5
267
100
AcDbEntity
  8
KONSTRUKTIONSELEMENTE
100
AcDbLine
 62
7
  6
CONTINUOUS
 10
100.1828980161
 20
124.2681772313
 11
100.1828980161
 21
123.9490954242
  0
LINE
  5
268
100
AcDbEntity
  8
KONSTRUKTIONSELEMENTE
100
AcDbLine
 62
7
  6
CONTINUOUS
 10
100.4169405414
 20
124.7644217294
 11
100.4169405414
 21
124.6385716391
  0
LINE
  5
269
100
AcDbEntity
  8
KONSTRUKTIONSELEMENTE
100
AcDbLine
 62
7
  6
CONTINUOUS
 10
100.533961804
 20
124.9044116942
 11
100.533961804
 21
124.5965976157
  0
LINE
  5
26A
100
AcDbEntity
  8
KONSTRUKTIONSELEMENTE
100
AcDbLine
 62
7
  6
CONTINUOUS
 10
100.6509830667
 20
124.0968631027
 11
100.6509830667
 21
123.7746036159
  0
LINE
  5
26B
100
AcDbEntity
  8
KONSTRUKTIONSELEMENTE
100
AcDbLine
 62
7
  6
CONTINUOUS
 10
100.7680043293
 20
124.9793367281
 11
100.7680043293
 21
124.6727969733
  0
LINE
  5
26C
100
AcDbEntity
  8
KONSTRUKTIONSELEMENTE
100
AcDbLine
 62
7
  6
CONTINUOUS
 10
101.1190681173
 20
125.025560349
 11
101.1190681173
 21
124.7198014713
  0
LINE
  5
26D
100
AcDbEntity
  8
KONSTRUKTIONSELEMENTE
100
AcDbLine
 62
7
  6
CONTINUOUS
 10
101.1190681173
 20
124.2681772313
 11
101.1190681173
 21
123.7287901225
  0
LINE
  5
26E
100
AcDbEntity
  8
KONSTRUKTIONSELEMENTE
100
AcDbLine
 62
7
  6
CONTINUOUS
 10
101.3531109704
 20
125.025560349
 11
101.3531109704
 21
124.7198014713
  0
LINE
  5
26F
100
AcDbEntity
  8
KONSTRUKTIONSELEMENTE
100
AcDbLine
 62
7
  6
CONTINUOUS
 10
101.821196021
 20
124.9793367281
 11
101.821196021
 21
124.6727969733
  0
LINE
  5
270
100
AcDbEntity
  8
KONSTRUKTIONSELEMENTE
100
AcDbLine
 62
7
  6
CONTINUOUS
 10
102.8743873848
 20
125.3730983279
 11
102.8743873848
 21
125.0730845468
  0
LINE
  5
271
100
AcDbEntity
  8
KONSTRUKTIONSELEMENTE
100
AcDbLine
 62
7
  6
CONTINUOUS
 10
103.9275789125
 20
125.3730983279
 11
103.9275789125
 21
125.0730845468
  0
LINE
  5
272
100
AcDbEntity
  8
KONSTRUKTIONSELEMENTE
100
AcDbLine
 62
7
  6
CONTINUOUS
 10
104.395664045
 20
125.3695221807
 11
104.395664045
 21
125.0694503914
  0
LINE
  5
273
100
AcDbEntity
  8
KONSTRUKTIONSELEMENTE
100
AcDbLine
 62
7
  6
CONTINUOUS
 10
104.746727833
 20
125.3594606074
 11
104.746727833
 21
124.348783965
  0
LINE
  5
274
100
AcDbEntity
  8
KONSTRUKTIONSELEMENTE
100
AcDbLine
 62
7
  6
CONTINUOUS
 10
104.746727833
 20
124.0060564289
 11
104.746727833
 21
123.6820865369
  0
LINE
  5
275
100
AcDbEntity
  8
KONSTRUKTIONSELEMENTE
100
AcDbLine
 62
7
  6
CONTINUOUS
 10
105.3318342282
 20
125.1465832346
 11
105.3318342282
 21
123.6820865369
  0
LINE
  5
276
100
AcDbEntity
  8
KONSTRUKTIONSELEMENTE
100
AcDbLine
 62
7
  6
CONTINUOUS
 10
106.033961886
 20
125.319832683
 11
106.033961886
 21
124.9657034583
  0
LINE
  5
277
100
AcDbEntity
  8
0
100
AcDbLine
 62
7
  6
CONTINUOUS
 10
109.0418342282
 20
125.0544854352
 11
109.0418342282
 21
125.3547953665
  0
LINE
  5
278
100
AcDbEntity
  8
KONSTRUKTIONSELEMENTE
100
AcDbLine
 62
7
  6
CONTINUOUS
 10
109.6561935821
 20
125.3643712153
 11
109.6561935821
 21
125.3485431258
  0
LINE
  5
279
100
AcDbEntity
  8
KONSTRUKTIONSELEMENTE
100
AcDbLine
 62
7
  6
CONTINUOUS
 10
112.4274748742
 20
125.3643712153
 11
112.4274748742
 21
125.3485440271
  0
LINE
  5
27A
100
AcDbEntity
  8
0
100
AcDbLine
 62
7
  6
CONTINUOUS
 10
113.0418342282
 20
125.0544982353
 11
113.0418342282
 21
125.3547952427
  0
LINE
  5
27B
100
AcDbEntity
  8
0
100
AcDbLine
 62
7
  6
CONTINUOUS
 10
116.1275
 20
123.5739481227
 11
116.1275
 21
104.8425580179
  0
LINE
  5
27C
100
AcDbEntity
  8
RUNDUNGEN
100
AcDbLine
 62
7
  6
CONTINUOUS
 10
116.1275
 20
104.8425580179
 11
116.1275
 21
100.1738701549
  0
LINE
  5
27D
100
AcDbEntity
  8
BEZUGSACHSEN
100
AcDbLine
 62
7
  6
CONTINUOUS
 10
118.6274995
 20
120.3239481227
 11
118.6274995
 21
124.7009661318
  0
LINE
  5
27E
100
AcDbEntity
  8
BEZUGSACHSEN
100
AcDbLine
 62
7
  6
CONTINUOUS
 10
118.6274995
 20
146.3163389326
 11
118.6274995
 21
148.5739481227
  0
LINE
  5
27F
100
AcDbEntity
  8
KONSTRUKTIONSELEMENTE
100
AcDbLine
 62
7
  6
CONTINUOUS
 10
109.0418342293
 20
125.3565701538
 11
109.0518593539
 21
125.3643712153
  0
LINE
  5
280
100
AcDbEntity
  8
KONSTRUKTIONSELEMENTE
100
AcDbLine
 62
7
  6
CONTINUOUS
 10
109.6561935821
 20
125.3643712153
 11
109.6418342284
 21
125.3567111196
  0
LINE
  5
281
100
AcDbEntity
  8
0
100
AcDbLine
 62
7
  6
CONTINUOUS
 10
125.7075
 20
130.1639481227
 11
125.7075
 21
129.2757902477
  0
LINE
  5
282
100
AcDbEntity
  8
0
100
AcDbLine
 62
7
  6
CONTINUOUS
 10
125.7075
 20
126.5710835491
 11
125.7075
 21
125.5455271727
  0
LINE
  5
283
100
AcDbEntity
  8
0
100
AcDbLine
 62
7
  6
CONTINUOUS
 10
125.7075
 20
119.5060536227
 11
125.7075
 21
117.1021063077
  0
LINE
  5
284
100
AcDbEntity
  8
0
100
AcDbLine
 62
7
  6
CONTINUOUS
 10
126.595657875
 20
117.3313168527
 11
126.595657875
 21
118.4402641727
  0
LINE
  5
285
100
AcDbEntity
  8
0
100
AcDbLine
 62
7
  6
CONTINUOUS
 10
127.93381574
 20
129.2757902477
 11
127.93381574
 21
128.3692257291
  0
LINE
  5
286
100
AcDbEntity
  8
0
100
AcDbLine
 62
7
  6
CONTINUOUS
 10
127.4897368025
 20
127.6000584468
 11
125.7075
 21
126.5710835491
  0
LINE
  5
287
100
AcDbEntity
  8
0
100
AcDbLine
 62
7
  6
CONTINUOUS
 10
125.7075
 20
125.5455271727
 11
128.0386782746
 21
126.891433577
  0
LINE
  5
288
100
AcDbEntity
  8
0
100
AcDbLine
 62
7
  6
CONTINUOUS
 10
128.821973615
 20
127.8073692277
 11
128.821973615
 21
129.2757902477
  0
LINE
  5
289
100
AcDbEntity
  8
0
100
AcDbLine
 62
7
  6
CONTINUOUS
 10
129.61539465
 20
118.4402641727
 11
129.61539465
 21
119.5060536227
  0
LINE
  5
28A
100
AcDbEntity
  8
0
100
AcDbLine
 62
7
  6
CONTINUOUS
 10
129.61539465
 20
129.2757902477
 11
129.61539465
 21
130.1639481227
  0
LINE
  5
28B
100
AcDbEntity
  8
0
100
AcDbLine
 62
7
  6
CONTINUOUS
 10
130.148289375
 20
130.1639481227
 11
130.148289375
 21
127.8073692277
  0
LINE
  5
28C
100
AcDbEntity
  8
0
100
AcDbLine
 62
7
  6
CONTINUOUS
 10
130.148289375
 20
119.5060536227
 11
130.148289375
 21
117.3312924652
  0
LINE
  5
28D
100
AcDbEntity
  8
0
100
AcDbLine
 62
7
  6
CONTINUOUS
 10
131.03644725
 20
117.1021063077
 11
131.03644725
 21
119.5060536227
  0
LINE
  5
28E
100
AcDbEntity
  8
0
100
AcDbLine
 62
7
  6
CONTINUOUS
 10
131.03644725
 20
120.5718430727
 11
131.03644725
 21
121.6376325227
  0
LINE
  5
28F
100
AcDbEntity
  8
0
100
AcDbLine
 62
7
  6
CONTINUOUS
 10
131.03644725
 20
123.7692114227
 11
131.03644725
 21
124.8350008727
  0
LINE
  5
290
100
AcDbEntity
  8
0
100
AcDbLine
 62
7
  6
CONTINUOUS
 10
131.03644725
 20
127.4521060777
 11
131.03644725
 21
130.1639481227
  0
LINE
  5
291
100
AcDbEntity
  8
BEZUGSACHSEN
100
AcDbLine
 62
7
  6
CONTINUOUS
 10
134.6274995
 20
148.5739481227
 11
134.6274995
 21
102.3239481227
  0
LINE
  5
292
100
AcDbEntity
  8
BEZUGSACHSEN
100
AcDbLine
 62
7
  6
CONTINUOUS
 10
124.8913381315
 20
173.4924456281
 11
134.0866435588
 21
151.2930145554
  0
LINE
  5
293
100
AcDbEntity
  8
BEZUGSACHSEN
100
AcDbLine
 62
7
  6
CONTINUOUS
 10
98.8465664327
 20
186.5330916815
 11
121.0459975054
 21
177.3377862542
  0
LINE
  5
294
100
AcDbEntity
  8
RUNDUNGEN
100
AcDbLine
 62
7
  6
CONTINUOUS
 10
257.6076691237
 20
97.0739481227
 11
255.1076691237
 21
97.0739481227
  0
LINE
  5
295
100
AcDbEntity
  8
RUNDUNGEN
100
AcDbLine
 62
7
  6
CONTINUOUS
 10
231.8193917414
 20
97.0739481227
 11
229.3193917414
 21
97.0739481227
  0
LINE
  5
296
100
AcDbEntity
  8
KONSTRUKTIONSELEMENTE
100
AcDbLine
 62
7
  6
CONTINUOUS
 10
225.631139462
 20
104.8425580179
 11
224.4635304326
 21
106.4678409463
  0
LINE
  5
297
100
AcDbEntity
  8
RUNDUNGEN
100
AcDbLine
 62
7
  6
CONTINUOUS
 10
225.631139462
 20
104.8425580179
 11
229.0569257508
 21
100.0739481227
  0
LINE
  5
298
100
AcDbEntity
  8
RUNDUNGEN
100
AcDbLine
 62
7
  6
CONTINUOUS
 10
229.3193917414
 20
97.0739481227
 11
229.0569257508
 21
100.0739481227
  0
LINE
  5
299
100
AcDbEntity
  8
0
100
AcDbLine
 62
7
  6
CONTINUOUS
 10
250.4635304326
 20
124.8350008727
 11
250.9635304326
 21
124.8350008727
  0
LINE
  5
29A
100
AcDbEntity
  8
0
100
AcDbLine
 62
7
  6
CONTINUOUS
 10
250.4635304326
 20
125.5455271727
 11
250.9635304326
 21
125.5455271727
  0
LINE
  5
29B
100
AcDbEntity
  8
0
100
AcDbLine
 62
7
  6
CONTINUOUS
 10
250.4635304326
 20
126.5710835491
 11
250.9635304326
 21
126.5710835491
  0
LINE
  5
29C
100
AcDbEntity
  8
0
100
AcDbLine
 62
7
  6
CONTINUOUS
 10
250.4635304326
 20
129.2757902477
 11
250.9635304326
 21
129.2757902477
  0
LINE
  5
29D
100
AcDbEntity
  8
KONSTRUKTIONSELEMENTE
100
AcDbLine
 62
7
  6
CONTINUOUS
 10
233.8060304326
 20
122.7038177362
 11
233.8060304326
 21
122.3531335817
  0
LINE
  5
29E
100
AcDbEntity
  8
KONSTRUKTIONSELEMENTE
100
AcDbLine
 62
7
  6
CONTINUOUS
 10
234.0351975363
 20
122.8388348053
 11
234.0351975363
 21
122.4911255985
  0
LINE
  5
29F
100
AcDbEntity
  8
KONSTRUKTIONSELEMENTE
100
AcDbLine
 62
7
  6
CONTINUOUS
 10
225.4273823658
 20
110.6906656151
 11
224.4635304326
 21
106.4678409463
  0
LINE
  5
2A0
100
AcDbEntity
  8
0
100
AcDbLine
 62
7
  6
CONTINUOUS
 10
250.4635304326
 20
130.1639481227
 11
250.9635304326
 21
130.1639481227
  0
LINE
  5
2A1
100
AcDbEntity
  8
KONSTRUKTIONSELEMENTE
100
AcDbLine
 62
7
  6
CONTINUOUS
 10
234.1497804326
 20
122.9047184945
 11
234.1497804326
 21
122.5584425137
  0
LINE
  5
2A2
100
AcDbEntity
  8
KONSTRUKTIONSELEMENTE
100
AcDbLine
 62
7
  6
CONTINUOUS
 10
234.2643633288
 20
122.9695366939
 11
234.2643633288
 21
122.6246591535
  0
LINE
  5
2A3
100
AcDbEntity
  8
KONSTRUKTIONSELEMENTE
100
AcDbLine
 62
7
  6
CONTINUOUS
 10
234.6081133288
 20
123.1577229619
 11
234.6081133288
 21
122.8168415816
  0
LINE
  5
2A4
100
AcDbEntity
  8
0
100
AcDbLine
 62
7
  6
CONTINUOUS
 10
235.0135304326
 20
123.3679202555
 11
235.0135304326
 21
123.0313932464
  0
LINE
  5
2A5
100
AcDbEntity
  8
BEZUGSACHSEN
100
AcDbLine
 62
7
  6
CONTINUOUS
 10
236.4635304326
 20
183.0739472912
 11
236.4635304326
 21
105.3239481227
  0
LINE
  5
2A6
100
AcDbEntity
  8
RUNDUNGEN
100
AcDbLine
 62
7
  6
CONTINUOUS
 10
231.8193917414
 20
97.0739481227
 11
234.7308688961
 21
108.7512451831
  0
LINE
  5
2A7
100
AcDbEntity
  8
RUNDUNGEN
100
AcDbLine
 62
7
  6
CONTINUOUS
 10
252.1961919691
 20
108.7512451831
 11
255.1076691237
 21
97.0739481227
  0
LINE
  5
2A8
100
AcDbEntity
  8
BEZUGSACHSEN
100
AcDbLine
 62
7
  6
CONTINUOUS
 10
250.4635304326
 20
183.0739472912
 11
250.4635304326
 21
182.8375735514
  0
LINE
  5
2A9
100
AcDbEntity
  8
RUNDUNGEN
100
AcDbLine
 62
7
  6
CONTINUOUS
 10
250.4635304326
 20
182.8375735514
 11
250.4635304326
 21
105.3239481227
  0
LINE
  5
2AA
100
AcDbEntity
  8
0
100
AcDbLine
 62
7
  6
CONTINUOUS
 10
250.9635304326
 20
130.1639481227
 11
250.9635304326
 21
125.5455271727
  0
LINE
  5
2AB
100
AcDbEntity
  8
0
100
AcDbLine
 62
7
  6
CONTINUOUS
 10
250.9635304326
 20
124.8350008727
 11
250.9635304326
 21
123.8128641424
  0
LINE
  5
2AC
100
AcDbEntity
  8
KONSTRUKTIONSELEMENTE
100
AcDbLine
 62
7
  6
CONTINUOUS
 10
251.6135304326
 20
123.5155389571
 11
251.6135304326
 21
123.1820033971
  0
LINE
  5
2AD
100
AcDbEntity
  8
KONSTRUKTIONSELEMENTE
100
AcDbLine
 62
7
  6
CONTINUOUS
 10
253.0560304326
 20
122.74255795
 11
253.0560304326
 21
122.3927326446
  0
LINE
  5
2AE
100
AcDbEntity
  8
KONSTRUKTIONSELEMENTE
100
AcDbLine
 62
7
  6
CONTINUOUS
 10
253.7435304326
 20
122.3143928432
 11
253.7435304326
 21
121.9548323625
  0
LINE
  5
2AF
100
AcDbEntity
  8
0
100
AcDbLine
 62
7
  6
CONTINUOUS
 10
261.4996784994
 20
110.6906656151
 11
262.4635304326
 21
106.4678409463
  0
LINE
  5
2B0
100
AcDbEntity
  8
RUNDUNGEN
100
AcDbLine
 62
7
  6
CONTINUOUS
 10
257.8701351143
 20
100.0739481227
 11
257.6076691237
 21
97.0739481227
  0
LINE
  5
2B1
100
AcDbEntity
  8
RUNDUNGEN
100
AcDbLine
 62
7
  6
CONTINUOUS
 10
261.2959214032
 20
104.8425580179
 11
257.8701351143
 21
100.0739481227
  0
LINE
  5
2B2
100
AcDbEntity
  8
0
100
AcDbLine
 62
7
  6
CONTINUOUS
 10
261.2959214032
 20
104.8425580179
 11
262.4635304326
 21
106.4678409463
  0
LINE
  5
2B3
100
AcDbEntity
  8
0
100
AcDbLine
 62
7
  6
CONTINUOUS
 10
240.4635304326
 20
187.0739476227
 11
246.4635304326
 21
187.0739476227
  0
LINE
  5
2B4
100
AcDbEntity
  8
BEZUGSACHSEN
100
AcDbLine
 62
7
  6
CONTINUOUS
 10
57.6275005
 20
34.7256068065
 11
57.6275005
 21
28.7256068065
  0
LINE
  5
2B5
100
AcDbEntity
  8
0
100
AcDbLine
 62
7
  6
CONTINUOUS
 10
76.1275
 20
13.8932158359
 11
76.1275
 21
24.7256068065
  0
LINE
  5
2B6
100
AcDbEntity
  8
0
100
AcDbLine
 62
7
  6
CONTINUOUS
 10
76.1275
 20
38.7256068065
 11
76.1275
 21
48.2993644895
  0
LINE
  5
2B7
100
AcDbEntity
  8
KONSTRUKTIONSELEMENTE
100
AcDbLine
 62
7
  6
CONTINUOUS
 10
76.1275
 20
48.2993644895
 11
76.1275
 21
49.5579977771
  0
LINE
  5
2B8
100
AcDbEntity
  8
0
100
AcDbLine
 62
7
  6
CONTINUOUS
 10
77.6275
 20
12.7256068065
 11
114.6275
 21
12.7256068065
  0
LINE
  5
2B9
100
AcDbEntity
  8
KONSTRUKTIONSELEMENTE
100
AcDbLine
 62
7
  6
CONTINUOUS
 10
80.2075
 20
24.7256068065
 11
80.2075
 21
23.5756068065
  0
LINE
  5
2BA
100
AcDbEntity
  8
KONSTRUKTIONSELEMENTE
100
AcDbLine
 62
7
  6
CONTINUOUS
 10
81.2075
 20
24.7256068065
 11
81.2075
 21
23.5756068065
  0
LINE
  5
2BB
100
AcDbEntity
  8
KONSTRUKTIONSELEMENTE
100
AcDbLine
 62
7
  6
CONTINUOUS
 10
81.6075
 20
24.7256068065
 11
81.6075
 21
23.5756068065
  0
LINE
  5
2BC
100
AcDbEntity
  8
KONSTRUKTIONSELEMENTE
100
AcDbLine
 62
7
  6
CONTINUOUS
 10
86.0875
 20
24.7256068065
 11
86.0875
 21
23.5756068065
  0
LINE
  5
2BD
100
AcDbEntity
  8
KONSTRUKTIONSELEMENTE
100
AcDbLine
 62
7
  6
CONTINUOUS
 10
90.4255850506
 20
40.5810239103
 11
90.0745212626
 21
40.1226897027
  0
LINE
  5
2BE
100
AcDbEntity
  8
KONSTRUKTIONSELEMENTE
100
AcDbLine
 62
7
  6
CONTINUOUS
 10
91.0106913638
 20
40.2372739103
 11
90.7766488385
 21
40.0081068065
  0
LINE
  5
2BF
100
AcDbEntity
  8
KONSTRUKTIONSELEMENTE
100
AcDbLine
 62
7
  6
CONTINUOUS
 10
93.1170744193
 20
41.1539397027
 11
92.6489893687
 21
40.6956068065
  0
LINE
  5
2C0
100
AcDbEntity
  8
KONSTRUKTIONSELEMENTE
100
AcDbLine
 62
7
  6
CONTINUOUS
 10
90.8936701012
 20
40.9247739103
 11
90.4255850506
 21
40.5810239103
  0
LINE
  5
2C1
100
AcDbEntity
  8
KONSTRUKTIONSELEMENTE
100
AcDbLine
 62
7
  6
CONTINUOUS
 10
93.7021808964
 20
40.6956068065
 11
93.3511169446
 21
40.4664397027
  0
LINE
  5
2C2
100
AcDbEntity
  8
KONSTRUKTIONSELEMENTE
100
AcDbLine
 62
7
  6
CONTINUOUS
 10
91.2447338891
 20
40.3518568065
 11
91.0106913638
 21
40.2372739103
  0
LINE
  5
2C3
100
AcDbEntity
  8
KONSTRUKTIONSELEMENTE
100
AcDbLine
 62
7
  6
CONTINUOUS
 10
93.5851596338
 20
41.3831068065
 11
93.1170744193
 21
41.1539397027
  0
LINE
  5
2C4
100
AcDbEntity
  8
KONSTRUKTIONSELEMENTE
100
AcDbLine
 62
7
  6
CONTINUOUS
 10
91.2447338891
 20
41.0393568065
 11
90.8936701012
 21
40.9247739103
  0
LINE
  5
2C5
100
AcDbEntity
  8
KONSTRUKTIONSELEMENTE
100
AcDbLine
 62
7
  6
CONTINUOUS
 10
89.9575
 20
39.5497739103
 11
89.9575
 21
38.9768568065
  0
LINE
  5
2C6
100
AcDbEntity
  8
KONSTRUKTIONSELEMENTE
100
AcDbLine
 62
7
  6
CONTINUOUS
 10
89.9575
 20
22.1331068065
 11
89.9575
 21
21.4456068065
  0
LINE
  5
2C7
100
AcDbEntity
  8
KONSTRUKTIONSELEMENTE
100
AcDbLine
 62
7
  6
CONTINUOUS
 10
90.6596275759
 20
39.6643568065
 11
90.6596275759
 21
38.9768568065
  0
LINE
  5
2C8
100
AcDbEntity
  8
KONSTRUKTIONSELEMENTE
100
AcDbLine
 62
7
  6
CONTINUOUS
 10
90.0745212626
 20
40.1226897027
 11
89.9575
 21
39.5497739103
  0
LINE
  5
2C9
100
AcDbEntity
  8
KONSTRUKTIONSELEMENTE
100
AcDbLine
 62
7
  6
CONTINUOUS
 10
92.4149468434
 20
40.2372739103
 11
92.2979255807
 21
39.6643568065
  0
LINE
  5
2CA
100
AcDbEntity
  8
KONSTRUKTIONSELEMENTE
100
AcDbLine
 62
7
  6
CONTINUOUS
 10
90.7766488385
 20
40.0081068065
 11
90.6596275759
 21
39.6643568065
  0
LINE
  5
2CB
100
AcDbEntity
  8
KONSTRUKTIONSELEMENTE
100
AcDbLine
 62
7
  6
CONTINUOUS
 10
92.2979255807
 20
38.9768568065
 11
92.212393676
 21
38.7256068065
  0
LINE
  5
2CC
100
AcDbEntity
  8
KONSTRUKTIONSELEMENTE
100
AcDbLine
 62
7
  6
CONTINUOUS
 10
92.6489893687
 20
40.6956068065
 11
92.4149468434
 21
40.2372739103
  0
LINE
  5
2CD
100
AcDbEntity
  8
KONSTRUKTIONSELEMENTE
100
AcDbLine
 62
7
  6
CONTINUOUS
 10
93.3511169446
 20
40.4664397027
 11
93.1170744193
 21
40.1226897027
  0
LINE
  5
2CE
100
AcDbEntity
  8
KONSTRUKTIONSELEMENTE
100
AcDbLine
 62
7
  6
CONTINUOUS
 10
80.2075
 20
23.5756068065
 11
81.2075
 21
23.5756068065
  0
LINE
  5
2CF
100
AcDbEntity
  8
KONSTRUKTIONSELEMENTE
100
AcDbLine
 62
7
  6
CONTINUOUS
 10
81.6075
 20
23.5756068065
 11
86.0875
 21
23.5756068065
  0
LINE
  5
2D0
100
AcDbEntity
  8
0
100
AcDbLine
 62
7
  6
CONTINUOUS
 10
131.03644725
 20
24.2256068065
 11
125.7075
 21
24.2256068065
  0
LINE
  5
2D1
100
AcDbEntity
  8
KONSTRUKTIONSELEMENTE
100
AcDbLine
 62
7
  6
CONTINUOUS
 10
104.746727833
 20
24.6856068065
 11
105.3318342282
 21
24.6856068065
  0
LINE
  5
2D2
100
AcDbEntity
  8
RUNDUNGEN
100
AcDbLine
 62
7
  6
CONTINUOUS
 10
94.9391672968
 20
24.7256068065
 11
61.6275005
 21
24.7256068065
  0
LINE
  5
2D3
100
AcDbEntity
  8
BEZUGSACHSEN
100
AcDbLine
 62
7
  6
CONTINUOUS
 10
94.9391672968
 20
24.7256068065
 11
130.6274995
 21
24.7256068065
  0
LINE
  5
2D4
100
AcDbEntity
  8
KONSTRUKTIONSELEMENTE
100
AcDbLine
 62
7
  6
CONTINUOUS
 10
93.8674999052
 20
24.7256068065
 11
95.4575
 21
24.1956068065
  0
LINE
  5
2D5
100
AcDbEntity
  8
KONSTRUKTIONSELEMENTE
100
AcDbLine
 62
7
  6
CONTINUOUS
 10
91.7993842351
 20
24.7256068065
 11
94.7553723422
 21
23.7372734185
  0
LINE
  5
2D6
100
AcDbEntity
  8
KONSTRUKTIONSELEMENTE
100
AcDbLine
 62
7
  6
CONTINUOUS
 10
91.2447338891
 20
41.0393568065
 11
91.2447338891
 21
40.3518568065
  0
LINE
  5
2D7
100
AcDbEntity
  8
KONSTRUKTIONSELEMENTE
100
AcDbLine
 62
7
  6
CONTINUOUS
 10
92.2979255807
 20
39.6643568065
 11
92.2979255807
 21
38.9768568065
  0
LINE
  5
2D8
100
AcDbEntity
  8
KONSTRUKTIONSELEMENTE
100
AcDbLine
 62
7
  6
CONTINUOUS
 10
93.0000531566
 20
39.6643568065
 11
93.0000531566
 21
38.9768568065
  0
LINE
  5
2D9
100
AcDbEntity
  8
KONSTRUKTIONSELEMENTE
100
AcDbLine
 62
7
  6
CONTINUOUS
 10
93.1170744193
 20
40.1226897027
 11
93.0000531566
 21
39.6643568065
  0
LINE
  5
2DA
100
AcDbEntity
  8
KONSTRUKTIONSELEMENTE
100
AcDbLine
 62
7
  6
CONTINUOUS
 10
93.0000531566
 20
38.9768568065
 11
92.9359041669
 21
38.7256068065
  0
LINE
  5
2DB
100
AcDbEntity
  8
KONSTRUKTIONSELEMENTE
100
AcDbLine
 62
7
  6
CONTINUOUS
 10
94.7553723422
 20
38.7476897027
 11
94.7497341512
 21
38.7256068065
  0
LINE
  5
2DC
100
AcDbEntity
  8
KONSTRUKTIONSELEMENTE
100
AcDbLine
 62
7
  6
CONTINUOUS
 10
90.6596275759
 20
38.9768568065
 11
90.7451594806
 21
38.7256068065
  0
LINE
  5
2DD
100
AcDbEntity
  8
KONSTRUKTIONSELEMENTE
100
AcDbLine
 62
7
  6
CONTINUOUS
 10
89.9575
 20
38.9768568065
 11
90.0216489897
 21
38.7256068065
  0
LINE
  5
2DE
100
AcDbEntity
  8
KONSTRUKTIONSELEMENTE
100
AcDbLine
 62
7
  6
CONTINUOUS
 10
94.7553723422
 20
39.6643568065
 11
94.7553723422
 21
38.7476897027
  0
LINE
  5
2DF
100
AcDbEntity
  8
KONSTRUKTIONSELEMENTE
100
AcDbLine
 62
7
  6
CONTINUOUS
 10
95.4575
 20
39.6643568065
 11
95.4575
 21
38.7476897027
  0
LINE
  5
2E0
100
AcDbEntity
  8
KONSTRUKTIONSELEMENTE
100
AcDbLine
 62
7
  6
CONTINUOUS
 10
95.4575
 20
24.1956068065
 11
95.4575
 21
23.2789401945
  0
LINE
  5
2E1
100
AcDbEntity
  8
KONSTRUKTIONSELEMENTE
100
AcDbLine
 62
7
  6
CONTINUOUS
 10
95.4575
 20
38.7476897027
 11
95.4529894442
 21
38.7256068065
  0
LINE
  5
2E2
100
AcDbEntity
  8
KONSTRUKTIONSELEMENTE
100
AcDbLine
 62
7
  6
CONTINUOUS
 10
104.746727833
 20
38.8939397027
 11
104.6321182152
 21
38.7256068065
  0
LINE
  5
2E3
100
AcDbEntity
  8
KONSTRUKTIONSELEMENTE
100
AcDbLine
 62
7
  6
CONTINUOUS
 10
104.7102536689
 20
24.7256068065
 11
104.746727833
 21
24.6856068065
  0
LINE
  5
2E4
100
AcDbEntity
  8
KONSTRUKTIONSELEMENTE
100
AcDbLine
 62
7
  6
CONTINUOUS
 10
95.1064361711
 20
40.6956068065
 11
95.3404787271
 21
40.2372739103
  0
LINE
  5
2E5
100
AcDbEntity
  8
KONSTRUKTIONSELEMENTE
100
AcDbLine
 62
7
  6
CONTINUOUS
 10
94.6383510795
 20
40.1226897027
 11
94.7553723422
 21
39.6643568065
  0
LINE
  5
2E6
100
AcDbEntity
  8
KONSTRUKTIONSELEMENTE
100
AcDbLine
 62
7
  6
CONTINUOUS
 10
95.3404787271
 20
40.2372739103
 11
95.4575
 21
39.6643568065
  0
LINE
  5
2E7
100
AcDbEntity
  8
KONSTRUKTIONSELEMENTE
100
AcDbLine
 62
7
  6
CONTINUOUS
 10
101.5871534957
 20
39.6960239103
 11
101.5871534957
 21
38.7256068065
  0
LINE
  5
2E8
100
AcDbEntity
  8
KONSTRUKTIONSELEMENTE
100
AcDbLine
 62
7
  6
CONTINUOUS
 10
102.0552385463
 20
39.6960239103
 11
102.0552385463
 21
38.7256068065
  0
LINE
  5
2E9
100
AcDbEntity
  8
KONSTRUKTIONSELEMENTE
100
AcDbLine
 62
7
  6
CONTINUOUS
 10
94.6383510795
 20
41.1539397027
 11
95.1064361711
 21
40.6956068065
  0
LINE
  5
2EA
100
AcDbEntity
  8
KONSTRUKTIONSELEMENTE
100
AcDbLine
 62
7
  6
CONTINUOUS
 10
94.4043084723
 20
40.4664397027
 11
94.6383510795
 21
40.1226897027
  0
LINE
  5
2EB
100
AcDbEntity
  8
KONSTRUKTIONSELEMENTE
100
AcDbLine
 62
7
  6
CONTINUOUS
 10
105.3318342282
 20
39.4668568065
 11
105.2148129553
 21
38.7793568065
  0
LINE
  5
2EC
100
AcDbEntity
  8
KONSTRUKTIONSELEMENTE
100
AcDbLine
 62
7
  6
CONTINUOUS
 10
104.8637491366
 20
39.4668568065
 11
104.746727833
 21
38.8939397027
  0
LINE
  5
2ED
100
AcDbEntity
  8
KONSTRUKTIONSELEMENTE
100
AcDbLine
 62
7
  6
CONTINUOUS
 10
105.2148129553
 20
38.7793568065
 11
105.1965150835
 21
38.7256068065
  0
LINE
  5
2EE
100
AcDbEntity
  8
KONSTRUKTIONSELEMENTE
100
AcDbLine
 62
7
  6
CONTINUOUS
 10
94.7553723422
 20
23.7372734185
 11
89.9575
 21
22.1331068065
  0
LINE
  5
2EF
100
AcDbEntity
  8
KONSTRUKTIONSELEMENTE
100
AcDbLine
 62
7
  6
CONTINUOUS
 10
95.4575
 20
23.2789401945
 11
89.9575
 21
21.4456068065
  0
LINE
  5
2F0
100
AcDbEntity
  8
BEZUGSACHSEN
100
AcDbLine
 62
7
  6
CONTINUOUS
 10
61.6275005
 20
38.7256068065
 11
130.6274995
 21
38.7256068065
  0
LINE
  5
2F1
100
AcDbEntity
  8
KONSTRUKTIONSELEMENTE
100
AcDbLine
 62
7
  6
CONTINUOUS
 10
82.4075
 20
38.9756068065
 11
83.8875
 21
38.9756068065
  0
LINE
  5
2F2
100
AcDbEntity
  8
KONSTRUKTIONSELEMENTE
100
AcDbLine
 62
7
  6
CONTINUOUS
 10
104.8637491366
 20
39.4668568065
 11
105.3318342282
 21
39.4668568065
  0
LINE
  5
2F3
100
AcDbEntity
  8
KONSTRUKTIONSELEMENTE
100
AcDbLine
 62
7
  6
CONTINUOUS
 10
101.5871534957
 20
39.6960239103
 11
102.0552385463
 21
39.6960239103
  0
LINE
  5
2F4
100
AcDbEntity
  8
KONSTRUKTIONSELEMENTE
100
AcDbLine
 62
7
  6
CONTINUOUS
 10
93.7021808964
 20
40.6956068065
 11
94.0532446843
 21
40.6956068065
  0
LINE
  5
2F5
100
AcDbEntity
  8
KONSTRUKTIONSELEMENTE
100
AcDbLine
 62
7
  6
CONTINUOUS
 10
94.170265947
 20
41.3831068065
 11
94.6383510795
 21
41.1539397027
  0
LINE
  5
2F6
100
AcDbEntity
  8
KONSTRUKTIONSELEMENTE
100
AcDbLine
 62
7
  6
CONTINUOUS
 10
94.0532446843
 20
40.6956068065
 11
94.4043084723
 21
40.4664397027
  0
LINE
  5
2F7
100
AcDbEntity
  8
KONSTRUKTIONSELEMENTE
100
AcDbLine
 62
7
  6
CONTINUOUS
 10
105.3318342282
 20
24.7256068065
 11
105.3318342282
 21
24.6856068065
  0
LINE
  5
2F8
100
AcDbEntity
  8
KONSTRUKTIONSELEMENTE
100
AcDbLine
 62
7
  6
CONTINUOUS
 10
93.5851596338
 20
41.3831068065
 11
94.170265947
 21
41.3831068065
  0
LINE
  5
2F9
100
AcDbEntity
  8
KONSTRUKTIONSELEMENTE
100
AcDbLine
 62
7
  6
CONTINUOUS
 10
116.1275
 20
49.5579977771
 11
116.1275
 21
48.2993644895
  0
LINE
  5
2FA
100
AcDbEntity
  8
0
100
AcDbLine
 62
7
  6
CONTINUOUS
 10
116.1275
 20
48.2993644895
 11
116.1275
 21
38.7256068065
  0
LINE
  5
2FB
100
AcDbEntity
  8
0
100
AcDbLine
 62
7
  6
CONTINUOUS
 10
116.1275
 20
24.7256068065
 11
116.1275
 21
13.8932158359
  0
LINE
  5
2FC
100
AcDbEntity
  8
KONSTRUKTIONSELEMENTE
100
AcDbLine
 62
7
  6
CONTINUOUS
 10
77.6275
 20
50.7256068065
 11
114.6275
 21
50.7256068065
  0
LINE
  5
2FD
100
AcDbEntity
  8
0
100
AcDbLine
 62
7
  6
CONTINUOUS
 10
125.7075
 20
24.7256068065
 11
125.7075
 21
24.2256068065
  0
LINE
  5
2FE
100
AcDbEntity
  8
0
100
AcDbLine
 62
7
  6
CONTINUOUS
 10
129.61539465
 20
24.7256068065
 11
129.61539465
 21
24.2256068065
  0
LINE
  5
2FF
100
AcDbEntity
  8
0
100
AcDbLine
 62
7
  6
CONTINUOUS
 10
130.148289375
 20
24.7256068065
 11
130.148289375
 21
24.2256068065
  0
LINE
  5
300
100
AcDbEntity
  8
0
100
AcDbLine
 62
7
  6
CONTINUOUS
 10
131.03644725
 20
24.7465665029
 11
131.03644725
 21
24.2256068065
  0
LINE
  5
301
100
AcDbEntity
  8
BEZUGSACHSEN
100
AcDbLine
 62
7
  6
CONTINUOUS
 10
134.6274995
 20
28.7256068065
 11
134.6274995
 21
34.7256068065
  0
ARC
  5
302
100
AcDbEntity
  8
RUNDUNGEN
100
AcDbCircle
 62
7
  6
CONTINUOUS
 10
79.6275005
 20
120.3239481227
 40
6.0
100
AcDbArc
 50
180.0
 51
234.3141047657
  0
ARC
  5
303
100
AcDbEntity
  8
BEZUGSACHSEN
100
AcDbCircle
 62
7
  6
CONTINUOUS
 10
61.6275005
 20
102.3239481227
 40
4.0
100
AcDbArc
 50
180.0
 51
270.0
  0
ARC
  5
304
100
AcDbEntity
  8
RUNDUNGEN
100
AcDbCircle
 62
7
  6
CONTINUOUS
 10
76.1275005
 20
124.5739481227
 40
2.5
100
AcDbArc
 50
90.0
 51
180.0
  0
ARC
  5
305
100
AcDbEntity
  8
BEZUGSACHSEN
100
AcDbCircle
 62
7
  6
CONTINUOUS
 10
81.8275
 20
129.3739481227
 40
2.3
100
AcDbArc
 50
270.0
 51
60.2018032089
  0
ARC
  5
306
100
AcDbEntity
  8
RUNDUNGEN
100
AcDbCircle
 62
7
  6
CONTINUOUS
 10
81.8275
 20
129.3739481227
 40
2.3
100
AcDbArc
 50
270.0
 51
60.2018032089
  0
ARC
  5
307
100
AcDbEntity
  8
0
100
AcDbCircle
 62
7
  6
CONTINUOUS
 10
77.6275
 20
123.5739481227
 40
1.5
100
AcDbArc
 50
90.0
 51
180.0
  0
ARC
  5
308
100
AcDbEntity
  8
KONSTRUKTIONSELEMENTE
100
AcDbCircle
 62
7
  6
CONTINUOUS
 10
83.736444595
 20
145.9103453122
 40
20.5657419271
100
AcDbArc
 50
270.0029403389
 51
270.5037164784
  0
ARC
  5
309
100
AcDbEntity
  8
KONSTRUKTIONSELEMENTE
100
AcDbCircle
 62
7
  6
CONTINUOUS
 10
83.7359294278
 20
144.8541301851
 40
19.6153086995
100
AcDbArc
 50
270.0045875984
 51
272.8541914407
  0
ARC
  5
30A
100
AcDbEntity
  8
0
100
AcDbCircle
 62
7
  6
CONTINUOUS
 10
83.735973646
 20
144.1121457734
 40
19.175531783
100
AcDbArc
 50
270.0045606892
 51
270.985645875
  0
ARC
  5
30B
100
AcDbEntity
  8
RUNDUNGEN
100
AcDbCircle
 62
7
  6
CONTINUOUS
 10
91.9155170057
 20
146.9899043242
 40
18.0
100
AcDbArc
 50
200.6102911233
 51
240.2018032089
  0
ARC
  5
30C
100
AcDbEntity
  8
RUNDUNGEN
100
AcDbCircle
 62
7
  6
CONTINUOUS
 10
64.7327635
 20
148.5739481227
 40
7.105263
100
AcDbArc
 50
157.5
 51
180.0
  0
ARC
  5
30D
100
AcDbEntity
  8
RUNDUNGEN
100
AcDbCircle
 62
7
  6
CONTINUOUS
 10
73.9280689273
 20
170.7733791954
 40
7.105263
100
AcDbArc
 50
112.5
 51
157.5
  0
ARC
  5
30E
100
AcDbEntity
  8
KONSTRUKTIONSELEMENTE
100
AcDbCircle
 62
7
  6
CONTINUOUS
 10
110.6229685045
 20
133.629087775
 40
8.4448537425
100
AcDbArc
 50
262.0997469051
 51
263.4994677336
  0
ARC
  5
30F
100
AcDbEntity
  8
KONSTRUKTIONSELEMENTE
100
AcDbCircle
 62
7
  6
CONTINUOUS
 10
111.5070745352
 20
133.2620051118
 40
8.0748822302
100
AcDbArc
 50
276.4683033144
 51
277.9323915465
  0
ARC
  5
310
100
AcDbEntity
  8
BEZUGSACHSEN
100
AcDbCircle
 62
7
  6
CONTINUOUS
 10
112.6274995
 20
120.3239481227
 40
6.0
100
AcDbArc
 50
305.6858952343
 51
360.0
  0
ARC
  5
311
100
AcDbEntity
  8
BEZUGSACHSEN
100
AcDbCircle
 62
7
  6
CONTINUOUS
 10
130.6274995
 20
102.3239481227
 40
4.0
100
AcDbArc
 50
270.0
 51
360.0
  0
ARC
  5
312
100
AcDbEntity
  8
BEZUGSACHSEN
100
AcDbCircle
 62
7
  6
CONTINUOUS
 10
116.1274995
 20
124.5739481227
 40
2.5
100
AcDbArc
 50
1.4090868945
 51
90.0
  0
ARC
  5
313
100
AcDbEntity
  8
BEZUGSACHSEN
100
AcDbCircle
 62
7
  6
CONTINUOUS
 10
110.4275
 20
129.3739481227
 40
2.3
100
AcDbArc
 50
119.7981967911
 51
270.0
  0
ARC
  5
314
100
AcDbEntity
  8
0
100
AcDbCircle
 62
7
  6
CONTINUOUS
 10
127.8390789
 20
122.7034219727
 40
2.1315789
100
AcDbArc
 50
90.0
 51
270.0
  0
ARC
  5
315
100
AcDbEntity
  8
0
100
AcDbCircle
 62
7
  6
CONTINUOUS
 10
127.661447325
 20
117.1021063077
 40
1.953947325
100
AcDbArc
 50
180.0
 51
270.0
  0
ARC
  5
316
100
AcDbEntity
  8
0
100
AcDbCircle
 62
7
  6
CONTINUOUS
 10
129.082499925
 20
117.1021063077
 40
1.953947325
100
AcDbArc
 50
270.0
 51
360.0
  0
ARC
  5
317
100
AcDbEntity
  8
0
100
AcDbCircle
 62
7
  6
CONTINUOUS
 10
129.485131495
 20
127.4521060777
 40
1.551315755
100
AcDbArc
 50
201.1872687082
 51
360.0
  0
ARC
  5
318
100
AcDbEntity
  8
0
100
AcDbCircle
 62
7
  6
CONTINUOUS
 10
114.6275
 20
123.5739481227
 40
1.5
100
AcDbArc
 50
0.0
 51
90.0
  0
ARC
  5
319
100
AcDbEntity
  8
0
100
AcDbCircle
 62
7
  6
CONTINUOUS
 10
129.035131505
 20
117.3312924652
 40
1.11315787
100
AcDbArc
 50
270.3792655671
 51
360.0
  0
ARC
  5
31A
100
AcDbEntity
  8
0
100
AcDbCircle
 62
7
  6
CONTINUOUS
 10
127.708815745
 20
117.3313168527
 40
1.11315787
100
AcDbArc
 50
180.0
 51
270.0
  0
ARC
  5
31B
100
AcDbEntity
  8
0
100
AcDbCircle
 62
7
  6
CONTINUOUS
 10
127.8390789
 20
122.7034219727
 40
1.06578945
100
AcDbArc
 50
90.0
 51
270.0
  0
ARC
  5
31C
100
AcDbEntity
  8
0
100
AcDbCircle
 62
7
  6
CONTINUOUS
 10
127.045657865
 20
128.3692257291
 40
0.888157875
100
AcDbArc
 50
300.0
 51
360.0
  0
ARC
  5
31D
100
AcDbEntity
  8
0
100
AcDbCircle
 62
7
  6
CONTINUOUS
 10
129.485131495
 20
127.8073692277
 40
0.66315788
100
AcDbArc
 50
180.0
 51
360.0
  0
ARC
  5
31E
100
AcDbEntity
  8
RUNDUNGEN
100
AcDbCircle
 62
7
  6
CONTINUOUS
 10
96.1275
 20
148.5739481227
 40
22.4999995
100
AcDbArc
 50
180.0
 51
200.6102911233
  0
ARC
  5
31F
100
AcDbEntity
  8
BEZUGSACHSEN
100
AcDbCircle
 62
7
  6
CONTINUOUS
 10
96.1275
 20
148.5739481227
 40
22.4999995
100
AcDbArc
 50
339.3897088767
 51
180.0
  0
ARC
  5
320
100
AcDbEntity
  8
BEZUGSACHSEN
100
AcDbCircle
 62
7
  6
CONTINUOUS
 10
100.3394829943
 20
146.9899043242
 40
18.0
100
AcDbArc
 50
299.7981967911
 51
339.3897088767
  0
ARC
  5
321
100
AcDbEntity
  8
BEZUGSACHSEN
100
AcDbCircle
 62
7
  6
CONTINUOUS
 10
127.5222365
 20
148.5739481227
 40
7.105263
100
AcDbArc
 50
0.0
 51
22.5
  0
ARC
  5
322
100
AcDbEntity
  8
BEZUGSACHSEN
100
AcDbCircle
 62
7
  6
CONTINUOUS
 10
118.3269310727
 20
170.7733791954
 40
7.105263
100
AcDbArc
 50
22.5
 51
67.5
  0
ARC
  5
323
100
AcDbEntity
  8
BEZUGSACHSEN
100
AcDbCircle
 62
7
  6
CONTINUOUS
 10
96.1275
 20
179.9686846227
 40
7.105263
100
AcDbArc
 50
67.5
 51
112.5
  0
ARC
  5
324
100
AcDbEntity
  8
KONSTRUKTIONSELEMENTE
100
AcDbCircle
 62
7
  6
CONTINUOUS
 10
243.4635304326
 20
106.5739481227
 40
18.8
100
AcDbArc
 50
56.8516622339
 51
64.3090018516
  0
ARC
  5
325
100
AcDbEntity
  8
KONSTRUKTIONSELEMENTE
100
AcDbCircle
 62
7
  6
CONTINUOUS
 10
243.4635304326
 20
106.5739481227
 40
18.8
100
AcDbArc
 50
111.8606923449
 51
120.910387573
  0
ARC
  5
326
100
AcDbEntity
  8
KONSTRUKTIONSELEMENTE
100
AcDbCircle
 62
7
  6
CONTINUOUS
 10
243.4635304326
 20
106.5739481227
 40
18.8
100
AcDbArc
 50
64.3094387145
 51
68.1352792464
  0
ARC
  5
327
100
AcDbEntity
  8
0
100
AcDbCircle
 62
7
  6
CONTINUOUS
 10
243.4635304326
 20
106.5739481227
 40
18.5
100
AcDbArc
 50
12.8573976753
 51
67.745415382
  0
ARC
  5
328
100
AcDbEntity
  8
0
100
AcDbCircle
 62
7
  6
CONTINUOUS
 10
243.4635304326
 20
106.5739481227
 40
18.5
100
AcDbArc
 50
112.254584618
 51
167.1426023247
  0
ARC
  5
329
100
AcDbEntity
  8
RUNDUNGEN
100
AcDbCircle
 62
7
  6
CONTINUOUS
 10
243.4635304326
 20
106.5739481227
 40
9.0
100
AcDbArc
 50
141.1267580783
 51
166.0
  0
ARC
  5
32A
100
AcDbEntity
  8
RUNDUNGEN
100
AcDbCircle
 62
7
  6
CONTINUOUS
 10
243.4635304326
 20
106.5739481227
 40
9.0
100
AcDbArc
 50
14.0
 51
38.8732418909
  0
ARC
  5
32B
100
AcDbEntity
  8
BEZUGSACHSEN
100
AcDbCircle
 62
7
  6
CONTINUOUS
 10
243.4635304326
 20
105.3239481227
 40
7.0
100
AcDbArc
 50
180.0
 51
360.0
  0
ARC
  5
32C
100
AcDbEntity
  8
BEZUGSACHSEN
100
AcDbCircle
 62
7
  6
CONTINUOUS
 10
240.4635304326
 20
183.0739476227
 40
4.0
100
AcDbArc
 50
90.0
 51
180.0
  0
ARC
  5
32D
100
AcDbEntity
  8
BEZUGSACHSEN
100
AcDbCircle
 62
7
  6
CONTINUOUS
 10
246.4635304326
 20
183.0739476227
 40
4.0
100
AcDbArc
 50
0.0
 51
90.0
  0
ARC
  5
32E
100
AcDbEntity
  8
RUNDUNGEN
100
AcDbCircle
 62
7
  6
CONTINUOUS
 10
61.6275005
 20
28.7256068065
 40
4.0
100
AcDbArc
 50
180.0
 51
270.0
  0
ARC
  5
32F
100
AcDbEntity
  8
BEZUGSACHSEN
100
AcDbCircle
 62
7
  6
CONTINUOUS
 10
130.6274995
 20
28.7256068065
 40
4.0
100
AcDbArc
 50
270.0
 51
360.0
  0
ARC
  5
330
100
AcDbEntity
  8
BEZUGSACHSEN
100
AcDbCircle
 62
7
  6
CONTINUOUS
 10
61.6275005
 20
34.7256068065
 40
4.0
100
AcDbArc
 50
90.0
 51
180.0
  0
ARC
  5
331
100
AcDbEntity
  8
BEZUGSACHSEN
100
AcDbCircle
 62
7
  6
CONTINUOUS
 10
130.6274995
 20
34.7256068065
 40
4.0
100
AcDbArc
 50
0.0
 51
90.0
  0
ARC
  5
332
100
AcDbEntity
  8
KONSTRUKTIONSELEMENTE
100
AcDbCircle
 62
7
  6
CONTINUOUS
 10
83.8875
 20
37.7756068065
 40
1.2
100
AcDbArc
 50
52.4223434511
 51
90.0
  0
ARC
  5
333
100
AcDbEntity
  8
KONSTRUKTIONSELEMENTE
100
AcDbCircle
 62
7
  6
CONTINUOUS
 10
82.4075
 20
37.7756068065
 40
1.2
100
AcDbArc
 50
90.0
 51
127.5705412533
  0
SPLINE
  5
334
100
AcDbEntity
  8
KONSTRUKTIONSELEMENTE
100
AcDbSpline
 62
7
  6
CONTINUOUS
 70
0
 71
3
 72
11
 73
7
 74
0
 42
0.0000001
 43
0.0000001
 44
0.0000000001
 40
0.0
 40
0.0
 40
0.0
 40
0.0
 40
0.2315404384
 40
0.4999999972
 40
0.7684594318
 40
1.0
 40
1.0
 40
1.0
 40
1.0
 10
112.3996162307
 20
125.339866814
 30
0.0
 10
112.1903045136
 20
125.3515479625
 30
0.0
 10
111.7375691502
 20
125.3619600933
 30
0.0
 10
111.0418341937
 20
125.365687558
 30
0.0
 10
110.3460991182
 20
125.3619601097
 30
0.0
 10
109.8933637524
 20
125.3515479265
 30
0.0
 10
109.6840519165
 20
125.3398667973
 30
0.0
  0
SPLINE
  5
335
100
AcDbEntity
  8
KONSTRUKTIONSELEMENTE
100
AcDbSpline
 62
7
  6
CONTINUOUS
 70
0
 71
3
 72
11
 73
7
 74
0
 42
0.0000001
 43
0.0000001
 44
0.0000000001
 40
0.0
 40
0.0
 40
0.0
 40
0.0
 40
0.0886440508
 40
0.2796922901
 40
0.5836227791
 40
1.0
 40
1.0
 40
1.0
 40
1.0
 10
109.6419115527
 20
125.3569062519
 30
0.0
 10
109.6419209539
 20
125.3546045452
 30
0.0
 10
109.6492952175
 20
125.3496571585
 30
0.0
 10
109.6625332747
 20
125.3449470232
 30
0.0
 10
109.6859434398
 20
125.3385041347
 30
0.0
 10
109.7040730831
 20
125.334721801
 30
0.0
 10
109.7146793436
 20
125.3326245464
 30
0.0
  0
SPLINE
  5
336
100
AcDbEntity
  8
KONSTRUKTIONSELEMENTE
100
AcDbSpline
 62
7
  6
CONTINUOUS
 70
0
 71
3
 72
22
 73
18
 74
0
 42
0.0000001
 43
0.0000001
 44
0.0000000001
 40
0.0
 40
0.0
 40
0.0
 40
0.0
 40
0.0355017216
 40
0.0841914373
 40
0.2150720043
 40
0.3776320762
 40
0.5529652238
 40
0.638994579
 40
0.7205375057
 40
0.795178974
 40
0.8607827542
 40
0.9154377269
 40
0.957578531
 40
0.9735533087
 40
0.9859891499
 40
0.9948021666
 40
1.0
 40
1.0
 40
1.0
 40
1.0
 10
109.7146793436
 20
125.3326245464
 30
0.0
 10
109.7464394968
 20
125.3263443756
 30
0.0
 10
109.8223188818
 20
125.3143707763
 30
0.0
 10
110.0169573616
 20
125.290154115
 30
0.0
 10
110.3280098913
 20
125.2641964316
 30
0.0
 10
110.755164674
 20
125.245204289
 30
0.0
 10
111.1418703376
 20
125.2433246478
 30
0.0
 10
111.4544917078
 20
125.2512525927
 30
0.0
 10
111.6751637461
 20
125.2612653672
 30
0.0
 10
111.8769907347
 20
125.2746098341
 30
0.0
 10
112.0540751228
 20
125.2900498836
 30
0.0
 10
112.2012624697
 20
125.3064320322
 30
0.0
 10
112.3031720769
 20
125.320627654
 30
0.0
 10
112.3664822162
 20
125.3319198582
 30
0.0
 10
112.3997665945
 20
125.3389760699
 30
0.0
 10
112.4228649386
 20
125.3454667779
 30
0.0
 10
112.4350592977
 20
125.3500440274
 30
0.0
 10
112.4388715674
 20
125.3528609065
 30
0.0
  0
SPLINE
  5
337
100
AcDbEntity
  8
KONSTRUKTIONSELEMENTE
100
AcDbSpline
 62
7
  6
CONTINUOUS
 70
0
 71
3
 72
9
 73
5
 74
0
 42
0.0000001
 43
0.0000001
 44
0.0000000001
 40
0.0
 40
0.0
 40
0.0
 40
0.0
 40
0.3248555639
 40
1.0
 40
1.0
 40
1.0
 40
1.0
 10
112.4388715674
 20
125.3528609065
 30
0.0
 10
112.4393111168
 20
125.3531856888
 30
0.0
 10
112.4405924188
 20
125.3542175436
 30
0.0
 10
112.4417518288
 20
125.3557696552
 30
0.0
 10
112.4417568176
 20
125.3569054778
 30
0.0
  0
SPLINE
  5
338
100
AcDbEntity
  8
KONSTRUKTIONSELEMENTE
100
AcDbSpline
 62
7
  6
CONTINUOUS
 70
0
 71
3
 72
13
 73
9
 74
0
 42
0.0000001
 43
0.0000001
 44
0.0000000001
 40
0.0
 40
0.0
 40
0.0
 40
0.0
 40
0.0166241619
 40
0.0643772031
 40
0.143340428
 40
0.2533522484
 40
0.565753883
 40
1.0
 40
1.0
 40
1.0
 40
1.0
 10
84.8875
 20
125.3736821633
 30
0.0
 10
84.887500067
 20
125.3733678332
 30
0.0
 10
84.8856470064
 20
125.3734534322
 30
0.0
 10
84.8835824291
 20
125.3727699584
 30
0.0
 10
84.8787864852
 20
125.3724487092
 30
0.0
 10
84.8695606801
 20
125.371423045
 30
0.0
 10
84.8532611989
 20
125.3701413306
 30
0.0
 10
84.8392417898
 20
125.3690302961
 30
0.0
 10
84.8310537381
 20
125.3684203602
 30
0.0
  0
SPLINE
  5
339
100
AcDbEntity
  8
KONSTRUKTIONSELEMENTE
100
AcDbSpline
 62
7
  6
CONTINUOUS
 70
0
 71
3
 72
12
 73
8
 74
0
 42
0.0000001
 43
0.0000001
 44
0.0000000001
 40
0.0
 40
0.0
 40
0.0
 40
0.0
 40
0.3726072087
 40
0.6841567439
 40
0.9012402689
 40
0.9664171553
 40
1.0
 40
1.0
 40
1.0
 40
1.0
 10
83.9172462132
 20
125.34539815
 30
0.0
 10
84.0372472045
 20
125.3464470135
 30
0.0
 10
84.2575732781
 20
125.3503263931
 30
0.0
 10
84.5476863213
 20
125.3597679455
 30
0.0
 10
84.7387560029
 20
125.3683015879
 30
0.0
 10
84.8403785873
 20
125.372546075
 30
0.0
 10
84.8721679963
 20
125.3739257351
 30
0.0
 10
84.8829840064
 20
125.3739431901
 30
0.0
  0
SPLINE
  5
33A
100
AcDbEntity
  8
KONSTRUKTIONSELEMENTE
100
AcDbSpline
 62
7
  6
CONTINUOUS
 70
0
 71
3
 72
20
 73
16
 74
0
 42
0.0000001
 43
0.0000001
 44
0.0000000001
 40
0.0
 40
0.0
 40
0.0
 40
0.0
 40
0.0237007235
 40
0.0525000251
 40
0.0900660878
 40
0.1376661101
 40
0.1952245123
 40
0.2618457415
 40
0.3360735697
 40
0.4160799773
 40
0.5846411802
 40
0.7491779385
 40
0.8920734657
 40
0.9510118501
 40
1.0
 40
1.0
 40
1.0
 40
1.0
 10
80.2075
 20
124.6404917877
 30
0.0
 10
80.2075
 20
124.6675724667
 30
0.0
 10
80.2268035752
 20
124.728093184
 30
0.0
 10
80.3026615509
 20
124.8010969923
 30
0.0
 10
80.4176701663
 20
124.8636787603
 30
0.0
 10
80.5720367495
 20
124.9177426834
 30
0.0
 10
80.7632103043
 20
124.9631350114
 30
0.0
 10
80.9871114585
 20
124.9995690994
 30
0.0
 10
81.2380626228
 20
125.0269526558
 30
0.0
 10
81.6061246076
 20
125.0517978352
 30
0.0
 10
82.0784606182
 20
125.0595651021
 30
0.0
 10
82.6220145943
 20
125.03617271
 30
0.0
 10
83.0387682456
 20
124.9875387985
 30
0.0
 10
83.3185697236
 20
124.9245221209
 30
0.0
 10
83.4360488104
 20
124.885684916
 30
0.0
 10
83.4875
 20
124.8636417341
 30
0.0
  0
SPLINE
  5
33B
100
AcDbEntity
  8
KONSTRUKTIONSELEMENTE
100
AcDbSpline
 62
7
  6
CONTINUOUS
 70
0
 71
3
 72
21
 73
17
 74
0
 42
0.0000001
 43
0.0000001
 44
0.0000000001
 40
0.0
 40
0.0
 40
0.0
 40
0.0
 40
0.0272304326
 40
0.0623232907
 40
0.1092355178
 40
0.1686670556
 40
0.239838576
 40
0.3206887959
 40
0.4999544913
 40
0.6792748128
 40
0.7601510791
 40
0.8313408531
 40
0.8907725209
 40
0.9376776594
 40
0.972769192
 40
1.0
 40
1.0
 40
1.0
 40
1.0
 10
82.7075
 20
124.5817242208
 30
0.0
 10
82.7075
 20
124.5965255609
 30
0.0
 10
82.6946061238
 20
124.6303592948
 30
0.0
 10
82.6486646977
 20
124.6697855078
 30
0.0
 10
82.5796461984
 20
124.7044364692
 30
0.0
 10
82.4875938528
 20
124.7342450324
 30
0.0
 10
82.3751059822
 20
124.758450315
 30
0.0
 10
82.1966075146
 20
124.783179872
 30
0.0
 10
81.9575449955
 20
124.7943699204
 30
0.0
 10
81.7184670865
 20
124.783189948
 30
0.0
 10
81.539915551
 20
124.758451332
 30
0.0
 10
81.4274034609
 20
124.7342444679
 30
0.0
 10
81.3353441096
 20
124.7044366802
 30
0.0
 10
81.2663317987
 20
124.6697825757
 30
0.0
 10
81.2203959042
 20
124.6303582644
 30
0.0
 10
81.2075
 20
124.5965257649
 30
0.0
 10
81.2075
 20
124.5817242208
 30
0.0
  0
SPLINE
  5
33C
100
AcDbEntity
  8
KONSTRUKTIONSELEMENTE
100
AcDbSpline
 62
7
  6
CONTINUOUS
 70
0
 71
3
 72
11
 73
7
 74
0
 42
0.0000001
 43
0.0000001
 44
0.0000000001
 40
0.0
 40
0.0
 40
0.0
 40
0.0
 40
0.0864007503
 40
0.2778590244
 40
0.5827521149
 40
1.0
 40
1.0
 40
1.0
 40
1.0
 10
113.0417574583
 20
125.3569012865
 30
0.0
 10
113.0417209424
 20
125.3530505862
 30
0.0
 10
113.0286683249
 20
125.3451038553
 30
0.0
 10
113.0063535476
 20
125.3367434249
 30
0.0
 10
112.9660327959
 20
125.3252776283
 30
0.0
 10
112.9350034543
 20
125.318229899
 30
0.0
 10
112.9168224562
 20
125.3143198413
 30
0.0
  0
SPLINE
  5
33D
100
AcDbEntity
  8
KONSTRUKTIONSELEMENTE
100
AcDbSpline
 62
7
  6
CONTINUOUS
 70
0
 71
3
 72
9
 73
5
 74
0
 42
0.0000001
 43
0.0000001
 44
0.0000000001
 40
0.0
 40
0.0
 40
0.0
 40
0.0
 40
0.1989966388
 40
1.0
 40
1.0
 40
1.0
 40
1.0
 10
112.9168224562
 20
125.3143198413
 30
0.0
 10
112.8973932425
 20
125.3101413388
 30
0.0
 10
112.7994349698
 20
125.2906503935
 30
0.0
 10
112.7006705093
 20
125.2754513886
 30
0.0
 10
112.6214446022
 20
125.2643865672
 30
0.0
  0
SPLINE
  5
33E
100
AcDbEntity
  8
KONSTRUKTIONSELEMENTE
100
AcDbSpline
 62
7
  6
CONTINUOUS
 70
0
 71
3
 72
11
 73
7
 74
0
 42
0.0000001
 43
0.0000001
 44
0.0000000001
 40
0.0
 40
0.0
 40
0.0
 40
0.0
 40
0.2310299653
 40
0.5000015822
 40
0.7689722834
 40
1.0
 40
1.0
 40
1.0
 40
1.0
 10
112.4167386121
 20
125.2385249256
 30
0.0
 10
112.2059532982
 20
125.2144548365
 30
0.0
 10
111.7480439293
 20
125.1770402903
 30
0.0
 10
111.0418186891
 20
125.157431833
 30
0.0
 10
110.3355955599
 20
125.1770418805
 30
0.0
 10
109.8776891769
 20
125.2144572734
 30
0.0
 10
109.6669059744
 20
125.2385276524
 30
0.0
  0
SPLINE
  5
33F
100
AcDbEntity
  8
KONSTRUKTIONSELEMENTE
100
AcDbSpline
 62
7
  6
CONTINUOUS
 70
0
 71
3
 72
9
 73
5
 74
0
 42
0.0000001
 43
0.0000001
 44
0.0000000001
 40
0.0
 40
0.0
 40
0.0
 40
0.0
 40
0.2995989128
 40
1.0
 40
1.0
 40
1.0
 40
1.0
 10
109.4622324658
 20
125.2643853547
 30
0.0
 10
109.4326000429
 20
125.268523831
 30
0.0
 10
109.333800728
 20
125.2830230008
 30
0.0
 10
109.2352368088
 20
125.2996118056
 30
0.0
 10
109.1668534172
 20
125.3143182531
 30
0.0
  0
SPLINE
  5
340
100
AcDbEntity
  8
KONSTRUKTIONSELEMENTE
100
AcDbSpline
 62
7
  6
CONTINUOUS
 70
0
 71
3
 72
11
 73
7
 74
0
 42
0.0000001
 43
0.0000001
 44
0.0000000001
 40
0.0
 40
0.0
 40
0.0
 40
0.0
 40
0.4172535504
 40
0.7221487248
 40
0.9136046694
 40
1.0
 40
1.0
 40
1.0
 40
1.0
 10
109.1668534172
 20
125.3143182531
 30
0.0
 10
109.1486710674
 20
125.3182285268
 30
0.0
 10
109.1176395771
 20
125.325276543
 30
0.0
 10
109.077315903
 20
125.3367431958
 30
0.0
 10
109.0550003679
 20
125.3451034855
 30
0.0
 10
109.0419469118
 20
125.3530511101
 30
0.0
 10
109.0419109571
 20
125.3569018049
 30
0.0
  0
SPLINE
  5
341
100
AcDbEntity
  8
0
100
AcDbSpline
 62
7
  6
CONTINUOUS
 70
0
 71
3
 72
21
 73
17
 74
0
 42
0.0000001
 43
0.0000001
 44
0.0000000001
 40
0.0
 40
0.0
 40
0.0
 40
0.0
 40
0.0275813583
 40
0.0628657926
 40
0.109825489
 40
0.1692170589
 40
0.2403119099
 40
0.3210516778
 40
0.5000009059
 40
0.6789551557
 40
0.7596944396
 40
0.8307876854
 40
0.8901775551
 40
0.9371355871
 40
0.9724189902
 40
1.0
 40
1.0
 40
1.0
 40
1.0
 10
81.2075
 20
124.2682975032
 30
0.0
 10
81.2075
 20
124.2833232423
 30
0.0
 10
81.2202508635
 20
124.3175697823
 30
0.0
 10
81.266129717
 20
124.3577976722
 30
0.0
 10
81.3351590219
 20
124.3930873644
 30
0.0
 10
81.427223138
 20
124.4234532149
 30
0.0
 10
81.5397598482
 20
124.4480948985
 30
0.0
 10
81.7183292776
 20
124.4732815957
 30
0.0
 10
81.9575043989
 20
124.4846678289
 30
0.0
 10
82.1966792445
 20
124.4732810384
 30
0.0
 10
82.3752501895
 20
124.4480934352
 30
0.0
 10
82.4877845966
 20
124.4234509565
 30
0.0
 10
82.5798459272
 20
124.3930851708
 30
0.0
 10
82.6488726471
 20
124.357796038
 30
0.0
 10
82.6947504788
 20
124.3175691728
 30
0.0
 10
82.7075
 20
124.2833230525
 30
0.0
 10
82.7075
 20
124.2682975032
 30
0.0
  0
SPLINE
  5
342
100
AcDbEntity
  8
KONSTRUKTIONSELEMENTE
100
AcDbSpline
 62
7
  6
CONTINUOUS
 70
0
 71
3
 72
14
 73
10
 74
0
 42
0.0000001
 43
0.0000001
 44
0.0000000001
 40
0.0
 40
0.0
 40
0.0
 40
0.0
 40
0.0261668065
 40
0.0843404153
 40
0.1732432293
 40
0.2911912719
 40
0.4358014861
 40
0.6043772578
 40
1.0
 40
1.0
 40
1.0
 40
1.0
 10
86.0853340442
 20
125.3739306401
 30
0.0
 10
86.07332089
 20
125.3739480063
 30
0.0
 10
86.0347612483
 20
125.3693503762
 30
0.0
 10
85.9556396556
 20
125.3620785865
 30
0.0
 10
85.8346079667
 20
125.3491849935
 30
0.0
 10
85.674042992
 20
125.3333963677
 30
0.0
 10
85.4769362521
 20
125.3152303404
 30
0.0
 10
85.1526128504
 20
125.2886043339
 30
0.0
 10
84.8940684751
 20
125.2721804714
 30
0.0
 10
84.7126626947
 20
125.2631545202
 30
0.0
  0
SPLINE
  5
343
100
AcDbEntity
  8
0
100
AcDbSpline
 62
7
  6
CONTINUOUS
 70
0
 71
3
 72
33
 73
29
 74
0
 42
0.0000001
 43
0.0000001
 44
0.0000000001
 40
0.0
 40
0.0
 40
0.0
 40
0.0
 40
0.0012974735
 40
0.0035155288
 40
0.0112689058
 40
0.0236080747
 40
0.040443088
 40
0.0616171919
 40
0.0869513238
 40
0.1161892394
 40
0.1490468497
 40
0.2244059541
 40
0.3102164552
 40
0.4032846877
 40
0.5000571786
 40
0.5968271631
 40
0.6898880416
 40
0.7756876303
 40
0.8510322389
 40
0.8838811243
 40
0.9131094958
 40
0.938433615
 40
0.9595974795
 40
0.976422115
 40
0.9887508825
 40
0.9964933701
 40
0.9987061356
 40
1.0
 40
1.0
 40
1.0
 40
1.0
 10
109.0419168268
 20
125.0564621183
 30
0.0
 10
109.0420075465
 20
125.0547190129
 30
0.0
 10
109.0452940381
 20
125.0506117103
 30
0.0
 10
109.0582096332
 20
125.0430884063
 30
0.0
 10
109.0868987718
 20
125.0329727676
 30
0.0
 10
109.1347411597
 20
125.0202375005
 30
0.0
 10
109.2010148494
 20
125.0057907581
 30
0.0
 10
109.2847543644
 20
124.9901280433
 30
0.0
 10
109.3853277223
 20
124.9736296656
 30
0.0
 10
109.501730064
 20
124.9567503277
 30
0.0
 10
109.6851579073
 20
124.9332780918
 30
0.0
 10
109.9448377387
 20
124.9064286316
 30
0.0
 10
110.2859715941
 20
124.8811716443
 30
0.0
 10
110.6564857397
 20
124.8646258068
 30
0.0
 10
111.0420723759
 20
124.858924609
 30
0.0
 10
111.427648919
 20
124.8646395069
 30
0.0
 10
111.7981345275
 20
124.8811978295
 30
0.0
 10
112.1392235278
 20
124.906463597
 30
0.0
 10
112.3988567122
 20
124.9333177292
 30
0.0
 10
112.582239936
 20
124.9567913703
 30
0.0
 10
112.6986039188
 20
124.973670179
 30
0.0
 10
112.7991368668
 20
124.9901671655
 30
0.0
 10
112.8828350412
 20
125.0058271221
 30
0.0
 10
112.9490664337
 20
125.0202713993
 30
0.0
 10
112.9968667173
 20
125.0330006151
 30
0.0
 10
113.0255178456
 20
125.0431154607
 30
0.0
 10
113.038407164
 20
125.0506326037
 30
0.0
 10
113.0416736718
 20
125.0547443208
 30
0.0
 10
113.0417543657
 20
125.0564830586
 30
0.0
  0
SPLINE
  5
344
100
AcDbEntity
  8
KONSTRUKTIONSELEMENTE
100
AcDbSpline
 62
7
  6
CONTINUOUS
 70
0
 71
3
 72
13
 73
9
 74
0
 42
0.0000001
 43
0.0000001
 44
0.0000000001
 40
0.0
 40
0.0
 40
0.0
 40
0.0
 40
0.3532650563
 40
0.6345407559
 40
0.747151451
 40
0.8426996348
 40
0.9249124906
 40
1.0
 40
1.0
 40
1.0
 40
1.0
 10
84.0375
 20
124.4784967312
 30
0.0
 10
83.9876264702
 20
124.4692768133
 30
0.0
 10
83.8988298433
 20
124.4481773929
 30
0.0
 10
83.7985431477
 20
124.4075347195
 30
0.0
 10
83.7401578791
 20
124.3679231406
 30
0.0
 10
83.7103882715
 20
124.3382645721
 30
0.0
 10
83.6917922409
 20
124.3064794713
 30
0.0
 10
83.6875
 20
124.2837251909
 30
0.0
 10
83.6875
 20
124.2729448069
 30
0.0
  0
SPLINE
  5
345
100
AcDbEntity
  8
0
100
AcDbSpline
 62
7
  6
CONTINUOUS
 70
0
 71
3
 72
9
 73
5
 74
0
 42
0.0000001
 43
0.0000001
 44
0.0000000001
 40
0.0
 40
0.0
 40
0.0
 40
0.0
 40
0.2320277266
 40
1.0
 40
1.0
 40
1.0
 40
1.0
 10
83.7326573313
 20
124.0421841761
 30
0.0
 10
83.7360237025
 20
124.0452918472
 30
0.0
 10
83.7509620584
 20
124.0582195959
 30
0.0
 10
83.7673874564
 20
124.0693626828
 30
0.0
 10
83.7804120401
 20
124.0771283718
 30
0.0
  0
SPLINE
  5
346
100
AcDbEntity
  8
0
100
AcDbSpline
 62
7
  6
CONTINUOUS
 70
0
 71
3
 72
9
 73
5
 74
0
 42
0.0000001
 43
0.0000001
 44
0.0000000001
 40
0.0
 40
0.0
 40
0.0
 40
0.0
 40
0.2327801349
 40
1.0
 40
1.0
 40
1.0
 40
1.0
 10
83.7804120401
 20
124.0771283718
 30
0.0
 10
83.7855651136
 20
124.0802008052
 30
0.0
 10
83.808016422
 20
124.0928721516
 30
0.0
 10
83.8315410756
 20
124.1035818047
 30
0.0
 10
83.8498823555
 20
124.1109708976
 30
0.0
  0
SPLINE
  5
347
100
AcDbEntity
  8
0
100
AcDbSpline
 62
7
  6
CONTINUOUS
 70
0
 71
3
 72
9
 73
5
 74
0
 42
0.0000001
 43
0.0000001
 44
0.0000000001
 40
0.0
 40
0.0
 40
0.0
 40
0.0
 40
0.2249999086
 40
1.0
 40
1.0
 40
1.0
 40
1.0
 10
83.8498823555
 20
124.1109708976
 30
0.0
 10
83.8634438578
 20
124.1164343768
 30
0.0
 10
83.9245353965
 20
124.1386845637
 30
0.0
 10
83.9880085531
 20
124.1539174065
 30
0.0
 10
84.0375
 20
124.1632306798
 30
0.0
  0
SPLINE
  5
348
100
AcDbEntity
  8
KONSTRUKTIONSELEMENTE
100
AcDbSpline
 62
7
  6
CONTINUOUS
 70
0
 71
3
 72
15
 73
11
 74
0
 42
0.0000001
 43
0.0000001
 44
0.0000000001
 40
0.0
 40
0.0
 40
0.0
 40
0.0
 40
0.0438288348
 40
0.1958859352
 40
0.3479430357
 40
0.5000001361
 40
0.6520572365
 40
0.804114337
 40
0.9561714374
 40
1.0
 40
1.0
 40
1.0
 40
1.0
 10
80.3217256301
 20
38.7273623324
 30
0.0
 10
80.3522804184
 20
38.7999034577
 30
0.0
 10
80.5157212807
 20
39.1188481857
 30
0.0
 10
81.0144840051
 20
39.6266380956
 30
0.0
 10
81.993120062
 20
40.0714705497
 30
0.0
 10
83.1475
 20
40.2276749349
 30
0.0
 10
84.301879938
 20
40.0714705497
 30
0.0
 10
85.2805159949
 20
39.6266380956
 30
0.0
 10
85.7792783291
 20
39.1188485829
 30
0.0
 10
85.9427191274
 20
38.799904344
 30
0.0
 10
85.9732738007
 20
38.7273636839
 30
0.0
  0
ELLIPSE
  5
349
100
AcDbEntity
  8
RUNDUNGEN
100
AcDbEllipse
 62
7
  6
CONTINUOUS
 10
79.6275
 20
100.1738701549
 30
0.0
 11
-0.0
 21
3.7274259407
 31
0.0
 40
0.9389857922
 41
-4.7123889804
 42
-4.6855785204
  0
ELLIPSE
  5
34A
100
AcDbEntity
  8
KONSTRUKTIONSELEMENTE
100
AcDbEllipse
 62
7
  6
CONTINUOUS
 10
104.4031538918
 20
106.5739481227
 30
0.0
 11
-0.0
 21
18.8
 31
0.0
 40
0.6127654705
 41
-0.043960477
 42
-0.039992918
  0
ELLIPSE
  5
34B
100
AcDbEntity
  8
KONSTRUKTIONSELEMENTE
100
AcDbEllipse
 62
7
  6
CONTINUOUS
 10
103.8402033673
 20
106.5739481227
 30
0.0
 11
25.5999991894
 21
0.0
 31
0.0
 40
0.7343750233
 41
7.8139887159
 42
7.8322822477
  0
ELLIPSE
  5
34C
100
AcDbEntity
  8
KONSTRUKTIONSELEMENTE
100
AcDbEllipse
 62
7
  6
CONTINUOUS
 10
103.5624721609
 20
106.5739481227
 30
0.0
 11
38.4000387669
 21
-0.0
 31
0.0
 40
0.4895828391
 41
1.5490969405
 42
1.5612882048
  0
ELLIPSE
  5
34D
100
AcDbEntity
  8
KONSTRUKTIONSELEMENTE
100
AcDbEllipse
 62
7
  6
CONTINUOUS
 10
103.3650970253
 20
106.5739481227
 30
0.0
 11
35.2000002861
 21
0.0
 31
0.0
 40
0.5340909047
 41
1.4949034703
 42
1.5315353664
  0
ELLIPSE
  5
34E
100
AcDbEntity
  8
KONSTRUKTIONSELEMENTE
100
AcDbEllipse
 62
7
  6
CONTINUOUS
 10
99.3534513683
 20
106.5739481227
 30
0.0
 11
0.0
 21
18.8
 31
0.0
 40
0.2042552851
 41
-0.3124854234
 42
-0.2806188572
  0
ELLIPSE
  5
34F
100
AcDbEntity
  8
KONSTRUKTIONSELEMENTE
100
AcDbEllipse
 62
7
  6
CONTINUOUS
 10
96.5989268307
 20
106.5739481227
 30
0.0
 11
-0.0
 21
18.8
 31
0.0
 40
0.6808509827
 41
-0.3317617539
 42
-0.3124854234
  0
ELLIPSE
  5
350
100
AcDbEntity
  8
KONSTRUKTIONSELEMENTE
100
AcDbEllipse
 62
7
  6
CONTINUOUS
 10
91.3875810757
 20
106.5739481227
 30
0.0
 11
28.7999931335
 21
-0.0
 31
0.0
 40
0.6527779334
 41
1.2261126927
 42
1.2390345729
  0
ELLIPSE
  5
351
100
AcDbEntity
  8
KONSTRUKTIONSELEMENTE
100
AcDbEllipse
 62
7
  6
CONTINUOUS
 10
100.6205575384
 20
106.5739481227
 30
0.0
 11
-0.0
 21
18.8
 31
0.0
 40
0.1702127457
 41
0.2114797526
 42
0.2490424499
  0
ELLIPSE
  5
352
100
AcDbEntity
  8
KONSTRUKTIONSELEMENTE
100
AcDbEllipse
 62
7
  6
CONTINUOUS
 10
101.963962114
 20
106.5739481227
 30
0.0
 11
0.0
 21
18.8
 31
0.0
 40
0.5106383587
 41
0.1866086427
 42
0.2114797526
  0
ELLIPSE
  5
353
100
AcDbEntity
  8
KONSTRUKTIONSELEMENTE
100
AcDbEllipse
 62
7
  6
CONTINUOUS
 10
103.7450236641
 20
106.5739481227
 30
0.0
 11
19.1999885559
 21
0.0
 31
0.0
 40
0.9791672503
 41
1.7326501167
 42
1.7574049695
  0
ELLIPSE
  5
354
100
AcDbEntity
  8
KONSTRUKTIONSELEMENTE
100
AcDbEllipse
 62
7
  6
CONTINUOUS
 10
113.0271631605
 20
106.5739481227
 30
0.0
 11
76.800064087
 21
0.0
 31
0.0
 40
0.2447914624
 41
1.7264776226
 42
1.7326501167
  0
ELLIPSE
  5
355
100
AcDbEntity
  8
KONSTRUKTIONSELEMENTE
100
AcDbEllipse
 62
7
  6
CONTINUOUS
 10
89.4450159271
 20
106.5739481227
 30
0.0
 11
76.800064087
 21
-0.0
 31
0.0
 40
0.2447914624
 41
1.4089425368
 42
1.415115031
  0
ELLIPSE
  5
356
100
AcDbEntity
  8
KONSTRUKTIONSELEMENTE
100
AcDbEllipse
 62
7
  6
CONTINUOUS
 10
97.1801351249
 20
106.5739481227
 30
0.0
 11
28.7999828339
 21
-0.0
 31
0.0
 40
0.6527781669
 41
1.3965785932
 42
1.4089425368
  0
ELLIPSE
  5
357
100
AcDbEntity
  8
KONSTRUKTIONSELEMENTE
100
AcDbEllipse
 62
7
  6
CONTINUOUS
 10
99.2435449568
 20
106.5739481227
 30
0.0
 11
-0.0
 21
18.8
 31
0.0
 40
0.8987233915
 41
-0.3317617539
 42
-0.1742177336
  0
ELLIPSE
  5
358
100
AcDbEntity
  8
KONSTRUKTIONSELEMENTE
100
AcDbEllipse
 62
7
  6
CONTINUOUS
 10
118.6475313827
 20
106.5739481227
 30
0.0
 11
56.2285733641
 21
0.0
 31
0.0
 40
0.334349582
 41
2.0096602802
 42
2.1062594112
  0
ELLIPSE
  5
359
100
AcDbEntity
  8
KONSTRUKTIONSELEMENTE
100
AcDbEllipse
 62
7
  6
CONTINUOUS
 10
72.8674986535
 20
106.5739481227
 30
0.0
 11
56.4000033617
 21
0.0
 31
0.0
 40
0.3333333135
 41
1.1586990404
 42
1.2629423662
  0
ELLIPSE
  5
35A
100
AcDbEntity
  8
RUNDUNGEN
100
AcDbEllipse
 62
7
  6
CONTINUOUS
 10
112.6275
 20
100.1738701549
 30
0.0
 11
0.0
 21
3.7274259407
 31
0.0
 40
0.9389857922
 41
-1.5976067867
 42
-1.5707963268
  0
ELLIPSE
  5
35B
100
AcDbEntity
  8
RUNDUNGEN
100
AcDbEllipse
 62
7
  6
CONTINUOUS
 10
112.6275
 20
100.361041112
 30
0.0
 11
0.0
 21
10.7095285444
 31
0.0
 40
0.3268117719
 41
-1.8827636829
 42
-1.5976067867
  0
ELLIPSE
  5
35C
100
AcDbEntity
  8
RUNDUNGEN
100
AcDbEllipse
 62
7
  6
CONTINUOUS
 10
79.6275
 20
100.361041112
 30
0.0
 11
0.0
 21
10.7095285444
 31
0.0
 40
0.3268117719
 41
-4.6855785204
 42
-4.4004216243
  0
ELLIPSE
  5
35D
100
AcDbEntity
  8
KONSTRUKTIONSELEMENTE
100
AcDbEllipse
 62
7
  6
CONTINUOUS
 10
91.0228382667
 20
106.5739481227
 30
0.0
 11
32.5625551823
 21
0.0
 31
0.0
 40
0.5773502692
 41
1.7229475313
 42
1.8043242806
  0
ELLIPSE
  5
35E
100
AcDbEntity
  8
KONSTRUKTIONSELEMENTE
100
AcDbEllipse
 62
7
  6
CONTINUOUS
 10
98.3272749525
 20
106.5739481227
 30
0.0
 11
0.0
 21
18.8
 31
0.0
 40
0.9118541023
 41
-0.3838230539
 42
-0.2052501468
  0
ELLIPSE
  5
35F
100
AcDbEntity
  8
KONSTRUKTIONSELEMENTE
100
AcDbEllipse
 62
7
  6
CONTINUOUS
 10
93.9948174839
 20
106.5739481227
 30
0.0
 11
38.3999771118
 21
-0.0
 31
0.0
 40
0.4895836251
 41
1.3655461799
 42
1.3779814741
  0
ELLIPSE
  5
360
100
AcDbEntity
  8
KONSTRUKTIONSELEMENTE
100
AcDbEllipse
 62
7
  6
CONTINUOUS
 10
106.6377882321
 20
106.5739481227
 30
0.0
 11
28.7999828339
 21
0.0
 31
0.0
 40
0.6527781669
 41
1.7636111795
 42
1.7760464736
  0
ELLIPSE
  5
361
100
AcDbEntity
  8
KONSTRUKTIONSELEMENTE
100
AcDbEllipse
 62
7
  6
CONTINUOUS
 10
103.376798419
 20
106.5739481227
 30
0.0
 11
0.0
 21
18.8
 31
0.0
 40
0.6808509827
 41
0.2052501468
 42
0.2239642883
  0
ELLIPSE
  5
362
100
AcDbEntity
  8
KONSTRUKTIONSELEMENTE
100
AcDbEllipse
 62
7
  6
CONTINUOUS
 10
101.3868128698
 20
106.5739481227
 30
0.0
 11
0.0
 21
18.8
 31
0.0
 40
0.2042553143
 41
0.2239642883
 42
0.2553364089
  0
ELLIPSE
  5
363
100
AcDbEntity
  8
KONSTRUKTIONSELEMENTE
100
AcDbEllipse
 62
7
  6
CONTINUOUS
 10
72.8280085171
 20
106.5739481227
 30
0.0
 11
76.7999885559
 21
-0.0
 31
0.0
 40
0.2447917031
 41
1.1935377384
 42
1.2000851732
  0
ELLIPSE
  5
364
100
AcDbEntity
  8
KONSTRUKTIONSELEMENTE
100
AcDbEllipse
 62
7
  6
CONTINUOUS
 10
93.6952391183
 20
106.5739481227
 30
0.0
 11
19.1999979973
 21
0.0
 31
0.0
 40
0.9791667688
 41
1.2000851732
 42
1.2261126927
  0
ELLIPSE
  5
365
100
AcDbEntity
  8
KONSTRUKTIONSELEMENTE
100
AcDbEllipse
 62
7
  6
CONTINUOUS
 10
96.9390684222
 20
106.5739481227
 30
0.0
 11
0.0
 21
18.8
 31
0.0
 40
0.5106382674
 41
-0.3446836341
 42
-0.3188971497
  0
ELLIPSE
  5
366
100
AcDbEntity
  8
KONSTRUKTIONSELEMENTE
100
AcDbEllipse
 62
7
  6
CONTINUOUS
 10
99.0889163503
 20
106.5739481227
 30
0.0
 11
0.0
 21
18.8
 31
0.0
 40
0.1458966441
 41
-0.3188971497
 42
-0.2742816402
  0
ELLIPSE
  5
367
100
AcDbEntity
  8
KONSTRUKTIONSELEMENTE
100
AcDbEllipse
 62
7
  6
CONTINUOUS
 10
120.7974990809
 20
106.5739481227
 30
0.0
 11
56.3999983191
 21
0.0
 31
0.0
 40
0.3333333433
 41
2.0367676476
 42
2.1493439624
  0
ELLIPSE
  5
368
100
AcDbEntity
  8
KONSTRUKTIONSELEMENTE
100
AcDbEllipse
 62
7
  6
CONTINUOUS
 10
70.8632133016
 20
106.5739481227
 30
0.0
 11
56.2285733641
 21
-0.0
 31
0.0
 40
0.334349582
 41
1.1319323733
 42
1.2243224495
  0
ELLIPSE
  5
369
100
AcDbEntity
  8
0
100
AcDbEllipse
 62
7
  6
CONTINUOUS
 10
70.8632133016
 20
106.5739481227
 30
0.0
 11
55.3313088956
 21
-0.0
 31
0.0
 40
0.334349582
 41
1.1451877744
 42
1.2184615505
  0
ELLIPSE
  5
36A
100
AcDbEntity
  8
0
100
AcDbEllipse
 62
7
  6
CONTINUOUS
 10
114.6275
 20
104.8425580179
 30
0.0
 11
0.0
 21
1.6252829284
 31
0.0
 40
0.9229162344
 41
-1.5707963268
 42
0.0
  0
ELLIPSE
  5
36B
100
AcDbEntity
  8
0
100
AcDbEllipse
 62
7
  6
CONTINUOUS
 10
77.6275
 20
104.8425580179
 30
0.0
 11
0.0
 21
1.6252829284
 31
0.0
 40
0.9229162344
 41
0.0
 42
1.5707963268
  0
ELLIPSE
  5
36C
100
AcDbEntity
  8
0
100
AcDbEllipse
 62
7
  6
CONTINUOUS
 10
120.7974990809
 20
106.5739481227
 30
0.0
 11
55.499998346
 21
0.0
 31
0.0
 40
0.3333333433
 41
2.0449397968
 42
2.1599717695
  0
ELLIPSE
  5
36D
100
AcDbEntity
  8
0
100
AcDbEllipse
 62
7
  6
CONTINUOUS
 10
99.0889163503
 20
106.5739481227
 30
0.0
 11
0.0
 21
18.5
 31
0.0
 40
0.1458966441
 41
-0.3242559575
 42
-0.2788473979
  0
ELLIPSE
  5
36E
100
AcDbEntity
  8
0
100
AcDbEllipse
 62
7
  6
CONTINUOUS
 10
96.9390684222
 20
106.5739481227
 30
0.0
 11
0.0
 21
18.5
 31
0.0
 40
0.5106382674
 41
-0.3505116349
 42
-0.3242559575
  0
ELLIPSE
  5
36F
100
AcDbEntity
  8
0
100
AcDbEllipse
 62
7
  6
CONTINUOUS
 10
93.6952391183
 20
106.5739481227
 30
0.0
 11
18.8936150505
 21
-0.0
 31
0.0
 40
0.9791667688
 41
1.193774448
 42
1.2202846919
  0
ELLIPSE
  5
370
100
AcDbEntity
  8
0
100
AcDbEllipse
 62
7
  6
CONTINUOUS
 10
72.8280085171
 20
106.5739481227
 30
0.0
 11
75.5744568236
 21
-0.0
 31
0.0
 40
0.2447917031
 41
1.1871040214
 42
1.193774448
  0
ELLIPSE
  5
371
100
AcDbEntity
  8
0
100
AcDbEllipse
 62
7
  6
CONTINUOUS
 10
101.3868128698
 20
106.5739481227
 30
0.0
 11
-0.0
 21
18.5
 31
0.0
 40
0.2042553143
 41
6.5108449808
 42
6.5241874305
  0
ELLIPSE
  5
372
100
AcDbEntity
  8
0
100
AcDbEllipse
 62
7
  6
CONTINUOUS
 10
103.376798419
 20
106.5739481227
 30
0.0
 11
-0.0
 21
18.5
 31
0.0
 40
0.6808509827
 41
0.2086272614
 42
0.2276596736
  0
ELLIPSE
  5
373
100
AcDbEntity
  8
0
100
AcDbEllipse
 62
7
  6
CONTINUOUS
 10
106.6377882321
 20
106.5739481227
 30
0.0
 11
28.3404086397
 21
0.0
 31
0.0
 40
0.6527781669
 41
1.7667782244
 42
1.7794235882
  0
ELLIPSE
  5
374
100
AcDbEntity
  8
0
100
AcDbEllipse
 62
7
  6
CONTINUOUS
 10
93.9948174839
 20
106.5739481227
 30
0.0
 11
37.7872115196
 21
-0.0
 31
0.0
 40
0.4895836251
 41
1.3621690654
 42
1.3748144292
  0
ELLIPSE
  5
375
100
AcDbEntity
  8
0
100
AcDbEllipse
 62
7
  6
CONTINUOUS
 10
98.3272749525
 20
106.5739481227
 30
0.0
 11
-0.0
 21
18.5
 31
0.0
 40
0.9118541023
 41
-0.3903807434
 42
-0.2086272614
  0
ELLIPSE
  5
376
100
AcDbEntity
  8
0
100
AcDbEllipse
 62
7
  6
CONTINUOUS
 10
102.2923999924
 20
106.5739481227
 30
0.0
 11
34.6383146707
 21
-0.0
 31
0.0
 40
0.5340906501
 41
1.462567147
 42
1.4829354497
  0
ELLIPSE
  5
377
100
AcDbEntity
  8
KONSTRUKTIONSELEMENTE
100
AcDbEllipse
 62
7
  6
CONTINUOUS
 10
93.9673246396
 20
106.5739481227
 30
0.0
 11
32.5625551823
 21
0.0
 31
0.0
 40
0.5773502692
 41
1.815212989
 42
1.8806781738
  0
ELLIPSE
  5
378
100
AcDbEntity
  8
0
100
AcDbEllipse
 62
7
  6
CONTINUOUS
 10
93.9673246396
 20
106.5739481227
 30
0.0
 11
32.04293994
 21
-0.0
 31
0.0
 40
0.5773502692
 41
1.8192594141
 42
1.8858749084
  0
ELLIPSE
  5
379
100
AcDbEntity
  8
KONSTRUKTIONSELEMENTE
100
AcDbEllipse
 62
7
  6
CONTINUOUS
 10
102.2923999924
 20
106.5739481227
 30
0.0
 11
35.2000170708
 21
-0.0
 31
0.0
 40
0.5340906501
 41
1.464300821
 42
1.5010145179
  0
ELLIPSE
  5
37A
100
AcDbEntity
  8
KONSTRUKTIONSELEMENTE
100
AcDbEllipse
 62
7
  6
CONTINUOUS
 10
77.6275
 20
49.5579977771
 30
0.0
 11
1.5
 21
0.0
 31
0.0
 40
0.7784060196
 41
1.5707963268
 42
3.1415926536
  0
ELLIPSE
  5
37B
100
AcDbEntity
  8
0
100
AcDbEllipse
 62
7
  6
CONTINUOUS
 10
77.6275
 20
13.8932158359
 30
0.0
 11
1.5
 21
-0.0
 31
0.0
 40
0.7784060196
 41
-3.1415926536
 42
-1.5707963268
  0
ELLIPSE
  5
37C
100
AcDbEntity
  8
0
100
AcDbEllipse
 62
7
  6
CONTINUOUS
 10
114.6275
 20
13.8932158359
 30
0.0
 11
1.5
 21
0.0
 31
0.0
 40
0.7784060196
 41
-1.5707963268
 42
-0.0
  0
ELLIPSE
  5
37D
100
AcDbEntity
  8
KONSTRUKTIONSELEMENTE
100
AcDbEllipse
 62
7
  6
CONTINUOUS
 10
114.6275
 20
49.5579977771
 30
0.0
 11
1.5
 21
-0.0
 31
0.0
 40
0.7784060196
 41
-0.0
 42
1.5707963268
  0
ENDSEC
  0
SECTION
  2
OBJECTS
  0
DICTIONARY
  5
C
100
AcDbDictionary
280
0
281
1
  3
ACAD_GROUP
350
D
  3
ACAD_MLINESTYLE
350
17
  3
ACAD_LAYOUT
350
1A
  3
ACAD_PLOTSETTINGS
350
19
  3
ACAD_PLOTSTYLENAME
350
E
  0
DICTIONARY
  5
D
102
{ACAD_REACTORS
330
C
102
}
100
AcDbDictionary
280
0
281
1
  0
ACDBDICTIONARYWDFLT
  5
E
102
{ACAD_REACTORS
330
C
102
}
100
AcDbDictionary
281
1
  3
Normal
350
F
100
AcDbDictionaryWithDefault
340
F
  0
DICTIONARY
  5
17
102
{ACAD_REACTORS
330
C
102
}
100
AcDbDictionary
280
0
281
1
  3
Standard
350
18
  0
DICTIONARY
  5
19
102
{ACAD_REACTORS
330
C
102
}
100
AcDbDictionary
281
1
  0
DICTIONARY
  5
1A
102
{ACAD_REACTORS
330
C
102
}
100
AcDbDictionary
281
1
  3
Model
350
37E
  3
Layout1
350
37F
  0
ACDBPLACEHOLDER
  5
F
102
{ACAD_REACTORS
330
E
102
}
  0
MLINESTYLE
  5
18
102
{ACAD_REACTORS
330
17
102
}
100
AcDbMlineStyle
  2
STANDARD
 70
0
  3

 62
256
 51
90.0
 52
90.0
 71
2
 49
0.5
 62
256
  6
BYLAYER
 49
-0.5
 62
256
  6
BYLAYER
  0
LAYOUT
  5
37E
102
{ACAD_REACTORS
330
1A
102
}
100
AcDbPlotSettings
  1

  2
none_device
  4
ISO_A4_(297.00_x_210.00_MM)
  6

 40
0.0
 41
0.0
 42
0.0
 43
0.0
 44
297.0
 45
210.0
 46
0.0
 47
0.0
 48
0.0
 49
0.0
140
0.0
141
0.0
142
1.0
143
1.0
 70
1024
 72
1
 73
0
 74
0
  7

 75
0
147
1.0
148
0.0
149
0.0
100
AcDbLayout
  1
Model
 70
0
 71
0
 10
0.0
 20
0.0
 11
297.0
 21
210.0
 12
0.0
 22
0.0
 32
0.0
 14
0.0
 24
0.0
 34
0.0
 15
0.0
 25
0.0
 35
0.0
146
0.0
 13
0.0
 23
0.0
 33
0.0
 16
1.0
 26
0.0
 36
0.0
 17
0.0
 27
1.0
 37
0.0
 76
0
330
20D
345
0
346
0
  0
LAYOUT
  5
37F
102
{ACAD_REACTORS
330
1A
102
}
100
AcDbPlotSettings
  1

  2
none_device
  4
ISO_A4_(297.00_x_210.00_MM)
  6

 40
0.0
 41
0.0
 42
0.0
 43
0.0
 44
297.0
 45
210.0
 46
0.0
 47
0.0
 48
0.0
 49
0.0
140
0.0
141
0.0
142
1.0
143
1.0
 70
0
 72
1
 73
0
 74
0
  7

 75
0
147
1.0
148
0.0
149
0.0
100
AcDbLayout
  1
Layout1
 70
0
 71
1
 10
0.0
 20
0.0
 11
297.0
 21
210.0
 12
0.0
 22
0.0
 32
0.0
 14
0.0
 24
0.0
 34
0.0
 15
0.0
 25
0.0
 35
0.0
146
0.0
 13
0.0
 23
0.0
 33
0.0
 16
1.0
 26
0.0
 36
0.0
 17
0.0
 27
1.0
 37
0.0
 76
0
330
20E
345
0
346
0
  0
ENDSEC
  0
EOF
