999
DXF file: 001-m32118-p4.dxf
999
Pro/ENGINEER 2011490 by Parametric Technology Corporation
  0
SECTION
  2
HEADER
  9
$ACADVER
  1
AC1015
  9
$DWGCODEPAGE
  3
ANSI_1252
  9
$EXTMAX
 10
297.0
 20
210.0
 30
0.0
  9
$EXTMIN
 10
0.0
 20
0.0
 30
0.0
  9
$LIMMIN
 10
0.0
 20
0.0
  9
$LIMMAX
 10
297.0
 20
210.0
  9
$VIEWCTR
 10
148.5
 20
105.0
  9
$VIEWSIZE
 40
210.0
  9
$CLAYER
  8
0
  9
$LTSCALE
 40
16.335
  9
$CELTYPE
  6
BYLAYER
  9
$DIMSCALE
 40
1.0
  9
$DIMASZ
 40
3.5
  9
$DIMEXO
 40
1.85625
  9
$DIMDLI
 40
11.286
  9
$DIMEXE
 40
5.346
  9
$DIMCEN
 40
2.673
  9
$DIMLFAC
 40
1.0
  9
$DIMBLK
  1
_FILLED
  9
$DIMTXT
 40
3.5
  9
$DIMTOL
 70
1
  9
$DIMLIM
 70
0
  9
$DIMTFAC
 40
1.0
  9
$DIMTP
 40
0.005
  9
$DIMTM
 40
0.005
  9
$PDMODE
 70
3
  9
$PDSIZE
 40
0.3125
  9
$HANDSEED
  5
322
  9
$TILEMODE
 70
1
  9
$MEASUREMENT
 70
1
  9
$INSUNITS
 70
4
  0
ENDSEC
  0
SECTION
  2
CLASSES
  0
CLASS
  1
ACDBDICTIONARYWDFLT
  2
AcDbDictionaryWithDefault
  3
AutoCAD 2000
 90
0
280
0
281
0
  0
CLASS
  1
ACDBPLACEHOLDER
  2
AcDbPlaceHolder
  3
AutoCAD 2000
 90
0
280
0
281
0
  0
CLASS
  1
LAYOUT
  2
AcDbLayout
  3
AutoCAD 2000
 90
0
280
0
281
0
  0
ENDSEC
  0
SECTION
  2
TABLES
  0
TABLE
  2
VPORT
  5
8
100
AcDbSymbolTable
 70
2
  0
VPORT
  5
1F4
100
AcDbSymbolTableRecord
100
AcDbViewportTableRecord
  2
*ACTIVE
 70
0
 10
0.0
 20
0.0
 11
1.0
 21
1.0
 12
148.5
 22
105.0
 13
0.0
 23
0.0
 14
1.0
 24
1.0
 15
0.0
 25
0.0
 16
0.0
 26
0.0
 36
1.0
 17
0.0
 27
0.0
 37
0.0
 40
210.0
 41
1.4142857143
 42
50.0
 43
0.0
 44
0.0
 50
0.0
 51
0.0
 71
0
 72
100
 73
1
 74
1
 75
0
 76
0
 77
0
 78
0
  0
ENDTAB
  0
TABLE
  2
LTYPE
  5
5
100
AcDbSymbolTable
 70
6
  0
LTYPE
  5
14
100
AcDbSymbolTableRecord
100
AcDbLinetypeTableRecord
  2
BYBLOCK
 70
0
  3

 72
65
 73
0
 40
0.0
  0
LTYPE
  5
15
100
AcDbSymbolTableRecord
100
AcDbLinetypeTableRecord
  2
BYLAYER
 70
0
  3

 72
65
 73
0
 40
0.0
  0
LTYPE
  5
16
100
AcDbSymbolTableRecord
100
AcDbLinetypeTableRecord
  2
CONTINUOUS
 70
64
  3
Solid line
 72
65
 73
0
 40
0.0
  0
LTYPE
  5
1F5
100
AcDbSymbolTableRecord
100
AcDbLinetypeTableRecord
  2
CENTER
 70
64
  3
____ _ ____ _ ____ _ ____ _ ____ _ ____ _ ____
 72
65
 73
4
 40
0.6
 49
0.375
 74
0
 49
-0.075
 74
0
 49
0.075
 74
0
 49
-0.075
 74
0
  0
LTYPE
  5
1F6
100
AcDbSymbolTableRecord
100
AcDbLinetypeTableRecord
  2
HIDDEN
 70
64
  3
- - - - - - - - - - - - - - - - - - - -
 72
65
 73
2
 40
0.2
 49
0.1
 74
0
 49
-0.1
 74
0
  0
LTYPE
  5
1F7
100
AcDbSymbolTableRecord
100
AcDbLinetypeTableRecord
  2
PHANTOM
 70
64
  3
_____ _ _ _____ _ _ _____ _ _ _____
 72
65
 73
6
 40
0.8
 49
0.45
 74
0
 49
-0.05
 74
0
 49
0.1
 74
0
 49
-0.05
 74
0
 49
0.1
 74
0
 49
-0.05
 74
0
  0
LTYPE
  5
1F8
100
AcDbSymbolTableRecord
100
AcDbLinetypeTableRecord
  2
DOT
 70
64
  3
. . . . . . . . . . . . . . . . . . . .
 72
65
 73
2
 40
0.2
 49
0.1
 74
0
 49
-0.1
 74
0
  0
LTYPE
  5
1F9
100
AcDbSymbolTableRecord
100
AcDbLinetypeTableRecord
  2
DASHED
 70
64
  3
- - - - - - - - - - - - - - - - - - - -
 72
65
 73
2
 40
0.2
 49
0.1
 74
0
 49
-0.1
 74
0
  0
ENDTAB
  0
TABLE
  2
LAYER
  5
2
100
AcDbSymbolTable
 70
36
  0
LAYER
  5
10
100
AcDbSymbolTableRecord
100
AcDbLayerTableRecord
  2
0
 70
0
 62
7
  6
CONTINUOUS
370
-3
390
F
  0
LAYER
  5
1FA
100
AcDbSymbolTableRecord
100
AcDbLayerTableRecord
  2
DEFAULT_1
 70
0
 62
7
  6
CENTER
370
-3
390
F
  0
LAYER
  5
1FB
100
AcDbSymbolTableRecord
100
AcDbLayerTableRecord
  2
DEFAULT_2
 70
0
 62
8
  6
HIDDEN
370
-3
390
F
  0
LAYER
  5
1FC
100
AcDbSymbolTableRecord
100
AcDbLayerTableRecord
  2
DEFAULT_3
 70
0
 62
7
  6
PHANTOM
370
-3
390
F
  0
LAYER
  5
1FD
100
AcDbSymbolTableRecord
100
AcDbLayerTableRecord
  2
AUSFORMSCHRAEGEN
 70
0
 62
7
  6
CONTINUOUS
370
-3
390
F
  0
LAYER
  5
1FE
100
AcDbSymbolTableRecord
100
AcDbLayerTableRecord
  2
BEZUGSACHSEN
 70
0
 62
7
  6
CONTINUOUS
370
-3
390
F
  0
LAYER
  5
1FF
100
AcDbSymbolTableRecord
100
AcDbLayerTableRecord
  2
BEZUGSEBENEN
 70
0
 62
7
  6
CONTINUOUS
370
-3
390
F
  0
LAYER
  5
200
100
AcDbSymbolTableRecord
100
AcDbLayerTableRecord
  2
BG_STARTBEZUEGE
 70
0
 62
7
  6
CONTINUOUS
370
-3
390
F
  0
LAYER
  5
201
100
AcDbSymbolTableRecord
100
AcDbLayerTableRecord
  2
FASEN
 70
0
 62
7
  6
CONTINUOUS
370
-3
390
F
  0
LAYER
  5
202
100
AcDbSymbolTableRecord
100
AcDbLayerTableRecord
  2
HILFEN
 70
0
 62
7
  6
CONTINUOUS
370
-3
390
F
  0
LAYER
  5
203
100
AcDbSymbolTableRecord
100
AcDbLayerTableRecord
  2
KONSTRUKTIONSELEMENTE
 70
0
 62
7
  6
CONTINUOUS
370
-3
390
F
  0
LAYER
  5
204
100
AcDbSymbolTableRecord
100
AcDbLayerTableRecord
  2
KURVEN
 70
0
 62
7
  6
CONTINUOUS
370
-3
390
F
  0
LAYER
  5
205
100
AcDbSymbolTableRecord
100
AcDbLayerTableRecord
  2
NORM
 70
0
 62
7
  6
CONTINUOUS
370
-3
390
F
  0
LAYER
  5
206
100
AcDbSymbolTableRecord
100
AcDbLayerTableRecord
  2
PLATZIERUNG
 70
0
 62
7
  6
CONTINUOUS
370
-3
390
F
  0
LAYER
  5
207
100
AcDbSymbolTableRecord
100
AcDbLayerTableRecord
  2
RUNDUNGEN
 70
0
 62
7
  6
CONTINUOUS
370
-3
390
F
  0
LAYER
  5
208
100
AcDbSymbolTableRecord
100
AcDbLayerTableRecord
  2
TEIL_STARTBEZUEGE
 70
0
 62
7
  6
CONTINUOUS
370
-3
390
F
  0
LAYER
  5
209
100
AcDbSymbolTableRecord
100
AcDbLayerTableRecord
  2
T_STARTBEZUEGE
 70
0
 62
7
  6
CONTINUOUS
370
-3
390
F
  0
LAYER
  5
20A
100
AcDbSymbolTableRecord
100
AcDbLayerTableRecord
  2
ZEICHNUNGSBEMASSUNGEN
 70
0
 62
7
  6
CONTINUOUS
370
-3
390
F
  0
ENDTAB
  0
TABLE
  2
STYLE
  5
3
100
AcDbSymbolTable
 70
1
  0
STYLE
  5
11
100
AcDbSymbolTableRecord
100
AcDbTextStyleTableRecord
  2
STANDARD
 70
0
 40
0.0
 41
0.7
 50
0.0
 71
0
 42
0.2
  3
txt
  4

  0
STYLE
  5
20B
100
AcDbSymbolTableRecord
100
AcDbTextStyleTableRecord
  2
TEXTSTYLE_1
 70
0
 40
0.0
 41
0.8
 50
0.0
 71
0
 42
0.2
  3
gdt
  4

  0
ENDTAB
  0
TABLE
  2
VIEW
  5
6
100
AcDbSymbolTable
 70
0
  0
ENDTAB
  0
TABLE
  2
UCS
  5
7
100
AcDbSymbolTable
 70
0
  0
ENDTAB
  0
TABLE
  2
APPID
  5
9
100
AcDbSymbolTable
 70
1
  0
APPID
  5
20C
100
AcDbSymbolTableRecord
100
AcDbRegAppTableRecord
  2
ACAD
 70
0
  0
ENDTAB
  0
TABLE
  2
BLOCK_RECORD
  5
1
100
AcDbSymbolTable
 70
0
  0
BLOCK_RECORD
  5
20D
100
AcDbSymbolTableRecord
100
AcDbBlockTableRecord
  2
*Model_Space
  0
BLOCK_RECORD
  5
20E
100
AcDbSymbolTableRecord
100
AcDbBlockTableRecord
  2
*Paper_Space
  0
ENDTAB
  0
TABLE
  2
DIMSTYLE
  5
A
100
AcDbSymbolTable
 70
1
100
AcDbDimStyleTable
 71
0
  0
DIMSTYLE
105
20F
100
AcDbSymbolTableRecord
100
AcDbDimStyleTableRecord
  2
STANDARD
 70
0
  3

  4

 40
1.0
 41
3.5
 42
0.0625
 43
0.38
 44
0.18
 45
0.0
 46
0.0
 47
0.005
 48
0.005
140
3.5
141
0.09
142
0.0
143
25.4
144
1.0
145
0.0
146
1.0
147
0.09
 71
1.0
 72
0.0
 73
0
 74
0
 75
0
 76
0
 77
1
 78
8
170
0
171
2
172
0
173
0
174
0
175
0
176
0
177
0
178
5
270
2
271
3
272
3
273
2
274
2
275
0
280
0
281
0
282
0
283
1
284
8
285
0
286
0
287
3
288
0
340
11
  0
ENDTAB
  0
ENDSEC
  0
SECTION
  2
BLOCKS
  0
BLOCK
  5
20
100
AcDbEntity
  8
0
100
AcDbBlockBegin
  2
*Model_Space
 70
0
 10
0.0
 20
0.0
 30
0.0
  3
*Model_Space
  1

  0
ENDBLK
  5
21
100
AcDbEntity
  8
0
100
AcDbBlockEnd
  0
BLOCK
  5
1C
100
AcDbEntity
  8
0
100
AcDbBlockBegin
  2
*Paper_Space
 70
0
 10
0.0
 20
0.0
 30
0.0
  3
*Paper_Space
  1

  0
ENDBLK
  5
1D
100
AcDbEntity
  8
0
100
AcDbBlockEnd
  0
ENDSEC
  0
SECTION
  2
ENTITIES
  0
MTEXT
  5
210
100
AcDbEntity
  8
0
100
AcDbMText
 62
5
  6
CONTINUOUS
  7
STANDARD
 71
2
 72
1
 10
205.7586702624
 20
132.6045908212
 30
0.0
 11
0.0
 21
1.0
 31
0.0
 44
0.9
  1
VLBS 1,5t\PRUD
 40
3.5
 41
22.5833333333
  0
MTEXT
  5
211
100
AcDbEntity
  8
0
100
AcDbMText
 62
5
  6
CONTINUOUS
  7
STANDARD
 71
2
 72
1
 10
105.7066979874
 20
45.9052573766
 30
0.0
 11
1.0
 21
0.0
 31
0.0
 44
0.9
  1
VLBS 1,5t \PRUD
 40
3.5
 41
25.3333333333
  0
MTEXT
  5
212
100
AcDbEntity
  8
0
100
AcDbMText
 62
5
  6
CONTINUOUS
  7
STANDARD
 71
2
 72
1
 10
106.0987632991
 20
114.4571188681
 30
0.0
 11
1.0
 21
0.0
 31
0.0
 44
0.9
  1
VLBS 1,5t \PRUD
 40
3.5
 41
25.3333333333
  0
LINE
  5
213
100
AcDbEntity
  8
0
100
AcDbLine
 62
7
  6
CONTINUOUS
 10
0.0
 20
0.0
 11
0.0
 21
210.0
  0
LINE
  5
214
100
AcDbEntity
  8
0
100
AcDbLine
 62
7
  6
CONTINUOUS
 10
0.0
 20
0.0
 11
297.0
 21
0.0
  0
LINE
  5
215
100
AcDbEntity
  8
0
100
AcDbLine
 62
7
  6
CONTINUOUS
 10
0.0
 20
210.0
 11
297.0
 21
210.0
  0
LINE
  5
216
100
AcDbEntity
  8
0
100
AcDbLine
 62
7
  6
CONTINUOUS
 10
297.0
 20
0.0
 11
297.0
 21
210.0
  0
LINE
  5
217
100
AcDbEntity
  8
RUNDUNGEN
100
AcDbLine
 62
7
  6
CONTINUOUS
 10
89.1614722489
 20
95.1182559416
 11
122.0759052755
 21
95.1182559416
  0
LINE
  5
218
100
AcDbEntity
  8
BEZUGSACHSEN
100
AcDbLine
 62
7
  6
CONTINUOUS
 10
75.6186887622
 20
96.6182559416
 11
89.1189306431
 21
96.6182559416
  0
LINE
  5
219
100
AcDbEntity
  8
BEZUGSACHSEN
100
AcDbLine
 62
7
  6
CONTINUOUS
 10
122.1184468813
 20
96.6182559416
 11
135.6186887622
 21
96.6182559416
  0
LINE
  5
21A
100
AcDbEntity
  8
RUNDUNGEN
100
AcDbLine
 62
7
  6
CONTINUOUS
 10
84.230705076
 20
165.5034162287
 11
103.322588168
 21
173.4115331366
  0
LINE
  5
21B
100
AcDbEntity
  8
BEZUGSACHSEN
100
AcDbLine
 62
7
  6
CONTINUOUS
 10
72.6186887622
 20
99.6182562013
 11
72.6186887622
 21
103.6182559416
  0
LINE
  5
21C
100
AcDbEntity
  8
RUNDUNGEN
100
AcDbLine
 62
7
  6
CONTINUOUS
 10
72.6186887622
 20
103.6182559416
 11
72.6186887622
 21
140.8682559416
  0
LINE
  5
21D
100
AcDbEntity
  8
RUNDUNGEN
100
AcDbLine
 62
7
  6
CONTINUOUS
 10
73.0754115671
 20
143.1643565358
 11
80.9835284751
 21
162.2562396278
  0
LINE
  5
21E
100
AcDbEntity
  8
RUNDUNGEN
100
AcDbLine
 62
7
  6
CONTINUOUS
 10
92.1186887622
 20
105.0618188897
 11
119.1186887622
 21
105.0618188897
  0
LINE
  5
21F
100
AcDbEntity
  8
0
100
AcDbLine
 62
7
  6
CONTINUOUS
 10
132.569710291
 20
112.954767237
 11
133.769710291
 21
112.954767237
  0
LINE
  5
220
100
AcDbEntity
  8
0
100
AcDbLine
 62
7
  6
CONTINUOUS
 10
133.732210291
 20
113.854767237
 11
132.609710291
 21
113.854767237
  0
LINE
  5
221
100
AcDbEntity
  8
RUNDUNGEN
100
AcDbLine
 62
7
  6
CONTINUOUS
 10
86.6186887622
 20
115.6182559416
 11
86.6186887622
 21
119.9101576403
  0
LINE
  5
222
100
AcDbEntity
  8
RUNDUNGEN
100
AcDbLine
 62
7
  6
CONTINUOUS
 10
86.6186887622
 20
137.7508963193
 11
86.6186887622
 21
140.8682559416
  0
LINE
  5
223
100
AcDbEntity
  8
0
100
AcDbLine
 62
7
  6
CONTINUOUS
 10
131.669710291
 20
115.734767237
 11
134.219710291
 21
115.734767237
  0
LINE
  5
224
100
AcDbEntity
  8
0
100
AcDbLine
 62
7
  6
CONTINUOUS
 10
135.419710291
 20
116.634767237
 11
134.669710291
 21
116.634767237
  0
LINE
  5
225
100
AcDbEntity
  8
0
100
AcDbLine
 62
7
  6
CONTINUOUS
 10
134.219710291
 20
116.634767237
 11
130.919710291
 21
116.634767237
  0
LINE
  5
226
100
AcDbEntity
  8
0
100
AcDbLine
 62
7
  6
CONTINUOUS
 10
132.719710291
 20
117.534767237
 11
135.419710291
 21
117.534767237
  0
LINE
  5
227
100
AcDbEntity
  8
0
100
AcDbLine
 62
7
  6
CONTINUOUS
 10
89.1186887622
 20
98.264927662
 11
89.1186887622
 21
97.9530286232
  0
LINE
  5
228
100
AcDbEntity
  8
RUNDUNGEN
100
AcDbLine
 62
7
  6
CONTINUOUS
 10
89.1186887622
 20
97.9530286232
 11
89.1186887622
 21
96.6891815576
  0
LINE
  5
229
100
AcDbEntity
  8
RUNDUNGEN
100
AcDbLine
 62
7
  6
CONTINUOUS
 10
89.1186887622
 20
98.264927662
 11
89.1186887622
 21
117.1182559416
  0
LINE
  5
22A
100
AcDbEntity
  8
0
100
AcDbLine
 62
7
  6
CONTINUOUS
 10
111.596833053
 20
120.6182163997
 11
111.6043224993
 21
120.6182559389
  0
LINE
  5
22B
100
AcDbEntity
  8
0
100
AcDbLine
 62
7
  6
CONTINUOUS
 10
135.419710291
 20
118.434767237
 11
132.719710291
 21
118.434767237
  0
LINE
  5
22C
100
AcDbEntity
  8
0
100
AcDbLine
 62
7
  6
CONTINUOUS
 10
93.2186887622
 20
118.7968296559
 11
93.9686887622
 21
118.7968296559
  0
LINE
  5
22D
100
AcDbEntity
  8
0
100
AcDbLine
 62
7
  6
CONTINUOUS
 10
94.2686887622
 20
118.7968296559
 11
97.6286887622
 21
118.7968296559
  0
LINE
  5
22E
100
AcDbEntity
  8
0
100
AcDbLine
 62
7
  6
CONTINUOUS
 10
93.2186887622
 20
119.3389143247
 11
93.9686887622
 21
119.3389143247
  0
LINE
  5
22F
100
AcDbEntity
  8
0
100
AcDbLine
 62
7
  6
CONTINUOUS
 10
94.2686887622
 20
119.3389143247
 11
97.6286887622
 21
119.3389143247
  0
LINE
  5
230
100
AcDbEntity
  8
0
100
AcDbLine
 62
7
  6
CONTINUOUS
 10
108.2776840432
 20
119.5956024046
 11
108.9585352642
 21
119.5956024046
  0
LINE
  5
231
100
AcDbEntity
  8
0
100
AcDbLine
 62
7
  6
CONTINUOUS
 10
94.2686887622
 20
119.6798592239
 11
95.0986887622
 21
119.6798592239
  0
LINE
  5
232
100
AcDbEntity
  8
0
100
AcDbLine
 62
7
  6
CONTINUOUS
 10
95.8286887622
 20
119.6798592239
 11
97.6286887622
 21
119.6798592239
  0
LINE
  5
233
100
AcDbEntity
  8
0
100
AcDbLine
 62
7
  6
CONTINUOUS
 10
108.9585352642
 20
119.7162558173
 11
111.6819394333
 21
119.7162558173
  0
LINE
  5
234
100
AcDbEntity
  8
0
100
AcDbLine
 62
7
  6
CONTINUOUS
 10
104.3867492774
 20
119.7807928711
 11
104.5386887622
 21
119.7807928711
  0
LINE
  5
235
100
AcDbEntity
  8
0
100
AcDbLine
 62
7
  6
CONTINUOUS
 10
108.2776840432
 20
120.1114545398
 11
108.9585352642
 21
120.1114545398
  0
LINE
  5
236
100
AcDbEntity
  8
KONSTRUKTIONSELEMENTE
100
AcDbLine
 62
7
  6
CONTINUOUS
 10
92.1186887622
 20
120.1182559416
 11
93.2186887622
 21
120.1182559416
  0
LINE
  5
237
100
AcDbEntity
  8
KONSTRUKTIONSELEMENTE
100
AcDbLine
 62
7
  6
CONTINUOUS
 10
97.6286887622
 20
120.1182559416
 11
100.5386887622
 21
120.1182559416
  0
LINE
  5
238
100
AcDbEntity
  8
KONSTRUKTIONSELEMENTE
100
AcDbLine
 62
7
  6
CONTINUOUS
 10
104.5386887622
 20
120.1182559416
 11
107.6819394333
 21
120.1182559416
  0
LINE
  5
239
100
AcDbEntity
  8
KONSTRUKTIONSELEMENTE
100
AcDbLine
 62
7
  6
CONTINUOUS
 10
112.1925777299
 20
120.1182559416
 11
114.7719394333
 21
120.1182559416
  0
LINE
  5
23A
100
AcDbEntity
  8
KONSTRUKTIONSELEMENTE
100
AcDbLine
 62
7
  6
CONTINUOUS
 10
117.7719394333
 20
120.1182559416
 11
119.1186887622
 21
120.1182559416
  0
LINE
  5
23B
100
AcDbEntity
  8
0
100
AcDbLine
 62
7
  6
CONTINUOUS
 10
108.362790416
 20
120.2283612995
 11
111.6819394333
 21
120.2283612995
  0
LINE
  5
23C
100
AcDbEntity
  8
0
100
AcDbLine
 62
7
  6
CONTINUOUS
 10
132.719710291
 20
120.234767237
 11
135.419710291
 21
120.234767237
  0
LINE
  5
23D
100
AcDbEntity
  8
0
100
AcDbLine
 62
7
  6
CONTINUOUS
 10
100.5386887622
 20
120.2909161972
 11
104.5386887622
 21
120.2909161972
  0
LINE
  5
23E
100
AcDbEntity
  8
0
100
AcDbLine
 62
7
  6
CONTINUOUS
 10
107.6819394333
 20
120.3294976668
 11
111.6819394333
 21
120.3294976668
  0
LINE
  5
23F
100
AcDbEntity
  8
0
100
AcDbLine
 62
7
  6
CONTINUOUS
 10
100.5386887622
 20
120.3827302847
 11
104.0280504656
 21
120.3827302847
  0
LINE
  5
240
100
AcDbEntity
  8
0
100
AcDbLine
 62
7
  6
CONTINUOUS
 10
93.2186887622
 20
120.4954121001
 11
95.8636887622
 21
120.4954121001
  0
LINE
  5
241
100
AcDbEntity
  8
0
100
AcDbLine
 62
7
  6
CONTINUOUS
 10
110.3202373488
 20
120.5316969973
 11
110.4904500944
 21
120.5316969973
  0
LINE
  5
242
100
AcDbEntity
  8
0
100
AcDbLine
 62
7
  6
CONTINUOUS
 10
93.2186887622
 20
120.5799893436
 11
95.8636887622
 21
120.5799893436
  0
LINE
  5
243
100
AcDbEntity
  8
0
100
AcDbLine
 62
7
  6
CONTINUOUS
 10
107.6819394333
 20
120.5959795817
 11
109.8947053654
 21
120.5959795817
  0
LINE
  5
244
100
AcDbEntity
  8
0
100
AcDbLine
 62
7
  6
CONTINUOUS
 10
93.2186887622
 20
120.6080146214
 11
95.8636887622
 21
120.6080146214
  0
LINE
  5
245
100
AcDbEntity
  8
0
100
AcDbLine
 62
7
  6
CONTINUOUS
 10
108.1074712975
 20
120.6122104243
 11
109.4691735012
 21
120.6122104243
  0
LINE
  5
246
100
AcDbEntity
  8
0
100
AcDbLine
 62
7
  6
CONTINUOUS
 10
114.7794582777
 20
120.6122990155
 11
115.2327089488
 21
120.6122990155
  0
LINE
  5
247
100
AcDbEntity
  8
0
100
AcDbLine
 62
7
  6
CONTINUOUS
 10
117.3111699179
 20
120.6122990155
 11
117.764420589
 21
120.6122990155
  0
LINE
  5
248
100
AcDbEntity
  8
0
100
AcDbLine
 62
7
  6
CONTINUOUS
 10
100.5386887622
 20
120.6147209367
 11
104.0280504656
 21
120.6147209367
  0
LINE
  5
249
100
AcDbEntity
  8
0
100
AcDbLine
 62
7
  6
CONTINUOUS
 10
104.0280504656
 20
120.61524391
 11
104.5386887622
 21
120.61524391
  0
LINE
  5
24A
100
AcDbEntity
  8
0
100
AcDbLine
 62
7
  6
CONTINUOUS
 10
96.6837831976
 20
120.6182559416
 11
97.6070067847
 21
120.6182559416
  0
LINE
  5
24B
100
AcDbEntity
  8
0
100
AcDbLine
 62
7
  6
CONTINUOUS
 10
107.6819394333
 20
120.6182559416
 11
108.1074712975
 21
120.6182559416
  0
LINE
  5
24C
100
AcDbEntity
  8
0
100
AcDbLine
 62
7
  6
CONTINUOUS
 10
109.2138543827
 20
120.6182559416
 11
109.6751307866
 21
120.6182559416
  0
LINE
  5
24D
100
AcDbEntity
  8
0
100
AcDbLine
 62
7
  6
CONTINUOUS
 10
111.1395281621
 20
120.6182559416
 11
111.596833053
 21
120.6182559416
  0
LINE
  5
24E
100
AcDbEntity
  8
0
100
AcDbLine
 62
7
  6
CONTINUOUS
 10
135.419710291
 20
121.134767237
 11
132.719710291
 21
121.134767237
  0
LINE
  5
24F
100
AcDbEntity
  8
0
100
AcDbLine
 62
7
  6
CONTINUOUS
 10
109.2063649371
 20
120.6182559389
 11
109.2138543827
 21
120.6182163997
  0
LINE
  5
250
100
AcDbEntity
  8
0
100
AcDbLine
 62
7
  6
CONTINUOUS
 10
93.2186887622
 20
120.6080146214
 11
93.2186887622
 21
118.7968296559
  0
LINE
  5
251
100
AcDbEntity
  8
0
100
AcDbLine
 62
7
  6
CONTINUOUS
 10
93.9686887622
 20
120.0376339749
 11
93.9686887622
 21
118.7968296559
  0
LINE
  5
252
100
AcDbEntity
  8
0
100
AcDbLine
 62
7
  6
CONTINUOUS
 10
94.2686887622
 20
119.6798592239
 11
94.2686887622
 21
118.7968296559
  0
LINE
  5
253
100
AcDbEntity
  8
0
100
AcDbLine
 62
7
  6
CONTINUOUS
 10
95.0986887622
 20
120.0376339749
 11
95.0986887622
 21
119.6798592239
  0
LINE
  5
254
100
AcDbEntity
  8
BEZUGSACHSEN
100
AcDbLine
 62
7
  6
CONTINUOUS
 10
122.6186887622
 20
121.6182559416
 11
117.1951277206
 21
121.6182559416
  0
LINE
  5
255
100
AcDbEntity
  8
RUNDUNGEN
100
AcDbLine
 62
7
  6
CONTINUOUS
 10
88.6186887622
 20
121.6182559416
 11
94.0422498038
 21
121.6182559416
  0
LINE
  5
256
100
AcDbEntity
  8
0
100
AcDbLine
 62
7
  6
CONTINUOUS
 10
95.8286887622
 20
119.8327959036
 11
95.8286887622
 21
119.6798592239
  0
LINE
  5
257
100
AcDbEntity
  8
0
100
AcDbLine
 62
7
  6
CONTINUOUS
 10
97.6286887622
 20
119.6798592239
 11
97.6286887622
 21
118.7968296559
  0
LINE
  5
258
100
AcDbEntity
  8
0
100
AcDbLine
 62
7
  6
CONTINUOUS
 10
97.6286887622
 20
119.6835514796
 11
97.6286887622
 21
120.6160055045
  0
LINE
  5
259
100
AcDbEntity
  8
0
100
AcDbLine
 62
7
  6
CONTINUOUS
 10
130.919710291
 20
124.884767237
 11
132.799710291
 21
124.884767237
  0
LINE
  5
25A
100
AcDbEntity
  8
0
100
AcDbLine
 62
7
  6
CONTINUOUS
 10
133.549710291
 20
124.884767237
 11
134.219710291
 21
124.884767237
  0
LINE
  5
25B
100
AcDbEntity
  8
0
100
AcDbLine
 62
7
  6
CONTINUOUS
 10
135.419710291
 20
125.634767237
 11
134.669710291
 21
125.634767237
  0
LINE
  5
25C
100
AcDbEntity
  8
0
100
AcDbLine
 62
7
  6
CONTINUOUS
 10
134.219710291
 20
125.634767237
 11
130.919710291
 21
125.634767237
  0
LINE
  5
25D
100
AcDbEntity
  8
0
100
AcDbLine
 62
7
  6
CONTINUOUS
 10
100.5386887622
 20
120.6147209367
 11
100.5386887622
 21
119.4965373822
  0
LINE
  5
25E
100
AcDbEntity
  8
0
100
AcDbLine
 62
7
  6
CONTINUOUS
 10
100.5386887622
 20
119.1902692989
 11
100.5386887622
 21
118.4056695085
  0
LINE
  5
25F
100
AcDbEntity
  8
0
100
AcDbLine
 62
7
  6
CONTINUOUS
 10
104.0280504656
 20
120.61524391
 11
104.0280504656
 21
120.3827302847
  0
LINE
  5
260
100
AcDbEntity
  8
0
100
AcDbLine
 62
7
  6
CONTINUOUS
 10
104.5386887622
 20
120.61524391
 11
104.5386887622
 21
119.7807928711
  0
LINE
  5
261
100
AcDbEntity
  8
0
100
AcDbLine
 62
7
  6
CONTINUOUS
 10
104.5386887622
 20
119.7643886055
 11
104.5386887622
 21
118.9938802443
  0
LINE
  5
262
100
AcDbEntity
  8
0
100
AcDbLine
 62
7
  6
CONTINUOUS
 10
107.6819394333
 20
120.6182559163
 11
107.6819394333
 21
119.7162558173
  0
LINE
  5
263
100
AcDbEntity
  8
0
100
AcDbLine
 62
7
  6
CONTINUOUS
 10
108.1074712975
 20
120.6122104243
 11
108.1074712975
 21
120.6182559009
  0
LINE
  5
264
100
AcDbEntity
  8
0
100
AcDbLine
 62
7
  6
CONTINUOUS
 10
108.2776840432
 20
120.1114545398
 11
108.2776840432
 21
119.5956024046
  0
LINE
  5
265
100
AcDbEntity
  8
0
100
AcDbLine
 62
7
  6
CONTINUOUS
 10
108.9585352642
 20
120.1114545398
 11
108.9585352642
 21
119.5956024046
  0
LINE
  5
266
100
AcDbEntity
  8
0
100
AcDbLine
 62
7
  6
CONTINUOUS
 10
109.1287480099
 20
120.6140083521
 11
109.1287480099
 21
120.6122104243
  0
LINE
  5
267
100
AcDbEntity
  8
0
100
AcDbLine
 62
7
  6
CONTINUOUS
 10
109.2138543827
 20
120.6182163994
 11
109.2138543827
 21
120.6122104243
  0
LINE
  5
268
100
AcDbEntity
  8
0
100
AcDbLine
 62
7
  6
CONTINUOUS
 10
109.8947053654
 20
120.6158387749
 11
109.8947053654
 21
120.3294976668
  0
LINE
  5
269
100
AcDbEntity
  8
0
100
AcDbLine
 62
7
  6
CONTINUOUS
 10
110.0649181111
 20
120.5399313905
 11
110.0649181111
 21
120.3294976668
  0
LINE
  5
26A
100
AcDbEntity
  8
0
100
AcDbLine
 62
7
  6
CONTINUOUS
 10
110.3202373488
 20
120.5316969973
 11
110.3202373488
 21
120.3294976668
  0
LINE
  5
26B
100
AcDbEntity
  8
0
100
AcDbLine
 62
7
  6
CONTINUOUS
 10
110.4904500944
 20
120.5316969973
 11
110.4904500944
 21
120.3294976668
  0
LINE
  5
26C
100
AcDbEntity
  8
0
100
AcDbLine
 62
7
  6
CONTINUOUS
 10
110.6606628401
 20
120.614228994
 11
110.6606628401
 21
120.3294976668
  0
LINE
  5
26D
100
AcDbEntity
  8
0
100
AcDbLine
 62
7
  6
CONTINUOUS
 10
111.001088391
 20
120.6037003671
 11
111.001088391
 21
120.3294976668
  0
LINE
  5
26E
100
AcDbEntity
  8
0
100
AcDbLine
 62
7
  6
CONTINUOUS
 10
111.2564075095
 20
120.5486621774
 11
111.2564075095
 21
120.3294976668
  0
LINE
  5
26F
100
AcDbEntity
  8
0
100
AcDbLine
 62
7
  6
CONTINUOUS
 10
111.3415139122
 20
120.6122104243
 11
111.3415139122
 21
120.5444234472
  0
LINE
  5
270
100
AcDbEntity
  8
0
100
AcDbLine
 62
7
  6
CONTINUOUS
 10
111.596833053
 20
120.6182163997
 11
111.596833053
 21
120.5311438579
  0
LINE
  5
271
100
AcDbEntity
  8
0
100
AcDbLine
 62
7
  6
CONTINUOUS
 10
111.6819394333
 20
120.6140083521
 11
111.6819394333
 21
120.5264525956
  0
LINE
  5
272
100
AcDbEntity
  8
0
100
AcDbLine
 62
7
  6
CONTINUOUS
 10
111.6819394333
 20
120.3294976668
 11
111.6819394333
 21
119.7162558173
  0
LINE
  5
273
100
AcDbEntity
  8
0
100
AcDbLine
 62
7
  6
CONTINUOUS
 10
112.1925777299
 20
120.495814668
 11
112.1925777299
 21
119.9348473552
  0
LINE
  5
274
100
AcDbEntity
  8
0
100
AcDbLine
 62
7
  6
CONTINUOUS
 10
114.7719394333
 20
120.1073325223
 11
114.7719394333
 21
120.6076539932
  0
LINE
  5
275
100
AcDbEntity
  8
0
100
AcDbLine
 62
7
  6
CONTINUOUS
 10
115.2327089488
 20
120.6122990155
 11
115.2327089488
 21
120.6017087919
  0
LINE
  5
276
100
AcDbEntity
  8
0
100
AcDbLine
 62
7
  6
CONTINUOUS
 10
117.3111699179
 20
120.6122990155
 11
117.3111699179
 21
120.6017087919
  0
LINE
  5
277
100
AcDbEntity
  8
0
100
AcDbLine
 62
7
  6
CONTINUOUS
 10
117.7719394333
 20
120.1073325226
 11
117.7719394333
 21
120.6076539932
  0
LINE
  5
278
100
AcDbEntity
  8
RUNDUNGEN
100
AcDbLine
 62
7
  6
CONTINUOUS
 10
122.1186887622
 20
117.1182559416
 11
122.1186887622
 21
98.264927662
  0
LINE
  5
279
100
AcDbEntity
  8
0
100
AcDbLine
 62
7
  6
CONTINUOUS
 10
122.1186887622
 20
98.264927662
 11
122.1186887622
 21
97.9530286232
  0
LINE
  5
27A
100
AcDbEntity
  8
RUNDUNGEN
100
AcDbLine
 62
7
  6
CONTINUOUS
 10
122.1186887622
 20
97.9530286232
 11
122.1186887622
 21
96.6891815576
  0
LINE
  5
27B
100
AcDbEntity
  8
BEZUGSACHSEN
100
AcDbLine
 62
7
  6
CONTINUOUS
 10
124.6186887622
 20
115.6182559416
 11
124.6186887622
 21
119.9101576403
  0
LINE
  5
27C
100
AcDbEntity
  8
BEZUGSACHSEN
100
AcDbLine
 62
7
  6
CONTINUOUS
 10
124.6186887622
 20
137.7508963193
 11
124.6186887622
 21
140.8682559416
  0
LINE
  5
27D
100
AcDbEntity
  8
0
100
AcDbLine
 62
7
  6
CONTINUOUS
 10
132.424710291
 20
123.4697047959
 11
130.919710291
 21
122.6007926408
  0
LINE
  5
27E
100
AcDbEntity
  8
0
100
AcDbLine
 62
7
  6
CONTINUOUS
 10
130.919710291
 20
121.734767237
 11
132.8882608777
 21
122.8713104482
  0
LINE
  5
27F
100
AcDbEntity
  8
0
100
AcDbLine
 62
7
  6
CONTINUOUS
 10
130.919710291
 20
125.634767237
 11
130.919710291
 21
124.884767237
  0
LINE
  5
280
100
AcDbEntity
  8
0
100
AcDbLine
 62
7
  6
CONTINUOUS
 10
130.919710291
 20
122.6007926408
 11
130.919710291
 21
121.734767237
  0
LINE
  5
281
100
AcDbEntity
  8
0
100
AcDbLine
 62
7
  6
CONTINUOUS
 10
130.919710291
 20
116.634767237
 11
130.919710291
 21
114.604767237
  0
LINE
  5
282
100
AcDbEntity
  8
0
100
AcDbLine
 62
7
  6
CONTINUOUS
 10
131.669710291
 20
114.794767237
 11
131.669710291
 21
115.734767237
  0
LINE
  5
283
100
AcDbEntity
  8
0
100
AcDbLine
 62
7
  6
CONTINUOUS
 10
132.799710291
 20
124.884767237
 11
132.799710291
 21
124.1192238487
  0
LINE
  5
284
100
AcDbEntity
  8
0
100
AcDbLine
 62
7
  6
CONTINUOUS
 10
133.549710291
 20
123.644767237
 11
133.549710291
 21
124.884767237
  0
LINE
  5
285
100
AcDbEntity
  8
0
100
AcDbLine
 62
7
  6
CONTINUOUS
 10
134.219710291
 20
115.734767237
 11
134.219710291
 21
116.634767237
  0
LINE
  5
286
100
AcDbEntity
  8
0
100
AcDbLine
 62
7
  6
CONTINUOUS
 10
134.219710291
 20
124.884767237
 11
134.219710291
 21
125.634767237
  0
LINE
  5
287
100
AcDbEntity
  8
0
100
AcDbLine
 62
7
  6
CONTINUOUS
 10
134.669710291
 20
125.634767237
 11
134.669710291
 21
123.644767237
  0
LINE
  5
288
100
AcDbEntity
  8
0
100
AcDbLine
 62
7
  6
CONTINUOUS
 10
134.669710291
 20
116.634767237
 11
134.669710291
 21
114.7947639125
  0
LINE
  5
289
100
AcDbEntity
  8
0
100
AcDbLine
 62
7
  6
CONTINUOUS
 10
135.419710291
 20
114.604767237
 11
135.419710291
 21
116.634767237
  0
LINE
  5
28A
100
AcDbEntity
  8
0
100
AcDbLine
 62
7
  6
CONTINUOUS
 10
135.419710291
 20
117.534767237
 11
135.419710291
 21
118.434767237
  0
LINE
  5
28B
100
AcDbEntity
  8
0
100
AcDbLine
 62
7
  6
CONTINUOUS
 10
135.419710291
 20
120.234767237
 11
135.419710291
 21
121.134767237
  0
LINE
  5
28C
100
AcDbEntity
  8
0
100
AcDbLine
 62
7
  6
CONTINUOUS
 10
135.419710291
 20
123.344767237
 11
135.419710291
 21
125.634767237
  0
LINE
  5
28D
100
AcDbEntity
  8
BEZUGSACHSEN
100
AcDbLine
 62
7
  6
CONTINUOUS
 10
138.6186887622
 20
140.8682559416
 11
138.6186887622
 21
99.6182562013
  0
LINE
  5
28E
100
AcDbEntity
  8
BEZUGSACHSEN
100
AcDbLine
 62
7
  6
CONTINUOUS
 10
130.2538490493
 20
162.2562396278
 11
138.1619659573
 21
143.1643565358
  0
LINE
  5
28F
100
AcDbEntity
  8
BEZUGSACHSEN
100
AcDbLine
 62
7
  6
CONTINUOUS
 10
127.0066724484
 20
165.5034162287
 11
107.9147893564
 21
173.4115331366
  0
LINE
  5
290
100
AcDbEntity
  8
RUNDUNGEN
100
AcDbLine
 62
7
  6
CONTINUOUS
 10
222.8235745541
 20
95.1182559416
 11
219.8235745541
 21
95.1182559416
  0
LINE
  5
291
100
AcDbEntity
  8
RUNDUNGEN
100
AcDbLine
 62
7
  6
CONTINUOUS
 10
201.5946167038
 20
95.1182559416
 11
198.5946167038
 21
95.1182559416
  0
LINE
  5
292
100
AcDbEntity
  8
RUNDUNGEN
100
AcDbLine
 62
7
  6
CONTINUOUS
 10
197.9841724869
 20
98.264927662
 11
194.209095629
 21
105.0618188897
  0
LINE
  5
293
100
AcDbEntity
  8
RUNDUNGEN
100
AcDbLine
 62
7
  6
CONTINUOUS
 10
198.5946167038
 20
95.1182559416
 11
198.0947697959
 21
97.9530286232
  0
LINE
  5
294
100
AcDbEntity
  8
RUNDUNGEN
100
AcDbLine
 62
7
  6
CONTINUOUS
 10
194.4597677043
 20
106.4834508731
 11
194.209095629
 21
105.0618188897
  0
LINE
  5
295
100
AcDbEntity
  8
0
100
AcDbLine
 62
7
  6
CONTINUOUS
 10
217.709095629
 20
121.134767237
 11
218.209095629
 21
121.134767237
  0
LINE
  5
296
100
AcDbEntity
  8
0
100
AcDbLine
 62
7
  6
CONTINUOUS
 10
217.709095629
 20
121.734767237
 11
218.209095629
 21
121.734767237
  0
LINE
  5
297
100
AcDbEntity
  8
0
100
AcDbLine
 62
7
  6
CONTINUOUS
 10
217.709095629
 20
122.6007926408
 11
218.209095629
 21
122.6007926408
  0
LINE
  5
298
100
AcDbEntity
  8
0
100
AcDbLine
 62
7
  6
CONTINUOUS
 10
217.709095629
 20
124.884767237
 11
218.209095629
 21
124.884767237
  0
LINE
  5
299
100
AcDbEntity
  8
0
100
AcDbLine
 62
7
  6
CONTINUOUS
 10
217.709095629
 20
125.634767237
 11
218.209095629
 21
125.634767237
  0
LINE
  5
29A
100
AcDbEntity
  8
0
100
AcDbLine
 62
7
  6
CONTINUOUS
 10
203.529095629
 20
119.0275907747
 11
203.529095629
 21
118.4741503946
  0
LINE
  5
29B
100
AcDbEntity
  8
0
100
AcDbLine
 62
7
  6
CONTINUOUS
 10
203.6957626135
 20
119.1041579177
 11
203.6957626135
 21
118.5535550686
  0
LINE
  5
29C
100
AcDbEntity
  8
BEZUGSACHSEN
100
AcDbLine
 62
7
  6
CONTINUOUS
 10
203.709095629
 20
103.6182559416
 11
203.709095629
 21
170.8682559416
  0
LINE
  5
29D
100
AcDbEntity
  8
RUNDUNGEN
100
AcDbLine
 62
7
  6
CONTINUOUS
 10
201.5946167038
 20
95.1182559416
 11
203.3230374814
 21
104.9206172741
  0
LINE
  5
29E
100
AcDbEntity
  8
RUNDUNGEN
100
AcDbLine
 62
7
  6
CONTINUOUS
 10
218.0951537765
 20
104.9206172741
 11
219.8235745541
 21
95.1182559416
  0
LINE
  5
29F
100
AcDbEntity
  8
BEZUGSACHSEN
100
AcDbLine
 62
7
  6
CONTINUOUS
 10
217.709095629
 20
170.8682559416
 11
217.709095629
 21
170.6398945391
  0
LINE
  5
2A0
100
AcDbEntity
  8
RUNDUNGEN
100
AcDbLine
 62
7
  6
CONTINUOUS
 10
217.709095629
 20
103.6182559416
 11
217.709095629
 21
170.6398945391
  0
LINE
  5
2A1
100
AcDbEntity
  8
0
100
AcDbLine
 62
7
  6
CONTINUOUS
 10
218.029095629
 20
118.9615802228
 11
218.029095629
 21
118.4056695085
  0
LINE
  5
2A2
100
AcDbEntity
  8
0
100
AcDbLine
 62
7
  6
CONTINUOUS
 10
218.209095629
 20
125.634767237
 11
218.209095629
 21
121.734767237
  0
LINE
  5
2A3
100
AcDbEntity
  8
0
100
AcDbLine
 62
7
  6
CONTINUOUS
 10
218.209095629
 20
121.134767237
 11
218.209095629
 21
118.3150003462
  0
LINE
  5
2A4
100
AcDbEntity
  8
RUNDUNGEN
100
AcDbLine
 62
7
  6
CONTINUOUS
 10
227.209095629
 20
105.0618188897
 11
226.9584235537
 21
106.4834508731
  0
LINE
  5
2A5
100
AcDbEntity
  8
RUNDUNGEN
100
AcDbLine
 62
7
  6
CONTINUOUS
 10
223.3234214621
 20
97.9530286232
 11
222.8235745541
 21
95.1182559416
  0
LINE
  5
2A6
100
AcDbEntity
  8
RUNDUNGEN
100
AcDbLine
 62
7
  6
CONTINUOUS
 10
227.209095629
 20
105.0618188897
 11
223.434018771
 21
98.264927662
  0
LINE
  5
2A7
100
AcDbEntity
  8
0
100
AcDbLine
 62
7
  6
CONTINUOUS
 10
206.709095629
 20
173.8682559416
 11
214.709095629
 21
173.8682559416
  0
LINE
  5
2A8
100
AcDbEntity
  8
BEZUGSACHSEN
100
AcDbLine
 62
7
  6
CONTINUOUS
 10
72.6186887622
 20
45.5009676283
 11
72.6186887622
 21
37.5009676283
  0
LINE
  5
2A9
100
AcDbEntity
  8
RUNDUNGEN
100
AcDbLine
 62
7
  6
CONTINUOUS
 10
89.1186887622
 20
27.3131863657
 11
89.1186887622
 21
34.5009676283
  0
LINE
  5
2AA
100
AcDbEntity
  8
RUNDUNGEN
100
AcDbLine
 62
7
  6
CONTINUOUS
 10
89.1186887622
 20
48.5009676283
 11
89.1186887622
 21
55.6887488909
  0
LINE
  5
2AB
100
AcDbEntity
  8
RUNDUNGEN
100
AcDbLine
 62
7
  6
CONTINUOUS
 10
92.1186887622
 20
25.0009676283
 11
119.1186887622
 21
25.0009676283
  0
LINE
  5
2AC
100
AcDbEntity
  8
0
100
AcDbLine
 62
7
  6
CONTINUOUS
 10
103.1769866777
 20
48.6809676283
 11
102.8365610671
 21
48.5143006438
  0
LINE
  5
2AD
100
AcDbEntity
  8
0
100
AcDbLine
 62
7
  6
CONTINUOUS
 10
135.419710291
 20
34.0009676283
 11
130.919710291
 21
34.0009676283
  0
LINE
  5
2AE
100
AcDbEntity
  8
0
100
AcDbLine
 62
7
  6
CONTINUOUS
 10
100.5386887622
 20
34.5009676283
 11
100.5386887622
 21
34.1809676283
  0
LINE
  5
2AF
100
AcDbEntity
  8
0
100
AcDbLine
 62
7
  6
CONTINUOUS
 10
102.8365610671
 20
48.5143006438
 11
102.8229443591
 21
48.5009676283
  0
LINE
  5
2B0
100
AcDbEntity
  8
BEZUGSACHSEN
100
AcDbLine
 62
7
  6
CONTINUOUS
 10
135.6186887622
 20
34.5009676283
 11
104.4706384651
 21
34.5009676283
  0
LINE
  5
2B1
100
AcDbEntity
  8
RUNDUNGEN
100
AcDbLine
 62
7
  6
CONTINUOUS
 10
75.6186887622
 20
34.5009676283
 11
104.4706384651
 21
34.5009676283
  0
LINE
  5
2B2
100
AcDbEntity
  8
0
100
AcDbLine
 62
7
  6
CONTINUOUS
 10
103.9429440928
 20
48.5143006438
 11
103.9565608019
 21
48.5009676283
  0
LINE
  5
2B3
100
AcDbEntity
  8
0
100
AcDbLine
 62
7
  6
CONTINUOUS
 10
101.4986887336
 20
34.5009676283
 11
100.5386887622
 21
34.1809676283
  0
LINE
  5
2B4
100
AcDbEntity
  8
BEZUGSACHSEN
100
AcDbLine
 62
7
  6
CONTINUOUS
 10
75.6186887622
 20
48.5009676283
 11
135.6186887622
 21
48.5009676283
  0
LINE
  5
2B5
100
AcDbEntity
  8
0
100
AcDbLine
 62
7
  6
CONTINUOUS
 10
103.1769866777
 20
48.6809676283
 11
103.6025185418
 21
48.6809676283
  0
LINE
  5
2B6
100
AcDbEntity
  8
0
100
AcDbLine
 62
7
  6
CONTINUOUS
 10
103.6025185418
 20
48.6809676283
 11
103.9429440928
 21
48.5143006438
  0
LINE
  5
2B7
100
AcDbEntity
  8
RUNDUNGEN
100
AcDbLine
 62
7
  6
CONTINUOUS
 10
122.1186887622
 20
55.6887488909
 11
122.1186887622
 21
48.5009676283
  0
LINE
  5
2B8
100
AcDbEntity
  8
RUNDUNGEN
100
AcDbLine
 62
7
  6
CONTINUOUS
 10
122.1186887622
 20
34.5009676283
 11
122.1186887622
 21
27.3131863657
  0
LINE
  5
2B9
100
AcDbEntity
  8
RUNDUNGEN
100
AcDbLine
 62
7
  6
CONTINUOUS
 10
92.1186887622
 20
58.0009676283
 11
119.1186887622
 21
58.0009676283
  0
LINE
  5
2BA
100
AcDbEntity
  8
0
100
AcDbLine
 62
7
  6
CONTINUOUS
 10
130.919710291
 20
34.5009676283
 11
130.919710291
 21
34.0009676283
  0
LINE
  5
2BB
100
AcDbEntity
  8
0
100
AcDbLine
 62
7
  6
CONTINUOUS
 10
134.219710291
 20
34.5009676283
 11
134.219710291
 21
34.0009676283
  0
LINE
  5
2BC
100
AcDbEntity
  8
0
100
AcDbLine
 62
7
  6
CONTINUOUS
 10
134.669710291
 20
34.5009676283
 11
134.669710291
 21
34.0009676283
  0
LINE
  5
2BD
100
AcDbEntity
  8
0
100
AcDbLine
 62
7
  6
CONTINUOUS
 10
135.419710291
 20
34.5009676283
 11
135.419710291
 21
34.0009676283
  0
LINE
  5
2BE
100
AcDbEntity
  8
BEZUGSACHSEN
100
AcDbLine
 62
7
  6
CONTINUOUS
 10
138.6186887622
 20
37.5009676283
 11
138.6186887622
 21
45.5009676283
  0
ARC
  5
2BF
100
AcDbEntity
  8
RUNDUNGEN
100
AcDbCircle
 62
7
  6
CONTINUOUS
 10
92.6186887622
 20
115.6182559416
 40
6.0
100
AcDbArc
 50
180.0
 51
234.3127799269
  0
ARC
  5
2C0
100
AcDbEntity
  8
RUNDUNGEN
100
AcDbCircle
 62
7
  6
CONTINUOUS
 10
92.1186887622
 20
117.1182559416
 40
3.0
100
AcDbArc
 50
90.0
 51
180.0
  0
ARC
  5
2C1
100
AcDbEntity
  8
BEZUGSACHSEN
100
AcDbCircle
 62
7
  6
CONTINUOUS
 10
75.6186887622
 20
99.6182559416
 40
3.0
100
AcDbArc
 50
180.0
 51
270.0
  0
ARC
  5
2C2
100
AcDbEntity
  8
BEZUGSACHSEN
100
AcDbCircle
 62
7
  6
CONTINUOUS
 10
94.0422498038
 20
123.6182559416
 40
2.0
100
AcDbArc
 50
270.0
 51
271.3895752524
  0
ARC
  5
2C3
100
AcDbEntity
  8
BEZUGSACHSEN
100
AcDbCircle
 62
7
  6
CONTINUOUS
 10
94.0422498038
 20
123.6182559416
 40
2.0
100
AcDbArc
 50
55.9054014985
 51
57.2949767509
  0
ARC
  5
2C4
100
AcDbEntity
  8
RUNDUNGEN
100
AcDbCircle
 62
7
  6
CONTINUOUS
 10
94.0422498038
 20
123.6182559416
 40
2.0
100
AcDbArc
 50
270.0
 51
57.2949767509
  0
ARC
  5
2C5
100
AcDbEntity
  8
RUNDUNGEN
100
AcDbCircle
 62
7
  6
CONTINUOUS
 10
88.6186887622
 20
119.6182559416
 40
2.0
100
AcDbArc
 50
90.0
 51
180.0
  0
ARC
  5
2C6
100
AcDbEntity
  8
RUNDUNGEN
100
AcDbCircle
 62
7
  6
CONTINUOUS
 10
105.1186887622
 20
140.8682559416
 40
18.5
100
AcDbArc
 50
180.0
 51
237.2949767509
  0
ARC
  5
2C7
100
AcDbEntity
  8
BEZUGSACHSEN
100
AcDbCircle
 62
7
  6
CONTINUOUS
 10
86.5268056702
 20
159.9601390336
 40
6.0
100
AcDbArc
 50
156.4523294213
 51
157.5
  0
ARC
  5
2C8
100
AcDbEntity
  8
RUNDUNGEN
100
AcDbCircle
 62
7
  6
CONTINUOUS
 10
78.6186887622
 20
140.8682559416
 40
6.0
100
AcDbArc
 50
157.5
 51
180.0
  0
ARC
  5
2C9
100
AcDbEntity
  8
RUNDUNGEN
100
AcDbCircle
 62
7
  6
CONTINUOUS
 10
86.5268056702
 20
159.9601390336
 40
6.0
100
AcDbArc
 50
112.5
 51
157.5
  0
ARC
  5
2CA
100
AcDbEntity
  8
BEZUGSACHSEN
100
AcDbCircle
 62
7
  6
CONTINUOUS
 10
118.6186887622
 20
115.6182559416
 40
6.0
100
AcDbArc
 50
305.6859561771
 51
360.0
  0
ARC
  5
2CB
100
AcDbEntity
  8
RUNDUNGEN
100
AcDbCircle
 62
7
  6
CONTINUOUS
 10
119.1186887622
 20
117.1182559416
 40
3.0
100
AcDbArc
 50
0.0
 51
90.0
  0
ARC
  5
2CC
100
AcDbEntity
  8
BEZUGSACHSEN
100
AcDbCircle
 62
7
  6
CONTINUOUS
 10
135.6186887622
 20
99.6182559416
 40
3.0
100
AcDbArc
 50
270.0
 51
360.0
  0
ARC
  5
2CD
100
AcDbEntity
  8
BEZUGSACHSEN
100
AcDbCircle
 62
7
  6
CONTINUOUS
 10
117.1951277206
 20
123.6182559416
 40
2.0
100
AcDbArc
 50
122.7050232491
 51
270.0
  0
ARC
  5
2CE
100
AcDbEntity
  8
BEZUGSACHSEN
100
AcDbCircle
 62
7
  6
CONTINUOUS
 10
122.6186887622
 20
119.6182559416
 40
2.0
100
AcDbArc
 50
1.4090868945
 51
90.0
  0
ARC
  5
2CF
100
AcDbEntity
  8
0
100
AcDbCircle
 62
7
  6
CONTINUOUS
 10
132.719710291
 20
119.334767237
 40
1.8
100
AcDbArc
 50
90.0
 51
270.0
  0
ARC
  5
2D0
100
AcDbEntity
  8
0
100
AcDbCircle
 62
7
  6
CONTINUOUS
 10
132.569710291
 20
114.604767237
 40
1.65
100
AcDbArc
 50
180.0
 51
270.0
  0
ARC
  5
2D1
100
AcDbEntity
  8
0
100
AcDbCircle
 62
7
  6
CONTINUOUS
 10
133.769710291
 20
114.604767237
 40
1.65
100
AcDbArc
 50
270.0
 51
360.0
  0
ARC
  5
2D2
100
AcDbEntity
  8
0
100
AcDbCircle
 62
7
  6
CONTINUOUS
 10
134.109710291
 20
123.344767237
 40
1.31
100
AcDbArc
 50
201.1872687082
 51
360.0
  0
ARC
  5
2D3
100
AcDbEntity
  8
0
100
AcDbCircle
 62
7
  6
CONTINUOUS
 10
133.729710291
 20
114.7947639125
 40
0.94
100
AcDbArc
 50
270.152382572
 51
360.0
  0
ARC
  5
2D4
100
AcDbEntity
  8
0
100
AcDbCircle
 62
7
  6
CONTINUOUS
 10
132.609710291
 20
114.794767237
 40
0.94
100
AcDbArc
 50
180.0
 51
270.0
  0
ARC
  5
2D5
100
AcDbEntity
  8
0
100
AcDbCircle
 62
7
  6
CONTINUOUS
 10
132.719710291
 20
119.334767237
 40
0.9
100
AcDbArc
 50
90.0
 51
270.0
  0
ARC
  5
2D6
100
AcDbEntity
  8
0
100
AcDbCircle
 62
7
  6
CONTINUOUS
 10
132.049710291
 20
124.1192238487
 40
0.75
100
AcDbArc
 50
300.0
 51
360.0
  0
ARC
  5
2D7
100
AcDbEntity
  8
0
100
AcDbCircle
 62
7
  6
CONTINUOUS
 10
134.109710291
 20
123.644767237
 40
0.56
100
AcDbArc
 50
180.0
 51
360.0
  0
ARC
  5
2D8
100
AcDbEntity
  8
BEZUGSACHSEN
100
AcDbCircle
 62
7
  6
CONTINUOUS
 10
105.6186887622
 20
140.8682559416
 40
19.0
100
AcDbArc
 50
0.0
 51
180.0
  0
ARC
  5
2D9
100
AcDbEntity
  8
BEZUGSACHSEN
100
AcDbCircle
 62
7
  6
CONTINUOUS
 10
106.1186887622
 20
140.8682559416
 40
18.5
100
AcDbArc
 50
302.7050232491
 51
360.0
  0
ARC
  5
2DA
100
AcDbEntity
  8
BEZUGSACHSEN
100
AcDbCircle
 62
7
  6
CONTINUOUS
 10
132.6186887622
 20
140.8682559416
 40
6.0
100
AcDbArc
 50
0.0
 51
22.5
  0
ARC
  5
2DB
100
AcDbEntity
  8
BEZUGSACHSEN
100
AcDbCircle
 62
7
  6
CONTINUOUS
 10
124.7105718542
 20
159.9601390336
 40
6.0
100
AcDbArc
 50
22.5
 51
67.5
  0
ARC
  5
2DC
100
AcDbEntity
  8
BEZUGSACHSEN
100
AcDbCircle
 62
7
  6
CONTINUOUS
 10
105.6186887622
 20
167.8682559416
 40
6.0
100
AcDbArc
 50
67.5
 51
112.5
  0
ARC
  5
2DD
100
AcDbEntity
  8
0
100
AcDbCircle
 62
7
  6
CONTINUOUS
 10
210.709095629
 20
103.6182559416
 40
17.0
100
AcDbArc
 50
114.3157757797
 51
114.9832278708
  0
ARC
  5
2DE
100
AcDbEntity
  8
0
100
AcDbCircle
 62
7
  6
CONTINUOUS
 10
210.709095629
 20
103.6182559416
 40
17.0
100
AcDbArc
 50
64.4951031777
 51
65.6842135192
  0
ARC
  5
2DF
100
AcDbEntity
  8
RUNDUNGEN
100
AcDbCircle
 62
7
  6
CONTINUOUS
 10
210.709095629
 20
103.6182559416
 40
16.5
100
AcDbArc
 50
10.0
 51
64.8971365649
  0
ARC
  5
2E0
100
AcDbEntity
  8
RUNDUNGEN
100
AcDbCircle
 62
7
  6
CONTINUOUS
 10
210.709095629
 20
103.6182559416
 40
16.5
100
AcDbArc
 50
115.1028634351
 51
170.0
  0
ARC
  5
2E1
100
AcDbEntity
  8
RUNDUNGEN
100
AcDbCircle
 62
7
  6
CONTINUOUS
 10
210.709095629
 20
103.6182559416
 40
7.5
100
AcDbArc
 50
158.9626317211
 51
170.0
  0
ARC
  5
2E2
100
AcDbEntity
  8
RUNDUNGEN
100
AcDbCircle
 62
7
  6
CONTINUOUS
 10
210.709095629
 20
103.6182559416
 40
7.5
100
AcDbArc
 50
10.0
 51
21.0373682789
  0
ARC
  5
2E3
100
AcDbEntity
  8
BEZUGSACHSEN
100
AcDbCircle
 62
7
  6
CONTINUOUS
 10
210.709095629
 20
103.6182559416
 40
7.0
100
AcDbArc
 50
180.0
 51
360.0
  0
ARC
  5
2E4
100
AcDbEntity
  8
BEZUGSACHSEN
100
AcDbCircle
 62
7
  6
CONTINUOUS
 10
206.709095629
 20
170.8682559416
 40
3.0
100
AcDbArc
 50
90.0
 51
180.0
  0
ARC
  5
2E5
100
AcDbEntity
  8
BEZUGSACHSEN
100
AcDbCircle
 62
7
  6
CONTINUOUS
 10
214.709095629
 20
170.8682559416
 40
3.0
100
AcDbArc
 50
0.0
 51
90.0
  0
ARC
  5
2E6
100
AcDbEntity
  8
KONSTRUKTIONSELEMENTE
100
AcDbCircle
 62
7
  6
CONTINUOUS
 10
197.1099620428
 20
97.7793804455
 40
1.0
100
AcDbArc
 50
10.0
 51
29.0483307651
  0
ARC
  5
2E7
100
AcDbEntity
  8
0
100
AcDbCircle
 62
7
  6
CONTINUOUS
 10
224.3082292151
 20
97.7793804455
 40
1.0
100
AcDbArc
 50
150.9516692349
 51
170.0
  0
ARC
  5
2E8
100
AcDbEntity
  8
RUNDUNGEN
100
AcDbCircle
 62
7
  6
CONTINUOUS
 10
75.6186887622
 20
37.5009676283
 40
3.0
100
AcDbArc
 50
180.0
 51
270.0
  0
ARC
  5
2E9
100
AcDbEntity
  8
BEZUGSACHSEN
100
AcDbCircle
 62
7
  6
CONTINUOUS
 10
135.6186887622
 20
37.5009676283
 40
3.0
100
AcDbArc
 50
270.0
 51
360.0
  0
ARC
  5
2EA
100
AcDbEntity
  8
BEZUGSACHSEN
100
AcDbCircle
 62
7
  6
CONTINUOUS
 10
75.6186887622
 20
45.5009676283
 40
3.0
100
AcDbArc
 50
90.0
 51
180.0
  0
ARC
  5
2EB
100
AcDbEntity
  8
BEZUGSACHSEN
100
AcDbCircle
 62
7
  6
CONTINUOUS
 10
135.6186887622
 20
45.5009676283
 40
3.0
100
AcDbArc
 50
0.0
 51
90.0
  0
SPLINE
  5
2EC
100
AcDbEntity
  8
0
100
AcDbSpline
 62
7
  6
CONTINUOUS
 70
0
 71
3
 72
21
 73
17
 74
0
 42
0.0000001
 43
0.0000001
 44
0.0000000001
 40
0.0
 40
0.0
 40
0.0
 40
0.0
 40
0.0525206416
 40
0.1089358017
 40
0.1687587848
 40
0.2314704868
 40
0.2965250472
 40
0.3633553174
 40
0.5
 40
0.6366446826
 40
0.7034749528
 40
0.7685295132
 40
0.8312412152
 40
0.8910641983
 40
0.9474793584
 40
1.0
 40
1.0
 40
1.0
 40
1.0
 10
117.2917499399
 20
120.5969923369
 30
0.0
 10
117.256074286
 20
120.5986481735
 30
0.0
 10
117.1820527765
 20
120.6015553733
 30
0.0
 10
117.0673434544
 20
120.604875691
 30
0.0
 10
116.9456834958
 20
120.6074399524
 30
0.0
 10
116.8181366219
 20
120.6093606462
 30
0.0
 10
116.6858176995
 20
120.610739319
 30
0.0
 10
116.5032213802
 20
120.6119737988
 30
0.0
 10
116.2719394334
 20
120.6125174189
 30
0.0
 10
116.0406574865
 20
120.6119737988
 30
0.0
 10
115.8580611672
 20
120.610739319
 30
0.0
 10
115.7257422449
 20
120.6093606462
 30
0.0
 10
115.598195371
 20
120.6074399524
 30
0.0
 10
115.4765354124
 20
120.604875691
 30
0.0
 10
115.3618260903
 20
120.6015553733
 30
0.0
 10
115.2878045807
 20
120.5986481735
 30
0.0
 10
115.2521289268
 20
120.5969923369
 30
0.0
  0
SPLINE
  5
2ED
100
AcDbEntity
  8
0
100
AcDbSpline
 62
7
  6
CONTINUOUS
 70
0
 71
3
 72
55
 73
51
 74
0
 42
0.0000001
 43
0.0000001
 44
0.0000000001
 40
0.0
 40
0.0
 40
0.0
 40
0.0
 40
0.0004655
 40
0.0007600364
 40
0.0011100722
 40
0.0019982206
 40
0.0031572257
 40
0.0045976834
 40
0.0063244706
 40
0.008339799
 40
0.0106444664
 40
0.0161206884
 40
0.0227465644
 40
0.0305093334
 40
0.0393921047
 40
0.0604331617
 40
0.0856728935
 40
0.1148720107
 40
0.1477533391
 40
0.1840049892
 40
0.2232831639
 40
0.2652150061
 40
0.3094015742
 40
0.3554211618
 40
0.4028330281
 40
0.4999999999
 40
0.5971669718
 40
0.6445788381
 40
0.6905984257
 40
0.7347849938
 40
0.776716836
 40
0.8159950107
 40
0.8522466608
 40
0.8851279893
 40
0.9143271065
 40
0.9395668382
 40
0.9606078953
 40
0.9694906666
 40
0.9772534356
 40
0.9838793116
 40
0.9893555336
 40
0.991660201
 40
0.9936755294
 40
0.9954023166
 40
0.9968427743
 40
0.9980017794
 40
0.9988899278
 40
0.9992399636
 40
0.9995345
 40
1.0
 40
1.0
 40
1.0
 40
1.0
 10
115.2219394366
 20
120.6076644031
 30
0.0
 10
115.2219394338
 20
120.6073369609
 30
0.0
 10
115.2221581946
 20
120.6068063473
 30
0.0
 10
115.2226665811
 20
120.6062161539
 30
0.0
 10
115.2234855453
 20
120.6055075098
 30
0.0
 10
115.2249370568
 20
120.604633742
 30
0.0
 10
115.2271681283
 20
120.6036089076
 30
0.0
 10
115.230021565
 20
120.6025447675
 30
0.0
 10
115.2334969769
 20
120.601441286
 30
0.0
 10
115.2375955313
 20
120.6003011576
 30
0.0
 10
115.2442831143
 20
120.5986371996
 30
0.0
 10
115.2541954854
 20
120.5965176291
 30
0.0
 10
115.267935836
 20
120.5939712153
 30
0.0
 10
115.2840893647
 20
120.5913145557
 30
0.0
 10
115.310312174
 20
120.5874209207
 30
0.0
 10
115.3488012699
 20
120.5824673476
 30
0.0
 10
115.4015725485
 20
120.5766052382
 30
0.0
 10
115.4627115134
 20
120.57068785
 30
0.0
 10
115.531636009
 20
120.5648616111
 30
0.0
 10
115.6076913976
 20
120.5592777062
 30
0.0
 10
115.6901542951
 20
120.5540827615
 30
0.0
 10
115.7782387515
 20
120.5494163429
 30
0.0
 10
115.8711022278
 20
120.5454059788
 30
0.0
 10
115.9678527919
 20
120.5421628192
 30
0.0
 10
116.1018870628
 20
120.5389575391
 30
0.0
 10
116.2719394332
 20
120.5373446609
 30
0.0
 10
116.4419918036
 20
120.5389575391
 30
0.0
 10
116.5760260745
 20
120.5421628192
 30
0.0
 10
116.6727766386
 20
120.5454059788
 30
0.0
 10
116.7656401149
 20
120.5494163429
 30
0.0
 10
116.8537245713
 20
120.5540827615
 30
0.0
 10
116.9361874688
 20
120.5592777062
 30
0.0
 10
117.0122428574
 20
120.5648616111
 30
0.0
 10
117.0811673531
 20
120.57068785
 30
0.0
 10
117.142306318
 20
120.5766052382
 30
0.0
 10
117.1950775966
 20
120.5824673476
 30
0.0
 10
117.2335666926
 20
120.5874209207
 30
0.0
 10
117.2597895018
 20
120.5913145557
 30
0.0
 10
117.2759430306
 20
120.5939712153
 30
0.0
 10
117.2896833811
 20
120.5965176291
 30
0.0
 10
117.2995957522
 20
120.5986371996
 30
0.0
 10
117.3062833353
 20
120.6003011576
 30
0.0
 10
117.3103818897
 20
120.601441286
 30
0.0
 10
117.3138573016
 20
120.6025447675
 30
0.0
 10
117.3167107384
 20
120.6036089076
 30
0.0
 10
117.3189418098
 20
120.604633742
 30
0.0
 10
117.3203933213
 20
120.6055075098
 30
0.0
 10
117.3212122855
 20
120.6062161539
 30
0.0
 10
117.321720672
 20
120.6068063473
 30
0.0
 10
117.3219394328
 20
120.6073369609
 30
0.0
 10
117.32193943
 20
120.6076644031
 30
0.0
  0
SPLINE
  5
2EE
100
AcDbEntity
  8
0
100
AcDbSpline
 62
7
  6
CONTINUOUS
 70
0
 71
3
 72
13
 73
9
 74
0
 42
0.0000001
 43
0.0000001
 44
0.0000000001
 40
0.0
 40
0.0
 40
0.0
 40
0.0
 40
0.0713572171
 40
0.1492106908
 40
0.240414931
 40
0.3493288982
 40
0.6292379072
 40
1.0
 40
1.0
 40
1.0
 40
1.0
 10
114.7719394358
 20
120.6076644427
 30
0.0
 10
114.771939443
 20
120.6078855397
 30
0.0
 10
114.7720263867
 20
120.6083515935
 30
0.0
 10
114.7724088365
 20
120.6090033856
 30
0.0
 10
114.7730220226
 20
120.6096172769
 30
0.0
 10
114.7742473565
 20
120.6104695189
 30
0.0
 10
114.7764157086
 20
120.6114250965
 30
0.0
 10
114.7783473988
 20
120.6120063308
 30
0.0
 10
114.7794582777
 20
120.6122990155
 30
0.0
  0
SPLINE
  5
2EF
100
AcDbEntity
  8
0
100
AcDbSpline
 62
7
  6
CONTINUOUS
 70
0
 71
3
 72
36
 73
32
 74
0
 42
0.0000001
 43
0.0000001
 44
0.0000000001
 40
0.0
 40
0.0
 40
0.0
 40
0.0
 40
0.0005099685
 40
0.00094422
 40
0.0015165266
 40
0.0022318252
 40
0.0030925211
 40
0.005254587
 40
0.008007873
 40
0.0113535282
 40
0.0152910097
 40
0.019818825
 40
0.0306360774
 40
0.043781769
 40
0.0592252097
 40
0.0769295624
 40
0.0968522571
 40
0.1189452557
 40
0.1431552491
 40
0.1694238545
 40
0.1976877968
 40
0.2278790818
 40
0.2937490136
 40
0.3664019174
 40
0.4451418381
 40
0.5292147655
 40
0.6178152556
 40
0.7100935346
 40
0.8051632663
 40
0.9021099998
 40
1.0
 40
1.0
 40
1.0
 40
1.0
 10
96.7286887622
 20
120.6160315314
 30
0.0
 10
96.7286887623
 20
120.6158842407
 30
0.0
 10
96.7284433366
 20
120.6156645416
 30
0.0
 10
96.7280736164
 20
120.615464793
 30
0.0
 10
96.7276083484
 20
120.6152700086
 30
0.0
 10
96.727022106
 20
120.6150731304
 30
0.0
 10
96.7259829607
 20
120.6147753018
 30
0.0
 10
96.72435733
 20
120.614399794
 30
0.0
 10
96.7220142783
 20
120.6139467085
 30
0.0
 10
96.7191552514
 20
120.6134675388
 30
0.0
 10
96.715781416
 20
120.6129625441
 30
0.0
 10
96.7102629401
 20
120.6122114025
 30
0.0
 10
96.7020922187
 20
120.6112317072
 30
0.0
 10
96.6907746918
 20
120.6100251968
 30
0.0
 10
96.6774659906
 20
120.6087379465
 30
0.0
 10
96.6621983327
 20
120.6073781088
 30
0.0
 10
96.6450085131
 20
120.605955005
 30
0.0
 10
96.6259380263
 20
120.6044781321
 30
0.0
 10
96.6050328289
 20
120.6029575568
 30
0.0
 10
96.5823432385
 20
120.6014037755
 30
0.0
 10
96.5579237874
 20
120.5998276421
 30
0.0
 10
96.5220819923
 20
120.5976473119
 30
0.0
 10
96.4734276041
 20
120.5949524411
 30
0.0
 10
96.4107510793
 20
120.5918973447
 30
0.0
 10
96.3428032932
 20
120.5890258974
 30
0.0
 10
96.2702353821
 20
120.5864255428
 30
0.0
 10
96.1937437233
 20
120.5841766418
 30
0.0
 10
96.1140638042
 20
120.5823493449
 30
0.0
 10
96.0319633812
 20
120.5810011306
 30
0.0
 10
95.9482351927
 20
120.580174675
 30
0.0
 10
95.8919616589
 20
120.5799893436
 30
0.0
 10
95.8636887622
 20
120.5799893436
 30
0.0
  0
SPLINE
  5
2F0
100
AcDbEntity
  8
0
100
AcDbSpline
 62
7
  6
CONTINUOUS
 70
0
 71
3
 72
19
 73
15
 74
0
 42
0.0000001
 43
0.0000001
 44
0.0000000001
 40
0.0
 40
0.0
 40
0.0
 40
0.0
 40
0.0128526497
 40
0.0290854408
 40
0.0510001744
 40
0.0795546032
 40
0.1151734018
 40
0.158070525
 40
0.2083644142
 40
0.2661257013
 40
0.404205431
 40
0.5725112796
 40
0.771109453
 40
1.0
 40
1.0
 40
1.0
 40
1.0
 10
97.628688756
 20
120.6160315372
 30
0.0
 10
97.6286887544
 20
120.6161259685
 30
0.0
 10
97.6286126692
 20
120.6163406891
 30
0.0
 10
97.6283254654
 20
120.6165936351
 30
0.0
 10
97.6278900914
 20
120.6168222456
 30
0.0
 10
97.6272920869
 20
120.6170332549
 30
0.0
 10
97.6265294913
 20
120.6172284477
 30
0.0
 10
97.6255996715
 20
120.6174072148
 30
0.0
 10
97.6245022766
 20
120.6175693927
 30
0.0
 10
97.6227053889
 20
120.6177753742
 30
0.0
 10
97.620036649
 20
120.6179766666
 30
0.0
 10
97.6163297463
 20
120.6181408833
 30
0.0
 10
97.6119530904
 20
120.6182376265
 30
0.0
 10
97.6088121754
 20
120.6182559548
 30
0.0
 10
97.607130464
 20
120.618255941
 30
0.0
  0
SPLINE
  5
2F1
100
AcDbEntity
  8
0
100
AcDbSpline
 62
7
  6
CONTINUOUS
 70
0
 71
3
 72
13
 73
9
 74
0
 42
0.0000001
 43
0.0000001
 44
0.0000000001
 40
0.0
 40
0.0
 40
0.0
 40
0.0
 40
0.3707620925
 40
0.6506711015
 40
0.7595850688
 40
0.8507893091
 40
0.9286427829
 40
1.0
 40
1.0
 40
1.0
 40
1.0
 10
117.764420589
 20
120.6122990155
 30
0.0
 10
117.7655314678
 20
120.6120063308
 30
0.0
 10
117.767463158
 20
120.6114250965
 30
0.0
 10
117.7696315101
 20
120.6104695189
 30
0.0
 10
117.770856844
 20
120.6096172769
 30
0.0
 10
117.7714700302
 20
120.6090033856
 30
0.0
 10
117.7718524799
 20
120.6083515936
 30
0.0
 10
117.7719394236
 20
120.6078855397
 30
0.0
 10
117.7719394308
 20
120.6076644427
 30
0.0
  0
SPLINE
  5
2F2
100
AcDbEntity
  8
0
100
AcDbSpline
 62
7
  6
CONTINUOUS
 70
0
 71
3
 72
45
 73
41
 74
0
 42
0.0000001
 43
0.0000001
 44
0.0000000001
 40
0.0
 40
0.0
 40
0.0
 40
0.0
 40
0.0053183771
 40
0.010692543
 40
0.016241495
 40
0.0220737667
 40
0.0282826975
 40
0.0349448564
 40
0.0421208475
 40
0.049857276
 40
0.0581890125
 40
0.0671412899
 40
0.0767314578
 40
0.0869703809
 40
0.0978635236
 40
0.1094117841
 40
0.1216121351
 40
0.1344581207
 40
0.1620445249
 40
0.192065951
 40
0.2243784836
 40
0.2588072634
 40
0.2951508645
 40
0.3331850803
 40
0.3726664119
 40
0.413335374
 40
0.4549196872
 40
0.4971374028
 40
0.5823130623
 40
0.6665315384
 40
0.7075622342
 40
0.7475020896
 40
0.7860866443
 40
0.8230662623
 40
0.8582094011
 40
0.8913060104
 40
0.9221711882
 40
0.9506493148
 40
0.9766190569
 40
1.0
 40
1.0
 40
1.0
 40
1.0
 10
93.2186887622
 20
120.0771433584
 30
0.0
 10
93.2186887622
 20
120.0816761238
 30
0.0
 10
93.2194008444
 20
120.090805818
 30
0.0
 10
93.2226413818
 20
120.1043178916
 30
0.0
 10
93.2280402196
 20
120.1175933632
 30
0.0
 10
93.2355771193
 20
120.1306024901
 30
0.0
 10
93.2452313727
 20
120.1433317295
 30
0.0
 10
93.2569851315
 20
120.1557717697
 30
0.0
 10
93.2708228347
 20
120.1679153961
 30
0.0
 10
93.2867291922
 20
120.179754843
 30
0.0
 10
93.3046873304
 20
120.1912814856
 30
0.0
 10
93.32467757
 20
120.2024860156
 30
0.0
 10
93.3466767448
 20
120.2133588793
 30
0.0
 10
93.3706578696
 20
120.2238906452
 30
0.0
 10
93.3965900038
 20
120.2340723226
 30
0.0
 10
93.4244382124
 20
120.2438954032
 30
0.0
 10
93.4541635787
 20
120.2533525732
 30
0.0
 10
93.4972764354
 20
120.2657603269
 30
0.0
 10
93.5555932232
 20
120.2801656497
 30
0.0
 10
93.6306915618
 20
120.2955286449
 30
0.0
 10
93.7120127169
 20
120.3093230244
 30
0.0
 10
93.7990282847
 20
120.3215308654
 30
0.0
 10
93.891161586
 20
120.3321418878
 30
0.0
 10
93.9877893185
 20
120.3411530568
 30
0.0
 10
94.088248559
 20
120.3485661657
 30
0.0
 10
94.1918424745
 20
120.3543857676
 30
0.0
 10
94.2978471038
 20
120.3586183295
 30
0.0
 10
94.4418250709
 20
120.3621602134
 30
0.0
 10
94.6222042886
 20
120.3626206269
 30
0.0
 10
94.801512998
 20
120.3579015657
 30
0.0
 10
94.9421295966
 20
120.3508465725
 30
0.0
 10
95.0438001945
 20
120.3440077432
 30
0.0
 10
95.1418866307
 20
120.3355728516
 30
0.0
 10
95.2357132171
 20
120.3255381295
 30
0.0
 10
95.3246417029
 20
120.3139048848
 30
0.0
 10
95.408077759
 20
120.3006803346
 30
0.0
 10
95.4854756771
 20
120.2858800393
 30
0.0
 10
95.5563465528
 20
120.2695289699
 30
0.0
 10
95.6202538123
 20
120.2516647344
 30
0.0
 10
95.6600895417
 20
120.238056134
 30
0.0
 10
95.6786887622
 20
120.2309033691
 30
0.0
  0
SPLINE
  5
2F3
100
AcDbEntity
  8
0
100
AcDbSpline
 62
7
  6
CONTINUOUS
 70
0
 71
3
 72
15
 73
11
 74
0
 42
0.0000001
 43
0.0000001
 44
0.0000000001
 40
0.0
 40
0.0
 40
0.0
 40
0.0
 40
0.3235590533
 40
0.4755053036
 40
0.6159205173
 40
0.7414000742
 40
0.8488984633
 40
0.9358026851
 40
0.9708504791
 40
1.0
 40
1.0
 40
1.0
 40
1.0
 10
95.8636887622
 20
120.6080146214
 30
0.0
 10
95.9521494655
 20
120.6080146214
 30
0.0
 10
96.0821533359
 20
120.6087170728
 30
0.0
 10
96.2505319918
 20
120.6108616917
 30
0.0
 10
96.3647536726
 20
120.6127654054
 30
0.0
 10
96.4668199135
 20
120.6147415043
 30
0.0
 10
96.5542575139
 20
120.6165024694
 30
0.0
 10
96.6169789373
 20
120.6176461694
 30
0.0
 10
96.6582869413
 20
120.6181526166
 30
0.0
 10
96.6758383862
 20
120.6182559289
 30
0.0
 10
96.6838078344
 20
120.6182559415
 30
0.0
  0
SPLINE
  5
2F4
100
AcDbEntity
  8
0
100
AcDbSpline
 62
7
  6
CONTINUOUS
 70
0
 71
3
 72
61
 73
57
 74
0
 42
0.0000001
 43
0.0000001
 44
0.0000000001
 40
0.0
 40
0.0
 40
0.0
 40
0.0
 40
0.0002220194
 40
0.0004739128
 40
0.0007720702
 40
0.0011264973
 40
0.0020248407
 40
0.0031951466
 40
0.0046475849
 40
0.0063868079
 40
0.0084148976
 40
0.0107325331
 40
0.0133395392
 40
0.0162351633
 40
0.0228870381
 40
0.030675
 40
0.0395815812
 40
0.0495859573
 40
0.0606643289
 40
0.085934294
 40
0.1151502146
 40
0.1480341036
 40
0.1842746944
 40
0.2235300227
 40
0.265429815
 40
0.309577963
 40
0.3555553395
 40
0.4029231685
 40
0.4999999999
 40
0.5970768314
 40
0.6444446603
 40
0.6904220369
 40
0.7345701849
 40
0.7764699772
 40
0.8157253055
 40
0.8519658963
 40
0.8848497853
 40
0.914065706
 40
0.9393356711
 40
0.9504140427
 40
0.9604184187
 40
0.969325
 40
0.9771129619
 40
0.9837648367
 40
0.9866604608
 40
0.9892674668
 40
0.9915851024
 40
0.9936131921
 40
0.9953524151
 40
0.9968048534
 40
0.9979751593
 40
0.9988735027
 40
0.9992279298
 40
0.9995260872
 40
0.9997779806
 40
1.0
 40
1.0
 40
1.0
 40
1.0
 10
117.7719394308
 20
120.6076644427
 30
0.0
 10
117.7719394381
 20
120.6074410334
 30
0.0
 10
117.7718503171
 20
120.6069620786
 30
0.0
 10
117.7714852239
 20
120.6062676003
 30
0.0
 10
117.7708995313
 20
120.6055648097
 30
0.0
 10
117.7697299031
 20
120.6045256484
 30
0.0
 10
117.7676560018
 20
120.6032199475
 30
0.0
 10
117.7644665438
 20
120.601671881
 30
0.0
 10
117.7603872257
 20
120.60004288
 30
0.0
 10
117.7554189376
 20
120.5983351594
 30
0.0
 10
117.7495601082
 20
120.5965522548
 30
0.0
 10
117.7428136504
 20
120.5946971005
 30
0.0
 10
117.7351829181
 20
120.5927724536
 30
0.0
 10
117.7232733058
 20
120.5899867383
 30
0.0
 10
117.7062023671
 20
120.5863888249
 30
0.0
 10
117.683120509
 20
120.5820095558
 30
0.0
 10
117.6566482737
 20
120.5774207532
 30
0.0
 10
117.6268500308
 20
120.5726498386
 30
0.0
 10
117.5807149893
 20
120.5657804698
 30
0.0
 10
117.5153199791
 20
120.5570260932
 30
0.0
 10
117.428008865
 20
120.5467008086
 30
0.0
 10
117.3295842431
 20
120.5364306695
 30
0.0
 10
117.2209760049
 20
120.5265019949
 30
0.0
 10
117.1032092323
 20
120.5171998303
 30
0.0
 10
116.9773988459
 20
120.5087956728
 30
0.0
 10
116.8447421359
 20
120.5015394849
 30
0.0
 10
116.7065099187
 20
120.4956501921
 30
0.0
 10
116.5149807327
 20
120.4898138651
 30
0.0
 10
116.2719394335
 20
120.4868669642
 30
0.0
 10
116.0288981343
 20
120.4898138651
 30
0.0
 10
115.8373689483
 20
120.4956501921
 30
0.0
 10
115.699136731
 20
120.5015394849
 30
0.0
 10
115.566480021
 20
120.5087956727
 30
0.0
 10
115.4406696346
 20
120.5171998303
 30
0.0
 10
115.322902862
 20
120.5265019948
 30
0.0
 10
115.2142946238
 20
120.5364306695
 30
0.0
 10
115.1158700018
 20
120.5467008086
 30
0.0
 10
115.0285588877
 20
120.5570260932
 30
0.0
 10
114.9631638775
 20
120.5657804697
 30
0.0
 10
114.917028836
 20
120.5726498385
 30
0.0
 10
114.8872305931
 20
120.5774207532
 30
0.0
 10
114.8607583578
 20
120.5820095558
 30
0.0
 10
114.8376764996
 20
120.5863888249
 30
0.0
 10
114.8206055609
 20
120.5899867383
 30
0.0
 10
114.8086959486
 20
120.5927724536
 30
0.0
 10
114.8010652163
 20
120.5946971005
 30
0.0
 10
114.7943187585
 20
120.5965522548
 30
0.0
 10
114.7884599291
 20
120.5983351594
 30
0.0
 10
114.783491641
 20
120.6000428799
 30
0.0
 10
114.7794123228
 20
120.601671881
 30
0.0
 10
114.7762228649
 20
120.6032199475
 30
0.0
 10
114.7741489635
 20
120.6045256484
 30
0.0
 10
114.7729793353
 20
120.6055648097
 30
0.0
 10
114.7723936427
 20
120.6062676003
 30
0.0
 10
114.7720285495
 20
120.6069620786
 30
0.0
 10
114.7719394286
 20
120.6074410334
 30
0.0
 10
114.7719394358
 20
120.6076644427
 30
0.0
  0
SPLINE
  5
2F5
100
AcDbEntity
  8
0
100
AcDbSpline
 62
7
  6
CONTINUOUS
 70
0
 71
3
 72
20
 73
16
 74
0
 42
0.0000001
 43
0.0000001
 44
0.0000000001
 40
0.0
 40
0.0
 40
0.0
 40
0.0
 40
0.2312787708
 40
0.4325000917
 40
0.603352406
 40
0.7435871908
 40
0.8021671215
 40
0.8530372505
 40
0.8961950961
 40
0.9316546119
 40
0.9594576077
 40
0.979714305
 40
0.9871055003
 40
0.9927829993
 40
1.0
 40
1.0
 40
1.0
 40
1.0
 10
96.6838078344
 20
120.6182559415
 30
0.0
 10
96.6872908325
 20
120.6182559471
 30
0.0
 10
96.6938041964
 20
120.618238533
 30
0.0
 10
96.7028901806
 20
120.6181452273
 30
0.0
 10
96.7106038871
 20
120.6179848418
 30
0.0
 10
96.7161678525
 20
120.6177863932
 30
0.0
 10
96.7199225748
 20
120.6175814808
 30
0.0
 10
96.7222152351
 20
120.6174198623
 30
0.0
 10
96.7241572909
 20
120.6172408565
 30
0.0
 10
96.7257483596
 20
120.6170467202
 30
0.0
 10
96.726989235
 20
120.6168344445
 30
0.0
 10
96.7278007311
 20
120.6166374942
 30
0.0
 10
96.7282716702
 20
120.6164507196
 30
0.0
 10
96.7285342789
 20
120.6163106151
 30
0.0
 10
96.7286887621
 20
120.6161402175
 30
0.0
 10
96.7286887622
 20
120.6160315314
 30
0.0
  0
SPLINE
  5
2F6
100
AcDbEntity
  8
0
100
AcDbSpline
 62
7
  6
CONTINUOUS
 70
0
 71
3
 72
22
 73
18
 74
0
 42
0.0000001
 43
0.0000001
 44
0.0000000001
 40
0.0
 40
0.0
 40
0.0
 40
0.0
 40
0.0304358165
 40
0.062221733
 40
0.0967733613
 40
0.1351796433
 40
0.1782013066
 40
0.2263318257
 40
0.2798645603
 40
0.3389449835
 40
0.4036068426
 40
0.4737960253
 40
0.5493863911
 40
0.630190356
 40
0.7159664226
 40
0.8064247091
 40
1.0
 40
1.0
 40
1.0
 40
1.0
 10
93.9686887622
 20
119.5193871906
 30
0.0
 10
93.9686887622
 20
119.5228768778
 30
0.0
 10
93.9695712576
 20
119.5300394372
 30
0.0
 10
93.9735127063
 20
119.5405053165
 30
0.0
 10
93.9799938186
 20
119.5507002663
 30
0.0
 10
93.9889449951
 20
119.560601342
 30
0.0
 10
94.0003236439
 20
119.5702058155
 30
0.0
 10
94.014095777
 20
119.5794992845
 30
0.0
 10
94.0302227337
 20
119.5884594503
 30
0.0
 10
94.0486552705
 20
119.5970585986
 30
0.0
 10
94.0693317592
 20
119.6052670549
 30
0.0
 10
94.0921777819
 20
119.6130549407
 30
0.0
 10
94.1171062185
 20
119.6203932476
 30
0.0
 10
94.1440173482
 20
119.627254267
 30
0.0
 10
94.1727994314
 20
119.6336124777
 30
0.0
 10
94.2144522999
 20
119.6415667588
 30
0.0
 10
94.2466728407
 20
119.6464132097
 30
0.0
 10
94.2686841399
 20
119.6492614308
 30
0.0
  0
SPLINE
  5
2F7
100
AcDbEntity
  8
0
100
AcDbSpline
 62
7
  6
CONTINUOUS
 70
0
 71
3
 72
61
 73
57
 74
0
 42
0.0000001
 43
0.0000001
 44
0.0000000001
 40
0.0
 40
0.0
 40
0.0
 40
0.0
 40
0.0002284978
 40
0.0004864551
 40
0.0007900348
 40
0.0011492703
 40
0.0020557671
 40
0.0032328821
 40
0.0046912218
 40
0.0064356921
 40
0.0084685279
 40
0.0107905046
 40
0.0134015095
 40
0.0163008317
 40
0.0229592971
 40
0.0307528856
 40
0.0396641869
 40
0.0496723988
 40
0.0607537286
 40
0.0860269744
 40
0.1152427454
 40
0.1481232536
 40
0.1843575889
 40
0.2236042721
 40
0.2654935856
 40
0.3096299758
 40
0.3555948017
 40
0.4029496572
 40
0.4999999996
 40
0.5970503421
 40
0.6444051975
 40
0.6903700234
 40
0.7345064137
 40
0.7763957273
 40
0.8156424104
 40
0.8518767458
 40
0.8847572541
 40
0.9139730252
 40
0.9392462711
 40
0.9503276009
 40
0.9603358128
 40
0.9692471141
 40
0.9770407026
 40
0.9836991682
 40
0.9865984904
 40
0.9892094952
 40
0.991531472
 40
0.9935643078
 40
0.9953087782
 40
0.9967671178
 40
0.9979442329
 40
0.9988507297
 40
0.9992099652
 40
0.9995135449
 40
0.9997715022
 40
1.0
 40
1.0
 40
1.0
 40
1.0
 10
114.7719394358
 20
120.1073432451
 30
0.0
 10
114.7719394325
 20
120.1071132339
 30
0.0
 10
114.7720279868
 20
120.1066214675
 30
0.0
 10
114.7723923015
 20
120.1059059983
 30
0.0
 10
114.772977898
 20
120.1051814068
 30
0.0
 10
114.7741458243
 20
120.1041117694
 30
0.0
 10
114.7762190997
 20
120.1027658155
 30
0.0
 10
114.779410012
 20
120.1011698628
 30
0.0
 10
114.7834903814
 20
120.0994908005
 30
0.0
 10
114.7884594978
 20
120.0977309001
 30
0.0
 10
114.794318996
 20
120.0958936134
 30
0.0
 10
114.8010660134
 20
120.0939819442
 30
0.0
 10
114.8086972101
 20
120.0919986999
 30
0.0
 10
114.8206061083
 20
120.0891284988
 30
0.0
 10
114.8376765904
 20
120.0854212446
 30
0.0
 10
114.8607588307
 20
120.0809086518
 30
0.0
 10
114.8872308849
 20
120.0761801727
 30
0.0
 10
114.917028344
 20
120.0712640444
 30
0.0
 10
114.9631591577
 20
120.0641859075
 30
0.0
 10
115.028548394
 20
120.0551650729
 30
0.0
 10
115.1158535765
 20
120.0445248584
 30
0.0
 10
115.2142711602
 20
120.0339410241
 30
0.0
 10
115.3228724281
 20
120.0237085374
 30
0.0
 10
115.4406336557
 20
120.014121128
 30
0.0
 10
115.5664411757
 20
120.0054586741
 30
0.0
 10
115.6990986291
 20
119.997978961
 30
0.0
 10
115.8373356282
 20
119.9919078662
 30
0.0
 10
116.0288762983
 20
119.9858910486
 30
0.0
 10
116.2719394321
 20
119.9828527841
 30
0.0
 10
116.5150025659
 20
119.9858910485
 30
0.0
 10
116.7065432361
 20
119.9919078661
 30
0.0
 10
116.8447802353
 20
119.9979789608
 30
0.0
 10
116.9774376888
 20
120.0054586739
 30
0.0
 10
117.1032452088
 20
120.0141211279
 30
0.0
 10
117.2210064366
 20
120.0237085372
 30
0.0
 10
117.3296077047
 20
120.033941024
 30
0.0
 10
117.4280252886
 20
120.0445248582
 30
0.0
 10
117.5153304712
 20
120.0551650727
 30
0.0
 10
117.5807197078
 20
120.0641859073
 30
0.0
 10
117.6268505216
 20
120.0712640442
 30
0.0
 10
117.6566479808
 20
120.0761801725
 30
0.0
 10
117.6831200352
 20
120.0809086517
 30
0.0
 10
117.7062022756
 20
120.0854212445
 30
0.0
 10
117.7232727577
 20
120.0891284987
 30
0.0
 10
117.735181656
 20
120.0919986997
 30
0.0
 10
117.7428128528
 20
120.093981944
 30
0.0
 10
117.7495598702
 20
120.0958936132
 30
0.0
 10
117.7554193685
 20
120.0977309
 30
0.0
 10
117.760388485
 20
120.0994908004
 30
0.0
 10
117.7644688544
 20
120.1011698627
 30
0.0
 10
117.7676597667
 20
120.1027658154
 30
0.0
 10
117.7697330422
 20
120.1041117693
 30
0.0
 10
117.7709009686
 20
120.1051814067
 30
0.0
 10
117.7714865651
 20
120.1059059982
 30
0.0
 10
117.7718508798
 20
120.1066214674
 30
0.0
 10
117.7719394341
 20
120.1071132338
 30
0.0
 10
117.7719394308
 20
120.107343245
 30
0.0
  0
SPLINE
  5
2F8
100
AcDbEntity
  8
0
100
AcDbSpline
 62
7
  6
CONTINUOUS
 70
0
 71
3
 72
15
 73
11
 74
0
 42
0.0000001
 43
0.0000001
 44
0.0000000001
 40
0.0
 40
0.0
 40
0.0
 40
0.0
 40
0.0552883986
 40
0.1216071772
 40
0.2068441599
 40
0.31480224
 40
0.4473256517
 40
0.6053801177
 40
0.7895051474
 40
1.0
 40
1.0
 40
1.0
 40
1.0
 10
117.32193943
 20
120.6076644031
 30
0.0
 10
117.3219394281
 20
120.6078894928
 30
0.0
 10
117.321797341
 20
120.6083882688
 30
0.0
 10
117.3212321728
 20
120.6090332373
 30
0.0
 10
117.3203579752
 20
120.6096362064
 30
0.0
 10
117.3191610545
 20
120.6102149837
 30
0.0
 10
117.3176361297
 20
120.6107739515
 30
0.0
 10
117.3157791592
 20
120.611313314
 30
0.0
 10
117.3135892098
 20
120.6118326805
 30
0.0
 10
117.3120128154
 20
120.6121443793
 30
0.0
 10
117.3111699179
 20
120.6122990155
 30
0.0
  0
SPLINE
  5
2F9
100
AcDbEntity
  8
0
100
AcDbSpline
 62
7
  6
CONTINUOUS
 70
0
 71
3
 72
15
 73
11
 74
0
 42
0.0000001
 43
0.0000001
 44
0.0000000001
 40
0.0
 40
0.0
 40
0.0
 40
0.0
 40
0.2104948525
 40
0.394619882
 40
0.552674348
 40
0.6851977597
 40
0.7931558398
 40
0.8783928226
 40
0.9447116014
 40
1.0
 40
1.0
 40
1.0
 40
1.0
 10
115.2327089488
 20
120.6122990155
 30
0.0
 10
115.2318660512
 20
120.6121443793
 30
0.0
 10
115.2302896568
 20
120.6118326805
 30
0.0
 10
115.2280997074
 20
120.611313314
 30
0.0
 10
115.226242737
 20
120.6107739515
 30
0.0
 10
115.2247178121
 20
120.6102149837
 30
0.0
 10
115.2235208914
 20
120.6096362064
 30
0.0
 10
115.2226466938
 20
120.6090332373
 30
0.0
 10
115.2220815256
 20
120.6083882688
 30
0.0
 10
115.2219394385
 20
120.6078894928
 30
0.0
 10
115.2219394366
 20
120.6076644031
 30
0.0
  0
SPLINE
  5
2FA
100
AcDbEntity
  8
0
100
AcDbSpline
 62
7
  6
CONTINUOUS
 70
0
 71
3
 72
47
 73
43
 74
0
 42
0.0000001
 43
0.0000001
 44
0.0000000001
 40
0.0
 40
0.0
 40
0.0
 40
0.0
 40
0.0060120616
 40
0.0121664923
 40
0.0186307809
 40
0.0255487835
 40
0.033036135
 40
0.0411812464
 40
0.0500491262
 40
0.0596857772
 40
0.0701221057
 40
0.081377034
 40
0.1063663271
 40
0.1346475511
 40
0.166113168
 40
0.2005828325
 40
0.2378154782
 40
0.2775177161
 40
0.3193507688
 40
0.3629370903
 40
0.4078672316
 40
0.5
 40
0.5921327684
 40
0.6370629097
 40
0.6806492312
 40
0.7224822839
 40
0.7621845218
 40
0.7994171675
 40
0.833886832
 40
0.8653524489
 40
0.8936336729
 40
0.918622966
 40
0.9298778943
 40
0.9403142228
 40
0.9499508738
 40
0.9588187536
 40
0.966963865
 40
0.9744512165
 40
0.9813692191
 40
0.9878335077
 40
0.9939879384
 40
1.0
 40
1.0
 40
1.0
 40
1.0
 10
95.0986887622
 20
120.0376339749
 30
0.0
 10
95.0986887622
 20
120.0400687342
 30
0.0
 10
95.0982403316
 20
120.0450072254
 30
0.0
 10
95.0962226911
 20
120.0523147165
 30
0.0
 10
95.0928756192
 20
120.0595199006
 30
0.0
 10
95.0882191349
 20
120.0666042442
 30
0.0
 10
95.0822701366
 20
120.0735602036
 30
0.0
 10
95.0750421682
 20
120.0803807076
 30
0.0
 10
95.0665476546
 20
120.0870581221
 30
0.0
 10
95.0567999185
 20
120.0935830712
 30
0.0
 10
95.0458146575
 20
120.0999456525
 30
0.0
 10
95.028945702
 20
120.1084970556
 30
0.0
 10
95.0047956404
 20
120.1185707896
 30
0.0
 10
94.9722284814
 20
120.1294543439
 30
0.0
 10
94.9353824502
 20
120.1394344694
 30
0.0
 10
94.8945690199
 20
120.1484330936
 30
0.0
 10
94.8501471945
 20
120.156378858
 30
0.0
 10
94.802527683
 20
120.1632093417
 30
0.0
 10
94.7521662844
 20
120.1688710576
 30
0.0
 10
94.6995589749
 20
120.1733207337
 30
0.0
 10
94.6265199951
 20
120.1776248312
 30
0.0
 10
94.5336887622
 20
120.1797303195
 30
0.0
 10
94.4408575293
 20
120.1776248312
 30
0.0
 10
94.3678185495
 20
120.1733207337
 30
0.0
 10
94.31521124
 20
120.1688710576
 30
0.0
 10
94.2648498414
 20
120.1632093417
 30
0.0
 10
94.2172303299
 20
120.156378858
 30
0.0
 10
94.1728085045
 20
120.1484330936
 30
0.0
 10
94.1319950742
 20
120.1394344694
 30
0.0
 10
94.095149043
 20
120.1294543439
 30
0.0
 10
94.062581884
 20
120.1185707896
 30
0.0
 10
94.0384318224
 20
120.1084970556
 30
0.0
 10
94.0215628669
 20
120.0999456525
 30
0.0
 10
94.0105776059
 20
120.0935830712
 30
0.0
 10
94.0008298697
 20
120.0870581221
 30
0.0
 10
93.9923353562
 20
120.0803807076
 30
0.0
 10
93.9851073878
 20
120.0735602036
 30
0.0
 10
93.9791583895
 20
120.0666042442
 30
0.0
 10
93.9745019052
 20
120.0595199006
 30
0.0
 10
93.9711548333
 20
120.0523147165
 30
0.0
 10
93.9691371928
 20
120.0450072254
 30
0.0
 10
93.9686887622
 20
120.0400687342
 30
0.0
 10
93.9686887622
 20
120.0376339749
 30
0.0
  0
SPLINE
  5
2FB
100
AcDbEntity
  8
0
100
AcDbSpline
 62
7
  6
CONTINUOUS
 70
0
 71
3
 72
21
 73
17
 74
0
 42
0.0000001
 43
0.0000001
 44
0.0000000001
 40
0.0
 40
0.0
 40
0.0
 40
0.0
 40
0.1891422789
 40
0.3611907994
 40
0.4401746773
 40
0.5142080904
 40
0.583171908
 40
0.6470094748
 40
0.7057368226
 40
0.7594573412
 40
0.80838273
 40
0.8528616718
 40
0.8934162462
 40
0.9307795953
 40
0.9659170023
 40
1.0
 40
1.0
 40
1.0
 40
1.0
 10
96.0936887622
 20
119.9703029543
 30
0.0
 10
96.0740404736
 20
119.9670779896
 30
0.0
 10
96.0366592913
 20
119.9600142138
 30
0.0
 10
95.9916779007
 20
119.9487297694
 30
0.0
 10
95.9590021791
 20
119.9385380045
 30
0.0
 10
95.9369970959
 20
119.9306505243
 30
0.0
 10
95.9168650766
 20
119.9223314371
 30
0.0
 10
95.898673022
 20
119.9136107412
 30
0.0
 10
95.8824774899
 20
119.9045192793
 30
0.0
 10
95.8683252903
 20
119.8950869197
 30
0.0
 10
95.8562545758
 20
119.8853416035
 30
0.0
 10
95.8462973775
 20
119.875307453
 30
0.0
 10
95.8384844
 20
119.8650053725
 30
0.0
 10
95.8328522355
 20
119.8544539265
 30
0.0
 10
95.8294472991
 20
119.8436921878
 30
0.0
 10
95.8286887622
 20
119.8363838543
 30
0.0
 10
95.8286887622
 20
119.8327959036
 30
0.0
  0
SPLINE
  5
2FC
100
AcDbEntity
  8
0
100
AcDbSpline
 62
7
  6
CONTINUOUS
 70
0
 71
3
 72
39
 73
35
 74
0
 42
0.0000001
 43
0.0000001
 44
0.0000000001
 40
0.0
 40
0.0
 40
0.0
 40
0.0
 40
0.0977589191
 40
0.1945748193
 40
0.289515706
 40
0.3816710167
 40
0.470160825
 40
0.554143649
 40
0.6328228869
 40
0.7054521901
 40
0.771340249
 40
0.8015565817
 40
0.8298557149
 40
0.8561688772
 40
0.8804317305
 40
0.9025845349
 40
0.922572411
 40
0.9403455429
 40
0.9558594869
 40
0.9690754854
 40
0.9748113586
 40
0.979961059
 40
0.9845216331
 40
0.9884906777
 40
0.9918664728
 40
0.9946482724
 40
0.9958166724
 40
0.9968371219
 40
0.9977103036
 40
0.9984374325
 40
0.9990207668
 40
0.9994649419
 40
0.9997809138
 40
1.0
 40
1.0
 40
1.0
 40
1.0
 10
95.8636887622
 20
120.4954121001
 30
0.0
 10
95.9214185881
 20
120.4954121001
 30
0.0
 10
96.0363225295
 20
120.49609335
 30
0.0
 10
96.2072678206
 20
120.4991275457
 30
0.0
 10
96.3748582856
 20
120.5040648545
 30
0.0
 10
96.537467735
 20
120.5107311752
 30
0.0
 10
96.6935291124
 20
120.5188931717
 30
0.0
 10
96.8415488129
 20
120.5282678133
 30
0.0
 10
96.9801189143
 20
120.5385333046
 30
0.0
 10
97.1079265799
 20
120.5493416913
 30
0.0
 10
97.2071259339
 20
120.5587515266
 30
0.0
 10
97.280205296
 20
120.5662652515
 30
0.0
 10
97.3300096834
 20
120.5716469159
 30
0.0
 10
97.3762915474
 20
120.5768959163
 30
0.0
 10
97.4189396845
 20
120.5819703566
 30
0.0
 10
97.4578510857
 20
120.5868300197
 30
0.0
 10
97.4929311952
 20
120.5914368929
 30
0.0
 10
97.524094365
 20
120.5957550125
 30
0.0
 10
97.5512638991
 20
120.5997516546
 30
0.0
 10
97.5713694642
 20
120.6029205606
 30
0.0
 10
97.5854038006
 20
120.605289681
 30
0.0
 10
97.5943849601
 20
120.6068840959
 30
0.0
 10
97.602323774
 20
120.6083785425
 30
0.0
 10
97.6092155363
 20
120.609770006
 30
0.0
 10
97.6150560571
 20
120.611055984
 30
0.0
 10
97.6192582978
 20
120.6120877175
 30
0.0
 10
97.6220873207
 20
120.612871367
 30
0.0
 10
97.6238177654
 20
120.6133967805
 30
0.0
 10
97.6252838
 20
120.6138938893
 30
0.0
 10
97.6264855412
 20
120.6143630452
 30
0.0
 10
97.6274257426
 20
120.6148011539
 30
0.0
 10
97.6281059907
 20
120.6152144737
 30
0.0
 10
97.6285462406
 20
120.6155944627
 30
0.0
 10
97.6286887583
 20
120.6159021597
 30
0.0
 10
97.628688756
 20
120.6160315372
 30
0.0
  0
ELLIPSE
  5
2FD
100
AcDbEntity
  8
0
100
AcDbEllipse
 62
7
  6
CONTINUOUS
 10
111.6043223849
 20
103.6182559416
 30
0.0
 11
-0.0
 21
17.0
 31
0.0
 40
0.2042553906
 41
-0.0223548031
 42
-0.0000000329
  0
ELLIPSE
  5
2FE
100
AcDbEntity
  8
0
100
AcDbEllipse
 62
7
  6
CONTINUOUS
 10
111.1395281688
 20
103.6182559416
 30
0.0
 11
-0.0
 21
17.0
 31
0.0
 40
0.680851632
 41
0.0000000106
 42
0.0119610648
  0
ELLIPSE
  5
2FF
100
AcDbEntity
  8
0
100
AcDbEllipse
 62
7
  6
CONTINUOUS
 10
109.2063650515
 20
103.6182559416
 30
0.0
 11
-0.0
 21
17.0
 31
0.0
 40
0.2042553727
 41
0.0000000329
 42
0.0223548031
  0
ELLIPSE
  5
300
100
AcDbEntity
  8
0
100
AcDbEllipse
 62
7
  6
CONTINUOUS
 10
111.4164072028
 20
103.6182559416
 30
0.0
 11
34.7233896382
 21
0.0
 31
0.0
 40
0.4895835394
 41
1.5827573916
 42
1.5925627514
  0
ELLIPSE
  5
301
100
AcDbEntity
  8
0
100
AcDbEllipse
 62
7
  6
CONTINUOUS
 10
115.7398016454
 20
103.6182559416
 30
0.0
 11
52.0850008297
 21
-0.0
 31
0.0
 40
0.3263895503
 41
1.6684678892
 42
1.6717520536
  0
ELLIPSE
  5
302
100
AcDbEntity
  8
0
100
AcDbEllipse
 62
7
  6
CONTINUOUS
 10
105.0708833468
 20
103.6182559416
 30
0.0
 11
52.0850251483
 21
-0.0
 31
0.0
 40
0.3263893979
 41
1.4698406
 42
1.4747664482
  0
ELLIPSE
  5
303
100
AcDbEntity
  8
0
100
AcDbEllipse
 62
7
  6
CONTINUOUS
 10
107.5678947508
 20
103.6182559416
 30
0.0
 11
26.0425749231
 21
-0.0
 31
0.0
 40
0.6527772331
 41
1.4747664482
 42
1.4813306141
  0
ELLIPSE
  5
304
100
AcDbEntity
  8
0
100
AcDbEllipse
 62
7
  6
CONTINUOUS
 10
109.6751308103
 20
103.6182559416
 30
0.0
 11
0.0
 21
17.0
 31
0.0
 40
0.7659575381
 41
-0.016863549
 42
-0.0000000286
  0
ELLIPSE
  5
305
100
AcDbEntity
  8
0
100
AcDbEllipse
 62
7
  6
CONTINUOUS
 10
108.3792442168
 20
103.6182559416
 30
0.0
 11
31.8297874928
 21
-0.0
 31
0.0
 40
0.5340909047
 41
1.450703943
 42
1.4802806153
  0
ELLIPSE
  5
306
100
AcDbEntity
  8
0
100
AcDbEllipse
 62
7
  6
CONTINUOUS
 10
104.0495977146
 20
103.6182559416
 30
0.0
 11
20.2553248405
 21
0.0
 31
0.0
 40
0.8392854785
 41
1.3260059654
 42
1.3562121336
  0
ELLIPSE
  5
307
100
AcDbEntity
  8
0
100
AcDbEllipse
 62
7
  6
CONTINUOUS
 10
120.9365010145
 20
103.6182559416
 30
0.0
 11
50.8449865527
 21
0.0
 31
0.0
 40
0.334349582
 41
1.9098014706
 42
1.9835971676
  0
ELLIPSE
  5
308
100
AcDbEntity
  8
0
100
AcDbEllipse
 62
7
  6
CONTINUOUS
 10
88.5786878109
 20
103.6182559416
 30
0.0
 11
51.0000030398
 21
-0.0
 31
0.0
 40
0.3333333135
 41
1.2525081509
 42
1.3340820425
  0
ELLIPSE
  5
309
100
AcDbEntity
  8
RUNDUNGEN
100
AcDbEllipse
 62
7
  6
CONTINUOUS
 10
118.6186887622
 20
96.6891815576
 30
0.0
 11
-0.0
 21
10.0778483455
 31
0.0
 40
0.3472963553
 41
-1.7273136652
 42
-1.5707963268
  0
ELLIPSE
  5
30A
100
AcDbEntity
  8
RUNDUNGEN
100
AcDbEllipse
 62
7
  6
CONTINUOUS
 10
92.6186887622
 20
96.6891815576
 30
0.0
 11
-0.0
 21
10.0778483455
 31
0.0
 40
0.3472963553
 41
-4.7123889804
 42
-4.555871642
  0
ELLIPSE
  5
30B
100
AcDbEntity
  8
0
100
AcDbEllipse
 62
7
  6
CONTINUOUS
 10
101.9284756662
 20
103.6182559416
 30
0.0
 11
29.4448637287
 21
-0.0
 31
0.0
 40
0.5773502692
 41
1.7173487826
 42
1.7846771558
  0
ELLIPSE
  5
30C
100
AcDbEntity
  8
0
100
AcDbEllipse
 62
7
  6
CONTINUOUS
 10
87.1195999167
 20
103.6182559416
 30
0.0
 11
49.3495457717
 21
-0.0
 31
0.0
 40
0.334349582
 41
1.2684813764
 42
1.2954095122
  0
ELLIPSE
  5
30D
100
AcDbEntity
  8
0
100
AcDbEllipse
 62
7
  6
CONTINUOUS
 10
122.4986881077
 20
103.6182559416
 30
0.0
 11
49.4999985248
 21
-0.0
 31
0.0
 40
0.3333333433
 41
1.9420975382
 42
2.0304484493
  0
ELLIPSE
  5
30E
100
AcDbEntity
  8
0
100
AcDbEllipse
 62
7
  6
CONTINUOUS
 10
107.5991035361
 20
103.6182559416
 30
0.0
 11
31.8297799039
 21
-0.0
 31
0.0
 40
0.5340910321
 41
1.4259769215
 42
1.4556400253
  0
ELLIPSE
  5
30F
100
AcDbEntity
  8
0
100
AcDbEllipse
 62
7
  6
CONTINUOUS
 10
122.4986881077
 20
103.6182559416
 30
0.0
 11
50.9999984801
 21
0.0
 31
0.0
 40
0.3333333433
 41
1.9306709176
 42
2.0159407517
  0
ELLIPSE
  5
310
100
AcDbEntity
  8
0
100
AcDbEllipse
 62
7
  6
CONTINUOUS
 10
103.3687484581
 20
103.6182559416
 30
0.0
 11
20.2553167343
 21
0.0
 31
0.0
 40
0.8392858143
 41
1.3260059654
 42
1.3562121336
  0
ELLIPSE
  5
311
100
AcDbEntity
  8
0
100
AcDbEllipse
 62
7
  6
CONTINUOUS
 10
87.1195999167
 20
103.6182559416
 30
0.0
 11
50.8449865527
 21
-0.0
 31
0.0
 40
0.334349582
 41
1.231791183
 42
1.3037106446
  0
ELLIPSE
  5
312
100
AcDbEntity
  8
RUNDUNGEN
100
AcDbEllipse
 62
7
  6
CONTINUOUS
 10
92.1186887622
 20
100.8987515287
 30
0.0
 11
0.0
 21
4.1630673611
 31
0.0
 40
0.7206224977
 41
-0.0
 42
1.5707963268
  0
ELLIPSE
  5
313
100
AcDbEntity
  8
0
100
AcDbEllipse
 62
7
  6
CONTINUOUS
 10
104.1455006999
 20
103.6182559416
 30
0.0
 11
28.5788383249
 21
0.0
 31
0.0
 40
0.5773502692
 41
1.8008494838
 42
1.8018110099
  0
ELLIPSE
  5
314
100
AcDbEntity
  8
0
100
AcDbEllipse
 62
7
  6
CONTINUOUS
 10
109.191386402
 20
103.6182559416
 30
0.0
 11
0.0
 21
17.0
 31
0.0
 40
0.6127657675
 41
-0.0266698235
 42
-0.0021568551
  0
ELLIPSE
  5
315
100
AcDbEntity
  8
RUNDUNGEN
100
AcDbEllipse
 62
7
  6
CONTINUOUS
 10
119.1186887622
 20
100.8987515287
 30
0.0
 11
0.0
 21
4.1630673611
 31
0.0
 40
0.7206224977
 41
-1.5707963268
 42
-0.0
  0
ELLIPSE
  5
316
100
AcDbEntity
  8
0
100
AcDbEllipse
 62
7
  6
CONTINUOUS
 10
111.6193010357
 20
103.6182559416
 30
0.0
 11
-0.0
 21
17.0
 31
0.0
 40
0.6127658212
 41
0.0021568551
 42
0.0266698235
  0
ELLIPSE
  5
317
100
AcDbEntity
  8
0
100
AcDbEllipse
 62
7
  6
CONTINUOUS
 10
103.3687484581
 20
103.6182559416
 30
0.0
 11
19.6595721245
 21
-0.0
 31
0.0
 40
0.8392858143
 41
1.3184290274
 42
1.3496030949
  0
ELLIPSE
  5
318
100
AcDbEntity
  8
0
100
AcDbEllipse
 62
7
  6
CONTINUOUS
 10
111.958818749
 20
103.6182559416
 30
0.0
 11
23.1489354372
 21
0.0
 31
0.0
 40
0.7343750233
 41
1.5974661503
 42
1.6121806831
  0
ELLIPSE
  5
319
100
AcDbEntity
  8
0
100
AcDbEllipse
 62
7
  6
CONTINUOUS
 10
104.1455006999
 20
103.6182559416
 30
0.0
 11
29.4448637287
 21
0.0
 31
0.0
 40
0.5773502692
 41
1.793966758
 42
1.8477782653
  0
ELLIPSE
  5
31A
100
AcDbEntity
  8
0
100
AcDbEllipse
 62
7
  6
CONTINUOUS
 10
107.5991035361
 20
103.6182559416
 30
0.0
 11
30.8936099068
 21
-0.0
 31
0.0
 40
0.5340910321
 41
1.4215560763
 42
1.438250546
  0
ELLIPSE
  5
31B
100
AcDbEntity
  8
0
100
AcDbEllipse
 62
7
  6
CONTINUOUS
 10
112.4376833687
 20
103.6182559416
 30
0.0
 11
34.7233896382
 21
0.0
 31
0.0
 40
0.4895835394
 41
1.6121806831
 42
1.6219951625
  0
ELLIPSE
  5
31C
100
AcDbEntity
  8
RUNDUNGEN
100
AcDbEllipse
 62
7
  6
CONTINUOUS
 10
92.1186887622
 20
55.6887488909
 30
0.0
 11
3.0
 21
-0.0
 31
0.0
 40
0.7707395791
 41
1.5707963268
 42
3.1415926536
  0
ELLIPSE
  5
31D
100
AcDbEntity
  8
RUNDUNGEN
100
AcDbEllipse
 62
7
  6
CONTINUOUS
 10
119.1186887622
 20
27.3131863657
 30
0.0
 11
3.0
 21
0.0
 31
0.0
 40
0.7707395791
 41
-1.5707963268
 42
0.0
  0
ELLIPSE
  5
31E
100
AcDbEntity
  8
RUNDUNGEN
100
AcDbEllipse
 62
7
  6
CONTINUOUS
 10
92.1186887622
 20
27.3131863657
 30
0.0
 11
3.0
 21
-0.0
 31
0.0
 40
0.7707395791
 41
3.1415926536
 42
4.7123889804
  0
ELLIPSE
  5
31F
100
AcDbEntity
  8
RUNDUNGEN
100
AcDbEllipse
 62
7
  6
CONTINUOUS
 10
119.1186887622
 20
55.6887488909
 30
0.0
 11
3.0
 21
0.0
 31
0.0
 40
0.7707395791
 41
-0.0
 42
1.5707963268
  0
ENDSEC
  0
SECTION
  2
OBJECTS
  0
DICTIONARY
  5
C
100
AcDbDictionary
280
0
281
1
  3
ACAD_GROUP
350
D
  3
ACAD_MLINESTYLE
350
17
  3
ACAD_LAYOUT
350
1A
  3
ACAD_PLOTSETTINGS
350
19
  3
ACAD_PLOTSTYLENAME
350
E
  0
DICTIONARY
  5
D
102
{ACAD_REACTORS
330
C
102
}
100
AcDbDictionary
280
0
281
1
  0
ACDBDICTIONARYWDFLT
  5
E
102
{ACAD_REACTORS
330
C
102
}
100
AcDbDictionary
281
1
  3
Normal
350
F
100
AcDbDictionaryWithDefault
340
F
  0
DICTIONARY
  5
17
102
{ACAD_REACTORS
330
C
102
}
100
AcDbDictionary
280
0
281
1
  3
Standard
350
18
  0
DICTIONARY
  5
19
102
{ACAD_REACTORS
330
C
102
}
100
AcDbDictionary
281
1
  0
DICTIONARY
  5
1A
102
{ACAD_REACTORS
330
C
102
}
100
AcDbDictionary
281
1
  3
Model
350
320
  3
Layout1
350
321
  0
ACDBPLACEHOLDER
  5
F
102
{ACAD_REACTORS
330
E
102
}
  0
MLINESTYLE
  5
18
102
{ACAD_REACTORS
330
17
102
}
100
AcDbMlineStyle
  2
STANDARD
 70
0
  3

 62
256
 51
90.0
 52
90.0
 71
2
 49
0.5
 62
256
  6
BYLAYER
 49
-0.5
 62
256
  6
BYLAYER
  0
LAYOUT
  5
320
102
{ACAD_REACTORS
330
1A
102
}
100
AcDbPlotSettings
  1

  2
none_device
  4
ISO_A4_(297.00_x_210.00_MM)
  6

 40
0.0
 41
0.0
 42
0.0
 43
0.0
 44
297.0
 45
210.0
 46
0.0
 47
0.0
 48
0.0
 49
0.0
140
0.0
141
0.0
142
1.0
143
1.0
 70
1024
 72
1
 73
0
 74
0
  7

 75
0
147
1.0
148
0.0
149
0.0
100
AcDbLayout
  1
Model
 70
0
 71
0
 10
0.0
 20
0.0
 11
297.0
 21
210.0
 12
0.0
 22
0.0
 32
0.0
 14
0.0
 24
0.0
 34
0.0
 15
0.0
 25
0.0
 35
0.0
146
0.0
 13
0.0
 23
0.0
 33
0.0
 16
1.0
 26
0.0
 36
0.0
 17
0.0
 27
1.0
 37
0.0
 76
0
330
20D
345
0
346
0
  0
LAYOUT
  5
321
102
{ACAD_REACTORS
330
1A
102
}
100
AcDbPlotSettings
  1

  2
none_device
  4
ISO_A4_(297.00_x_210.00_MM)
  6

 40
0.0
 41
0.0
 42
0.0
 43
0.0
 44
297.0
 45
210.0
 46
0.0
 47
0.0
 48
0.0
 49
0.0
140
0.0
141
0.0
142
1.0
143
1.0
 70
0
 72
1
 73
0
 74
0
  7

 75
0
147
1.0
148
0.0
149
0.0
100
AcDbLayout
  1
Layout1
 70
0
 71
1
 10
0.0
 20
0.0
 11
297.0
 21
210.0
 12
0.0
 22
0.0
 32
0.0
 14
0.0
 24
0.0
 34
0.0
 15
0.0
 25
0.0
 35
0.0
146
0.0
 13
0.0
 23
0.0
 33
0.0
 16
1.0
 26
0.0
 36
0.0
 17
0.0
 27
1.0
 37
0.0
 76
0
330
20E
345
0
346
0
  0
ENDSEC
  0
EOF
