999
DXF file: 001-m35499-p4.dxf
999
Pro/ENGINEER 2011490 by Parametric Technology Corporation
  0
SECTION
  2
HEADER
  9
$ACADVER
  1
AC1015
  9
$DWGCODEPAGE
  3
ANSI_1252
  9
$EXTMAX
 10
594.0
 20
420.0
 30
0.0
  9
$EXTMIN
 10
0.0
 20
0.0
 30
0.0
  9
$LIMMIN
 10
0.0
 20
0.0
  9
$LIMMAX
 10
594.0
 20
420.0
  9
$VIEWCTR
 10
297.0
 20
210.0
  9
$VIEWSIZE
 40
420.0
  9
$CLAYER
  8
0
  9
$LTSCALE
 40
32.67
  9
$CELTYPE
  6
BYLAYER
  9
$DIMSCALE
 40
1.0
  9
$DIMASZ
 40
3.5
  9
$DIMEXO
 40
3.7125
  9
$DIMDLI
 40
22.572
  9
$DIMEXE
 40
10.692
  9
$DIMCEN
 40
5.346
  9
$DIMLFAC
 40
1.0
  9
$DIMBLK
  1
_FILLED
  9
$DIMTXT
 40
3.5
  9
$DIMTOL
 70
1
  9
$DIMLIM
 70
0
  9
$DIMTFAC
 40
1.0
  9
$DIMTP
 40
0.005
  9
$DIMTM
 40
0.005
  9
$PDMODE
 70
3
  9
$PDSIZE
 40
0.3125
  9
$HANDSEED
  5
3EF
  9
$TILEMODE
 70
1
  9
$MEASUREMENT
 70
1
  9
$INSUNITS
 70
4
  0
ENDSEC
  0
SECTION
  2
CLASSES
  0
CLASS
  1
ACDBDICTIONARYWDFLT
  2
AcDbDictionaryWithDefault
  3
AutoCAD 2000
 90
0
280
0
281
0
  0
CLASS
  1
ACDBPLACEHOLDER
  2
AcDbPlaceHolder
  3
AutoCAD 2000
 90
0
280
0
281
0
  0
CLASS
  1
LAYOUT
  2
AcDbLayout
  3
AutoCAD 2000
 90
0
280
0
281
0
  0
ENDSEC
  0
SECTION
  2
TABLES
  0
TABLE
  2
VPORT
  5
8
100
AcDbSymbolTable
 70
2
  0
VPORT
  5
1F4
100
AcDbSymbolTableRecord
100
AcDbViewportTableRecord
  2
*ACTIVE
 70
0
 10
0.0
 20
0.0
 11
1.0
 21
1.0
 12
297.0
 22
210.0
 13
0.0
 23
0.0
 14
1.0
 24
1.0
 15
0.0
 25
0.0
 16
0.0
 26
0.0
 36
1.0
 17
0.0
 27
0.0
 37
0.0
 40
420.0
 41
1.4142857143
 42
50.0
 43
0.0
 44
0.0
 50
0.0
 51
0.0
 71
0
 72
100
 73
1
 74
1
 75
0
 76
0
 77
0
 78
0
  0
ENDTAB
  0
TABLE
  2
LTYPE
  5
5
100
AcDbSymbolTable
 70
6
  0
LTYPE
  5
14
100
AcDbSymbolTableRecord
100
AcDbLinetypeTableRecord
  2
BYBLOCK
 70
0
  3

 72
65
 73
0
 40
0.0
  0
LTYPE
  5
15
100
AcDbSymbolTableRecord
100
AcDbLinetypeTableRecord
  2
BYLAYER
 70
0
  3

 72
65
 73
0
 40
0.0
  0
LTYPE
  5
16
100
AcDbSymbolTableRecord
100
AcDbLinetypeTableRecord
  2
CONTINUOUS
 70
64
  3
Solid line
 72
65
 73
0
 40
0.0
  0
LTYPE
  5
1F5
100
AcDbSymbolTableRecord
100
AcDbLinetypeTableRecord
  2
CENTER
 70
64
  3
____ _ ____ _ ____ _ ____ _ ____ _ ____ _ ____
 72
65
 73
4
 40
0.6
 49
0.375
 74
0
 49
-0.075
 74
0
 49
0.075
 74
0
 49
-0.075
 74
0
  0
LTYPE
  5
1F6
100
AcDbSymbolTableRecord
100
AcDbLinetypeTableRecord
  2
HIDDEN
 70
64
  3
- - - - - - - - - - - - - - - - - - - -
 72
65
 73
2
 40
0.2
 49
0.1
 74
0
 49
-0.1
 74
0
  0
LTYPE
  5
1F7
100
AcDbSymbolTableRecord
100
AcDbLinetypeTableRecord
  2
PHANTOM
 70
64
  3
_____ _ _ _____ _ _ _____ _ _ _____
 72
65
 73
6
 40
0.8
 49
0.45
 74
0
 49
-0.05
 74
0
 49
0.1
 74
0
 49
-0.05
 74
0
 49
0.1
 74
0
 49
-0.05
 74
0
  0
LTYPE
  5
1F8
100
AcDbSymbolTableRecord
100
AcDbLinetypeTableRecord
  2
DOT
 70
64
  3
. . . . . . . . . . . . . . . . . . . .
 72
65
 73
2
 40
0.2
 49
0.1
 74
0
 49
-0.1
 74
0
  0
LTYPE
  5
1F9
100
AcDbSymbolTableRecord
100
AcDbLinetypeTableRecord
  2
DASHED
 70
64
  3
- - - - - - - - - - - - - - - - - - - -
 72
65
 73
2
 40
0.2
 49
0.1
 74
0
 49
-0.1
 74
0
  0
ENDTAB
  0
TABLE
  2
LAYER
  5
2
100
AcDbSymbolTable
 70
36
  0
LAYER
  5
10
100
AcDbSymbolTableRecord
100
AcDbLayerTableRecord
  2
0
 70
0
 62
7
  6
CONTINUOUS
370
-3
390
F
  0
LAYER
  5
1FA
100
AcDbSymbolTableRecord
100
AcDbLayerTableRecord
  2
DEFAULT_1
 70
0
 62
7
  6
CENTER
370
-3
390
F
  0
LAYER
  5
1FB
100
AcDbSymbolTableRecord
100
AcDbLayerTableRecord
  2
DEFAULT_2
 70
0
 62
8
  6
HIDDEN
370
-3
390
F
  0
LAYER
  5
1FC
100
AcDbSymbolTableRecord
100
AcDbLayerTableRecord
  2
DEFAULT_3
 70
0
 62
7
  6
PHANTOM
370
-3
390
F
  0
LAYER
  5
1FD
100
AcDbSymbolTableRecord
100
AcDbLayerTableRecord
  2
AUSFORMSCHRAEGEN
 70
0
 62
7
  6
CONTINUOUS
370
-3
390
F
  0
LAYER
  5
1FE
100
AcDbSymbolTableRecord
100
AcDbLayerTableRecord
  2
BEZUGSACHSEN
 70
0
 62
7
  6
CONTINUOUS
370
-3
390
F
  0
LAYER
  5
1FF
100
AcDbSymbolTableRecord
100
AcDbLayerTableRecord
  2
BEZUGSEBENEN
 70
0
 62
7
  6
CONTINUOUS
370
-3
390
F
  0
LAYER
  5
200
100
AcDbSymbolTableRecord
100
AcDbLayerTableRecord
  2
BG_STARTBEZUEGE
 70
0
 62
7
  6
CONTINUOUS
370
-3
390
F
  0
LAYER
  5
201
100
AcDbSymbolTableRecord
100
AcDbLayerTableRecord
  2
FASEN
 70
0
 62
7
  6
CONTINUOUS
370
-3
390
F
  0
LAYER
  5
202
100
AcDbSymbolTableRecord
100
AcDbLayerTableRecord
  2
FLAECHEN
 70
0
 62
7
  6
CONTINUOUS
370
-3
390
F
  0
LAYER
  5
203
100
AcDbSymbolTableRecord
100
AcDbLayerTableRecord
  2
HILFEN
 70
0
 62
7
  6
CONTINUOUS
370
-3
390
F
  0
LAYER
  5
204
100
AcDbSymbolTableRecord
100
AcDbLayerTableRecord
  2
KONSTRUKTIONSELEMENTE
 70
0
 62
7
  6
CONTINUOUS
370
-3
390
F
  0
LAYER
  5
205
100
AcDbSymbolTableRecord
100
AcDbLayerTableRecord
  2
KURVEN
 70
0
 62
7
  6
CONTINUOUS
370
-3
390
F
  0
LAYER
  5
206
100
AcDbSymbolTableRecord
100
AcDbLayerTableRecord
  2
NORM
 70
0
 62
7
  6
CONTINUOUS
370
-3
390
F
  0
LAYER
  5
207
100
AcDbSymbolTableRecord
100
AcDbLayerTableRecord
  2
PLATZIERUNG
 70
0
 62
7
  6
CONTINUOUS
370
-3
390
F
  0
LAYER
  5
208
100
AcDbSymbolTableRecord
100
AcDbLayerTableRecord
  2
RUNDUNGEN
 70
0
 62
7
  6
CONTINUOUS
370
-3
390
F
  0
LAYER
  5
209
100
AcDbSymbolTableRecord
100
AcDbLayerTableRecord
  2
TEIL_STARTBEZUEGE
 70
0
 62
7
  6
CONTINUOUS
370
-3
390
F
  0
LAYER
  5
20A
100
AcDbSymbolTableRecord
100
AcDbLayerTableRecord
  2
T_STARTBEZUEGE
 70
0
 62
7
  6
CONTINUOUS
370
-3
390
F
  0
LAYER
  5
20B
100
AcDbSymbolTableRecord
100
AcDbLayerTableRecord
  2
ZEICHNUNGSBEMASSUNGEN
 70
0
 62
7
  6
CONTINUOUS
370
-3
390
F
  0
ENDTAB
  0
TABLE
  2
STYLE
  5
3
100
AcDbSymbolTable
 70
1
  0
STYLE
  5
11
100
AcDbSymbolTableRecord
100
AcDbTextStyleTableRecord
  2
STANDARD
 70
0
 40
0.0
 41
0.7
 50
0.0
 71
0
 42
0.2
  3
txt
  4

  0
STYLE
  5
20C
100
AcDbSymbolTableRecord
100
AcDbTextStyleTableRecord
  2
TEXTSTYLE_1
 70
0
 40
0.0
 41
0.8
 50
0.0
 71
0
 42
0.2
  3
gdt
  4

  0
ENDTAB
  0
TABLE
  2
VIEW
  5
6
100
AcDbSymbolTable
 70
0
  0
ENDTAB
  0
TABLE
  2
UCS
  5
7
100
AcDbSymbolTable
 70
0
  0
ENDTAB
  0
TABLE
  2
APPID
  5
9
100
AcDbSymbolTable
 70
1
  0
APPID
  5
20D
100
AcDbSymbolTableRecord
100
AcDbRegAppTableRecord
  2
ACAD
 70
0
  0
ENDTAB
  0
TABLE
  2
BLOCK_RECORD
  5
1
100
AcDbSymbolTable
 70
0
  0
BLOCK_RECORD
  5
20E
100
AcDbSymbolTableRecord
100
AcDbBlockTableRecord
  2
*Model_Space
  0
BLOCK_RECORD
  5
20F
100
AcDbSymbolTableRecord
100
AcDbBlockTableRecord
  2
*Paper_Space
  0
ENDTAB
  0
TABLE
  2
DIMSTYLE
  5
A
100
AcDbSymbolTable
 70
1
100
AcDbDimStyleTable
 71
0
  0
DIMSTYLE
105
210
100
AcDbSymbolTableRecord
100
AcDbDimStyleTableRecord
  2
STANDARD
 70
0
  3

  4

 40
1.0
 41
3.5
 42
0.0625
 43
0.38
 44
0.18
 45
0.0
 46
0.0
 47
0.005
 48
0.005
140
3.5
141
0.09
142
0.0
143
25.4
144
1.0
145
0.0
146
1.0
147
0.09
 71
1.0
 72
0.0
 73
0
 74
0
 75
0
 76
0
 77
1
 78
8
170
0
171
2
172
0
173
0
174
0
175
0
176
0
177
0
178
5
270
2
271
3
272
3
273
2
274
2
275
0
280
0
281
0
282
0
283
1
284
8
285
0
286
0
287
3
288
0
340
11
  0
ENDTAB
  0
ENDSEC
  0
SECTION
  2
BLOCKS
  0
BLOCK
  5
20
100
AcDbEntity
  8
0
100
AcDbBlockBegin
  2
*Model_Space
 70
0
 10
0.0
 20
0.0
 30
0.0
  3
*Model_Space
  1

  0
ENDBLK
  5
21
100
AcDbEntity
  8
0
100
AcDbBlockEnd
  0
BLOCK
  5
1C
100
AcDbEntity
  8
0
100
AcDbBlockBegin
  2
*Paper_Space
 70
0
 10
0.0
 20
0.0
 30
0.0
  3
*Paper_Space
  1

  0
ENDBLK
  5
1D
100
AcDbEntity
  8
0
100
AcDbBlockEnd
  0
ENDSEC
  0
SECTION
  2
ENTITIES
  0
MTEXT
  5
211
100
AcDbEntity
  8
0
100
AcDbMText
 62
5
  6
CONTINUOUS
  7
STANDARD
 71
2
 72
1
 10
192.3071806759
 20
77.8967240379
 30
0.0
 11
1.0
 21
0.0
 31
0.0
 44
0.9
  1
VLBS 16t \PRUD
 40
8.0
 41
53.9047619048
  0
MTEXT
  5
212
100
AcDbEntity
  8
0
100
AcDbMText
 62
5
  6
CONTINUOUS
  7
STANDARD
 71
2
 72
1
 10
190.9390193863
 20
203.7860712203
 30
0.0
 11
1.0
 21
0.0
 31
0.0
 44
0.9
  1
VLBS 16t \PRUD
 40
8.0
 41
53.9047619048
  0
MTEXT
  5
213
100
AcDbEntity
  8
0
100
AcDbMText
 62
5
  6
CONTINUOUS
  7
STANDARD
 71
2
 72
1
 10
363.4701626188
 20
271.3688532207
 30
0.0
 11
0.0
 21
1.0
 31
0.0
 44
0.9
  1
VLBS 16t\PRUD
 40
8.0
 41
47.619047619
  0
LINE
  5
214
100
AcDbEntity
  8
0
100
AcDbLine
 62
7
  6
CONTINUOUS
 10
0.0
 20
0.0
 11
0.0
 21
420.0
  0
LINE
  5
215
100
AcDbEntity
  8
0
100
AcDbLine
 62
7
  6
CONTINUOUS
 10
0.0
 20
0.0
 11
594.0
 21
0.0
  0
LINE
  5
216
100
AcDbEntity
  8
0
100
AcDbLine
 62
7
  6
CONTINUOUS
 10
0.0
 20
420.0
 11
594.0
 21
420.0
  0
LINE
  5
217
100
AcDbEntity
  8
0
100
AcDbLine
 62
7
  6
CONTINUOUS
 10
594.0
 20
0.0
 11
594.0
 21
420.0
  0
LINE
  5
218
100
AcDbEntity
  8
RUNDUNGEN
100
AcDbLine
 62
7
  6
CONTINUOUS
 10
182.1565646748
 20
382.1591381362
 11
129.6817982573
 21
360.4233782037
  0
LINE
  5
219
100
AcDbEntity
  8
BEZUGSACHSEN
100
AcDbLine
 62
7
  6
CONTINUOUS
 10
92.1058299481
 20
179.8401233653
 11
92.1059103717
 21
179.8416296762
  0
LINE
  5
21A
100
AcDbEntity
  8
BEZUGSACHSEN
100
AcDbLine
 62
7
  6
CONTINUOUS
 10
92.1059104431
 20
179.8416296723
 11
92.1058299631
 21
179.8401236467
  0
LINE
  5
21B
100
AcDbEntity
  8
BEZUGSACHSEN
100
AcDbLine
 62
7
  6
CONTINUOUS
 10
92.1063460976
 20
179.8497778738
 11
92.1059104431
 21
179.8416296723
  0
LINE
  5
21C
100
AcDbEntity
  8
BEZUGSACHSEN
100
AcDbLine
 62
7
  6
CONTINUOUS
 10
92.7294671189
 20
191.5023176747
 11
92.7000789082
 21
190.9527498011
  0
LINE
  5
21D
100
AcDbEntity
  8
RUNDUNGEN
100
AcDbLine
 62
7
  6
CONTINUOUS
 10
98.2214620152
 20
294.2041796285
 11
92.6941367457
 21
190.8416296762
  0
LINE
  5
21E
100
AcDbEntity
  8
BEZUGSACHSEN
100
AcDbLine
 62
7
  6
CONTINUOUS
 10
92.6941367457
 20
190.8416296762
 11
92.1059103717
 21
179.8416296762
  0
LINE
  5
21F
100
AcDbEntity
  8
RUNDUNGEN
100
AcDbLine
 62
7
  6
CONTINUOUS
 10
121.1365966675
 20
351.8781766139
 11
99.4008373196
 21
299.4034116076
  0
LINE
  5
220
100
AcDbEntity
  8
0
100
AcDbLine
 62
7
  6
CONTINUOUS
 10
147.8666677454
 20
167.3610402056
 11
228.5312015856
 21
167.3610402056
  0
LINE
  5
221
100
AcDbEntity
  8
BEZUGSACHSEN
100
AcDbLine
 62
7
  6
CONTINUOUS
 10
101.0930697539
 20
170.3610402056
 11
146.8197784407
 21
170.3610402056
  0
LINE
  5
222
100
AcDbEntity
  8
BEZUGSACHSEN
100
AcDbLine
 62
7
  6
CONTINUOUS
 10
229.578079263
 20
170.3610402056
 11
275.3047995772
 21
170.3610402056
  0
LINE
  5
223
100
AcDbEntity
  8
0
100
AcDbLine
 62
7
  6
CONTINUOUS
 10
230.1679577728
 20
172.3610402056
 11
146.2299115583
 21
172.3610402056
  0
LINE
  5
224
100
AcDbEntity
  8
0
100
AcDbLine
 62
7
  6
CONTINUOUS
 10
151.1989346655
 20
193.5604960549
 11
225.1989346655
 21
193.5604960549
  0
LINE
  5
225
100
AcDbEntity
  8
RUNDUNGEN
100
AcDbLine
 62
7
  6
CONTINUOUS
 10
138.1989346155
 20
293.3610402702
 11
138.1989346155
 21
289.1872520302
  0
LINE
  5
226
100
AcDbEntity
  8
RUNDUNGEN
100
AcDbLine
 62
7
  6
CONTINUOUS
 10
138.1989346155
 20
236.8085067199
 11
138.1989346155
 21
222.3610425457
  0
LINE
  5
227
100
AcDbEntity
  8
0
100
AcDbLine
 62
7
  6
CONTINUOUS
 10
143.1989346655
 20
181.0604960549
 11
143.1989346655
 21
229.3608214708
  0
LINE
  5
228
100
AcDbEntity
  8
0
100
AcDbLine
 62
7
  6
CONTINUOUS
 10
154.4989346655
 20
237.8155549592
 11
154.4989346655
 21
237.1769371438
  0
LINE
  5
229
100
AcDbEntity
  8
0
100
AcDbLine
 62
7
  6
CONTINUOUS
 10
154.4989346655
 20
236.9482945391
 11
154.4989346655
 21
235.1090357901
  0
LINE
  5
22A
100
AcDbEntity
  8
0
100
AcDbLine
 62
7
  6
CONTINUOUS
 10
156.2489346655
 20
236.8780768872
 11
156.2489346655
 21
235.1090357901
  0
LINE
  5
22B
100
AcDbEntity
  8
0
100
AcDbLine
 62
7
  6
CONTINUOUS
 10
156.9489346655
 20
236.2411543266
 11
156.9489346655
 21
235.1090357901
  0
LINE
  5
22C
100
AcDbEntity
  8
0
100
AcDbLine
 62
7
  6
CONTINUOUS
 10
195.5902813988
 20
237.8610404116
 11
195.5576031219
 21
237.8607762914
  0
LINE
  5
22D
100
AcDbEntity
  8
0
100
AcDbLine
 62
7
  6
CONTINUOUS
 10
261.151039933
 20
231.097982602
 11
264.308934673
 21
231.097982602
  0
LINE
  5
22E
100
AcDbEntity
  8
0
100
AcDbLine
 62
7
  6
CONTINUOUS
 10
261.151039933
 20
231.1285141505
 11
264.308934673
 21
231.1285141505
  0
LINE
  5
22F
100
AcDbEntity
  8
0
100
AcDbLine
 62
7
  6
CONTINUOUS
 10
264.208934673
 20
233.4940915123
 11
261.256303091
 21
233.4940915123
  0
LINE
  5
230
100
AcDbEntity
  8
0
100
AcDbLine
 62
7
  6
CONTINUOUS
 10
154.4989346655
 20
235.1090357901
 11
156.2489346655
 21
235.1090357901
  0
LINE
  5
231
100
AcDbEntity
  8
0
100
AcDbLine
 62
7
  6
CONTINUOUS
 10
156.9489346655
 20
235.1090357901
 11
164.7889346655
 21
235.1090357901
  0
LINE
  5
232
100
AcDbEntity
  8
0
100
AcDbLine
 62
7
  6
CONTINUOUS
 10
154.4989346655
 20
235.6333764337
 11
156.2489346655
 21
235.6333764337
  0
LINE
  5
233
100
AcDbEntity
  8
0
100
AcDbLine
 62
7
  6
CONTINUOUS
 10
156.9489346655
 20
235.6333764337
 11
164.7889346655
 21
235.6333764337
  0
LINE
  5
234
100
AcDbEntity
  8
0
100
AcDbLine
 62
7
  6
CONTINUOUS
 10
156.9489346655
 20
236.2411543266
 11
158.8789346655
 21
236.2411543266
  0
LINE
  5
235
100
AcDbEntity
  8
0
100
AcDbLine
 62
7
  6
CONTINUOUS
 10
160.5889346655
 20
236.2411543266
 11
164.7889346655
 21
236.2411543266
  0
LINE
  5
236
100
AcDbEntity
  8
0
100
AcDbLine
 62
7
  6
CONTINUOUS
 10
197.1214327227
 20
236.5268318347
 11
198.908667178
 21
236.5268318347
  0
LINE
  5
237
100
AcDbEntity
  8
0
100
AcDbLine
 62
7
  6
CONTINUOUS
 10
176.737132538
 20
236.5474789354
 11
185.2589346655
 21
236.5474789354
  0
LINE
  5
238
100
AcDbEntity
  8
0
100
AcDbLine
 62
7
  6
CONTINUOUS
 10
198.908667178
 20
236.7559554788
 11
206.0576031219
 21
236.7559554788
  0
LINE
  5
239
100
AcDbEntity
  8
0
100
AcDbLine
 62
7
  6
CONTINUOUS
 10
197.1214327227
 20
237.0355816297
 11
198.908667178
 21
237.0355816297
  0
LINE
  5
23A
100
AcDbEntity
  8
0
100
AcDbLine
 62
7
  6
CONTINUOUS
 10
174.7589346655
 20
237.0560084937
 11
185.2589346655
 21
237.0560084937
  0
LINE
  5
23B
100
AcDbEntity
  8
0
100
AcDbLine
 62
7
  6
CONTINUOUS
 10
154.4989346655
 20
237.1769371438
 11
154.7676277909
 21
237.1769371438
  0
LINE
  5
23C
100
AcDbEntity
  8
0
100
AcDbLine
 62
7
  6
CONTINUOUS
 10
197.3448369514
 20
237.2622718573
 11
206.0576031219
 21
237.2622718573
  0
LINE
  5
23D
100
AcDbEntity
  8
0
100
AcDbLine
 62
7
  6
CONTINUOUS
 10
174.7589346655
 20
237.2795892628
 11
183.918509137
 21
237.2795892628
  0
LINE
  5
23E
100
AcDbEntity
  8
KONSTRUKTIONSELEMENTE
100
AcDbLine
 62
7
  6
CONTINUOUS
 10
151.1989346655
 20
237.3610402056
 11
154.4989346655
 21
237.3610402056
  0
LINE
  5
23F
100
AcDbEntity
  8
KONSTRUKTIONSELEMENTE
100
AcDbLine
 62
7
  6
CONTINUOUS
 10
164.7823723675
 20
237.3610402056
 11
183.918509137
 21
237.3610402056
  0
LINE
  5
240
100
AcDbEntity
  8
KONSTRUKTIONSELEMENTE
100
AcDbLine
 62
7
  6
CONTINUOUS
 10
185.2589346655
 20
237.3610402056
 11
195.5576031219
 21
237.3610402056
  0
LINE
  5
241
100
AcDbEntity
  8
KONSTRUKTIONSELEMENTE
100
AcDbLine
 62
7
  6
CONTINUOUS
 10
206.0576031219
 20
237.3610402056
 11
213.4176031219
 21
237.3610402056
  0
LINE
  5
242
100
AcDbEntity
  8
KONSTRUKTIONSELEMENTE
100
AcDbLine
 62
7
  6
CONTINUOUS
 10
221.4176031219
 20
237.3610402056
 11
225.1989346655
 21
237.3610402056
  0
LINE
  5
243
100
AcDbEntity
  8
0
100
AcDbLine
 62
7
  6
CONTINUOUS
 10
195.5576031219
 20
237.4520869295
 11
206.0576031219
 21
237.4520869295
  0
LINE
  5
244
100
AcDbEntity
  8
0
100
AcDbLine
 62
7
  6
CONTINUOUS
 10
200.0256883215
 20
237.6485517801
 11
201.5895179223
 21
237.6485517801
  0
LINE
  5
245
100
AcDbEntity
  8
0
100
AcDbLine
 62
7
  6
CONTINUOUS
 10
154.4989346655
 20
237.678842308
 11
160.6739346655
 21
237.678842308
  0
LINE
  5
246
100
AcDbEntity
  8
0
100
AcDbLine
 62
7
  6
CONTINUOUS
 10
200.0256883215
 20
237.7388015945
 11
200.4724967788
 21
237.7388015945
  0
LINE
  5
247
100
AcDbEntity
  8
0
100
AcDbLine
 62
7
  6
CONTINUOUS
 10
202.2597309212
 20
237.7538650363
 11
202.9299436073
 21
237.7538650363
  0
LINE
  5
248
100
AcDbEntity
  8
0
100
AcDbLine
 62
7
  6
CONTINUOUS
 10
202.2597309212
 20
237.8089953837
 11
202.9299436073
 21
237.8089953837
  0
LINE
  5
249
100
AcDbEntity
  8
0
100
AcDbLine
 62
7
  6
CONTINUOUS
 10
154.4989346655
 20
237.8155549592
 11
160.6739346655
 21
237.8155549592
  0
LINE
  5
24A
100
AcDbEntity
  8
0
100
AcDbLine
 62
7
  6
CONTINUOUS
 10
154.4989346655
 20
237.8226239602
 11
160.6739346655
 21
237.8226239602
  0
LINE
  5
24B
100
AcDbEntity
  8
0
100
AcDbLine
 62
7
  6
CONTINUOUS
 10
213.4376533734
 20
237.8461925721
 11
214.6176031247
 21
237.8461925721
  0
LINE
  5
24C
100
AcDbEntity
  8
0
100
AcDbLine
 62
7
  6
CONTINUOUS
 10
220.2176031175
 20
237.8461925721
 11
221.3975528703
 21
237.8461925721
  0
LINE
  5
24D
100
AcDbEntity
  8
0
100
AcDbLine
 62
7
  6
CONTINUOUS
 10
183.918509137
 20
237.852218527
 11
185.2589346655
 21
237.852218527
  0
LINE
  5
24E
100
AcDbEntity
  8
0
100
AcDbLine
 62
7
  6
CONTINUOUS
 10
174.7589346655
 20
237.8540229525
 11
185.2589346655
 21
237.8540229525
  0
LINE
  5
24F
100
AcDbEntity
  8
0
100
AcDbLine
 62
7
  6
CONTINUOUS
 10
162.6889346655
 20
237.8610402056
 11
164.7664503308
 21
237.8610402056
  0
LINE
  5
250
100
AcDbEntity
  8
0
100
AcDbLine
 62
7
  6
CONTINUOUS
 10
195.5902838022
 20
237.8610402056
 11
196.6746242653
 21
237.8610402056
  0
LINE
  5
251
100
AcDbEntity
  8
0
100
AcDbLine
 62
7
  6
CONTINUOUS
 10
199.3554756354
 20
237.8610402056
 11
200.4724967788
 21
237.8610402056
  0
LINE
  5
252
100
AcDbEntity
  8
0
100
AcDbLine
 62
7
  6
CONTINUOUS
 10
204.940581822
 20
237.8610402056
 11
206.0576031219
 21
237.8610402056
  0
LINE
  5
253
100
AcDbEntity
  8
0
100
AcDbLine
 62
7
  6
CONTINUOUS
 10
258.782618878
 20
238.4001201463
 11
265.4931452005
 21
238.4001201463
  0
LINE
  5
254
100
AcDbEntity
  8
0
100
AcDbLine
 62
7
  6
CONTINUOUS
 10
258.782618878
 20
238.4306516948
 11
265.4931452005
 21
238.4306516948
  0
LINE
  5
255
100
AcDbEntity
  8
0
100
AcDbLine
 62
7
  6
CONTINUOUS
 10
162.6871341349
 20
237.8610183882
 11
162.6889346655
 21
237.8609396509
  0
LINE
  5
256
100
AcDbEntity
  8
0
100
AcDbLine
 62
7
  6
CONTINUOUS
 10
164.7889346655
 20
237.8609055208
 11
164.7880536047
 21
237.860983072
  0
LINE
  5
257
100
AcDbEntity
  8
0
100
AcDbLine
 62
7
  6
CONTINUOUS
 10
158.8789346655
 20
236.8780768872
 11
158.8789346655
 21
236.2411543266
  0
LINE
  5
258
100
AcDbEntity
  8
0
100
AcDbLine
 62
7
  6
CONTINUOUS
 10
160.5889346655
 20
236.5126195455
 11
160.5889346655
 21
236.2411543266
  0
LINE
  5
259
100
AcDbEntity
  8
0
100
AcDbLine
 62
7
  6
CONTINUOUS
 10
164.7889346655
 20
236.2411543266
 11
164.7889346655
 21
235.1090357901
  0
LINE
  5
25A
100
AcDbEntity
  8
0
100
AcDbLine
 62
7
  6
CONTINUOUS
 10
164.7889346655
 20
236.6516418093
 11
164.7889346655
 21
237.8590634248
  0
LINE
  5
25B
100
AcDbEntity
  8
0
100
AcDbLine
 62
7
  6
CONTINUOUS
 10
268.6510399405
 20
240.7946530581
 11
266.677355728
 21
240.7946530581
  0
LINE
  5
25C
100
AcDbEntity
  8
0
100
AcDbLine
 62
7
  6
CONTINUOUS
 10
265.4931452005
 20
240.7946530581
 11
256.8089346655
 21
240.7946530581
  0
LINE
  5
25D
100
AcDbEntity
  8
BEZUGSACHSEN
100
AcDbLine
 62
7
  6
CONTINUOUS
 10
232.1989347155
 20
241.3610402056
 11
220.2275119045
 21
241.3610402056
  0
LINE
  5
25E
100
AcDbEntity
  8
RUNDUNGEN
100
AcDbLine
 62
7
  6
CONTINUOUS
 10
144.1989346155
 20
241.3610402056
 11
156.1703574266
 21
241.3610402056
  0
LINE
  5
25F
100
AcDbEntity
  8
0
100
AcDbLine
 62
7
  6
CONTINUOUS
 10
261.5457767755
 20
243.1281228728
 11
268.6510399405
 21
243.1281228728
  0
LINE
  5
260
100
AcDbEntity
  8
0
100
AcDbLine
 62
7
  6
CONTINUOUS
 10
261.5457767755
 20
243.1586544214
 11
268.6510399405
 21
243.1586544214
  0
LINE
  5
261
100
AcDbEntity
  8
0
100
AcDbLine
 62
7
  6
CONTINUOUS
 10
268.6510399405
 20
245.5226557846
 11
261.5457767755
 21
245.5226557846
  0
LINE
  5
262
100
AcDbEntity
  8
0
100
AcDbLine
 62
7
  6
CONTINUOUS
 10
174.7589346655
 20
237.8540229525
 11
174.7589346655
 21
237.3539498454
  0
LINE
  5
263
100
AcDbEntity
  8
0
100
AcDbLine
 62
7
  6
CONTINUOUS
 10
174.7589346655
 20
237.2795892628
 11
174.7589346655
 21
235.8721258606
  0
LINE
  5
264
100
AcDbEntity
  8
0
100
AcDbLine
 62
7
  6
CONTINUOUS
 10
174.7589346655
 20
234.4021308202
 11
174.7589346655
 21
233.3099878608
  0
LINE
  5
265
100
AcDbEntity
  8
0
100
AcDbLine
 62
7
  6
CONTINUOUS
 10
261.5457767755
 20
250.2201269627
 11
268.6510399405
 21
250.2201269627
  0
LINE
  5
266
100
AcDbEntity
  8
0
100
AcDbLine
 62
7
  6
CONTINUOUS
 10
261.5457767755
 20
250.2506585112
 11
268.6510399405
 21
250.2506585112
  0
LINE
  5
267
100
AcDbEntity
  8
0
100
AcDbLine
 62
7
  6
CONTINUOUS
 10
268.6510399405
 20
252.6146598745
 11
261.5457767755
 21
252.6146598745
  0
LINE
  5
268
100
AcDbEntity
  8
0
100
AcDbLine
 62
7
  6
CONTINUOUS
 10
221.3975528703
 20
237.8461925721
 11
221.4176030787
 21
237.8345024279
  0
LINE
  5
269
100
AcDbEntity
  8
0
100
AcDbLine
 62
7
  6
CONTINUOUS
 10
183.918509137
 20
237.852218527
 11
183.918509137
 21
237.2795892628
  0
LINE
  5
26A
100
AcDbEntity
  8
0
100
AcDbLine
 62
7
  6
CONTINUOUS
 10
185.2589346655
 20
237.852218527
 11
185.2589346655
 21
236.5474789354
  0
LINE
  5
26B
100
AcDbEntity
  8
0
100
AcDbLine
 62
7
  6
CONTINUOUS
 10
185.2589346655
 20
235.7813751893
 11
185.2589346655
 21
234.6860885045
  0
LINE
  5
26C
100
AcDbEntity
  8
0
100
AcDbLine
 62
7
  6
CONTINUOUS
 10
256.8089346655
 20
262.4341340062
 11
261.7563030915
 21
262.4341340062
  0
LINE
  5
26D
100
AcDbEntity
  8
0
100
AcDbLine
 62
7
  6
CONTINUOUS
 10
263.729987304
 20
262.4341340062
 11
265.4931452005
 21
262.4341340062
  0
LINE
  5
26E
100
AcDbEntity
  8
0
100
AcDbLine
 62
7
  6
CONTINUOUS
 10
256.8089346655
 20
262.4646655548
 11
261.7563030915
 21
262.4646655548
  0
LINE
  5
26F
100
AcDbEntity
  8
0
100
AcDbLine
 62
7
  6
CONTINUOUS
 10
263.729987304
 20
262.4646655548
 11
265.4931452005
 21
262.4646655548
  0
LINE
  5
270
100
AcDbEntity
  8
0
100
AcDbLine
 62
7
  6
CONTINUOUS
 10
268.6510399405
 20
264.4346666908
 11
266.677355728
 21
264.4346666908
  0
LINE
  5
271
100
AcDbEntity
  8
0
100
AcDbLine
 62
7
  6
CONTINUOUS
 10
265.4931452005
 20
264.4346666908
 11
256.8089346655
 21
264.4346666908
  0
LINE
  5
272
100
AcDbEntity
  8
0
100
AcDbLine
 62
7
  6
CONTINUOUS
 10
195.5576031219
 20
237.8499953913
 11
195.5576031219
 21
236.7559554788
  0
LINE
  5
273
100
AcDbEntity
  8
0
100
AcDbLine
 62
7
  6
CONTINUOUS
 10
195.7810073505
 20
237.8143003906
 11
195.7810073505
 21
237.4520869295
  0
LINE
  5
274
100
AcDbEntity
  8
0
100
AcDbLine
 62
7
  6
CONTINUOUS
 10
196.4512200366
 20
237.7538650363
 11
196.4512200366
 21
237.4520869295
  0
LINE
  5
275
100
AcDbEntity
  8
0
100
AcDbLine
 62
7
  6
CONTINUOUS
 10
196.6746242653
 20
237.844832461
 11
196.6746242653
 21
237.8610046221
  0
LINE
  5
276
100
AcDbEntity
  8
0
100
AcDbLine
 62
7
  6
CONTINUOUS
 10
196.898028494
 20
237.8557695553
 11
196.898028494
 21
237.8234163421
  0
LINE
  5
277
100
AcDbEntity
  8
0
100
AcDbLine
 62
7
  6
CONTINUOUS
 10
197.1214327227
 20
237.0355816297
 11
197.1214327227
 21
236.5268318347
  0
LINE
  5
278
100
AcDbEntity
  8
0
100
AcDbLine
 62
7
  6
CONTINUOUS
 10
197.3448369514
 20
237.7056913847
 11
197.3448369514
 21
237.4520869295
  0
LINE
  5
279
100
AcDbEntity
  8
0
100
AcDbLine
 62
7
  6
CONTINUOUS
 10
197.3448369514
 20
237.8416515143
 11
197.3448369514
 21
237.7930994434
  0
LINE
  5
27A
100
AcDbEntity
  8
0
100
AcDbLine
 62
7
  6
CONTINUOUS
 10
198.0150496374
 20
237.8273008611
 11
198.0150496374
 21
237.7679352304
  0
LINE
  5
27B
100
AcDbEntity
  8
0
100
AcDbLine
 62
7
  6
CONTINUOUS
 10
198.4618587206
 20
237.6685964048
 11
198.4618587206
 21
237.4520869295
  0
LINE
  5
27C
100
AcDbEntity
  8
0
100
AcDbLine
 62
7
  6
CONTINUOUS
 10
198.908667178
 20
237.0355816297
 11
198.908667178
 21
236.5268318347
  0
LINE
  5
27D
100
AcDbEntity
  8
0
100
AcDbLine
 62
7
  6
CONTINUOUS
 10
199.3554756354
 20
237.8499953913
 11
199.3554756354
 21
237.7464575159
  0
LINE
  5
27E
100
AcDbEntity
  8
0
100
AcDbLine
 62
7
  6
CONTINUOUS
 10
199.5788798641
 20
237.8143003906
 11
199.5788798641
 21
237.7439262542
  0
LINE
  5
27F
100
AcDbEntity
  8
0
100
AcDbLine
 62
7
  6
CONTINUOUS
 10
200.0256883215
 20
237.6485517801
 11
200.0256883215
 21
237.4520869295
  0
LINE
  5
280
100
AcDbEntity
  8
0
100
AcDbLine
 62
7
  6
CONTINUOUS
 10
200.4724967788
 20
237.844832461
 11
200.4724967788
 21
237.8610401964
  0
LINE
  5
281
100
AcDbEntity
  8
0
100
AcDbLine
 62
7
  6
CONTINUOUS
 10
200.6959010075
 20
237.8520508255
 11
200.6959010075
 21
237.8234163421
  0
LINE
  5
282
100
AcDbEntity
  8
0
100
AcDbLine
 62
7
  6
CONTINUOUS
 10
201.1427094649
 20
237.8349703124
 11
201.1427094649
 21
237.7930994434
  0
LINE
  5
283
100
AcDbEntity
  8
0
100
AcDbLine
 62
7
  6
CONTINUOUS
 10
201.5895179223
 20
237.6485517801
 11
201.5895179223
 21
237.4520869295
  0
LINE
  5
284
100
AcDbEntity
  8
0
100
AcDbLine
 62
7
  6
CONTINUOUS
 10
201.5895179223
 20
237.8186427613
 11
201.5895179223
 21
237.7679352304
  0
LINE
  5
285
100
AcDbEntity
  8
0
100
AcDbLine
 62
7
  6
CONTINUOUS
 10
202.2597309212
 20
237.8089953837
 11
202.2597309212
 21
237.7538650363
  0
LINE
  5
286
100
AcDbEntity
  8
0
100
AcDbLine
 62
7
  6
CONTINUOUS
 10
202.9299436073
 20
237.8089953837
 11
202.9299436073
 21
237.7538650363
  0
LINE
  5
287
100
AcDbEntity
  8
0
100
AcDbLine
 62
7
  6
CONTINUOUS
 10
203.153347836
 20
237.6685964048
 11
203.153347836
 21
237.4520869295
  0
LINE
  5
288
100
AcDbEntity
  8
0
100
AcDbLine
 62
7
  6
CONTINUOUS
 10
203.6001562934
 20
237.8186427613
 11
203.6001562934
 21
237.7679352304
  0
LINE
  5
289
100
AcDbEntity
  8
0
100
AcDbLine
 62
7
  6
CONTINUOUS
 10
204.2703691359
 20
237.8349703124
 11
204.2703691359
 21
237.7930994434
  0
LINE
  5
28A
100
AcDbEntity
  8
0
100
AcDbLine
 62
7
  6
CONTINUOUS
 10
204.2703691359
 20
237.7056913847
 11
204.2703691359
 21
237.4520869295
  0
LINE
  5
28B
100
AcDbEntity
  8
0
100
AcDbLine
 62
7
  6
CONTINUOUS
 10
204.7171775933
 20
237.8520513503
 11
204.7171775933
 21
237.8234163421
  0
LINE
  5
28C
100
AcDbEntity
  8
0
100
AcDbLine
 62
7
  6
CONTINUOUS
 10
204.940581822
 20
237.8610401964
 11
204.940581822
 21
237.844832461
  0
LINE
  5
28D
100
AcDbEntity
  8
0
100
AcDbLine
 62
7
  6
CONTINUOUS
 10
205.1639861289
 20
237.7538650363
 11
205.1639861289
 21
237.4520869295
  0
LINE
  5
28E
100
AcDbEntity
  8
0
100
AcDbLine
 62
7
  6
CONTINUOUS
 10
205.8341988736
 20
237.8143003906
 11
205.8341988736
 21
237.4520869295
  0
LINE
  5
28F
100
AcDbEntity
  8
0
100
AcDbLine
 62
7
  6
CONTINUOUS
 10
206.0576031219
 20
237.8499953913
 11
206.0576031219
 21
236.7559554788
  0
LINE
  5
290
100
AcDbEntity
  8
0
100
AcDbLine
 62
7
  6
CONTINUOUS
 10
213.4176031219
 20
237.3327523834
 11
213.4176031219
 21
237.8330383105
  0
LINE
  5
291
100
AcDbEntity
  8
0
100
AcDbLine
 62
7
  6
CONTINUOUS
 10
214.6463218297
 20
237.8461925721
 11
214.6463218297
 21
237.8345743472
  0
LINE
  5
292
100
AcDbEntity
  8
0
100
AcDbLine
 62
7
  6
CONTINUOUS
 10
220.188884414
 20
237.8461925721
 11
220.188884414
 21
237.8345728553
  0
LINE
  5
293
100
AcDbEntity
  8
0
100
AcDbLine
 62
7
  6
CONTINUOUS
 10
221.4176031219
 20
237.3327578678
 11
221.4176031219
 21
237.8330375238
  0
LINE
  5
294
100
AcDbEntity
  8
0
100
AcDbLine
 62
7
  6
CONTINUOUS
 10
213.4176031595
 20
237.8345046623
 11
213.4376533734
 21
237.8461925721
  0
LINE
  5
295
100
AcDbEntity
  8
0
100
AcDbLine
 62
7
  6
CONTINUOUS
 10
233.1989346655
 20
229.3608214708
 11
233.1989346655
 21
181.0604960549
  0
LINE
  5
296
100
AcDbEntity
  8
BEZUGSACHSEN
100
AcDbLine
 62
7
  6
CONTINUOUS
 10
238.1989347155
 20
293.3610402702
 11
238.1989347155
 21
289.1872520302
  0
LINE
  5
297
100
AcDbEntity
  8
BEZUGSACHSEN
100
AcDbLine
 62
7
  6
CONTINUOUS
 10
238.1989347155
 20
236.8085067199
 11
238.1989347155
 21
222.3610425457
  0
LINE
  5
298
100
AcDbEntity
  8
0
100
AcDbLine
 62
7
  6
CONTINUOUS
 10
260.7694609853
 20
258.747766066
 11
256.8089346655
 21
256.4654221557
  0
LINE
  5
299
100
AcDbEntity
  8
0
100
AcDbLine
 62
7
  6
CONTINUOUS
 10
256.8089346655
 20
254.1906607833
 11
261.9893309517
 21
257.1759826729
  0
LINE
  5
29A
100
AcDbEntity
  8
0
100
AcDbLine
 62
7
  6
CONTINUOUS
 10
256.8089346655
 20
254.1601292348
 11
261.9893309517
 21
257.1454511244
  0
LINE
  5
29B
100
AcDbEntity
  8
0
100
AcDbLine
 62
7
  6
CONTINUOUS
 10
256.8089346655
 20
240.7946530581
 11
256.8089346655
 21
235.4625166498
  0
LINE
  5
29C
100
AcDbEntity
  8
0
100
AcDbLine
 62
7
  6
CONTINUOUS
 10
256.8089346655
 20
254.1601292348
 11
256.8089346655
 21
256.4654221557
  0
LINE
  5
29D
100
AcDbEntity
  8
0
100
AcDbLine
 62
7
  6
CONTINUOUS
 10
256.8089346655
 20
262.4341340062
 11
256.8089346655
 21
264.4346666908
  0
LINE
  5
29E
100
AcDbEntity
  8
0
100
AcDbLine
 62
7
  6
CONTINUOUS
 10
258.782618878
 20
235.9631596028
 11
258.782618878
 21
238.4306516948
  0
LINE
  5
29F
100
AcDbEntity
  8
0
100
AcDbLine
 62
7
  6
CONTINUOUS
 10
261.7563030915
 20
262.4646655548
 11
261.7563030915
 21
260.4538370954
  0
LINE
  5
2A0
100
AcDbEntity
  8
0
100
AcDbLine
 62
7
  6
CONTINUOUS
 10
261.9893309517
 20
257.1454511244
 11
261.9893309517
 21
257.1759826729
  0
LINE
  5
2A1
100
AcDbEntity
  8
0
100
AcDbLine
 62
7
  6
CONTINUOUS
 10
263.729987304
 20
259.2075970098
 11
263.729987304
 21
262.4646655548
  0
LINE
  5
2A2
100
AcDbEntity
  8
0
100
AcDbLine
 62
7
  6
CONTINUOUS
 10
265.4931452005
 20
238.4001201463
 11
265.4931452005
 21
240.7946530581
  0
LINE
  5
2A3
100
AcDbEntity
  8
0
100
AcDbLine
 62
7
  6
CONTINUOUS
 10
265.4931452005
 20
262.4341340062
 11
265.4931452005
 21
264.4346666908
  0
LINE
  5
2A4
100
AcDbEntity
  8
0
100
AcDbLine
 62
7
  6
CONTINUOUS
 10
266.677355728
 20
264.4346666908
 11
266.677355728
 21
259.2075970098
  0
LINE
  5
2A5
100
AcDbEntity
  8
0
100
AcDbLine
 62
7
  6
CONTINUOUS
 10
266.677355728
 20
240.7946530581
 11
266.677355728
 21
235.9631540142
  0
LINE
  5
2A6
100
AcDbEntity
  8
0
100
AcDbLine
 62
7
  6
CONTINUOUS
 10
268.6510399405
 20
235.4625166498
 11
268.6510399405
 21
240.7946530581
  0
LINE
  5
2A7
100
AcDbEntity
  8
0
100
AcDbLine
 62
7
  6
CONTINUOUS
 10
268.6510399405
 20
243.1281228728
 11
268.6510399405
 21
245.5226557846
  0
LINE
  5
2A8
100
AcDbEntity
  8
0
100
AcDbLine
 62
7
  6
CONTINUOUS
 10
268.6510399405
 20
250.2201269627
 11
268.6510399405
 21
252.6146598745
  0
LINE
  5
2A9
100
AcDbEntity
  8
0
100
AcDbLine
 62
7
  6
CONTINUOUS
 10
268.6510399405
 20
258.4195965554
 11
268.6510399405
 21
264.4346666908
  0
LINE
  5
2AA
100
AcDbEntity
  8
BEZUGSACHSEN
100
AcDbLine
 62
7
  6
CONTINUOUS
 10
278.1764073158
 20
294.2041796285
 11
284.2920393831
 21
179.8401233635
  0
LINE
  5
2AB
100
AcDbEntity
  8
BEZUGSACHSEN
100
AcDbLine
 62
7
  6
CONTINUOUS
 10
255.2612726636
 20
351.8781766139
 11
276.9970320115
 21
299.4034116076
  0
LINE
  5
2AC
100
AcDbEntity
  8
BEZUGSACHSEN
100
AcDbLine
 62
7
  6
CONTINUOUS
 10
246.7160710738
 20
360.4233782037
 11
194.2413046563
 21
382.1591381362
  0
LINE
  5
2AD
100
AcDbEntity
  8
KONSTRUKTIONSELEMENTE
100
AcDbLine
 62
7
  6
CONTINUOUS
 10
348.0445759708
 20
167.3610402056
 11
344.4255321897
 21
167.3610402056
  0
LINE
  5
2AE
100
AcDbEntity
  8
0
100
AcDbLine
 62
7
  6
CONTINUOUS
 10
399.466307433
 20
167.3610402056
 11
403.0853512141
 21
167.3610402056
  0
LINE
  5
2AF
100
AcDbEntity
  8
KONSTRUKTIONSELEMENTE
100
AcDbLine
 62
7
  6
CONTINUOUS
 10
325.7554417019
 20
193.5604960549
 11
343.5438972862
 21
172.3610402056
  0
LINE
  5
2B0
100
AcDbEntity
  8
KONSTRUKTIONSELEMENTE
100
AcDbLine
 62
7
  6
CONTINUOUS
 10
344.4255321897
 20
167.3610402056
 11
343.5438972862
 21
172.3610402056
  0
LINE
  5
2B1
100
AcDbEntity
  8
KONSTRUKTIONSELEMENTE
100
AcDbLine
 62
7
  6
CONTINUOUS
 10
326.4846695573
 20
197.6961527336
 11
325.7554417019
 21
193.5604960549
  0
LINE
  5
2B2
100
AcDbEntity
  8
0
100
AcDbLine
 62
7
  6
CONTINUOUS
 10
390.7123697995
 20
240.7641215096
 11
391.2114367535
 21
240.7946530581
  0
LINE
  5
2B3
100
AcDbEntity
  8
0
100
AcDbLine
 62
7
  6
CONTINUOUS
 10
390.5677466748
 20
243.1281228728
 11
391.0668136287
 21
243.1586544214
  0
LINE
  5
2B4
100
AcDbEntity
  8
BEZUGSACHSEN
100
AcDbLine
 62
7
  6
CONTINUOUS
 10
353.7554417019
 20
190.4721600333
 11
353.7554417019
 21
190.3610422592
  0
LINE
  5
2B5
100
AcDbEntity
  8
0
100
AcDbLine
 62
7
  6
CONTINUOUS
 10
354.9929417019
 20
234.0848436413
 11
354.9929417019
 21
233.5421288494
  0
LINE
  5
2B6
100
AcDbEntity
  8
0
100
AcDbLine
 62
7
  6
CONTINUOUS
 10
355.4304425364
 20
234.2658774237
 11
355.4304425364
 21
233.7253772973
  0
LINE
  5
2B7
100
AcDbEntity
  8
0
100
AcDbLine
 62
7
  6
CONTINUOUS
 10
355.6491917019
 20
234.3545254111
 11
355.6491917019
 21
233.8151031351
  0
LINE
  5
2B8
100
AcDbEntity
  8
0
100
AcDbLine
 62
7
  6
CONTINUOUS
 10
355.8679408674
 20
234.4419376445
 11
355.8679408674
 21
233.9035739672
  0
LINE
  5
2B9
100
AcDbEntity
  8
0
100
AcDbLine
 62
7
  6
CONTINUOUS
 10
389.9892541757
 20
252.5841283259
 11
390.4883211296
 21
252.6146598745
  0
LINE
  5
2BA
100
AcDbEntity
  8
BEZUGSACHSEN
100
AcDbLine
 62
7
  6
CONTINUOUS
 10
360.7554417019
 20
374.3610402556
 11
360.7554417019
 21
314.0006603938
  0
LINE
  5
2BB
100
AcDbEntity
  8
BEZUGSACHSEN
100
AcDbLine
 62
7
  6
CONTINUOUS
 10
360.2329359247
 20
296.9029932151
 11
353.789031379
 21
191.571296405
  0
LINE
  5
2BC
100
AcDbEntity
  8
KONSTRUKTIONSELEMENTE
100
AcDbLine
 62
7
  6
CONTINUOUS
 10
348.0445759708
 20
167.3610402056
 11
352.5820750121
 21
193.0944760255
  0
LINE
  5
2BD
100
AcDbEntity
  8
0
100
AcDbLine
 62
7
  6
CONTINUOUS
 10
389.8928387591
 20
254.1601292348
 11
390.3919057131
 21
254.1906607833
  0
LINE
  5
2BE
100
AcDbEntity
  8
0
100
AcDbLine
 62
7
  6
CONTINUOUS
 10
389.7536750924
 20
256.4348906072
 11
390.2527420464
 21
256.4654221557
  0
LINE
  5
2BF
100
AcDbEntity
  8
0
100
AcDbLine
 62
7
  6
CONTINUOUS
 10
389.3866578224
 20
262.4341340062
 11
389.8857247764
 21
262.4646655548
  0
LINE
  5
2C0
100
AcDbEntity
  8
0
100
AcDbLine
 62
7
  6
CONTINUOUS
 10
389.2661385518
 20
264.4041351423
 11
389.7652055057
 21
264.4346666908
  0
LINE
  5
2C1
100
AcDbEntity
  8
0
100
AcDbLine
 62
7
  6
CONTINUOUS
 10
399.466307433
 20
167.3610402056
 11
394.9288083917
 21
193.0944760255
  0
LINE
  5
2C2
100
AcDbEntity
  8
RUNDUNGEN
100
AcDbLine
 62
7
  6
CONTINUOUS
 10
387.2779474791
 20
296.9029932151
 11
393.7218520248
 21
191.571296405
  0
LINE
  5
2C3
100
AcDbEntity
  8
0
100
AcDbLine
 62
7
  6
CONTINUOUS
 10
389.7652055057
 20
264.4346666908
 11
390.3919057131
 21
254.1906607833
  0
LINE
  5
2C4
100
AcDbEntity
  8
0
100
AcDbLine
 62
7
  6
CONTINUOUS
 10
390.4883211296
 20
252.6146598745
 11
391.0668136287
 21
243.1586544214
  0
LINE
  5
2C5
100
AcDbEntity
  8
0
100
AcDbLine
 62
7
  6
CONTINUOUS
 10
391.2114367535
 20
240.7946530581
 11
391.5990547595
 21
234.4586712025
  0
LINE
  5
2C6
100
AcDbEntity
  8
BEZUGSACHSEN
100
AcDbLine
 62
7
  6
CONTINUOUS
 10
386.7554417019
 20
374.3610402556
 11
386.7554417019
 21
373.8442223436
  0
LINE
  5
2C7
100
AcDbEntity
  8
RUNDUNGEN
100
AcDbLine
 62
7
  6
CONTINUOUS
 10
386.7554417019
 20
373.8442223436
 11
386.7554417019
 21
314.0006603938
  0
LINE
  5
2C8
100
AcDbEntity
  8
0
100
AcDbLine
 62
7
  6
CONTINUOUS
 10
391.7429417019
 20
234.4021308202
 11
391.7429417019
 21
233.8632855844
  0
LINE
  5
2C9
100
AcDbEntity
  8
0
100
AcDbLine
 62
7
  6
CONTINUOUS
 10
393.0554417019
 20
233.855534247
 11
393.0554417019
 21
233.3099878608
  0
LINE
  5
2CA
100
AcDbEntity
  8
RUNDUNGEN
100
AcDbLine
 62
7
  6
CONTINUOUS
 10
393.7554417019
 20
190.4721603306
 11
393.7554417019
 21
190.3610402056
  0
LINE
  5
2CB
100
AcDbEntity
  8
0
100
AcDbLine
 62
7
  6
CONTINUOUS
 10
421.0262138465
 20
197.6961527336
 11
421.7554417019
 21
193.5604960549
  0
LINE
  5
2CC
100
AcDbEntity
  8
0
100
AcDbLine
 62
7
  6
CONTINUOUS
 10
403.0853512141
 20
167.3610402056
 11
403.9669861176
 21
172.3610402056
  0
LINE
  5
2CD
100
AcDbEntity
  8
0
100
AcDbLine
 62
7
  6
CONTINUOUS
 10
403.9669861176
 20
172.3610402056
 11
421.7554417019
 21
193.5604960549
  0
LINE
  5
2CE
100
AcDbEntity
  8
0
100
AcDbLine
 62
7
  6
CONTINUOUS
 10
369.7554417019
 20
383.3610402556
 11
377.7554417019
 21
383.3610402556
  0
LWPOLYLINE
  5
2CF
100
AcDbEntity
  8
RUNDUNGEN
100
AcDbPolyline
 62
7
  6
CONTINUOUS
 90
146
 70
0
 10
92.1361628058
 20
63.758464245
 10
92.1408411102
 20
63.5431833844
 10
92.1457643989
 20
63.3290374431
 10
92.1509330049
 20
63.116107353
 10
92.1563473428
 20
62.9044689693
 10
92.1620078939
 20
62.6941962028
 10
92.1679147969
 20
62.4853745139
 10
92.1740696131
 20
62.2780411101
 10
92.1804713897
 20
62.0723191903
 10
92.1871287324
 20
61.8680369089
 10
92.1940478769
 20
61.6651344768
 10
92.2012400955
 20
61.4634388918
 10
92.2087167805
 20
61.2628203557
 10
92.2164908097
 20
61.0631519608
 10
92.2245791762
 20
60.8642498894
 10
92.2329884437
 20
60.6662250816
 10
92.2417405033
 20
60.4688575456
 10
92.2508104441
 20
60.2729813291
 10
92.2601857492
 20
60.0790696227
 10
92.2698402424
 20
59.8878046823
 10
92.2797500466
 20
59.6997317656
 10
92.2898821067
 20
59.5154816602
 10
92.3002045594
 20
59.3355686485
 10
92.3106754611
 20
59.1605891048
 10
92.3212490304
 20
58.9910988519
 10
92.3318895069
 20
58.8274041421
 10
92.3425387773
 20
58.6700711871
 10
92.3532069581
 20
58.5186108963
 10
92.363882533
 20
58.3728758937
 10
92.3745785931
 20
58.2324035916
 10
92.3853040073
 20
58.0968318385
 10
92.3960714906
 20
57.9657870269
 10
92.4068955898
 20
57.8389112239
 10
92.4177917998
 20
57.7158716102
 10
92.4287887836
 20
57.5962275482
 10
92.4398741195
 20
57.4800111024
 10
92.4510549676
 20
57.367042998
 10
92.4623049626
 20
57.2574773057
 10
92.4736003986
 20
57.1514081855
 10
92.4849356837
 20
57.0487410313
 10
92.4962849643
 20
56.9495526121
 10
92.507682467
 20
56.85339578
 10
92.5191459761
 20
56.7600003916
 10
92.5307083502
 20
56.6690021072
 10
92.5424063014
 20
56.5800441405
 10
92.5542592295
 20
56.4929312603
 10
92.566299274
 20
56.4073953808
 10
92.5785346484
 20
56.3233567722
 10
92.5909806822
 20
56.2406920271
 10
92.6036519262
 20
56.1592911291
 10
92.6165646734
 20
56.0790407737
 10
92.6297316938
 20
55.9998565941
 10
92.6431673309
 20
55.9216497379
 10
92.6568836901
 20
55.8443492526
 10
92.6708936472
 20
55.7678836758
 10
92.6852081238
 20
55.6921956183
 10
92.6998360935
 20
55.6172398211
 10
92.7147932963
 20
55.5429391127
 10
92.7300915731
 20
55.4692401156
 10
92.7457497646
 20
55.3960599764
 10
92.7617839007
 20
55.3233347865
 10
92.7782137948
 20
55.2509886749
 10
92.7950532567
 20
55.1789772206
 10
92.8123368771
 20
55.1071737262
 10
92.8300846072
 20
55.0355220124
 10
92.8483607931
 20
54.9637988257
 10
92.8672186347
 20
54.8918461497
 10
92.8867313174
 20
54.8194496343
 10
92.9069704861
 20
54.7464239078
 10
92.92802122
 20
54.672558219
 10
92.9499781768
 20
54.5976342691
 10
92.9729176798
 20
54.5215202899
 10
92.9969325243
 20
54.4440502094
 10
93.0220986422
 20
54.3651327875
 10
93.0484833159
 20
54.2847181226
 10
93.0762330685
 20
54.2025362815
 10
93.1054615305
 20
54.1184475045
 10
93.1363880225
 20
54.0320449745
 10
93.1692590095
 20
53.9429060081
 10
93.2041974371
 20
53.8509905864
 10
93.2414227547
 20
53.7560367167
 10
93.2809520607
 20
53.6583237421
 10
93.3228609292
 20
53.5579770461
 10
93.3671895993
 20
53.45520401
 10
93.4139827874
 20
53.350192431
 10
93.4632809887
 20
53.2431308048
 10
93.5150784701
 20
53.1342938759
 10
93.5695293137
 20
53.0236154927
 10
93.6267284368
 20
52.9111659112
 10
93.6868651749
 20
52.7968441808
 10
93.7501136037
 20
52.6806053579
 10
93.8166603727
 20
52.5624053905
 10
93.8866472819
 20
52.4423002266
 10
93.9604320427
 20
52.3200065522
 10
94.0382686374
 20
52.1954646944
 10
94.1207254766
 20
52.0681723684
 10
94.2084481945
 20
51.9376156207
 10
94.301674287
 20
51.803968207
 10
94.4012151797
 20
51.6666488518
 10
94.506088153
 20
51.5275506592
 10
94.6156922223
 20
51.3878541119
 10
94.7292253554
 20
51.2488363666
 10
94.8454381879
 20
51.1121196494
 10
94.9645491334
 20
50.9774649362
 10
95.0862766268
 20
50.8452087128
 10
95.2107855743
 20
50.7151863586
 10
95.3381558273
 20
50.5873483677
 10
95.4683944059
 20
50.461729681
 10
95.6015862682
 20
50.3382980021
 10
95.7375898144
 20
50.2172332953
 10
95.8763214764
 20
50.0986489841
 10
96.017654104
 20
49.9826849576
 10
96.1614477914
 20
49.8694774438
 10
96.3076145931
 20
49.7591102368
 10
96.4560245482
 20
49.6516903734
 10
96.6066356737
 20
49.5472541436
 10
96.7593796167
 20
49.4458549611
 10
96.9141955376
 20
49.3475386075
 10
97.0710188825
 20
49.2523511464
 10
97.2297846253
 20
49.1603367287
 10
97.3904268481
 20
49.0715379054
 10
97.552876562
 20
48.9859967689
 10
97.7170653514
 20
48.9037529101
 10
97.8829188026
 20
48.8248466651
 10
98.0503616213
 20
48.7493162493
 10
98.2193213346
 20
48.6771962442
 10
98.3897217447
 20
48.6085206101
 10
98.5614931738
 20
48.5433185786
 10
98.7345632006
 20
48.4816186951
 10
98.9088596203
 20
48.4234476211
 10
99.0843093843
 20
48.3688305469
 10
99.2608389254
 20
48.3177910692
 10
99.4383739822
 20
48.270351238
 10
99.6168403863
 20
48.2265313498
 10
99.7961630773
 20
48.1863502175
 10
99.9762677729
 20
48.149824798
 10
100.1570794469
 20
48.1169705752
 10
100.3385230861
 20
48.0878014033
 10
100.5205232188
 20
48.0623295999
 10
100.7030044524
 20
48.0405658683
 10
100.8858910638
 20
48.0225193648
 10
101.069107262
 20
48.008197667
 10
101.2525770588
 20
47.9976067904
 10
101.4362244302
 20
47.9907511758
 10
101.6199731848
 20
47.9876336971
 10
143.1989346655
 20
47.9874255018
  0
LINE
  5
2D0
100
AcDbEntity
  8
RUNDUNGEN
100
AcDbLine
 62
7
  6
CONTINUOUS
 10
92.1275385719
 20
64.1921662379
 11
92.1361628058
 21
63.758464245
  0
LINE
  5
2D1
100
AcDbEntity
  8
RUNDUNGEN
100
AcDbLine
 62
7
  6
CONTINUOUS
 10
92.1198850558
 20
64.6297227125
 11
92.1275385719
 21
64.1921662379
  0
LINE
  5
2D2
100
AcDbEntity
  8
RUNDUNGEN
100
AcDbLine
 62
7
  6
CONTINUOUS
 10
92.1131949808
 20
65.0708571434
 11
92.1198850558
 21
64.6297227125
  0
LINE
  5
2D3
100
AcDbEntity
  8
RUNDUNGEN
100
AcDbLine
 62
7
  6
CONTINUOUS
 10
92.1074643191
 20
65.5152292264
 11
92.1131949808
 21
65.0708571434
  0
LINE
  5
2D4
100
AcDbEntity
  8
RUNDUNGEN
100
AcDbLine
 62
7
  6
CONTINUOUS
 10
92.10269203
 20
65.9623672231
 11
92.1074643191
 21
65.5152292264
  0
LINE
  5
2D5
100
AcDbEntity
  8
RUNDUNGEN
100
AcDbLine
 62
7
  6
CONTINUOUS
 10
92.0988778756
 20
66.4117528265
 11
92.10269203
 21
65.9623672231
  0
LINE
  5
2D6
100
AcDbEntity
  8
RUNDUNGEN
100
AcDbLine
 62
7
  6
CONTINUOUS
 10
92.0960215481
 20
66.8628813746
 11
92.0988778756
 21
66.4117528265
  0
LINE
  5
2D7
100
AcDbEntity
  8
RUNDUNGEN
100
AcDbLine
 62
7
  6
CONTINUOUS
 10
92.0941227987
 20
67.3152560912
 11
92.0960215481
 21
66.8628813746
  0
LWPOLYLINE
  5
2D8
100
AcDbEntity
  8
RUNDUNGEN
100
AcDbPolyline
 62
7
  6
CONTINUOUS
 90
3
 70
0
 10
92.0930697539
 20
67.9874255018
 10
92.0931814951
 20
67.7683885321
 10
92.0941227987
 20
67.3152560912
  0
LINE
  5
2D9
100
AcDbEntity
  8
BEZUGSACHSEN
100
AcDbLine
 62
7
  6
CONTINUOUS
 10
92.093532446
 20
68.4330833761
 11
92.0930697539
 21
67.9874255018
  0
LINE
  5
2DA
100
AcDbEntity
  8
BEZUGSACHSEN
100
AcDbLine
 62
7
  6
CONTINUOUS
 10
92.0949523868
 20
68.8858832085
 11
92.093532446
 21
68.4330833761
  0
LINE
  5
2DB
100
AcDbEntity
  8
BEZUGSACHSEN
100
AcDbLine
 62
7
  6
CONTINUOUS
 10
92.0973297783
 20
69.3376850546
 11
92.0949523868
 21
68.8858832085
  0
LINE
  5
2DC
100
AcDbEntity
  8
BEZUGSACHSEN
100
AcDbLine
 62
7
  6
CONTINUOUS
 10
92.1006648028
 20
69.7879924143
 11
92.0973297783
 21
69.3376850546
  0
LINE
  5
2DD
100
AcDbEntity
  8
BEZUGSACHSEN
100
AcDbLine
 62
7
  6
CONTINUOUS
 10
92.1049577615
 20
70.2363067967
 11
92.1006648028
 21
69.7879924143
  0
LINE
  5
2DE
100
AcDbEntity
  8
BEZUGSACHSEN
100
AcDbLine
 62
7
  6
CONTINUOUS
 10
92.1102089556
 20
70.6821176194
 11
92.1049577615
 21
70.2363067967
  0
LINE
  5
2DF
100
AcDbEntity
  8
BEZUGSACHSEN
100
AcDbLine
 62
7
  6
CONTINUOUS
 10
92.1164187565
 20
71.1249129622
 11
92.1102089556
 21
70.6821176194
  0
LINE
  5
2E0
100
AcDbEntity
  8
BEZUGSACHSEN
100
AcDbLine
 62
7
  6
CONTINUOUS
 10
92.1235893603
 20
71.5642779862
 11
92.1164187565
 21
71.1249129622
  0
LINE
  5
2E1
100
AcDbEntity
  8
0
100
AcDbLine
 62
7
  6
CONTINUOUS
 10
143.1989346655
 20
26.7002225512
 11
143.1989346655
 21
54.9874255018
  0
LINE
  5
2E2
100
AcDbEntity
  8
0
100
AcDbLine
 62
7
  6
CONTINUOUS
 10
143.1989346655
 20
80.9874255018
 11
143.1989346655
 21
107.3797356223
  0
LINE
  5
2E3
100
AcDbEntity
  8
KONSTRUKTIONSELEMENTE
100
AcDbLine
 62
7
  6
CONTINUOUS
 10
143.1989346655
 20
107.3797356223
 11
143.1989346655
 21
109.2746284524
  0
LINE
  5
2E4
100
AcDbEntity
  8
0
100
AcDbLine
 62
7
  6
CONTINUOUS
 10
151.1989346655
 20
19.9874255018
 11
225.1989346655
 21
19.9874255018
  0
LINE
  5
2E5
100
AcDbEntity
  8
0
100
AcDbLine
 62
7
  6
CONTINUOUS
 10
154.4989346655
 20
54.9874255018
 11
154.4989346655
 21
53.4574255018
  0
LINE
  5
2E6
100
AcDbEntity
  8
0
100
AcDbLine
 62
7
  6
CONTINUOUS
 10
156.2489346655
 20
54.9874255018
 11
156.2489346655
 21
53.4574255018
  0
LINE
  5
2E7
100
AcDbEntity
  8
0
100
AcDbLine
 62
7
  6
CONTINUOUS
 10
156.9489346655
 20
54.9874255018
 11
156.9489346655
 21
53.4574255018
  0
LINE
  5
2E8
100
AcDbEntity
  8
0
100
AcDbLine
 62
7
  6
CONTINUOUS
 10
164.7889346655
 20
54.9874255018
 11
164.7889346655
 21
53.4574255018
  0
LINE
  5
2E9
100
AcDbEntity
  8
0
100
AcDbLine
 62
7
  6
CONTINUOUS
 10
176.546168495
 20
85.8749263362
 11
175.6525515803
 21
85.2186763362
  0
LINE
  5
2EA
100
AcDbEntity
  8
0
100
AcDbLine
 62
7
  6
CONTINUOUS
 10
177.2163811811
 20
86.0936755018
 11
176.546168495
 21
85.8749263362
  0
LWPOLYLINE
  5
2EB
100
AcDbEntity
  8
BEZUGSACHSEN
100
AcDbPolyline
 62
7
  6
CONTINUOUS
 90
146
 70
0
 10
274.7778913076
 20
47.9876336642
 10
274.9616352266
 20
47.9907509132
 10
275.1452777714
 20
47.9976061013
 10
275.3287427568
 20
48.008196355
 10
275.5119541649
 20
48.0225172338
 10
275.6948360137
 20
48.0405627233
 10
275.8773125183
 20
48.0623252463
 10
276.0593079617
 20
48.0877956477
 10
276.2407469572
 20
48.1169632256
 10
276.421554039
 20
48.1498156634
 10
276.6016541998
 20
48.1863391087
 10
276.7809724194
 20
48.2265180791
 10
276.959434422
 20
48.2703356198
 10
277.1369651524
 20
48.3177729199
 10
277.3134904484
 20
48.3688096853
 10
277.4889360525
 20
48.4234238677
 10
277.6632284013
 20
48.4815918722
 10
277.8362944512
 20
48.5432885111
 10
278.008062
 20
48.6084871241
 10
278.178458638
 20
48.6771591711
 10
278.3474146945
 20
48.7492754245
 10
278.5148539864
 20
48.8248019317
 10
278.6807040622
 20
48.9037041238
 10
278.8448896112
 20
48.9859437801
 10
279.0073362134
 20
49.071480563
 10
279.1679754459
 20
49.1602748784
 10
279.326738307
 20
49.2522846266
 10
279.4835588903
 20
49.3474672621
 10
279.6383721747
 20
49.4457786368
 10
279.7911136126
 20
49.5471726903
 10
279.941722344
 20
49.6516036262
 10
280.0901301004
 20
49.7590180904
 10
280.2362949119
 20
49.8693798072
 10
280.380086992
 20
49.9825818876
 10
280.5214186116
 20
50.0985407435
 10
280.6601496962
 20
50.2171200506
 10
280.796153141
 20
50.3381799962
 10
280.92934497
 20
50.4616068131
 10
281.0595833376
 20
50.5872202947
 10
281.1869528839
 20
50.7150523738
 10
281.3114601676
 20
50.8450675395
 10
281.4331853823
 20
50.9773155291
 10
281.5522924869
 20
51.1119597501
 10
281.668503294
 20
51.2486675285
 10
281.7820387707
 20
51.3876812834
 10
281.891649838
 20
51.5273798706
 10
281.9965372579
 20
51.6664907022
 10
282.0960944068
 20
51.8038266371
 10
282.1893349304
 20
51.9374896685
 10
282.2770689797
 20
52.0680588464
 10
282.3595309093
 20
52.1953549949
 10
282.4373694311
 20
52.3198960286
 10
282.5111543386
 20
52.4421860135
 10
282.5811407688
 20
52.5622863231
 10
282.6476880836
 20
52.6804831272
 10
282.7109373109
 20
52.7967192216
 10
282.77107498
 20
52.9110384707
 10
282.8282749509
 20
53.0234854113
 10
282.882726143
 20
53.1341601138
 10
282.9345240678
 20
53.2429934905
 10
282.9838231766
 20
53.3500525233
 10
283.0306177932
 20
53.4550627103
 10
283.0749486105
 20
53.5578361506
 10
283.1168601976
 20
53.6581848702
 10
283.1563928166
 20
53.7559017005
 10
283.1936217552
 20
53.8508606771
 10
283.228564137
 20
53.9427826277
 10
283.2614386182
 20
54.0319274485
 10
283.2923672831
 20
54.1183326173
 10
283.3215971636
 20
54.2024221406
 10
283.3493476522
 20
54.2846028544
 10
283.3757328949
 20
54.3650159369
 10
283.4008999639
 20
54.443933018
 10
283.4249158967
 20
54.5214033042
 10
283.4478566409
 20
54.5975181293
 10
283.4698147827
 20
54.6724428867
 10
283.4908664449
 20
54.7463086176
 10
283.5111063569
 20
54.8193338053
 10
283.5306195885
 20
54.8917291055
 10
283.5494778281
 20
54.9636799927
 10
283.5677542718
 20
55.0354008037
 10
283.5855021944
 20
55.1070498065
 10
283.6027859805
 20
55.1788503828
 10
283.6196256706
 20
55.2508590845
 10
283.6360559632
 20
55.3232031058
 10
283.6520906106
 20
55.3959266691
 10
283.6677494126
 20
55.4691056262
 10
283.6830483825
 20
55.5428038487
 10
283.6980063389
 20
55.6171041199
 10
283.712635132
 20
55.6920599013
 10
283.7269505085
 20
55.7677484412
 10
283.7409614281
 20
55.8442149749
 10
283.7546788066
 20
55.9215169052
 10
283.7681155095
 20
55.9997256824
 10
283.7812836393
 20
56.0789122855
 10
283.7941975193
 20
56.1591654875
 10
283.8068699061
 20
56.2405696056
 10
283.8193170803
 20
56.3232378884
 10
283.8315535823
 20
56.4072803049
 10
283.8435947293
 20
56.4928201885
 10
283.8554487252
 20
56.5799372082
 10
283.8671476975
 20
56.6688993505
 10
283.8787110202
 20
56.7599016304
 10
283.890175442
 20
56.8533010936
 10
283.9015738358
 20
56.9494621956
 10
283.9129240157
 20
57.0486553501
 10
283.9242602402
 20
57.1513280317
 10
283.9355566523
 20
57.2574035218
 10
283.9468076782
 20
57.366976687
 10
283.957989577
 20
57.4799531152
 10
283.9690759579
 20
57.596178535
 10
283.9800739801
 20
57.715832251
 10
283.9909712027
 20
57.8388820198
 10
284.0017963199
 20
57.965768867
 10
284.0125648423
 20
58.0968258673
 10
284.0232913344
 20
58.2324112752
 10
284.0339885267
 20
58.3728990364
 10
284.0446652999
 20
58.5186516377
 10
284.05533478
 20
58.6701323845
 10
284.0659853862
 20
58.82748798
 10
284.0766272387
 20
58.9912077895
 10
284.0872020679
 20
59.1607232656
 10
284.097674007
 20
59.3357262509
 10
284.1079971873
 20
59.5156590235
 10
284.1181295336
 20
59.6999221653
 10
284.128039268
 20
59.8880020639
 10
284.1376933189
 20
60.0792667283
 10
284.1470679802
 20
60.2731735223
 10
284.1561371939
 20
60.4690421837
 10
284.1648885231
 20
60.6664010576
 10
284.1732971704
 20
60.8644187207
 10
284.1813849916
 20
61.0633145773
 10
284.1891585611
 20
61.2629781484
 10
284.1966348452
 20
61.4635927723
 10
284.2038267063
 20
61.6652850888
 10
284.2107455228
 20
61.868184613
 10
284.2174025538
 20
62.0724640195
 10
284.2238040269
 20
62.2781828685
 10
284.2299585359
 20
62.4855125943
 10
284.2358651339
 20
62.6943301499
 10
284.241525383
 20
62.9045983057
 10
284.2469394259
 20
63.1162317202
 10
284.2521077469
 20
63.3291565704
 10
284.2570307631
 20
63.543297093
 10
284.2617088097
 20
63.7585724647
 10
284.2703325768
 20
64.1922635554
  0
LINE
  5
2EC
100
AcDbEntity
  8
0
100
AcDbLine
 62
7
  6
CONTINUOUS
 10
174.7589346655
 20
83.2499263362
 11
174.7589346655
 21
82.1561755018
  0
LINE
  5
2ED
100
AcDbEntity
  8
0
100
AcDbLine
 62
7
  6
CONTINUOUS
 10
174.7589346655
 20
49.9999255018
 11
174.7589346655
 21
48.6874255018
  0
LINE
  5
2EE
100
AcDbEntity
  8
0
100
AcDbLine
 62
7
  6
CONTINUOUS
 10
174.9823388942
 20
84.3436746673
 11
174.7589346655
 21
83.2499263362
  0
LINE
  5
2EF
100
AcDbEntity
  8
0
100
AcDbLine
 62
7
  6
CONTINUOUS
 10
176.3227642664
 20
84.1249255018
 11
176.0993600377
 21
83.4686755018
  0
LINE
  5
2F0
100
AcDbEntity
  8
0
100
AcDbLine
 62
7
  6
CONTINUOUS
 10
179.8972325512
 20
85.4374255018
 11
179.4504240938
 21
84.5624263362
  0
LINE
  5
2F1
100
AcDbEntity
  8
0
100
AcDbLine
 62
7
  6
CONTINUOUS
 10
181.2376579233
 20
84.9999246673
 11
180.7908494659
 21
84.3436746673
  0
LINE
  5
2F2
100
AcDbEntity
  8
0
100
AcDbLine
 62
7
  6
CONTINUOUS
 10
179.0036156364
 20
81.4999255018
 11
178.6546795078
 21
80.9874255018
  0
LINE
  5
2F3
100
AcDbEntity
  8
0
100
AcDbLine
 62
7
  6
CONTINUOUS
 10
175.6525515803
 20
85.2186763362
 11
174.9823388942
 21
84.3436746673
  0
LINE
  5
2F4
100
AcDbEntity
  8
0
100
AcDbLine
 62
7
  6
CONTINUOUS
 10
176.7695727237
 20
84.5624263362
 11
176.3227642664
 21
84.1249255018
  0
LINE
  5
2F5
100
AcDbEntity
  8
0
100
AcDbLine
 62
7
  6
CONTINUOUS
 10
180.7908494659
 20
86.3124246673
 11
179.8972325512
 21
85.4374255018
  0
LINE
  5
2F6
100
AcDbEntity
  8
0
100
AcDbLine
 62
7
  6
CONTINUOUS
 10
181.9078709223
 20
85.4374255018
 11
181.2376579233
 21
84.9999246673
  0
LINE
  5
2F7
100
AcDbEntity
  8
0
100
AcDbLine
 62
7
  6
CONTINUOUS
 10
177.2163811811
 20
84.7811755018
 11
176.7695727237
 21
84.5624263362
  0
LINE
  5
2F8
100
AcDbEntity
  8
0
100
AcDbLine
 62
7
  6
CONTINUOUS
 10
181.6844666936
 20
86.7499255018
 11
180.7908494659
 21
86.3124246673
  0
LINE
  5
2F9
100
AcDbEntity
  8
0
100
AcDbLine
 62
7
  6
CONTINUOUS
 10
256.8089346655
 20
51.3509614906
 11
261.9893309517
 21
51.5335953024
  0
LINE
  5
2FA
100
AcDbEntity
  8
0
100
AcDbLine
 62
7
  6
CONTINUOUS
 10
260.7694609853
 20
51.6297527029
 11
256.8089346655
 21
51.4901251573
  0
LINE
  5
2FB
100
AcDbEntity
  8
BEZUGSACHSEN
100
AcDbLine
 62
7
  6
CONTINUOUS
 10
143.1989346655
 20
47.9874255018
 11
101.6872382745
 21
47.9874255018
  0
LINE
  5
2FC
100
AcDbEntity
  8
RUNDUNGEN
100
AcDbLine
 62
7
  6
CONTINUOUS
 10
233.1989346655
 20
47.9874255018
 11
274.7106310407
 21
47.9874255018
  0
LINE
  5
2FD
100
AcDbEntity
  8
BEZUGSACHSEN
100
AcDbLine
 62
7
  6
CONTINUOUS
 10
233.1989346655
 20
47.9874255018
 11
274.7778913076
 21
47.9876336642
  0
LINE
  5
2FE
100
AcDbEntity
  8
0
100
AcDbLine
 62
7
  6
CONTINUOUS
 10
261.151039933
 20
49.9400825622
 11
264.308934673
 21
49.9400825622
  0
LINE
  5
2FF
100
AcDbEntity
  8
0
100
AcDbLine
 62
7
  6
CONTINUOUS
 10
264.208934673
 20
50.0848021023
 11
261.256303091
 21
50.0848021023
  0
LINE
  5
300
100
AcDbEntity
  8
0
100
AcDbLine
 62
7
  6
CONTINUOUS
 10
258.782618878
 20
50.3868073254
 11
265.4931452005
 21
50.3868073254
  0
LINE
  5
301
100
AcDbEntity
  8
0
100
AcDbLine
 62
7
  6
CONTINUOUS
 10
268.6510399405
 20
50.5314304502
 11
266.677355728
 21
50.5314304502
  0
LINE
  5
302
100
AcDbEntity
  8
0
100
AcDbLine
 62
7
  6
CONTINUOUS
 10
265.4931452005
 20
50.5314304502
 11
256.8089346655
 21
50.5314304502
  0
LINE
  5
303
100
AcDbEntity
  8
0
100
AcDbLine
 62
7
  6
CONTINUOUS
 10
261.5457767755
 20
50.676053575
 11
268.6510399405
 21
50.676053575
  0
LINE
  5
304
100
AcDbEntity
  8
0
100
AcDbLine
 62
7
  6
CONTINUOUS
 10
268.6510399405
 20
50.8206766997
 11
261.5457767755
 21
50.8206766997
  0
LINE
  5
305
100
AcDbEntity
  8
0
100
AcDbLine
 62
7
  6
CONTINUOUS
 10
261.5457767755
 20
51.1099229493
 11
268.6510399405
 21
51.1099229493
  0
LINE
  5
306
100
AcDbEntity
  8
0
100
AcDbLine
 62
7
  6
CONTINUOUS
 10
268.6510399405
 20
51.2545460741
 11
261.5457767755
 21
51.2545460741
  0
LINE
  5
307
100
AcDbEntity
  8
0
100
AcDbLine
 62
7
  6
CONTINUOUS
 10
256.8089346655
 20
51.8571424273
 11
261.7563030915
 21
51.8571424273
  0
LINE
  5
308
100
AcDbEntity
  8
0
100
AcDbLine
 62
7
  6
CONTINUOUS
 10
263.729987304
 20
51.8571424273
 11
265.4931452005
 21
51.8571424273
  0
LINE
  5
309
100
AcDbEntity
  8
0
100
AcDbLine
 62
7
  6
CONTINUOUS
 10
268.6510399405
 20
51.977661698
 11
266.677355728
 21
51.977661698
  0
LINE
  5
30A
100
AcDbEntity
  8
0
100
AcDbLine
 62
7
  6
CONTINUOUS
 10
265.4931452005
 20
51.977661698
 11
256.8089346655
 21
51.977661698
  0
LINE
  5
30B
100
AcDbEntity
  8
0
100
AcDbLine
 62
7
  6
CONTINUOUS
 10
268.6510399405
 20
52.4767286519
 11
266.677355728
 21
52.4767286519
  0
LINE
  5
30C
100
AcDbEntity
  8
0
100
AcDbLine
 62
7
  6
CONTINUOUS
 10
265.4931452005
 20
52.4767286519
 11
256.8089346655
 21
52.4767286519
  0
LINE
  5
30D
100
AcDbEntity
  8
0
100
AcDbLine
 62
7
  6
CONTINUOUS
 10
154.4989346655
 20
53.4574255018
 11
156.2489346655
 21
53.4574255018
  0
LINE
  5
30E
100
AcDbEntity
  8
0
100
AcDbLine
 62
7
  6
CONTINUOUS
 10
156.9489346655
 20
53.4574255018
 11
164.7889346655
 21
53.4574255018
  0
LINE
  5
30F
100
AcDbEntity
  8
0
100
AcDbLine
 62
7
  6
CONTINUOUS
 10
182.1089344778
 20
54.9874255018
 11
185.2589346655
 21
53.9374255018
  0
LINE
  5
310
100
AcDbEntity
  8
0
100
AcDbLine
 62
7
  6
CONTINUOUS
 10
178.1610618183
 20
54.9874255018
 11
183.918509137
 21
53.0624253975
  0
LINE
  5
311
100
AcDbEntity
  8
0
100
AcDbLine
 62
7
  6
CONTINUOUS
 10
176.0993600377
 20
83.4686755018
 11
176.0993600377
 21
82.1561755018
  0
LINE
  5
312
100
AcDbEntity
  8
0
100
AcDbLine
 62
7
  6
CONTINUOUS
 10
177.2163811811
 20
86.0936755018
 11
177.2163811811
 21
84.7811755018
  0
LINE
  5
313
100
AcDbEntity
  8
0
100
AcDbLine
 62
7
  6
CONTINUOUS
 10
179.2270198651
 20
83.4686755018
 11
179.2270198651
 21
82.1561755018
  0
LINE
  5
314
100
AcDbEntity
  8
0
100
AcDbLine
 62
7
  6
CONTINUOUS
 10
180.5674452373
 20
83.4686755018
 11
180.5674452373
 21
82.1561755018
  0
LINE
  5
315
100
AcDbEntity
  8
0
100
AcDbLine
 62
7
  6
CONTINUOUS
 10
179.4504240938
 20
84.5624263362
 11
179.2270198651
 21
83.4686755018
  0
LINE
  5
316
100
AcDbEntity
  8
0
100
AcDbLine
 62
7
  6
CONTINUOUS
 10
180.7908494659
 20
84.3436746673
 11
180.5674452373
 21
83.4686755018
  0
LINE
  5
317
100
AcDbEntity
  8
0
100
AcDbLine
 62
7
  6
CONTINUOUS
 10
180.5674452373
 20
82.1561755018
 11
180.3440410086
 21
81.2811763362
  0
LINE
  5
318
100
AcDbEntity
  8
0
100
AcDbLine
 62
7
  6
CONTINUOUS
 10
183.918509137
 20
81.7186746673
 11
183.7318070666
 21
80.9874255018
  0
LINE
  5
319
100
AcDbEntity
  8
0
100
AcDbLine
 62
7
  6
CONTINUOUS
 10
179.2270198651
 20
82.1561755018
 11
179.0036156364
 21
81.4999255018
  0
LINE
  5
31A
100
AcDbEntity
  8
0
100
AcDbLine
 62
7
  6
CONTINUOUS
 10
180.3440410086
 20
81.2811763362
 11
180.1940408864
 21
80.9874255018
  0
LINE
  5
31B
100
AcDbEntity
  8
RUNDUNGEN
100
AcDbLine
 62
7
  6
CONTINUOUS
 10
185.6007155661
 20
54.9874255018
 11
115.1887455428
 21
54.9874255018
  0
LINE
  5
31C
100
AcDbEntity
  8
BEZUGSACHSEN
100
AcDbLine
 62
7
  6
CONTINUOUS
 10
185.6007155661
 20
54.9874255018
 11
261.2091237883
 21
54.9874255018
  0
LWPOLYLINE
  5
31D
100
AcDbEntity
  8
BEZUGSACHSEN
100
AcDbPolyline
 62
7
  6
CONTINUOUS
 90
20
 70
0
 10
243.5966574047
 20
54.9871653183
 10
243.7181911091
 20
54.9863850812
 10
243.83186425
 20
54.9851351989
 10
243.9378101591
 20
54.9834679961
 10
244.0361759117
 20
54.9814372067
 10
244.1271074651
 20
54.9790979496
 10
244.2107472225
 20
54.976506754
 10
244.2872434472
 20
54.9737213134
 10
244.3567393939
 20
54.9708007643
 10
244.4193840615
 20
54.9678051448
 10
244.4753190534
 20
54.9647959211
 10
244.5247015481
 20
54.9618347721
 10
244.5676821192
 20
54.9589845018
 10
244.6044132158
 20
54.9563084753
 10
244.6350470299
 20
54.953870658
 10
244.6597388919
 20
54.9517352771
 10
244.678627679
 20
54.9499684346
 10
244.6919686666
 20
54.9486246513
 10
244.6999712681
 20
54.9477605853
 10
244.7020928477
 20
54.9475190724
  0
LINE
  5
31E
100
AcDbEntity
  8
0
100
AcDbLine
 62
7
  6
CONTINUOUS
 10
176.0993600377
 20
82.1561755018
 11
176.3227642664
 21
81.4999255018
  0
LINE
  5
31F
100
AcDbEntity
  8
0
100
AcDbLine
 62
7
  6
CONTINUOUS
 10
174.7589346655
 20
82.1561755018
 11
174.9823388942
 21
81.2811763362
  0
LINE
  5
320
100
AcDbEntity
  8
0
100
AcDbLine
 62
7
  6
CONTINUOUS
 10
183.918509137
 20
83.4686755018
 11
183.918509137
 21
81.7186746673
  0
LINE
  5
321
100
AcDbEntity
  8
0
100
AcDbLine
 62
7
  6
CONTINUOUS
 10
185.2589346655
 20
83.4686755018
 11
185.2589346655
 21
81.7186746673
  0
LINE
  5
322
100
AcDbEntity
  8
0
100
AcDbLine
 62
7
  6
CONTINUOUS
 10
185.2589346655
 20
53.9374255018
 11
185.2589346655
 21
52.1874256061
  0
LINE
  5
323
100
AcDbEntity
  8
0
100
AcDbLine
 62
7
  6
CONTINUOUS
 10
185.2589346655
 20
81.7186746673
 11
185.1095729107
 21
80.9874255018
  0
LWPOLYLINE
  5
324
100
AcDbEntity
  8
RUNDUNGEN
100
AcDbPolyline
 62
7
  6
CONTINUOUS
 90
21
 70
0
 10
131.6990580919
 20
54.9479463943
 10
131.6949222654
 20
54.9474187939
 10
131.6979022342
 20
54.947761053
 10
131.7059083614
 20
54.9486254568
 10
131.7192526575
 20
54.9499695057
 10
131.7381444679
 20
54.9517365417
 10
131.7628389914
 20
54.9538720454
 10
131.7934750879
 20
54.9563099226
 10
131.8302080561
 20
54.9589859533
 10
131.873190074
 20
54.9618361805
 10
131.9225735763
 20
54.9647972471
 10
131.9785091176
 20
54.967806357
 10
132.0411538578
 20
54.9708018393
 10
132.1106493809
 20
54.9737222353
 10
132.1871446649
 20
54.9765075143
 10
132.2707829479
 20
54.9790985475
 10
132.3617124755
 20
54.9814376486
 10
132.4600756326
 20
54.9834682955
 10
132.566018357
 20
54.9851353763
 10
132.6796877057
 20
54.9863851637
 10
132.8012169923
 20
54.9871653396
  0
LINE
  5
325
100
AcDbEntity
  8
0
100
AcDbLine
 62
7
  6
CONTINUOUS
 10
176.3227642664
 20
81.4999255018
 11
176.671700395
 21
80.9874255018
  0
LINE
  5
326
100
AcDbEntity
  8
0
100
AcDbLine
 62
7
  6
CONTINUOUS
 10
174.9823388942
 20
81.2811763362
 11
175.1323390164
 21
80.9874255018
  0
LINE
  5
327
100
AcDbEntity
  8
0
100
AcDbLine
 62
7
  6
CONTINUOUS
 10
183.6951049083
 20
84.3436746673
 11
183.918509137
 21
83.4686755018
  0
LINE
  5
328
100
AcDbEntity
  8
0
100
AcDbLine
 62
7
  6
CONTINUOUS
 10
185.0355304173
 20
84.5624263362
 11
185.2589346655
 21
83.4686755018
  0
LWPOLYLINE
  5
329
100
AcDbEntity
  8
BEZUGSACHSEN
100
AcDbPolyline
 62
7
  6
CONTINUOUS
 90
21
 70
0
 10
244.6988112392
 20
81.0269046093
 10
244.7029470657
 20
81.0274322097
 10
244.6999670969
 20
81.0270899506
 10
244.6919609697
 20
81.0262255468
 10
244.6786166736
 20
81.0248814979
 10
244.6597248631
 20
81.0231144619
 10
244.6350303396
 20
81.0209789582
 10
244.6043942432
 20
81.0185410809
 10
244.567661275
 20
81.0158650502
 10
244.5246792571
 20
81.0130148231
 10
244.4752957547
 20
81.0100537565
 10
244.4193602135
 20
81.0070446465
 10
244.3567154732
 20
81.0040491642
 10
244.2872199502
 20
81.0011287683
 10
244.2107246662
 20
80.9983434893
 10
244.1270863832
 20
80.9957524561
 10
244.0361568556
 20
80.9934133549
 10
243.9377936985
 20
80.991382708
 10
243.8318509741
 20
80.9897156272
 10
243.7181816254
 20
80.9884658398
 10
243.5966523388
 20
80.9876856639
  0
LINE
  5
32A
100
AcDbEntity
  8
0
100
AcDbLine
 62
7
  6
CONTINUOUS
 10
183.2482962944
 20
84.9999246673
 11
183.6951049083
 21
84.3436746673
  0
LINE
  5
32B
100
AcDbEntity
  8
0
100
AcDbLine
 62
7
  6
CONTINUOUS
 10
184.5887219012
 20
85.4374255018
 11
185.0355304173
 21
84.5624263362
  0
LINE
  5
32C
100
AcDbEntity
  8
0
100
AcDbLine
 62
7
  6
CONTINUOUS
 10
183.918509137
 20
53.0624253975
 11
174.7589346655
 21
49.9999255018
  0
LINE
  5
32D
100
AcDbEntity
  8
0
100
AcDbLine
 62
7
  6
CONTINUOUS
 10
185.2589346655
 20
52.1874256061
 11
174.7589346655
 21
48.6874255018
  0
LINE
  5
32E
100
AcDbEntity
  8
BEZUGSACHSEN
100
AcDbLine
 62
7
  6
CONTINUOUS
 10
115.1887455428
 20
80.9874255018
 11
261.2091237883
 21
80.9874255018
  0
LWPOLYLINE
  5
32F
100
AcDbEntity
  8
BEZUGSACHSEN
100
AcDbPolyline
 62
7
  6
CONTINUOUS
 90
20
 70
0
 10
132.8012119264
 20
80.9876856853
 10
132.679678222
 20
80.9884659224
 10
132.5660050811
 20
80.9897158047
 10
132.460059172
 20
80.9913830075
 10
132.3616934193
 20
80.9934137968
 10
132.270761866
 20
80.995753054
 10
132.1871221086
 20
80.9983442496
 10
132.1106258839
 20
81.0011296901
 10
132.0411299371
 20
81.0040502392
 10
131.9784852696
 20
81.0070458588
 10
131.9225502777
 20
81.0100550825
 10
131.873167783
 20
81.0130162314
 10
131.8301872118
 20
81.0158665018
 10
131.7934561153
 20
81.0185425283
 10
131.7628223011
 20
81.0209803455
 10
131.7381304392
 20
81.0231157265
 10
131.719241652
 20
81.0248825689
 10
131.7059006645
 20
81.0262263523
 10
131.697898063
 20
81.0270904182
 10
131.6957764833
 20
81.0273319312
  0
LINE
  5
330
100
AcDbEntity
  8
0
100
AcDbLine
 62
7
  6
CONTINUOUS
 10
182.8014878371
 20
86.7499255018
 11
183.6951049083
 21
86.3124246673
  0
LINE
  5
331
100
AcDbEntity
  8
0
100
AcDbLine
 62
7
  6
CONTINUOUS
 10
182.5780836084
 20
85.4374255018
 11
183.2482962944
 21
84.9999246673
  0
LINE
  5
332
100
AcDbEntity
  8
0
100
AcDbLine
 62
7
  6
CONTINUOUS
 10
183.6951049083
 20
86.3124246673
 11
184.5887219012
 21
85.4374255018
  0
LWPOLYLINE
  5
333
100
AcDbEntity
  8
BEZUGSACHSEN
100
AcDbPolyline
 62
7
  6
CONTINUOUS
 90
147
 70
0
 10
101.6199780236
 20
87.9872173394
 10
101.4362341047
 20
87.9841000904
 10
101.25259156
 20
87.9772449023
 10
101.0691265746
 20
87.9666546486
 10
100.8859151666
 20
87.9523337698
 10
100.7030333178
 20
87.9342882803
 10
100.5205568133
 20
87.9125257573
 10
100.33856137
 20
87.8870553559
 10
100.1571223746
 20
87.8578877781
 10
99.9763152928
 20
87.8250353403
 10
99.7962151321
 20
87.7885118951
 10
99.6168969125
 20
87.7483329247
 10
99.4384349101
 20
87.704515384
 10
99.2609041798
 20
87.6570780839
 10
99.0843788838
 20
87.6060413186
 10
98.9089332798
 20
87.5514271363
 10
98.734640931
 20
87.4932591318
 10
98.5615748812
 20
87.431562493
 10
98.3898073324
 20
87.36636388
 10
98.2194106946
 20
87.2976918331
 10
98.0504546381
 20
87.2255755797
 10
97.8830153462
 20
87.1500490725
 10
97.7171652704
 20
87.0711468806
 10
97.5529797215
 20
86.9889072244
 10
97.3905331193
 20
86.9033704414
 10
97.229893887
 20
86.8145761261
 10
97.0711310259
 20
86.722566378
 10
96.9143104426
 20
86.6273837426
 10
96.7594971582
 20
86.529072368
 10
96.6067557204
 20
86.4276783145
 10
96.4561469891
 20
86.3232473787
 10
96.3077392327
 20
86.2158329147
 10
96.1615744212
 20
86.105471198
 10
96.0177823411
 20
85.9922691176
 10
95.8764507216
 20
85.8763102618
 10
95.7377196369
 20
85.7577309548
 10
95.6017161922
 20
85.6366710093
 10
95.4685243632
 20
85.5132441925
 10
95.3382859956
 20
85.3876307109
 10
95.2109164493
 20
85.259798632
 10
95.0864091656
 20
85.1297834663
 10
94.9646839509
 20
84.9975354768
 10
94.8455768464
 20
84.8628912559
 10
94.7293660393
 20
84.7261834776
 10
94.6158305625
 20
84.5871697228
 10
94.5062194952
 20
84.4474711356
 10
94.4013320752
 20
84.3083603041
 10
94.3017749262
 20
84.1710243692
 10
94.2085344025
 20
84.0373613378
 10
94.1208003532
 20
83.9067921599
 10
94.0383384235
 20
83.7794960113
 10
93.9604999017
 20
83.6549549777
 10
93.8867149941
 20
83.5326649928
 10
93.8167285639
 20
83.4125646832
 10
93.750181249
 20
83.2943678791
 10
93.6869320216
 20
83.1781317847
 10
93.6267943526
 20
83.0638125357
 10
93.5695943816
 20
82.9513655951
 10
93.5151431895
 20
82.8406908926
 10
93.4633452646
 20
82.7318575159
 10
93.4140461557
 20
82.624798483
 10
93.3672515391
 20
82.519788296
 10
93.3229207218
 20
82.4170148557
 10
93.2810091346
 20
82.3166661361
 10
93.2414765155
 20
82.2189493058
 10
93.2042475769
 20
82.1239903292
 10
93.169305195
 20
82.0320683785
 10
93.1364307138
 20
81.9429235577
 10
93.1055020489
 20
81.8565183888
 10
93.0762721683
 20
81.7724288655
 10
93.0485216797
 20
81.6902481517
 10
93.022136437
 20
81.6098350691
 10
92.996969368
 20
81.530917988
 10
92.9729534351
 20
81.4534477018
 10
92.9500126909
 20
81.3773328767
 10
92.928054549
 20
81.3024081193
 10
92.9070028868
 20
81.2285423884
 10
92.8867629748
 20
81.1555172006
 10
92.8672497432
 20
81.0831219005
 10
92.8483915036
 20
81.0111710133
 10
92.8301150599
 20
80.9394502023
 10
92.8123671373
 20
80.8678011995
 10
92.7950833512
 20
80.7960006234
 10
92.7782436611
 20
80.7239919217
 10
92.7618133685
 20
80.6516479004
 10
92.7457787211
 20
80.5789243372
 10
92.7301199191
 20
80.5057453801
 10
92.7148209492
 20
80.4320471577
 10
92.6998629928
 20
80.3577468866
 10
92.6852341996
 20
80.2827911052
 10
92.6709188232
 20
80.2071025654
 10
92.6569079035
 20
80.1306360316
 10
92.6431905251
 20
80.0533341014
 10
92.6297538221
 20
79.9751253242
 10
92.6165856923
 20
79.8959387212
 10
92.6036718123
 20
79.8156855193
 10
92.5909994254
 20
79.7342814012
 10
92.5785522513
 20
79.6516131184
 10
92.5663157493
 20
79.567570702
 10
92.5542746022
 20
79.4820308185
 10
92.5424206064
 20
79.3949137989
 10
92.5307216341
 20
79.3059516567
 10
92.5191583113
 20
79.2149493769
 10
92.5076938896
 20
79.1215499138
 10
92.4962954957
 20
79.0253888119
 10
92.4849453158
 20
78.9261956575
 10
92.4736090913
 20
78.8235229761
 10
92.4623126793
 20
78.7174474862
 10
92.4510616534
 20
78.6078743211
 10
92.4398797546
 20
78.4948978931
 10
92.4287933736
 20
78.3786724735
 10
92.4177953514
 20
78.2590187577
 10
92.4068981289
 20
78.1359689891
 10
92.3960730116
 20
78.0090821422
 10
92.3853044893
 20
77.8780251421
 10
92.3745779972
 20
77.7424397345
 10
92.3638808048
 20
77.6019519736
 10
92.3532040316
 20
77.4561993726
 10
92.3425345516
 20
77.3047186262
 10
92.3318839454
 20
77.147363031
 10
92.3212420929
 20
76.983643222
 10
92.3106672636
 20
76.8141277462
 10
92.3001953246
 20
76.6391247613
 10
92.2898721443
 20
76.459191989
 10
92.279739798
 20
76.2749288475
 10
92.2698300636
 20
76.0868489491
 10
92.2601760127
 20
75.8955842849
 10
92.2508013513
 20
75.7016774911
 10
92.2417321376
 20
75.5058088297
 10
92.2329808084
 20
75.3084499559
 10
92.2245721611
 20
75.1104322931
 10
92.2164843399
 20
74.9115364366
 10
92.2087107703
 20
74.7118728656
 10
92.2012344863
 20
74.5112582418
 10
92.1940426252
 20
74.3095659255
 10
92.1871238087
 20
74.1066664015
 10
92.1804667776
 20
73.9023869951
 10
92.1740653045
 20
73.6966681463
 10
92.1679107955
 20
73.4893384206
 10
92.1620041975
 20
73.2805208652
 10
92.1563439484
 20
73.0702527095
 10
92.1509299055
 20
72.8586192952
 10
92.1457615845
 20
72.6456944452
 10
92.1408385682
 20
72.4315539228
 10
92.1361605216
 20
72.2162785512
 10
92.1317267016
 20
71.9999298615
 10
92.1235893603
 20
71.5642779862
  0
LINE
  5
334
100
AcDbEntity
  8
0
100
AcDbLine
 62
7
  6
CONTINUOUS
 10
181.9078709223
 20
85.4374255018
 11
182.5780836084
 21
85.4374255018
  0
LINE
  5
335
100
AcDbEntity
  8
0
100
AcDbLine
 62
7
  6
CONTINUOUS
 10
181.6844666936
 20
86.7499255018
 11
182.8014878371
 21
86.7499255018
  0
LINE
  5
336
100
AcDbEntity
  8
BEZUGSACHSEN
100
AcDbLine
 62
7
  6
CONTINUOUS
 10
143.1989346655
 20
87.9874255018
 11
101.6199780236
 21
87.9872173394
  0
LINE
  5
337
100
AcDbEntity
  8
KONSTRUKTIONSELEMENTE
100
AcDbLine
 62
7
  6
CONTINUOUS
 10
233.1989346655
 20
109.2746284524
 11
233.1989346655
 21
107.3797356223
  0
LINE
  5
338
100
AcDbEntity
  8
0
100
AcDbLine
 62
7
  6
CONTINUOUS
 10
233.1989346655
 20
107.3797356223
 11
233.1989346655
 21
80.9874255018
  0
LINE
  5
339
100
AcDbEntity
  8
0
100
AcDbLine
 62
7
  6
CONTINUOUS
 10
233.1989346655
 20
54.9874255018
 11
233.1989346655
 21
26.7002225512
  0
LINE
  5
33A
100
AcDbEntity
  8
KONSTRUKTIONSELEMENTE
100
AcDbLine
 62
7
  6
CONTINUOUS
 10
151.1989346655
 20
115.9874255018
 11
225.1989346655
 21
115.9874255018
  0
LINE
  5
33B
100
AcDbEntity
  8
0
100
AcDbLine
 62
7
  6
CONTINUOUS
 10
256.8089346655
 20
52.4767286519
 11
256.8089346655
 21
50.2052249576
  0
LINE
  5
33C
100
AcDbEntity
  8
0
100
AcDbLine
 62
7
  6
CONTINUOUS
 10
258.782618878
 20
50.2358529215
 11
258.782618878
 21
50.3868073254
  0
LINE
  5
33D
100
AcDbEntity
  8
0
100
AcDbLine
 62
7
  6
CONTINUOUS
 10
261.7563030915
 20
51.8571424273
 11
261.7563030915
 21
51.7341254529
  0
LINE
  5
33E
100
AcDbEntity
  8
0
100
AcDbLine
 62
7
  6
CONTINUOUS
 10
263.729987304
 20
51.6578838998
 11
263.729987304
 21
51.8571424273
  0
LINE
  5
33F
100
AcDbEntity
  8
0
100
AcDbLine
 62
7
  6
CONTINUOUS
 10
264.208934673
 20
50.3868073254
 11
264.208934673
 21
50.0848021023
  0
LINE
  5
340
100
AcDbEntity
  8
0
100
AcDbLine
 62
7
  6
CONTINUOUS
 10
265.4931452005
 20
50.3868073254
 11
265.4931452005
 21
50.676053575
  0
LINE
  5
341
100
AcDbEntity
  8
0
100
AcDbLine
 62
7
  6
CONTINUOUS
 10
265.4931452005
 20
51.8571424273
 11
265.4931452005
 21
52.4767286519
  0
LINE
  5
342
100
AcDbEntity
  8
0
100
AcDbLine
 62
7
  6
CONTINUOUS
 10
266.677355728
 20
52.4767286519
 11
266.677355728
 21
51.6578838998
  0
LINE
  5
343
100
AcDbEntity
  8
0
100
AcDbLine
 62
7
  6
CONTINUOUS
 10
266.677355728
 20
50.676053575
 11
266.677355728
 21
50.2358525796
  0
LINE
  5
344
100
AcDbEntity
  8
0
100
AcDbLine
 62
7
  6
CONTINUOUS
 10
268.6510399405
 20
50.2052249576
 11
268.6510399405
 21
52.4767286519
  0
LWPOLYLINE
  5
345
100
AcDbEntity
  8
BEZUGSACHSEN
100
AcDbPolyline
 62
7
  6
CONTINUOUS
 90
146
 70
0
 10
284.2617065252
 20
72.2163867608
 10
284.2570282209
 20
72.4316676214
 10
284.2521049321
 20
72.6458135627
 10
284.2469363261
 20
72.8587436527
 10
284.2415219883
 20
73.0703820364
 10
284.2358614371
 20
73.2806548029
 10
284.2299545341
 20
73.4894764917
 10
284.2237997179
 20
73.6968098955
 10
284.2173979413
 20
73.9025318153
 10
284.2107405986
 20
74.1068140967
 10
284.2038214541
 20
74.3097165287
 10
284.1966292355
 20
74.5114121137
 10
284.1891525505
 20
74.7120306497
 10
284.1813785213
 20
74.9116990446
 10
284.1732901548
 20
75.110601116
 10
284.1648808873
 20
75.3086259237
 10
284.1561288277
 20
75.5059934597
 10
284.1470588869
 20
75.7018696762
 10
284.1376835818
 20
75.8957813826
 10
284.1280290886
 20
76.087046323
 10
284.1181192844
 20
76.2751192396
 10
284.1079872243
 20
76.459369345
 10
284.0976647716
 20
76.6392823566
 10
284.0871938698
 20
76.8142619002
 10
284.0766203006
 20
76.983752153
 10
284.0659798241
 20
77.1474468627
 10
284.0553305537
 20
77.3047798177
 10
284.0446623729
 20
77.4562401085
 10
284.033986798
 20
77.6019751109
 10
284.0232907379
 20
77.742447413
 10
284.0125653237
 20
77.878019166
 10
284.0017978404
 20
78.0090639777
 10
283.9909737412
 20
78.1359397805
 10
283.9800775312
 20
78.2589793942
 10
283.9690805474
 20
78.3786234562
 10
283.9579952115
 20
78.494839902
 10
283.9468143634
 20
78.6078080063
 10
283.9355643684
 20
78.7173736986
 10
283.9242689324
 20
78.8234428188
 10
283.9129336473
 20
78.9261099729
 10
283.9015843667
 20
79.0252983921
 10
283.890186864
 20
79.1214552242
 10
283.8787233549
 20
79.2148506126
 10
283.8671609808
 20
79.3058488969
 10
283.8554630296
 20
79.3948068637
 10
283.8436101015
 20
79.4819197438
 10
283.831570057
 20
79.5674556233
 10
283.8193346826
 20
79.6514942319
 10
283.8068886488
 20
79.7341589769
 10
283.7942174048
 20
79.815559875
 10
283.7813046576
 20
79.8958102304
 10
283.7681376372
 20
79.97499441
 10
283.754702
 20
80.0532012661
 10
283.7409856409
 20
80.1305017514
 10
283.7269756838
 20
80.2069673282
 10
283.7126612072
 20
80.2826553858
 10
283.6980332375
 20
80.3576111829
 10
283.6830760347
 20
80.4319118913
 10
283.6677777579
 20
80.5056108884
 10
283.6521195664
 20
80.5787910276
 10
283.6360854303
 20
80.6515162174
 10
283.6196555361
 20
80.723862329
 10
283.6028160743
 20
80.7958737834
 10
283.5855324539
 20
80.8676772778
 10
283.5677847238
 20
80.9393289916
 10
283.5495085379
 20
81.0110521782
 10
283.5306506963
 20
81.0830048542
 10
283.5111380136
 20
81.1554013697
 10
283.4908988449
 20
81.2284270962
 10
283.469848111
 20
81.302292785
 10
283.4478911542
 20
81.3772167348
 10
283.4249516512
 20
81.453330714
 10
283.4009368066
 20
81.5308007945
 10
283.3757706888
 20
81.6097182164
 10
283.3493860151
 20
81.6901328813
 10
283.3216362625
 20
81.7723147224
 10
283.2924078005
 20
81.8564034994
 10
283.2614813084
 20
81.9428060294
 10
283.2286103215
 20
82.0319449958
 10
283.1936718938
 20
82.1238604176
 10
283.1564465762
 20
82.2188142873
 10
283.1169172702
 20
82.3165272619
 10
283.0750084017
 20
82.4168739579
 10
283.0306797316
 20
82.5196469941
 10
282.9838865434
 20
82.624658573
 10
282.9345883422
 20
82.7317201992
 10
282.8827908607
 20
82.8405571282
 10
282.8283400172
 20
82.9512355114
 10
282.771140894
 20
83.0636850929
 10
282.7110041559
 20
83.1780068233
 10
282.6477557271
 20
83.2942456462
 10
282.5812089581
 20
83.4124456136
 10
282.5112220489
 20
83.5325507775
 10
282.437437288
 20
83.6548444519
 10
282.3596006933
 20
83.7793863097
 10
282.2771438541
 20
83.9066786357
 10
282.1894211361
 20
84.0372353835
 10
282.0961950436
 20
84.1708827971
 10
281.996654151
 20
84.3082021524
 10
281.8917811776
 20
84.4473003449
 10
281.7821771083
 20
84.5869968923
 10
281.6686439753
 20
84.7260146375
 10
281.5524311427
 20
84.8627313547
 10
281.4333201972
 20
84.9973860679
 10
281.3115927039
 20
85.1296422913
 10
281.1870837564
 20
85.2596646454
 10
281.0597135033
 20
85.3875026363
 10
280.9294749247
 20
85.513121323
 10
280.7962830625
 20
85.6365530019
 10
280.6602795162
 20
85.7576177087
 10
280.5215478543
 20
85.8762020199
 10
280.3802152266
 20
85.9921660463
 10
280.2364215392
 20
86.1053735601
 10
280.0902547376
 20
86.2157407671
 10
279.9418447825
 20
86.3231606305
 10
279.7912336569
 20
86.4275968603
 10
279.6384897139
 20
86.5289960427
 10
279.483673793
 20
86.6273123964
 10
279.3268504482
 20
86.7224998574
 10
279.1680847054
 20
86.8145142751
 10
279.0074424826
 20
86.9033130984
 10
278.8449927687
 20
86.9888542349
 10
278.6808039793
 20
87.0710980936
 10
278.5149505281
 20
87.1500043386
 10
278.3475077094
 20
87.2255347544
 10
278.1785479962
 20
87.2976547595
 10
278.0081475861
 20
87.3663303936
 10
277.836376157
 20
87.4315324251
 10
277.6633061302
 20
87.4932323086
 10
277.4890097105
 20
87.5514033825
 10
277.3135599465
 20
87.6060204567
 10
277.1370304055
 20
87.6570599344
 10
276.9594953487
 20
87.7044997656
 10
276.7810289446
 20
87.7483196538
 10
276.6017062536
 20
87.7885007861
 10
276.421601558
 20
87.8250262056
 10
276.240789884
 20
87.8578804283
 10
276.0593462449
 20
87.8870496003
 10
275.8773461121
 20
87.9125214036
 10
275.6948648785
 20
87.9342851352
 10
275.5119782672
 20
87.9523316388
 10
275.328762069
 20
87.9666533365
 10
275.1452922723
 20
87.9772442132
 10
274.9616449009
 20
87.9840998278
 10
274.7778961463
 20
87.9872173065
 10
233.1989346655
 20
87.9874255018
  0
LINE
  5
346
100
AcDbEntity
  8
BEZUGSACHSEN
100
AcDbLine
 62
7
  6
CONTINUOUS
 10
284.2703307591
 20
71.782684768
 11
284.2617065252
 21
72.2163867608
  0
LINE
  5
347
100
AcDbEntity
  8
BEZUGSACHSEN
100
AcDbLine
 62
7
  6
CONTINUOUS
 10
284.2779842752
 20
71.3451282935
 11
284.2703307591
 21
71.782684768
  0
LINE
  5
348
100
AcDbEntity
  8
BEZUGSACHSEN
100
AcDbLine
 62
7
  6
CONTINUOUS
 10
284.2846743502
 20
70.9039938626
 11
284.2779842752
 21
71.3451282935
  0
LINE
  5
349
100
AcDbEntity
  8
BEZUGSACHSEN
100
AcDbLine
 62
7
  6
CONTINUOUS
 10
284.2904050119
 20
70.4596217797
 11
284.2846743502
 21
70.9039938626
  0
LINE
  5
34A
100
AcDbEntity
  8
BEZUGSACHSEN
100
AcDbLine
 62
7
  6
CONTINUOUS
 10
284.2951773011
 20
70.012483783
 11
284.2904050119
 21
70.4596217797
  0
LINE
  5
34B
100
AcDbEntity
  8
BEZUGSACHSEN
100
AcDbLine
 62
7
  6
CONTINUOUS
 10
284.2989914554
 20
69.5630981796
 11
284.2951773011
 21
70.012483783
  0
LINE
  5
34C
100
AcDbEntity
  8
BEZUGSACHSEN
100
AcDbLine
 62
7
  6
CONTINUOUS
 10
284.3018477829
 20
69.1119696316
 11
284.2989914554
 21
69.5630981796
  0
LINE
  5
34D
100
AcDbEntity
  8
BEZUGSACHSEN
100
AcDbLine
 62
7
  6
CONTINUOUS
 10
284.3037465324
 20
68.6595949151
 11
284.3018477829
 21
69.1119696316
  0
LINE
  5
34E
100
AcDbEntity
  8
BEZUGSACHSEN
100
AcDbLine
 62
7
  6
CONTINUOUS
 10
284.304687836
 20
68.2064624742
 11
284.3037465324
 21
68.6595949151
  0
LINE
  5
34F
100
AcDbEntity
  8
BEZUGSACHSEN
100
AcDbLine
 62
7
  6
CONTINUOUS
 10
284.3046878421
 20
67.7683945078
 11
284.304687836
 21
68.2064624742
  0
LINE
  5
350
100
AcDbEntity
  8
BEZUGSACHSEN
100
AcDbLine
 62
7
  6
CONTINUOUS
 10
284.3037465885
 20
67.3152739837
 11
284.3046878421
 21
67.7683945078
  0
LINE
  5
351
100
AcDbEntity
  8
BEZUGSACHSEN
100
AcDbLine
 62
7
  6
CONTINUOUS
 10
284.3018479394
 20
66.8629111073
 11
284.3037465885
 21
67.3152739837
  0
LINE
  5
352
100
AcDbEntity
  8
BEZUGSACHSEN
100
AcDbLine
 62
7
  6
CONTINUOUS
 10
284.2989917627
 20
66.4117943141
 11
284.3018479394
 21
66.8629111073
  0
LINE
  5
353
100
AcDbEntity
  8
BEZUGSACHSEN
100
AcDbLine
 62
7
  6
CONTINUOUS
 10
284.29517781
 20
65.9624203652
 11
284.2989917627
 21
66.4117943141
  0
LINE
  5
354
100
AcDbEntity
  8
BEZUGSACHSEN
100
AcDbLine
 62
7
  6
CONTINUOUS
 10
284.2904057731
 20
65.5152938519
 11
284.29517781
 21
65.9624203652
  0
LINE
  5
355
100
AcDbEntity
  8
BEZUGSACHSEN
100
AcDbLine
 62
7
  6
CONTINUOUS
 10
284.2846754132
 20
65.070932939
 11
284.2904057731
 21
65.5152938519
  0
LINE
  5
356
100
AcDbEntity
  8
BEZUGSACHSEN
100
AcDbLine
 62
7
  6
CONTINUOUS
 10
284.2779856888
 20
64.6298093273
 11
284.2846754132
 21
65.070932939
  0
LINE
  5
357
100
AcDbEntity
  8
BEZUGSACHSEN
100
AcDbLine
 62
7
  6
CONTINUOUS
 10
284.2703325768
 20
64.1922635554
 11
284.2779856888
 21
64.6298093273
  0
ARC
  5
358
100
AcDbEntity
  8
RUNDUNGEN
100
AcDbCircle
 62
7
  6
CONTINUOUS
 10
150.1989346155
 20
222.3610402056
 40
12.0
100
AcDbArc
 50
179.9999888272
 51
234.3131729728
  0
ARC
  5
359
100
AcDbEntity
  8
BEZUGSACHSEN
100
AcDbCircle
 62
7
  6
CONTINUOUS
 10
101.0930697539
 20
179.3610402058
 40
9.0
100
AcDbArc
 50
176.9486196628
 51
270.0000000002
  0
ARC
  5
35A
100
AcDbEntity
  8
0
100
AcDbCircle
 62
7
  6
CONTINUOUS
 10
151.1989346655
 20
229.3610402056
 40
8.0
100
AcDbArc
 50
90.0
 51
180.0
  0
ARC
  5
35B
100
AcDbEntity
  8
BEZUGSACHSEN
100
AcDbCircle
 62
7
  6
CONTINUOUS
 10
156.1703574266
 20
247.3896174446
 40
6.028577239
100
AcDbArc
 50
270.0
 51
53.8145378529
  0
ARC
  5
35C
100
AcDbEntity
  8
RUNDUNGEN
100
AcDbCircle
 62
7
  6
CONTINUOUS
 10
156.1703574266
 20
247.3896174446
 40
6.028577239
100
AcDbArc
 50
270.0
 51
55.1348325126
  0
ARC
  5
35D
100
AcDbEntity
  8
RUNDUNGEN
100
AcDbCircle
 62
7
  6
CONTINUOUS
 10
144.1989346155
 20
235.3610402056
 40
6.0
100
AcDbArc
 50
90.0
 51
178.6950943856
  0
ARC
  5
35E
100
AcDbEntity
  8
0
100
AcDbCircle
 62
7
  6
CONTINUOUS
 10
160.6730562725
 20
285.031525631
 40
47.3526833312
100
AcDbArc
 50
270.0010628376
 51
272.4476729949
  0
ARC
  5
35F
100
AcDbEntity
  8
RUNDUNGEN
100
AcDbCircle
 62
7
  6
CONTINUOUS
 10
113.9884083155
 20
293.3610402056
 40
15.7894737
100
AcDbArc
 50
157.4999944569
 51
176.9390165304
  0
ARC
  5
360
100
AcDbEntity
  8
RUNDUNGEN
100
AcDbCircle
 62
7
  6
CONTINUOUS
 10
135.724168248
 20
345.8358066231
 40
15.7894737
100
AcDbArc
 50
112.5
 51
157.5
  0
ARC
  5
361
100
AcDbEntity
  8
BEZUGSACHSEN
100
AcDbCircle
 62
7
  6
CONTINUOUS
 10
226.1989347155
 20
222.3610402056
 40
12.0
100
AcDbArc
 50
305.6868270273
 51
0.0000111728
  0
ARC
  5
362
100
AcDbEntity
  8
BEZUGSACHSEN
100
AcDbCircle
 62
7
  6
CONTINUOUS
 10
275.3047995772
 20
179.3610402058
 40
9.0
100
AcDbArc
 50
269.9999999998
 51
3.0513803257
  0
ARC
  5
363
100
AcDbEntity
  8
0
100
AcDbCircle
 62
7
  6
CONTINUOUS
 10
225.1989346655
 20
229.3610402056
 40
8.0
100
AcDbArc
 50
0.0
 51
90.0
  0
ARC
  5
364
100
AcDbEntity
  8
BEZUGSACHSEN
100
AcDbCircle
 62
7
  6
CONTINUOUS
 10
220.2275119045
 20
247.3896174446
 40
6.028577239
100
AcDbArc
 50
124.865167543
 51
270.0
  0
ARC
  5
365
100
AcDbEntity
  8
BEZUGSACHSEN
100
AcDbCircle
 62
7
  6
CONTINUOUS
 10
232.1989347155
 20
235.3610402056
 40
6.0
100
AcDbArc
 50
1.3049024879
 51
90.0
  0
ARC
  5
366
100
AcDbEntity
  8
0
100
AcDbCircle
 62
7
  6
CONTINUOUS
 10
200.3775457184
 20
232.2239496452
 40
5.6370984462
100
AcDbArc
 50
86.762496761
 51
87.3310933157
  0
ARC
  5
367
100
AcDbEntity
  8
0
100
AcDbCircle
 62
7
  6
CONTINUOUS
 10
205.0355328824
 20
232.2239496452
 40
5.6370984462
100
AcDbArc
 50
92.6689066843
 51
93.237503239
  0
ARC
  5
368
100
AcDbEntity
  8
0
100
AcDbCircle
 62
7
  6
CONTINUOUS
 10
200.3777258761
 20
232.2280465532
 40
5.6329975933
100
AcDbArc
 50
87.3309833866
 51
88.4679390163
  0
ARC
  5
369
100
AcDbEntity
  8
0
100
AcDbCircle
 62
7
  6
CONTINUOUS
 10
205.0353527247
 20
232.2280465532
 40
5.6329975933
100
AcDbArc
 50
91.5320609837
 51
92.6690166134
  0
ARC
  5
36A
100
AcDbEntity
  8
0
100
AcDbCircle
 62
7
  6
CONTINUOUS
 10
196.6544126369
 20
232.2309156284
 40
5.6301272664
100
AcDbArc
 50
87.5200347908
 51
88.0888953704
  0
ARC
  5
36B
100
AcDbEntity
  8
0
100
AcDbCircle
 62
7
  6
CONTINUOUS
 10
196.6545442346
 20
232.23502862
 40
5.6260121739
100
AcDbArc
 50
88.0888379404
 51
89.2267525509
  0
ARC
  5
36C
100
AcDbEntity
  8
0
100
AcDbCircle
 62
7
  6
CONTINUOUS
 10
200.3779810923
 20
232.2371754881
 40
5.6238650983
100
AcDbArc
 50
88.4680516016
 51
89.0370315081
  0
ARC
  5
36D
100
AcDbEntity
  8
0
100
AcDbCircle
 62
7
  6
CONTINUOUS
 10
205.0350975085
 20
232.237175488
 40
5.6238650983
100
AcDbArc
 50
90.9629684919
 51
91.5319483984
  0
ARC
  5
36E
100
AcDbEntity
  8
0
100
AcDbCircle
 62
7
  6
CONTINUOUS
 10
196.6546204764
 20
232.2399836208
 40
5.6210565954
100
AcDbArc
 50
89.2268480151
 51
89.7960997048
  0
ARC
  5
36F
100
AcDbEntity
  8
0
100
AcDbCircle
 62
7
  6
CONTINUOUS
 10
261.1336706981
 20
235.462517436
 40
4.3247360325
100
AcDbArc
 50
180.0000104154
 51
180.4044684012
  0
ARC
  5
370
100
AcDbEntity
  8
0
100
AcDbCircle
 62
7
  6
CONTINUOUS
 10
261.2464319022
 20
235.9631611223
 40
2.4638130242
100
AcDbArc
 50
180.0000353343
 51
180.7099847529
  0
ARC
  5
371
100
AcDbEntity
  8
0
100
AcDbCircle
 62
7
  6
CONTINUOUS
 10
259.7870197374
 20
260.4546047136
 40
1.9693317454
100
AcDbArc
 50
299.9243505434
 51
359.9776663507
  0
ARC
  5
372
100
AcDbEntity
  8
0
100
AcDbCircle
 62
7
  6
CONTINUOUS
 10
265.1979170967
 20
259.2075997045
 40
1.4679297927
100
AcDbArc
 50
180.0001051786
 51
181.1917164285
  0
ARC
  5
373
100
AcDbEntity
  8
RUNDUNGEN
100
AcDbCircle
 62
7
  6
CONTINUOUS
 10
188.1989346655
 20
293.3610402056
 40
50.00000005
100
AcDbArc
 50
159.5234451272
 51
235.1348325194
  0
ARC
  5
374
100
AcDbEntity
  8
BEZUGSACHSEN
100
AcDbCircle
 62
7
  6
CONTINUOUS
 10
188.1989346655
 20
293.3610402056
 40
50.00000005
100
AcDbArc
 50
304.8651674874
 51
159.5234451272
  0
ARC
  5
375
100
AcDbEntity
  8
BEZUGSACHSEN
100
AcDbCircle
 62
7
  6
CONTINUOUS
 10
262.4094610155
 20
293.3610402056
 40
15.7894737
100
AcDbArc
 50
3.0609834696
 51
22.5000055431
  0
ARC
  5
376
100
AcDbEntity
  8
BEZUGSACHSEN
100
AcDbCircle
 62
7
  6
CONTINUOUS
 10
240.673701083
 20
345.8358066231
 40
15.7894737
100
AcDbArc
 50
22.5
 51
67.5
  0
ARC
  5
377
100
AcDbEntity
  8
BEZUGSACHSEN
100
AcDbCircle
 62
7
  6
CONTINUOUS
 10
188.1989346655
 20
367.5715665556
 40
15.7894737
100
AcDbArc
 50
67.5
 51
112.5
  0
ARC
  5
378
100
AcDbEntity
  8
RUNDUNGEN
100
AcDbCircle
 62
7
  6
CONTINUOUS
 10
666.7554417019
 20
314.0006603938
 40
280.0
100
AcDbArc
 50
180.0
 51
183.5008356442
  0
ARC
  5
379
100
AcDbEntity
  8
BEZUGSACHSEN
100
AcDbCircle
 62
7
  6
CONTINUOUS
 10
80.7554417019
 20
314.0006603938
 40
280.0
100
AcDbArc
 50
356.4991643558
 51
360.0
  0
ARC
  5
37A
100
AcDbEntity
  8
0
100
AcDbCircle
 62
7
  6
CONTINUOUS
 10
373.7554417019
 20
189.3610402056
 40
48.5
100
AcDbArc
 50
111.9218026186
 51
112.7589909439
  0
ARC
  5
37B
100
AcDbEntity
  8
0
100
AcDbCircle
 62
7
  6
CONTINUOUS
 10
373.7554417019
 20
189.3610402056
 40
48.5
100
AcDbArc
 50
110.9362597053
 51
111.9208094673
  0
ARC
  5
37C
100
AcDbEntity
  8
0
100
AcDbCircle
 62
7
  6
CONTINUOUS
 10
373.7554417019
 20
189.3610402056
 40
48.5
100
AcDbArc
 50
66.5506549521
 51
69.0633320489
  0
ARC
  5
37D
100
AcDbEntity
  8
0
100
AcDbCircle
 62
7
  6
CONTINUOUS
 10
373.7554417019
 20
189.3610402056
 40
48.0
100
AcDbArc
 50
111.2171830253
 51
170.0
  0
ARC
  5
37E
100
AcDbEntity
  8
0
100
AcDbCircle
 62
7
  6
CONTINUOUS
 10
373.7554417019
 20
189.3610402056
 40
48.0
100
AcDbArc
 50
10.0
 51
68.7828169747
  0
ARC
  5
37F
100
AcDbEntity
  8
0
100
AcDbCircle
 62
7
  6
CONTINUOUS
 10
373.7554417019
 20
189.3610402056
 40
21.5
100
AcDbArc
 50
10.0
 51
24.4603551377
  0
ARC
  5
380
100
AcDbEntity
  8
0
100
AcDbCircle
 62
7
  6
CONTINUOUS
 10
373.7554417019
 20
189.3610402056
 40
21.5
100
AcDbArc
 50
155.5396448623
 51
170.0
  0
ARC
  5
381
100
AcDbEntity
  8
BEZUGSACHSEN
100
AcDbCircle
 62
7
  6
CONTINUOUS
 10
373.7554417019
 20
190.3610402056
 40
20.0
100
AcDbArc
 50
179.999994117
 51
0.000005883
  0
ARC
  5
382
100
AcDbEntity
  8
RUNDUNGEN
100
AcDbCircle
 62
7
  6
CONTINUOUS
 10
375.7554417019
 20
190.4721603306
 40
18.0
100
AcDbArc
 50
359.9999990537
 51
3.5008366878
  0
ARC
  5
383
100
AcDbEntity
  8
BEZUGSACHSEN
100
AcDbCircle
 62
7
  6
CONTINUOUS
 10
371.7554417019
 20
190.4721603306
 40
18.0
100
AcDbArc
 50
176.4991633122
 51
180.0000009463
  0
ARC
  5
384
100
AcDbEntity
  8
BEZUGSACHSEN
100
AcDbCircle
 62
7
  6
CONTINUOUS
 10
369.7554417019
 20
374.3610402556
 40
9.0
100
AcDbArc
 50
90.0
 51
180.0
  0
ARC
  5
385
100
AcDbEntity
  8
BEZUGSACHSEN
100
AcDbCircle
 62
7
  6
CONTINUOUS
 10
377.7554417019
 20
374.3610402556
 40
9.0
100
AcDbArc
 50
0.0
 51
90.0
  0
SPLINE
  5
386
100
AcDbEntity
  8
0
100
AcDbSpline
 62
7
  6
CONTINUOUS
 70
0
 71
3
 72
11
 73
7
 74
0
 42
0.0000001
 43
0.0000001
 44
0.0000000001
 40
0.0
 40
0.0
 40
0.0
 40
0.0
 40
0.2314861265
 40
0.4999999773
 40
0.7685138385
 40
1.0
 40
1.0
 40
1.0
 40
1.0
 10
220.1359235494
 20
237.8080930918
 30
0.0
 10
219.716754531
 20
237.8262547141
 30
0.0
 10
218.8104772186
 20
237.8424417711
 30
0.0
 10
217.4176037044
 20
237.8482123496
 30
0.0
 10
216.0247301266
 20
237.8424417813
 30
0.0
 10
215.1184527322
 20
237.8262547397
 30
0.0
 10
214.6992836496
 20
237.8080931318
 30
0.0
  0
SPLINE
  5
387
100
AcDbEntity
  8
0
100
AcDbSpline
 62
7
  6
CONTINUOUS
 70
0
 71
3
 72
33
 73
29
 74
0
 42
0.0000001
 43
0.0000001
 44
0.0000000001
 40
0.0
 40
0.0
 40
0.0
 40
0.0
 40
0.0010322914
 40
0.0030477967
 40
0.0104992896
 40
0.0225799384
 40
0.0392163867
 40
0.0602495514
 40
0.0854914288
 40
0.1146944201
 40
0.1475867114
 40
0.2231461531
 40
0.3093046686
 40
0.4027816938
 40
0.4999974453
 40
0.5972132944
 40
0.6906906101
 40
0.7768496032
 40
0.8524096959
 40
0.8853023709
 40
0.9145057779
 40
0.9397481009
 40
0.9607817342
 40
0.9774186709
 40
0.9894998202
 40
0.9969518075
 40
0.9989675456
 40
1.0
 40
1.0
 40
1.0
 40
1.0
 10
214.6176343524
 20
237.8346330985
 30
0.0
 10
214.6176306943
 20
237.832698045
 30
0.0
 10
214.6225762925
 20
237.828151658
 30
0.0
 10
214.6401149742
 20
237.8209910441
 30
0.0
 10
214.6801362033
 20
237.8109539065
 30
0.0
 10
214.7464662299
 20
237.7992025869
 30
0.0
 10
214.8389797581
 20
237.7859003246
 30
0.0
 10
214.9559999356
 20
237.7718386719
 30
0.0
 10
215.0967598694
 20
237.7572259828
 30
0.0
 10
215.2598058529
 20
237.7424814977
 30
0.0
 10
215.5170510996
 20
237.722175818
 30
0.0
 10
215.8811579
 20
237.6992831763
 30
0.0
 10
216.3590798302
 20
237.678014087
 30
0.0
 10
216.8778889973
 20
237.6642100222
 30
0.0
 10
217.4175884693
 20
237.6594243544
 30
0.0
 10
217.9572884904
 20
237.6642095125
 30
0.0
 10
218.476099293
 20
237.6780131226
 30
0.0
 10
218.9540239018
 20
237.6992818622
 30
0.0
 10
219.3181335544
 20
237.7221743107
 30
0.0
 10
219.5753815356
 20
237.7424799014
 30
0.0
 10
219.7384298615
 20
237.7572243878
 30
0.0
 10
219.8791923017
 20
237.7718370937
 30
0.0
 10
219.9962151063
 20
237.7858988798
 30
0.0
 10
220.0887314094
 20
237.7992011119
 30
0.0
 10
220.1550641482
 20
237.8109529285
 30
0.0
 10
220.1950878715
 20
237.8209896207
 30
0.0
 10
220.2126280874
 20
237.8281509277
 30
0.0
 10
220.2175748605
 20
237.8326967351
 30
0.0
 10
220.2175718316
 20
237.8346320953
 30
0.0
  0
SPLINE
  5
388
100
AcDbEntity
  8
0
100
AcDbSpline
 62
7
  6
CONTINUOUS
 70
0
 71
3
 72
13
 73
9
 74
0
 42
0.0000001
 43
0.0000001
 44
0.0000000001
 40
0.0
 40
0.0
 40
0.0
 40
0.0
 40
0.0158378506
 40
0.0629060876
 40
0.1412595879
 40
0.2509057872
 40
0.5637785998
 40
1.0
 40
1.0
 40
1.0
 40
1.0
 10
162.6889162203
 20
237.8609625456
 30
0.0
 10
162.6889147961
 20
237.8606525573
 30
0.0
 10
162.6869629458
 20
237.8610752205
 30
0.0
 10
162.6849037062
 20
237.8603434305
 30
0.0
 10
162.6799172278
 20
237.8603527499
 30
0.0
 10
162.6703697334
 20
237.8596127108
 30
0.0
 10
162.6534016342
 20
237.8588819663
 30
0.0
 10
162.6388223687
 20
237.8581217268
 30
0.0
 10
162.630293878
 20
237.8577170362
 30
0.0
  0
SPLINE
  5
389
100
AcDbEntity
  8
0
100
AcDbSpline
 62
7
  6
CONTINUOUS
 70
0
 71
3
 72
9
 73
5
 74
0
 42
0.0000001
 43
0.0000001
 44
0.0000000001
 40
0.0
 40
0.0
 40
0.0
 40
0.0
 40
0.364964106
 40
1.0
 40
1.0
 40
1.0
 40
1.0
 10
162.630293878
 20
237.8577170362
 30
0.0
 10
162.3924922254
 20
237.846432964
 30
0.0
 10
161.7405011777
 20
237.8246837692
 30
0.0
 10
161.0881740419
 20
237.8155549592
 30
0.0
 10
160.6739346655
 20
237.8155549592
 30
0.0
  0
SPLINE
  5
38A
100
AcDbEntity
  8
0
100
AcDbSpline
 62
7
  6
CONTINUOUS
 70
0
 71
3
 72
20
 73
16
 74
0
 42
0.0000001
 43
0.0000001
 44
0.0000000001
 40
0.0
 40
0.0
 40
0.0
 40
0.0
 40
0.0414347711
 40
0.0581764421
 40
0.0777622329
 40
0.1253796762
 40
0.1836686965
 40
0.2513872036
 40
0.3268750605
 40
0.4081637355
 40
0.579286814
 40
0.7463277972
 40
0.8914158766
 40
0.9509806813
 40
1.0
 40
1.0
 40
1.0
 40
1.0
 10
154.4989346655
 20
236.9482945391
 30
0.0
 10
154.4989346655
 20
237.0293885479
 30
0.0
 10
154.6186903625
 20
237.1157499025
 30
0.0
 10
154.7533447256
 20
237.1740815718
 30
0.0
 10
154.910249352
 20
237.228339486
 30
0.0
 10
155.1487771027
 20
237.2847896722
 30
0.0
 10
155.4846316989
 20
237.3397519024
 30
0.0
 10
155.8765522272
 20
237.3836189117
 30
0.0
 10
156.3147814904
 20
237.4167172069
 30
0.0
 10
156.9558760452
 20
237.4466936085
 30
0.0
 10
157.7770831876
 20
237.4560120229
 30
0.0
 10
158.7226025026
 20
237.4275467138
 30
0.0
 10
159.4484888246
 20
237.3686796252
 30
0.0
 10
159.9392731728
 20
237.2925971185
 30
0.0
 10
160.1468911542
 20
237.2455100286
 30
0.0
 10
160.2389346655
 20
237.2184524906
 30
0.0
  0
SPLINE
  5
38B
100
AcDbEntity
  8
0
100
AcDbSpline
 62
7
  6
CONTINUOUS
 70
0
 71
3
 72
23
 73
19
 74
0
 42
0.0000001
 43
0.0000001
 44
0.0000000001
 40
0.0
 40
0.0
 40
0.0
 40
0.0
 40
0.0206397643
 40
0.0349273586
 40
0.052648654
 40
0.0989585543
 40
0.1594456106
 40
0.2325141645
 40
0.3157258307
 40
0.4999999732
 40
0.684274137
 40
0.7674857998
 40
0.8405543526
 40
0.9010414194
 40
0.9473513202
 40
0.9650726163
 40
0.9793602165
 40
1.0
 40
1.0
 40
1.0
 40
1.0
 10
158.8789346655
 20
236.8780768872
 30
0.0
 10
158.8789346655
 20
236.8970267793
 30
0.0
 10
158.8599148603
 20
236.9277928388
 30
0.0
 10
158.8214527484
 20
236.9563381196
 30
0.0
 10
158.7576829365
 20
236.9905419461
 30
0.0
 10
158.648731011
 20
237.0265977982
 30
0.0
 10
158.4873390542
 20
237.062184368
 30
0.0
 10
158.2902610204
 20
237.0909277098
 30
0.0
 10
157.9788771725
 20
237.1202333059
 30
0.0
 10
157.5639347257
 20
237.1334840744
 30
0.0
 10
157.1489922818
 20
237.1202333131
 30
0.0
 10
156.8376084179
 20
237.0909277225
 30
0.0
 10
156.640530378
 20
237.062184387
 30
0.0
 10
156.4791384112
 20
237.0265978145
 30
0.0
 10
156.3701864714
 20
236.9905419883
 30
0.0
 10
156.3064166386
 20
236.956338173
 30
0.0
 10
156.2679545418
 20
236.9277928478
 30
0.0
 10
156.2489346655
 20
236.897026797
 30
0.0
 10
156.2489346655
 20
236.8780768872
 30
0.0
  0
SPLINE
  5
38C
100
AcDbEntity
  8
0
100
AcDbSpline
 62
7
  6
CONTINUOUS
 70
0
 71
3
 72
9
 73
5
 74
0
 42
0.0000001
 43
0.0000001
 44
0.0000000001
 40
0.0
 40
0.0
 40
0.0
 40
0.0
 40
0.3000545793
 40
1.0
 40
1.0
 40
1.0
 40
1.0
 10
220.2175718316
 20
237.8346320953
 30
0.0
 10
220.2175668767
 20
237.8377981142
 30
0.0
 10
220.2050567126
 20
237.843513126
 30
0.0
 10
220.1961636419
 20
237.8449443886
 30
0.0
 10
220.188884414
 20
237.8461925721
 30
0.0
  0
SPLINE
  5
38D
100
AcDbEntity
  8
0
100
AcDbSpline
 62
7
  6
CONTINUOUS
 70
0
 71
3
 72
16
 73
12
 74
0
 42
0.0000001
 43
0.0000001
 44
0.0000000001
 40
0.0
 40
0.0
 40
0.0
 40
0.0
 40
0.0070817091
 40
0.0208535813
 40
0.0715756397
 40
0.1536143919
 40
0.2664353711
 40
0.408956557
 40
0.5798704285
 40
0.7774989364
 40
1.0
 40
1.0
 40
1.0
 40
1.0
 10
221.4175661712
 20
237.8346147281
 30
0.0
 10
221.4175522142
 20
237.8318120084
 30
0.0
 10
221.4104871926
 20
237.8252366356
 30
0.0
 10
221.3854971185
 20
237.8143095885
 30
0.0
 10
221.3283616568
 20
237.7986597162
 30
0.0
 10
221.2337022319
 20
237.779556872
 30
0.0
 10
221.1017070127
 20
237.7575031308
 30
0.0
 10
220.9347935705
 20
237.7336796107
 30
0.0
 10
220.7340501845
 20
237.708541423
 30
0.0
 10
220.5015518691
 20
237.682848555
 30
0.0
 10
220.3360526978
 20
237.6667069227
 30
0.0
 10
220.2483613193
 20
237.6586571278
 30
0.0
  0
LINE
  5
38E
100
AcDbEntity
  8
0
100
AcDbLine
 62
7
  6
CONTINUOUS
 10
220.2483613193
 20
237.6586571278
 11
220.233472794
 21
237.6572952659
  0
SPLINE
  5
38F
100
AcDbEntity
  8
0
100
AcDbSpline
 62
7
  6
CONTINUOUS
 70
0
 71
3
 72
11
 73
7
 74
0
 42
0.0000001
 43
0.0000001
 44
0.0000000001
 40
0.0
 40
0.0
 40
0.0
 40
0.0
 40
0.2297337069
 40
0.5000000888
 40
0.7702664339
 40
1.0
 40
1.0
 40
1.0
 40
1.0
 10
220.233472794
 20
237.6572952659
 30
0.0
 10
219.8034864156
 20
237.6181040961
 30
0.0
 10
218.8653605033
 20
237.5573820701
 30
0.0
 10
217.4176011773
 20
237.5254624619
 30
0.0
 10
215.96984212
 20
237.5573822341
 30
0.0
 10
215.0317165472
 20
237.6181043383
 30
0.0
 10
214.6017304374
 20
237.6572955415
 30
0.0
  0
LINE
  5
390
100
AcDbEntity
  8
0
100
AcDbLine
 62
7
  6
CONTINUOUS
 10
214.6017304374
 20
237.6572955415
 11
214.5867853044
 21
237.6586626019
  0
SPLINE
  5
391
100
AcDbEntity
  8
0
100
AcDbSpline
 62
7
  6
CONTINUOUS
 70
0
 71
3
 72
16
 73
12
 74
0
 42
0.0000001
 43
0.0000001
 44
0.0000000001
 40
0.0
 40
0.0
 40
0.0
 40
0.0
 40
0.2225039164
 40
0.4201343013
 40
0.5910491523
 40
0.7335705285
 40
0.8463909284
 40
0.9284283331
 40
0.9791483969
 40
0.9929191246
 40
1.0
 40
1.0
 40
1.0
 40
1.0
 10
214.5867853044
 20
237.6586626019
 30
0.0
 10
214.4990971549
 20
237.6667123305
 30
0.0
 10
214.3336043388
 20
237.6828537746
 30
0.0
 10
214.10111533
 20
237.7085462226
 30
0.0
 10
213.9003807396
 20
237.733683912
 30
0.0
 10
213.733475379
 20
237.7575067646
 30
0.0
 10
213.6014874813
 20
237.7795600451
 30
0.0
 10
213.5068342915
 20
237.798661822
 30
0.0
 10
213.4497037099
 20
237.8143118674
 30
0.0
 10
213.4247164018
 20
237.8252378077
 30
0.0
 10
213.4176531328
 20
237.831813769
 30
0.0
 10
213.4176400119
 20
237.8346160243
 30
0.0
  0
SPLINE
  5
392
100
AcDbEntity
  8
0
100
AcDbSpline
 62
7
  6
CONTINUOUS
 70
0
 71
3
 72
23
 73
19
 74
0
 42
0.0000001
 43
0.0000001
 44
0.0000000001
 40
0.0
 40
0.0
 40
0.0
 40
0.0
 40
0.0207983518
 40
0.0351294564
 40
0.0528744502
 40
0.0991919872
 40
0.159653514
 40
0.2326781498
 40
0.3158370167
 40
0.4999968447
 40
0.6841579116
 40
0.7673175886
 40
0.8403430935
 40
0.9008053745
 40
0.947124115
 40
0.9648700895
 40
0.9792016395
 40
1.0
 40
1.0
 40
1.0
 40
1.0
 10
156.2489346655
 20
236.3676224575
 30
0.0
 10
156.2489346655
 20
236.3867334771
 30
0.0
 10
156.2678470523
 20
236.417776018
 30
0.0
 10
156.306360799
 20
236.4467001455
 30
0.0
 10
156.3700797618
 20
236.4812562837
 30
0.0
 10
156.4790154189
 20
236.5177212334
 30
0.0
 10
156.640400694
 20
236.553697413
 30
0.0
 10
156.8374857177
 20
236.5827605465
 30
0.0
 10
157.1489011024
 20
236.6123906521
 30
0.0
 10
157.563927094
 20
236.6257907835
 30
0.0
 10
157.9789538399
 20
236.61239157
 30
0.0
 10
158.2903719942
 20
236.582761906
 30
0.0
 10
158.4874592051
 20
236.553698766
 30
0.0
 10
158.6488475345
 20
236.5177238959
 30
0.0
 10
158.7577854334
 20
236.4812573299
 30
0.0
 10
158.8215070185
 20
236.4467010121
 30
0.0
 10
158.8600222192
 20
236.4177765382
 30
0.0
 10
158.8789346655
 20
236.3867334852
 30
0.0
 10
158.8789346655
 20
236.3676224575
 30
0.0
  0
SPLINE
  5
393
100
AcDbEntity
  8
0
100
AcDbSpline
 62
7
  6
CONTINUOUS
 70
0
 71
3
 72
33
 73
29
 74
0
 42
0.0000001
 43
0.0000001
 44
0.0000000001
 40
0.0
 40
0.0
 40
0.0
 40
0.0
 40
0.0010597992
 40
0.0031085991
 40
0.0106298707
 40
0.0227776894
 40
0.039473084
 40
0.0605558441
 40
0.0858323113
 40
0.1150540495
 40
0.1479484258
 40
0.2234674893
 40
0.3095413256
 40
0.402912228
 40
0.5000144675
 40
0.5971161135
 40
0.6904853713
 40
0.7765564783
 40
0.8520718534
 40
0.884964103
 40
0.9141834784
 40
0.9394574035
 40
0.9605375301
 40
0.9772302041
 40
0.9893752142
 40
0.9968936778
 40
0.9989411516
 40
1.0
 40
1.0
 40
1.0
 40
1.0
 10
213.4176402751
 20
237.3342851748
 30
0.0
 10
213.4176886065
 20
237.3314439215
 30
0.0
 10
213.4247957214
 20
237.3248289849
 30
0.0
 10
213.4499299988
 20
237.3137270586
 30
0.0
 10
213.5072491952
 20
237.29792738
 30
0.0
 10
213.6021877924
 20
237.2785732445
 30
0.0
 10
213.7344820022
 20
237.2562714534
 30
0.0
 10
213.9017306186
 20
237.2321700196
 30
0.0
 10
214.1028321768
 20
237.2067485333
 30
0.0
 10
214.3357105547
 20
237.1807679905
 30
0.0
 10
214.7029935777
 20
237.1446163512
 30
0.0
 10
215.2228867223
 20
237.1032869378
 30
0.0
 10
215.9054807063
 20
237.0644677996
 30
0.0
 10
216.6466234549
 20
237.0391026676
 30
0.0
 10
217.4177216742
 20
237.0302803963
 30
0.0
 10
218.1888154228
 20
237.0391079866
 30
0.0
 10
218.9299446806
 20
237.0644778456
 30
0.0
 10
219.6125168153
 20
237.1033004051
 30
0.0
 10
220.1323868318
 20
237.1446316542
 30
0.0
 10
220.4996477547
 20
237.1807839707
 30
0.0
 10
220.7325071863
 20
237.2067642941
 30
0.0
 10
220.9335884276
 20
237.2321853542
 30
0.0
 10
221.1008158504
 20
237.256285366
 30
0.0
 10
221.2330879573
 20
237.2785868629
 30
0.0
 10
221.3280045207
 20
237.2979366968
 30
0.0
 10
221.3853040475
 20
237.3137390681
 30
0.0
 10
221.4104253349
 20
237.3248353488
 30
0.0
 10
221.417523293
 20
237.3314544423
 30
0.0
 10
221.4175664546
 20
237.3342932292
 30
0.0
  0
SPLINE
  5
394
100
AcDbEntity
  8
0
100
AcDbSpline
 62
7
  6
CONTINUOUS
 70
0
 71
3
 72
12
 73
8
 74
0
 42
0.0000001
 43
0.0000001
 44
0.0000000001
 40
0.0
 40
0.0
 40
0.0
 40
0.0
 40
0.3778755484
 40
0.6730729309
 40
0.7860331748
 40
0.8759796035
 40
1.0
 40
1.0
 40
1.0
 40
1.0
 10
161.2039346655
 20
236.7565220269
 30
0.0
 10
161.1177612603
 20
236.7457186086
 30
0.0
 10
160.9648732843
 20
236.7209880793
 30
0.0
 10
160.7897698821
 20
236.6744042193
 30
0.0
 10
160.6848332024
 20
236.6265367357
 30
0.0
 10
160.6222840551
 20
236.5869337698
 30
0.0
 10
160.5889346655
 20
236.541123426
 30
0.0
 10
160.5889346655
 20
236.5126195455
 30
0.0
  0
LINE
  5
395
100
AcDbEntity
  8
0
100
AcDbLine
 62
7
  6
CONTINUOUS
 10
162.695345426
 20
237.7220449189
 11
162.730127526
 21
237.7235462629
  0
SPLINE
  5
396
100
AcDbEntity
  8
0
100
AcDbSpline
 62
7
  6
CONTINUOUS
 70
0
 71
3
 72
9
 73
5
 74
0
 42
0.0000001
 43
0.0000001
 44
0.0000000001
 40
0.0
 40
0.0
 40
0.0
 40
0.0
 40
0.3311200744
 40
1.0
 40
1.0
 40
1.0
 40
1.0
 10
162.730127526
 20
237.7235462629
 30
0.0
 10
162.935416618
 20
237.7324829879
 30
0.0
 10
163.5552128748
 20
237.7636264502
 30
0.0
 10
164.1744189849
 20
237.8064849434
 30
0.0
 10
164.5879755943
 20
237.842101721
 30
0.0
  0
SPLINE
  5
397
100
AcDbEntity
  8
0
100
AcDbSpline
 62
7
  6
CONTINUOUS
 70
0
 71
3
 72
14
 73
10
 74
0
 42
0.0000001
 43
0.0000001
 44
0.0000000001
 40
0.0
 40
0.0
 40
0.0
 40
0.0
 40
0.4351062378
 40
0.6069988326
 40
0.7480926078
 40
0.8581188862
 40
0.9368227135
 40
0.9841063413
 40
1.0
 40
1.0
 40
1.0
 40
1.0
 10
164.5879755943
 20
237.842101721
 30
0.0
 10
164.6171408039
 20
237.8446135193
 30
0.0
 10
164.6578748684
 20
237.8481331187
 30
0.0
 10
164.7078857333
 20
237.8527673957
 30
0.0
 10
164.7364576416
 20
237.8552286382
 30
0.0
 10
164.7579370702
 20
237.8578218977
 30
0.0
 10
164.7751140241
 20
237.8583658672
 30
0.0
 10
164.7821793291
 20
237.8612560208
 30
0.0
 10
164.7889142114
 20
237.8598891418
 30
0.0
 10
164.788913197
 20
237.8609584383
 30
0.0
  0
SPLINE
  5
398
100
AcDbEntity
  8
0
100
AcDbSpline
 62
7
  6
CONTINUOUS
 70
0
 71
3
 72
9
 73
5
 74
0
 42
0.0000001
 43
0.0000001
 44
0.0000000001
 40
0.0
 40
0.0
 40
0.0
 40
0.0
 40
0.6999245886
 40
1.0
 40
1.0
 40
1.0
 40
1.0
 10
214.6463218297
 20
237.8461925721
 30
0.0
 10
214.6390429687
 20
237.8449444516
 30
0.0
 10
214.6301496674
 20
237.8435123656
 30
0.0
 10
214.6176403379
 20
237.8377992701
 30
0.0
 10
214.6176343524
 20
237.8346330985
 30
0.0
  0
SPLINE
  5
399
100
AcDbEntity
  8
0
100
AcDbSpline
 62
7
  6
CONTINUOUS
 70
0
 71
3
 72
15
 73
11
 74
0
 42
0.0000001
 43
0.0000001
 44
0.0000000001
 40
0.0
 40
0.0
 40
0.0
 40
0.0
 40
0.1248856483
 40
0.2497886631
 40
0.3747238466
 40
0.499701043
 40
0.6247237281
 40
0.7497884709
 40
0.8748854439
 40
1.0
 40
1.0
 40
1.0
 40
1.0
 10
266.677355728
 20
235.9631540142
 30
0.0
 10
266.677355728
 20
235.80202828
 30
0.0
 10
266.6455453232
 20
235.4788606707
 30
0.0
 10
266.5042327666
 20
235.0134028082
 30
0.0
 10
266.274745336
 20
234.5841660694
 30
0.0
 10
265.965881301
 20
234.207844765
 30
0.0
 10
265.5895027049
 20
233.8987926565
 30
0.0
 10
265.1599733203
 20
233.6688651274
 30
0.0
 10
264.6939957393
 20
233.5268621355
 30
0.0
 10
264.3703553768
 20
233.4944343205
 30
0.0
 10
264.208934673
 20
233.4940915123
 30
0.0
  0
SPLINE
  5
39A
100
AcDbEntity
  8
0
100
AcDbSpline
 62
7
  6
CONTINUOUS
 70
0
 71
3
 72
15
 73
11
 74
0
 42
0.0000001
 43
0.0000001
 44
0.0000000001
 40
0.0
 40
0.0
 40
0.0
 40
0.0
 40
0.1251134978
 40
0.2502098097
 40
0.3752743999
 40
0.5002974121
 40
0.6252752328
 40
0.7502110226
 40
0.8751142323
 40
1.0
 40
1.0
 40
1.0
 40
1.0
 10
261.256303091
 20
233.4940915123
 30
0.0
 10
261.0959320473
 20
233.4940915123
 30
0.0
 10
260.7743401764
 20
233.5254178
 30
0.0
 10
260.3108625081
 20
233.6646140426
 30
0.0
 10
259.882950874
 20
233.89075494
 30
0.0
 10
259.5070284056
 20
234.1952983482
 30
0.0
 10
259.197255779
 20
234.5667131041
 30
0.0
 10
258.965374319
 20
234.9910167791
 30
0.0
 10
258.820161162
 20
235.4519210528
 30
0.0
 10
258.7847915378
 20
235.7725645389
 30
0.0
 10
258.7828080362
 20
235.9326313882
 30
0.0
  0
SPLINE
  5
39B
100
AcDbEntity
  8
0
100
AcDbSpline
 62
7
  6
CONTINUOUS
 70
0
 71
3
 72
15
 73
11
 74
0
 42
0.0000001
 43
0.0000001
 44
0.0000000001
 40
0.0
 40
0.0
 40
0.0
 40
0.0
 40
0.1251144713
 40
0.2502115279
 40
0.3752763958
 40
0.5002991959
 40
0.6252764461
 40
0.750211599
 40
0.8751145225
 40
1.0
 40
1.0
 40
1.0
 40
1.0
 10
261.5457767755
 20
252.6146598745
 30
0.0
 10
261.2362545102
 20
252.6146598745
 30
0.0
 10
260.6155437213
 20
252.5537148467
 30
0.0
 10
259.7215550785
 20
252.2829638947
 30
0.0
 10
258.897280469
 20
251.8432772617
 30
0.0
 10
258.1748584637
 20
251.2515278315
 30
0.0
 10
257.5819342126
 20
250.5304763378
 30
0.0
 10
257.1413400713
 20
249.7077001436
 30
0.0
 10
256.8700140315
 20
248.8152859356
 30
0.0
 10
256.8089347329
 20
248.1956129026
 30
0.0
 10
256.8089347329
 20
247.8866571479
 30
0.0
  0
SPLINE
  5
39C
100
AcDbEntity
  8
0
100
AcDbSpline
 62
7
  6
CONTINUOUS
 70
0
 71
3
 72
15
 73
11
 74
0
 42
0.0000001
 43
0.0000001
 44
0.0000000001
 40
0.0
 40
0.0
 40
0.0
 40
0.0
 40
0.1251144884
 40
0.2502115267
 40
0.3752763943
 40
0.5002991941
 40
0.6252764445
 40
0.7502115978
 40
0.8751145217
 40
1.0
 40
1.0
 40
1.0
 40
1.0
 10
261.5457767755
 20
245.5226557846
 30
0.0
 10
261.3910156229
 20
245.5226557846
 30
0.0
 10
261.0806602373
 20
245.5531283715
 30
0.0
 10
260.6336659274
 20
245.6885038213
 30
0.0
 10
260.2215286014
 20
245.9083470659
 30
0.0
 10
259.8603176872
 20
246.2042218751
 30
0.0
 10
259.5638554596
 20
246.5647475262
 30
0.0
 10
259.3435584312
 20
246.9761356592
 30
0.0
 10
259.2078954648
 20
247.4223427638
 30
0.0
 10
259.1773557205
 20
247.7321792708
 30
0.0
 10
259.1773557205
 20
247.8866571479
 30
0.0
  0
SPLINE
  5
39D
100
AcDbEntity
  8
0
100
AcDbSpline
 62
7
  6
CONTINUOUS
 70
0
 71
3
 72
27
 73
23
 74
0
 42
0.0000001
 43
0.0000001
 44
0.0000000001
 40
0.0
 40
0.0
 40
0.0
 40
0.0
 40
0.0624237066
 40
0.0936755566
 40
0.1249305558
 40
0.1873787943
 40
0.2498478697
 40
0.2811280801
 40
0.312413882
 40
0.3749265763
 40
0.4374555016
 40
0.4999934531
 40
0.5625318736
 40
0.6250621351
 40
0.6875768328
 40
0.7188637908
 40
0.7501452074
 40
0.8126166628
 40
0.8750669338
 40
0.9063227152
 40
0.9375751453
 40
1.0
 40
1.0
 40
1.0
 40
1.0
 10
266.677355728
 20
259.2075970098
 30
0.0
 10
266.677355728
 20
259.1121105207
 30
0.0
 10
266.6632569276
 20
258.9683080925
 30
0.0
 10
266.6169611356
 20
258.7826765117
 30
0.0
 10
266.5527972475
 20
258.6023356709
 30
0.0
 10
266.439976757
 20
258.3899375927
 30
0.0
 10
266.2880148657
 20
258.2034723165
 30
0.0
 10
266.1466813364
 20
258.0742167124
 30
0.0
 10
265.9934102597
 20
257.9592649523
 30
0.0
 10
265.7818004375
 20
257.8444016251
 30
0.0
 10
265.5061845226
 20
257.7584346487
 30
0.0
 10
265.2190620851
 20
257.7273837473
 30
0.0
 10
264.9313560252
 20
257.7524801268
 30
0.0
 10
264.654012396
 20
257.832718924
 30
0.0
 10
264.440060688
 20
257.9431733979
 30
0.0
 10
264.2844325788
 20
258.0549247691
 30
0.0
 10
264.1404419305
 20
258.181224564
 30
0.0
 10
263.9846357537
 20
258.3645008305
 30
0.0
 10
263.8674228428
 20
258.5745157951
 30
0.0
 10
263.7995223507
 20
258.7534887725
 30
0.0
 10
263.7493764066
 20
258.9381214926
 30
0.0
 10
263.7322906472
 20
259.0816022894
 30
0.0
 10
263.7303048161
 20
259.177069883
 30
0.0
  0
SPLINE
  5
39E
100
AcDbEntity
  8
0
100
AcDbSpline
 62
7
  6
CONTINUOUS
 70
0
 71
3
 72
27
 73
23
 74
0
 42
0.0000001
 43
0.0000001
 44
0.0000000001
 40
0.0
 40
0.0
 40
0.0
 40
0.0
 40
0.0624425316
 40
0.093699631
 40
0.1249615476
 40
0.1874418047
 40
0.2499417392
 40
0.2812276331
 40
0.3125172973
 40
0.3750468001
 40
0.4375826855
 40
0.5001181024
 40
0.5626462554
 40
0.6251612102
 40
0.6876585979
 40
0.7189292144
 40
0.750194778
 40
0.8126525388
 40
0.8750929496
 40
0.906337373
 40
0.9375792788
 40
1.0
 40
1.0
 40
1.0
 40
1.0
 10
261.9893309517
 20
257.1454511244
 30
0.0
 10
262.0611974857
 20
256.9603919388
 30
0.0
 10
262.1935644281
 20
256.6913213055
 30
0.0
 10
262.4139087908
 20
256.3603070953
 30
0.0
 10
262.6621593286
 20
256.0493913326
 30
0.0
 10
263.021688103
 20
255.7028098373
 30
0.0
 10
263.4356894061
 20
255.4234081892
 30
0.0
 10
263.7917001005
 20
255.2452769663
 30
0.0
 10
264.1618305131
 20
255.0984907893
 30
0.0
 10
264.6463597359
 20
254.9758951698
 30
0.0
 10
265.2440395733
 20
254.9311185032
 30
0.0
 10
265.8405872201
 20
254.9898078239
 30
0.0
 10
266.4180690176
 20
255.15027554
 30
0.0
 10
266.9591501361
 20
255.4076296538
 30
0.0
 10
267.3665660252
 20
255.6967421035
 30
0.0
 10
267.6585391422
 20
255.967138428
 30
0.0
 10
267.9259855553
 20
256.2616567496
 30
0.0
 10
268.210842786
 20
256.671533954
 30
0.0
 10
268.4205739084
 20
257.1243934592
 30
0.0
 10
268.5394598755
 20
257.5038405886
 30
0.0
 10
268.6250551222
 20
257.8919879142
 30
0.0
 10
268.6510399405
 20
258.1906105443
 30
0.0
 10
268.6510399405
 20
258.3890650068
 30
0.0
  0
SPLINE
  5
39F
100
AcDbEntity
  8
0
100
AcDbSpline
 62
7
  6
CONTINUOUS
 70
0
 71
3
 72
15
 73
11
 74
0
 42
0.0000001
 43
0.0000001
 44
0.0000000001
 40
0.0
 40
0.0
 40
0.0
 40
0.0
 40
0.1248854783
 40
0.2497884022
 40
0.3747235555
 40
0.4997008059
 40
0.6247236057
 40
0.7497884733
 40
0.8748855116
 40
1.0
 40
1.0
 40
1.0
 40
1.0
 10
259.1773557205
 20
247.8866571479
 30
0.0
 10
259.1773557205
 20
248.0411350251
 30
0.0
 10
259.2078954648
 20
248.350971532
 30
0.0
 10
259.3435584312
 20
248.7971786366
 30
0.0
 10
259.5638554596
 20
249.2085667696
 30
0.0
 10
259.8603176872
 20
249.5690924207
 30
0.0
 10
260.2215286014
 20
249.86496723
 30
0.0
 10
260.6336659274
 20
250.0848104746
 30
0.0
 10
261.0806602373
 20
250.2201859243
 30
0.0
 10
261.3910156229
 20
250.2506585112
 30
0.0
 10
261.5457767755
 20
250.2506585112
 30
0.0
  0
SPLINE
  5
3A0
100
AcDbEntity
  8
0
100
AcDbSpline
 62
7
  6
CONTINUOUS
 70
0
 71
3
 72
15
 73
11
 74
0
 42
0.0000001
 43
0.0000001
 44
0.0000000001
 40
0.0
 40
0.0
 40
0.0
 40
0.0
 40
0.1248854775
 40
0.249788401
 40
0.3747235539
 40
0.4997008041
 40
0.6247236042
 40
0.7497884721
 40
0.8748855287
 40
1.0
 40
1.0
 40
1.0
 40
1.0
 10
256.8089347329
 20
247.8866571479
 30
0.0
 10
256.8089347329
 20
247.5777013932
 30
0.0
 10
256.8700140315
 20
246.9580283602
 30
0.0
 10
257.1413400713
 20
246.0656141522
 30
0.0
 10
257.5819342126
 20
245.242837958
 30
0.0
 10
258.1748584637
 20
244.5217864644
 30
0.0
 10
258.897280469
 20
243.9300370341
 30
0.0
 10
259.7215550785
 20
243.4903504012
 30
0.0
 10
260.6155437213
 20
243.2195994491
 30
0.0
 10
261.2362545102
 20
243.1586544214
 30
0.0
 10
261.5457767755
 20
243.1586544214
 30
0.0
  0
SPLINE
  5
3A1
100
AcDbEntity
  8
0
100
AcDbSpline
 62
7
  6
CONTINUOUS
 70
0
 71
3
 72
15
 73
11
 74
0
 42
0.0000001
 43
0.0000001
 44
0.0000000001
 40
0.0
 40
0.0
 40
0.0
 40
0.0
 40
0.1248854783
 40
0.2497884024
 40
0.3747235558
 40
0.4997008062
 40
0.6247236061
 40
0.7497884736
 40
0.8748855287
 40
1.0
 40
1.0
 40
1.0
 40
1.0
 10
256.8089346655
 20
235.4319851013
 30
0.0
 10
256.8089346655
 20
235.1487756556
 30
0.0
 10
256.8649240246
 20
234.5807420345
 30
0.0
 10
257.1136395696
 20
233.7626956683
 30
0.0
 10
257.5175175446
 20
233.0084841525
 30
0.0
 10
258.0610314548
 20
232.3475202842
 30
0.0
 10
258.7232516383
 20
231.8050833118
 30
0.0
 10
259.4788367039
 20
231.4020372413
 30
0.0
 10
260.2983262966
 20
231.1538488732
 30
0.0
 10
260.8673111876
 20
231.097982602
 30
0.0
 10
261.151039933
 20
231.097982602
 30
0.0
  0
SPLINE
  5
3A2
100
AcDbEntity
  8
0
100
AcDbSpline
 62
7
  6
CONTINUOUS
 70
0
 71
3
 72
15
 73
11
 74
0
 42
0.0000001
 43
0.0000001
 44
0.0000000001
 40
0.0
 40
0.0
 40
0.0
 40
0.0
 40
0.1248854789
 40
0.2497884033
 40
0.3747235564
 40
0.4997008062
 40
0.6247236056
 40
0.7497884728
 40
0.8748855295
 40
1.0
 40
1.0
 40
1.0
 40
1.0
 10
256.8089346655
 20
247.8561255994
 30
0.0
 10
256.8089346655
 20
247.5471698411
 30
0.0
 10
256.8700139765
 20
246.927496802
 30
0.0
 10
257.1413400488
 20
246.0350825968
 30
0.0
 10
257.5819342179
 20
245.2123064156
 30
0.0
 10
258.1748584826
 20
244.4912549366
 30
0.0
 10
258.8972804871
 20
243.8995055134
 30
0.0
 10
259.7215550891
 20
243.4598188737
 30
0.0
 10
260.6155437248
 20
243.1890679093
 30
0.0
 10
261.2362545121
 20
243.1281228728
 30
0.0
 10
261.5457767755
 20
243.1281228728
 30
0.0
  0
SPLINE
  5
3A3
100
AcDbEntity
  8
0
100
AcDbSpline
 62
7
  6
CONTINUOUS
 70
0
 71
3
 72
15
 73
11
 74
0
 42
0.0000001
 43
0.0000001
 44
0.0000000001
 40
0.0
 40
0.0
 40
0.0
 40
0.0
 40
0.1251135492
 40
0.2502099266
 40
0.3752746003
 40
0.5002977181
 40
0.6252756607
 40
0.7502115752
 40
0.8751149096
 40
1.0
 40
1.0
 40
1.0
 40
1.0
 10
261.5457767755
 20
250.2201269627
 30
0.0
 10
261.3922838996
 20
250.2201269627
 30
0.0
 10
261.0844853857
 20
250.1901548568
 30
0.0
 10
260.6408739626
 20
250.0569748255
 30
0.0
 10
260.2312798177
 20
249.8406038065
 30
0.0
 10
259.8714118305
 20
249.5492095343
 30
0.0
 10
259.5748165056
 20
249.1938173619
 30
0.0
 10
259.3527279033
 20
248.7877969983
 30
0.0
 10
259.2135469946
 20
248.3467251906
 30
0.0
 10
259.1795353088
 20
248.0398537609
 30
0.0
 10
259.1775532586
 20
247.8866539857
 30
0.0
  0
SPLINE
  5
3A4
100
AcDbEntity
  8
0
100
AcDbSpline
 62
7
  6
CONTINUOUS
 70
0
 71
3
 72
15
 73
11
 74
0
 42
0.0000001
 43
0.0000001
 44
0.0000000001
 40
0.0
 40
0.0
 40
0.0
 40
0.0
 40
0.1251144713
 40
0.2502115264
 40
0.3752763939
 40
0.5002991938
 40
0.6252764442
 40
0.7502115976
 40
0.8751145217
 40
1.0
 40
1.0
 40
1.0
 40
1.0
 10
264.308934673
 20
231.097982602
 30
0.0
 10
264.5926634185
 20
231.097982602
 30
0.0
 10
265.1616483095
 20
231.1538488732
 30
0.0
 10
265.9811379022
 20
231.4020372413
 30
0.0
 10
266.7367229678
 20
231.8050833118
 30
0.0
 10
267.3989431513
 20
232.3475202842
 30
0.0
 10
267.9424570615
 20
233.0084841525
 30
0.0
 10
268.3463350365
 20
233.7626956683
 30
0.0
 10
268.5950505815
 20
234.5807420345
 30
0.0
 10
268.6510399405
 20
235.1487756556
 30
0.0
 10
268.6510399405
 20
235.4319851013
 30
0.0
  0
SPLINE
  5
3A5
100
AcDbEntity
  8
0
100
AcDbSpline
 62
7
  6
CONTINUOUS
 70
0
 71
3
 72
15
 73
11
 74
0
 42
0.0000001
 43
0.0000001
 44
0.0000000001
 40
0.0
 40
0.0
 40
0.0
 40
0.0
 40
0.1248855859
 40
0.2497886849
 40
0.3747242066
 40
0.4997017889
 40
0.624724717
 40
0.7497894341
 40
0.874886081
 40
1.0
 40
1.0
 40
1.0
 40
1.0
 10
256.8090424241
 20
235.4319880575
 30
0.0
 10
256.8110326978
 20
235.1500501623
 30
0.0
 10
256.8705084215
 20
234.5849723159
 30
0.0
 10
257.1227637424
 20
233.7720553179
 30
0.0
 10
257.528451058
 20
233.0232123055
 30
0.0
 10
258.0721113951
 20
232.3673863279
 30
0.0
 10
258.7329972455
 20
231.8294358628
 30
0.0
 10
259.4860436363
 20
231.4298678831
 30
0.0
 10
260.3021517087
 20
231.1838789549
 30
0.0
 10
260.8685795223
 20
231.1285141505
 30
0.0
 10
261.151039933
 20
231.1285141505
 30
0.0
  0
SPLINE
  5
3A6
100
AcDbEntity
  8
0
100
AcDbSpline
 62
7
  6
CONTINUOUS
 70
0
 71
3
 72
15
 73
11
 74
0
 42
0.0000001
 43
0.0000001
 44
0.0000000001
 40
0.0
 40
0.0
 40
0.0
 40
0.0
 40
0.125114475
 40
0.2502115279
 40
0.3752763949
 40
0.5002991938
 40
0.6252764432
 40
0.7502115961
 40
0.8751145181
 40
1.0
 40
1.0
 40
1.0
 40
1.0
 10
264.308934673
 20
231.1285141505
 30
0.0
 10
264.5926634242
 20
231.1285141505
 30
0.0
 10
265.1616483147
 20
231.1843804288
 30
0.0
 10
265.9811378907
 20
231.432568834
 30
0.0
 10
266.7367229301
 20
231.835614917
 30
0.0
 10
267.3989430957
 20
232.3780518881
 30
0.0
 10
267.9424570047
 20
233.0390157387
 30
0.0
 10
268.3463349922
 20
233.7932272283
 30
0.0
 10
268.5950505744
 20
234.6112735778
 30
0.0
 10
268.6510399405
 20
235.1793071985
 30
0.0
 10
268.6510399405
 20
235.4625166498
 30
0.0
  0
SPLINE
  5
3A7
100
AcDbEntity
  8
0
100
AcDbSpline
 62
7
  6
CONTINUOUS
 70
0
 71
3
 72
27
 73
23
 74
0
 42
0.0000001
 43
0.0000001
 44
0.0000000001
 40
0.0
 40
0.0
 40
0.0
 40
0.0
 40
0.0624425318
 40
0.0936996309
 40
0.1249615475
 40
0.1874418046
 40
0.2499417392
 40
0.2812276336
 40
0.3125172974
 40
0.3750468002
 40
0.4375826856
 40
0.5001181024
 40
0.5626462553
 40
0.6251612101
 40
0.6876585978
 40
0.7189292139
 40
0.750194778
 40
0.8126525389
 40
0.8750929497
 40
0.9063373731
 40
0.9375792785
 40
1.0
 40
1.0
 40
1.0
 40
1.0
 10
261.9893309517
 20
257.1759826729
 30
0.0
 10
262.0611974859
 20
256.9909234867
 30
0.0
 10
262.1935644242
 20
256.7218528527
 30
0.0
 10
262.413908783
 20
256.3908386381
 30
0.0
 10
262.6621593647
 20
256.0799229129
 30
0.0
 10
263.0216880876
 20
255.7333413681
 30
0.0
 10
263.4356893965
 20
255.4539397224
 30
0.0
 10
263.7917000857
 20
255.2758084814
 30
0.0
 10
264.1618305531
 20
255.1290224456
 30
0.0
 10
264.6463597197
 20
255.006426666
 30
0.0
 10
265.2440395801
 20
254.9616499874
 30
0.0
 10
265.8405871957
 20
255.0203395031
 30
0.0
 10
266.4180690345
 20
255.1808070261
 30
0.0
 10
266.9591501701
 20
255.4381611593
 30
0.0
 10
267.366565949
 20
255.7272737382
 30
0.0
 10
267.6585391681
 20
255.9976699506
 30
0.0
 10
267.9259855699
 20
256.2921882873
 30
0.0
 10
268.2108428068
 20
256.7020654916
 30
0.0
 10
268.4205738632
 20
257.1549250243
 30
0.0
 10
268.5394598849
 20
257.5343721347
 30
0.0
 10
268.6250551264
 20
257.9225194629
 30
0.0
 10
268.6510399405
 20
258.2211420921
 30
0.0
 10
268.6510399405
 20
258.4195965554
 30
0.0
  0
SPLINE
  5
3A8
100
AcDbEntity
  8
0
100
AcDbSpline
 62
7
  6
CONTINUOUS
 70
0
 71
3
 72
13
 73
9
 74
0
 42
0.0000001
 43
0.0000001
 44
0.0000000001
 40
0.0
 40
0.0
 40
0.0
 40
0.0
 40
0.0961354641
 40
0.2980689922
 40
0.5000025204
 40
0.7019360485
 40
0.9038695766
 40
1.0
 40
1.0
 40
1.0
 40
1.0
 10
155.3933433164
 20
80.9890539645
 30
0.0
 10
155.5739637422
 20
81.1692790438
 30
0.0
 10
156.2102503944
 20
81.6926813014
 30
0.0
 10
157.623769774
 20
82.3351870523
 30
0.0
 10
159.6439346655
 20
82.6085447265
 30
0.0
 10
161.664099557
 20
82.3351870523
 30
0.0
 10
163.0776046864
 20
81.6926877788
 30
0.0
 10
163.7138840679
 20
81.1692967466
 30
0.0
 10
163.8944976027
 20
80.989082314
 30
0.0
  0
SPLINE
  5
3A9
100
AcDbEntity
  8
0
100
AcDbSpline
 62
7
  6
CONTINUOUS
 70
0
 71
3
 72
27
 73
23
 74
0
 42
0.0000001
 43
0.0000001
 44
0.0000000001
 40
0.0
 40
0.0
 40
0.0
 40
0.0
 40
0.0015181118
 40
0.0032552957
 40
0.0053628601
 40
0.0079267226
 40
0.014585483
 40
0.0234208095
 40
0.034489744
 40
0.0478046199
 40
0.0633554849
 40
0.0811186534
 40
0.1010605293
 40
0.1231395474
 40
0.1735083242
 40
0.2317673812
 40
0.2973723697
 40
0.3697031186
 40
0.4480716967
 40
0.6198771179
 40
0.8062296059
 40
1.0
 40
1.0
 40
1.0
 40
1.0
 10
256.8089346655
 20
50.2052249576
 30
0.0
 10
256.8089346655
 20
50.2030126831
 30
0.0
 10
256.8099726388
 20
50.1982383139
 30
0.0
 10
256.8142559432
 20
50.1915746867
 30
0.0
 10
256.8210466295
 20
50.1850825002
 30
0.0
 10
256.8346816083
 20
50.175690551
 30
0.0
 10
256.8586771404
 20
50.1645603694
 30
0.0
 10
256.8953341639
 20
50.1520733618
 30
0.0
 10
256.942152691
 20
50.1396326828
 30
0.0
 10
256.9990308177
 20
50.1272744381
 30
0.0
 10
257.0658848254
 20
50.1150599141
 30
0.0
 10
257.1425599684
 20
50.1030297128
 30
0.0
 10
257.2288812758
 20
50.0912214525
 30
0.0
 10
257.3625528981
 20
50.0751052627
 30
0.0
 10
257.5520984053
 20
50.056144548
 30
0.0
 10
257.8051748302
 20
50.0355742268
 30
0.0
 10
258.0904557249
 20
50.0165558905
 30
0.0
 10
258.4051984384
 20
49.9992838631
 30
0.0
 10
258.8747021858
 20
49.9781870178
 30
0.0
 10
259.5105387126
 20
49.9579508135
 30
0.0
 10
260.3147251261
 20
49.9433490601
 30
0.0
 10
260.8686672495
 20
49.9400825622
 30
0.0
 10
261.151039933
 20
49.9400825622
 30
0.0
  0
SPLINE
  5
3AA
100
AcDbEntity
  8
0
100
AcDbSpline
 62
7
  6
CONTINUOUS
 70
0
 71
3
 72
24
 73
20
 74
0
 42
0.0000001
 43
0.0000001
 44
0.0000000001
 40
0.0
 40
0.0
 40
0.0
 40
0.0
 40
0.0032075463
 40
0.0053152015
 40
0.0078792187
 40
0.0145383265
 40
0.0233741003
 40
0.0344435885
 40
0.0477591331
 40
0.0633107945
 40
0.0810748831
 40
0.1230965651
 40
0.1734678985
 40
0.2317299421
 40
0.2973383019
 40
0.4480434374
 40
0.6198576612
 40
0.8062196687
 40
1.0
 40
1.0
 40
1.0
 40
1.0
 10
259.1773557205
 20
50.9652998245
 30
0.0
 10
259.1773557205
 20
50.9678492629
 30
0.0
 10
259.1794163652
 20
50.9720002421
 30
0.0
 10
259.1839601789
 20
50.9762686502
 30
0.0
 10
259.1914012666
 20
50.9814242259
 30
0.0
 10
259.2044871965
 20
50.9874733224
 30
0.0
 10
259.2244830878
 20
50.9942943315
 30
0.0
 10
259.250019999
 20
51.0010764842
 30
0.0
 10
259.2810445927
 20
51.007818469
 30
0.0
 10
259.3175102271
 20
51.0144813885
 30
0.0
 10
259.3766719071
 20
51.0237580376
 30
0.0
 10
259.4635610584
 20
51.0346844311
 30
0.0
 10
259.5827162297
 20
51.0466201772
 30
0.0
 10
259.7207598747
 20
51.0578366361
 30
0.0
 10
259.9385221284
 20
51.0723459397
 30
0.0
 10
260.2466774579
 20
51.0872892769
 30
0.0
 10
260.6509564657
 20
51.1001829992
 30
0.0
 10
261.0896054968
 20
51.1081392554
 30
0.0
 10
261.3917552978
 20
51.1099229493
 30
0.0
 10
261.5457767755
 20
51.1099229493
 30
0.0
  0
SPLINE
  5
3AB
100
AcDbEntity
  8
0
100
AcDbSpline
 62
7
  6
CONTINUOUS
 70
0
 71
3
 72
27
 73
23
 74
0
 42
0.0000001
 43
0.0000001
 44
0.0000000001
 40
0.0
 40
0.0
 40
0.0
 40
0.0
 40
0.0015181576
 40
0.0032553145
 40
0.0053628451
 40
0.0079267391
 40
0.0145854994
 40
0.023420824
 40
0.0344897568
 40
0.0478046308
 40
0.0633554937
 40
0.0811186603
 40
0.1010605342
 40
0.1231395505
 40
0.1735083243
 40
0.2317673793
 40
0.2973723668
 40
0.3697031155
 40
0.4480716943
 40
0.6198771175
 40
0.8062296121
 40
1.0
 40
1.0
 40
1.0
 40
1.0
 10
256.8089347329
 20
50.9652998245
 30
0.0
 10
256.8089347329
 20
50.9628863613
 30
0.0
 10
256.8100666976
 20
50.9576778198
 30
0.0
 10
256.8147398996
 20
50.9504086934
 30
0.0
 10
256.822147654
 20
50.9433261945
 30
0.0
 10
256.8370223281
 20
50.9330805653
 30
0.0
 10
256.8631991989
 20
50.9209384167
 30
0.0
 10
256.9031887277
 20
50.907316283
 30
0.0
 10
256.9542634546
 20
50.8937446094
 30
0.0
 10
257.0163123189
 20
50.8802628971
 30
0.0
 10
257.0892439516
 20
50.8669379583
 30
0.0
 10
257.1728895539
 20
50.8538141034
 30
0.0
 10
257.2670582439
 20
50.8409323643
 30
0.0
 10
257.4128818218
 20
50.823351066
 30
0.0
 10
257.6196587287
 20
50.8026666493
 30
0.0
 10
257.8957420929
 20
50.7802262983
 30
0.0
 10
258.2069576109
 20
50.7594790219
 30
0.0
 10
258.550313299
 20
50.7406368099
 30
0.0
 10
259.0624992119
 20
50.7176220695
 30
0.0
 10
259.7561390772
 20
50.6955462104
 30
0.0
 10
260.6334333547
 20
50.6796170271
 30
0.0
 10
261.2377338563
 20
50.676053575
 30
0.0
 10
261.5457767755
 20
50.676053575
 30
0.0
  0
SPLINE
  5
3AC
100
AcDbEntity
  8
0
100
AcDbSpline
 62
7
  6
CONTINUOUS
 70
0
 71
3
 72
32
 73
28
 74
0
 42
0.0000001
 43
0.0000001
 44
0.0000000001
 40
0.0
 40
0.0
 40
0.0
 40
0.0
 40
0.0180881332
 40
0.0396052498
 40
0.0922969605
 40
0.1565528306
 40
0.2304768587
 40
0.3118738657
 40
0.3983203846
 40
0.4872395547
 40
0.5759795715
 40
0.6618940631
 40
0.7424222978
 40
0.8151672585
 40
0.877969995
 40
0.9050514928
 40
0.9289817058
 40
0.9495894371
 40
0.9667332305
 40
0.9739720356
 40
0.9803089558
 40
0.9857390627
 40
0.9902633222
 40
0.9938927534
 40
0.9953814218
 40
0.9966615921
 40
1.0
 40
1.0
 40
1.0
 40
1.0
 10
261.9893309517
 20
51.5335953024
 30
0.0
 10
262.0291714086
 20
51.5273190807
 30
0.0
 10
262.1166909267
 20
51.5153950429
 30
0.0
 10
262.3212675913
 20
51.4928914717
 30
0.0
 10
262.629076825
 20
51.4682051513
 30
0.0
 10
263.0539874087
 20
51.4437957399
 30
0.0
 10
263.5432081719
 20
51.4240277223
 30
0.0
 10
264.0821041731
 20
51.4095292977
 30
0.0
 10
264.6545632032
 20
51.4008094635
 30
0.0
 10
265.2434542824
 20
51.3981483542
 30
0.0
 10
265.8311550632
 20
51.4016338612
 30
0.0
 10
266.4000775068
 20
51.4111542797
 30
0.0
 10
266.933200993
 20
51.4263879557
 30
0.0
 10
267.4145746082
 20
51.4468476887
 30
0.0
 10
267.7765780286
 20
51.4685325723
 30
0.0
 10
268.0295630736
 20
51.4886534138
 30
0.0
 10
268.1885415669
 20
51.5038388557
 30
0.0
 10
268.3251630869
 20
51.5197403049
 30
0.0
 10
268.4244685775
 20
51.5341261972
 30
0.0
 10
268.4918918923
 20
51.5462369683
 30
0.0
 10
268.5333838112
 20
51.5549025434
 30
0.0
 10
268.568650088
 20
51.5636293325
 30
0.0
 10
268.5976703505
 20
51.5724298459
 30
0.0
 10
268.6177209525
 20
51.5801401401
 30
0.0
 10
268.630553622
 20
51.5866244294
 30
0.0
 10
268.6418931611
 20
51.5935204832
 30
0.0
 10
268.6510399405
 20
51.6022324188
 30
0.0
 10
268.6510399405
 20
51.6096761916
 30
0.0
  0
SPLINE
  5
3AD
100
AcDbEntity
  8
0
100
AcDbSpline
 62
7
  6
CONTINUOUS
 70
0
 71
3
 72
27
 73
23
 74
0
 42
0.0000001
 43
0.0000001
 44
0.0000000001
 40
0.0
 40
0.0
 40
0.0
 40
0.0
 40
0.1937703941
 40
0.3801228821
 40
0.5519283033
 40
0.6302968814
 40
0.7026276303
 40
0.7682326188
 40
0.8264916758
 40
0.8768604526
 40
0.8989394707
 40
0.9188813466
 40
0.9366445151
 40
0.9521953801
 40
0.965510256
 40
0.9765791905
 40
0.985414517
 40
0.9920732774
 40
0.9946371399
 40
0.9967447043
 40
0.9984818882
 40
1.0
 40
1.0
 40
1.0
 40
1.0
 10
264.308934673
 20
49.9400825622
 30
0.0
 10
264.5913073566
 20
49.9400825622
 30
0.0
 10
265.1452494799
 20
49.9433490601
 30
0.0
 10
265.9494358935
 20
49.9579508135
 30
0.0
 10
266.5852724203
 20
49.9781870178
 30
0.0
 10
267.0547761677
 20
49.9992838631
 30
0.0
 10
267.3695188812
 20
50.0165558905
 30
0.0
 10
267.6547997759
 20
50.0355742268
 30
0.0
 10
267.9078762008
 20
50.056144548
 30
0.0
 10
268.097421708
 20
50.0751052627
 30
0.0
 10
268.2310933302
 20
50.0912214525
 30
0.0
 10
268.3174146377
 20
50.1030297128
 30
0.0
 10
268.3940897807
 20
50.1150599141
 30
0.0
 10
268.4609437883
 20
50.1272744381
 30
0.0
 10
268.5178219151
 20
50.1396326828
 30
0.0
 10
268.5646404421
 20
50.1520733618
 30
0.0
 10
268.6012974657
 20
50.1645603694
 30
0.0
 10
268.6252929978
 20
50.1756905511
 30
0.0
 10
268.6389279766
 20
50.1850825002
 30
0.0
 10
268.6457186629
 20
50.1915746867
 30
0.0
 10
268.6500019673
 20
50.1982383139
 30
0.0
 10
268.6510399405
 20
50.2030126831
 30
0.0
 10
268.6510399405
 20
50.2052249576
 30
0.0
  0
SPLINE
  5
3AE
100
AcDbEntity
  8
0
100
AcDbSpline
 62
7
  6
CONTINUOUS
 70
0
 71
3
 72
11
 73
7
 74
0
 42
0.0000001
 43
0.0000001
 44
0.0000000001
 40
0.0
 40
0.0
 40
0.0
 40
0.0
 40
0.3144305519
 40
0.5900810134
 40
0.820398675
 40
1.0
 40
1.0
 40
1.0
 40
1.0
 10
265.4932718153
 20
50.6060193351
 30
0.0
 10
265.5970966497
 20
50.6098924386
 30
0.0
 10
265.7918995788
 20
50.618344707
 30
0.0
 10
266.0625286093
 20
50.634362174
 30
0.0
 10
266.2883388396
 20
50.6525651826
 30
0.0
 10
266.423010365
 20
50.6675738168
 30
0.0
 10
266.4817476339
 20
50.676048795
 30
0.0
  0
SPLINE
  5
3AF
100
AcDbEntity
  8
0
100
AcDbSpline
 62
7
  6
CONTINUOUS
 70
0
 71
3
 72
20
 73
16
 74
0
 42
0.0000001
 43
0.0000001
 44
0.0000000001
 40
0.0
 40
0.0
 40
0.0
 40
0.0
 40
0.2031760496
 40
0.3933099327
 40
0.5648467787
 40
0.7127904417
 40
0.8328639967
 40
0.8813530704
 40
0.921685098
 40
0.9536182659
 40
0.9663936415
 40
0.9770400411
 40
0.9855844073
 40
0.9921026165
 40
1.0
 40
1.0
 40
1.0
 40
1.0
 10
265.493166078
 20
52.0687165194
 30
0.0
 10
265.5740181032
 20
52.0697056402
 30
0.0
 10
265.7305238517
 20
52.0724464008
 30
0.0
 10
265.9552246552
 20
52.07904547
 30
0.0
 10
266.1578562259
 20
52.0878083147
 30
0.0
 10
266.3324691426
 20
52.0984592333
 30
0.0
 10
266.4580021993
 20
52.1091387115
 30
0.0
 10
266.5405766565
 20
52.1188308676
 30
0.0
 10
266.5881331618
 20
52.1258168365
 30
0.0
 10
266.6213990553
 20
52.132101958
 30
0.0
 10
266.6427939326
 20
52.137456852
 30
0.0
 10
266.6549345671
 20
52.1411440696
 30
0.0
 10
266.6645684755
 20
52.1449589566
 30
0.0
 10
266.6723918507
 20
52.149026878
 30
0.0
 10
266.677355728
 20
52.1538079281
 30
0.0
 10
266.677355728
 20
52.1569508538
 30
0.0
  0
SPLINE
  5
3B0
100
AcDbEntity
  8
0
100
AcDbSpline
 62
7
  6
CONTINUOUS
 70
0
 71
3
 72
37
 73
33
 74
0
 42
0.0000001
 43
0.0000001
 44
0.0000000001
 40
0.0
 40
0.0
 40
0.0
 40
0.0
 40
0.00381601
 40
0.0071463726
 40
0.0115653511
 40
0.017101493
 40
0.0237609394
 40
0.0315386968
 40
0.0404229363
 40
0.0614390291
 40
0.0866309615
 40
0.1157692588
 40
0.1485815892
 40
0.2239529435
 40
0.309881462
 40
0.4030857001
 40
0.5
 40
0.5969142999
 40
0.690118538
 40
0.7760470565
 40
0.8514184108
 40
0.8842307412
 40
0.9133690385
 40
0.9385609709
 40
0.9595770637
 40
0.9684613032
 40
0.9762390606
 40
0.982898507
 40
0.9884346489
 40
0.9928536274
 40
0.99618399
 40
1.0
 40
1.0
 40
1.0
 40
1.0
 10
266.677355728
 20
51.6578838998
 30
0.0
 10
266.677355728
 20
51.6541103647
 30
0.0
 10
266.6705233758
 20
51.6486793391
 30
0.0
 10
266.6606036306
 20
51.6441653308
 30
0.0
 10
266.6479826085
 20
51.6398130239
 30
0.0
 10
266.6321600496
 20
51.635633531
 30
0.0
 10
266.6128321505
 20
51.6314242358
 30
0.0
 10
266.5901503932
 20
51.6272832081
 30
0.0
 10
266.5533353497
 20
51.6215090381
 30
0.0
 10
266.4992730111
 20
51.6147116321
 30
0.0
 10
266.4251311891
 20
51.6072844373
 30
0.0
 10
266.3392376496
 20
51.6003054898
 30
0.0
 10
266.20374103
 20
51.5912773859
 30
0.0
 10
266.0119999991
 20
51.5819793687
 30
0.0
 10
265.7604486482
 20
51.5739565839
 30
0.0
 10
265.4875111625
 20
51.5690060305
 30
0.0
 10
265.203671516
 20
51.5673304223
 30
0.0
 10
264.9198318696
 20
51.5690060305
 30
0.0
 10
264.6468943839
 20
51.5739565839
 30
0.0
 10
264.395343033
 20
51.5819793687
 30
0.0
 10
264.2036020021
 20
51.5912773859
 30
0.0
 10
264.0681053825
 20
51.6003054898
 30
0.0
 10
263.982211843
 20
51.6072844373
 30
0.0
 10
263.908070021
 20
51.6147116321
 30
0.0
 10
263.8540076823
 20
51.6215090381
 30
0.0
 10
263.8171926389
 20
51.6272832081
 30
0.0
 10
263.7945108815
 20
51.6314242358
 30
0.0
 10
263.7751829825
 20
51.635633531
 30
0.0
 10
263.7593604235
 20
51.6398130239
 30
0.0
 10
263.7467394014
 20
51.6441653308
 30
0.0
 10
263.7368196563
 20
51.6486793391
 30
0.0
 10
263.729987304
 20
51.6541103647
 30
0.0
 10
263.729987304
 20
51.6578838998
 30
0.0
  0
SPLINE
  5
3B1
100
AcDbEntity
  8
0
100
AcDbSpline
 62
7
  6
CONTINUOUS
 70
0
 71
3
 72
21
 73
17
 74
0
 42
0.0000001
 43
0.0000001
 44
0.0000000001
 40
0.0
 40
0.0
 40
0.0
 40
0.0
 40
0.0089443399
 40
0.015525732
 40
0.0238829858
 40
0.0341320597
 40
0.0463286061
 40
0.0766478328
 40
0.1148943191
 40
0.1609873074
 40
0.2147761737
 40
0.2760597533
 40
0.4201001289
 40
0.5907487424
 40
0.7851444312
 40
1.0
 40
1.0
 40
1.0
 40
1.0
 10
261.7563030915
 20
51.7341254529
 30
0.0
 10
261.7563030915
 20
51.7311442336
 30
0.0
 10
261.7528468129
 20
51.7263393416
 30
0.0
 10
261.746401446
 20
51.7218914236
 30
0.0
 10
261.7388959089
 20
51.7179849389
 30
0.0
 10
261.7293749167
 20
51.7141610098
 30
0.0
 10
261.7126632979
 20
51.7086326987
 30
0.0
 10
261.6865346538
 20
51.7020602826
 30
0.0
 10
261.6490297349
 20
51.6946739002
 30
0.0
 10
261.603557557
 20
51.6874195743
 30
0.0
 10
261.5503060947
 20
51.6803265848
 30
0.0
 10
261.4644844774
 20
51.670620343
 30
0.0
 10
261.3396459849
 20
51.6595261862
 30
0.0
 10
261.1703521201
 20
51.6479528575
 30
0.0
 10
260.9773288467
 20
51.6377700264
 30
0.0
 10
260.8410295856
 20
51.6322758392
 30
0.0
 10
260.7694609853
 20
51.6297527029
 30
0.0
  0
SPLINE
  5
3B2
100
AcDbEntity
  8
0
100
AcDbSpline
 62
7
  6
CONTINUOUS
 70
0
 71
3
 72
24
 73
20
 74
0
 42
0.0000001
 43
0.0000001
 44
0.0000000001
 40
0.0
 40
0.0
 40
0.0
 40
0.0
 40
0.1937803313
 40
0.3801423388
 40
0.5519565626
 40
0.7026616981
 40
0.7682700579
 40
0.8265321015
 40
0.8769034349
 40
0.9189251169
 40
0.9366892055
 40
0.9522408669
 40
0.9655564115
 40
0.9766258997
 40
0.9854616735
 40
0.9921207813
 40
0.9946847985
 40
0.9967924537
 40
1.0
 40
1.0
 40
1.0
 40
1.0
 10
261.5457767755
 20
50.8206766997
 30
0.0
 10
261.3917552978
 20
50.8206766997
 30
0.0
 10
261.0896054968
 20
50.8224603937
 30
0.0
 10
260.6509564657
 20
50.8304166499
 30
0.0
 10
260.2466774579
 20
50.8433103721
 30
0.0
 10
259.9385221284
 20
50.8582537093
 30
0.0
 10
259.7207598747
 20
50.8727630129
 30
0.0
 10
259.5827162297
 20
50.8839794718
 30
0.0
 10
259.4635610584
 20
50.895915218
 30
0.0
 10
259.3766719071
 20
50.9068416114
 30
0.0
 10
259.3175102271
 20
50.9161182606
 30
0.0
 10
259.2810445927
 20
50.9227811801
 30
0.0
 10
259.250019999
 20
50.9295231648
 30
0.0
 10
259.2244830878
 20
50.9363053175
 30
0.0
 10
259.2044871965
 20
50.9431263266
 30
0.0
 10
259.1914012666
 20
50.9491754231
 30
0.0
 10
259.1839601789
 20
50.9543309988
 30
0.0
 10
259.1794163652
 20
50.9585994069
 30
0.0
 10
259.1773557205
 20
50.9627503861
 30
0.0
 10
259.1773557205
 20
50.9652998245
 30
0.0
  0
SPLINE
  5
3B3
100
AcDbEntity
  8
0
100
AcDbSpline
 62
7
  6
CONTINUOUS
 70
0
 71
3
 72
27
 73
23
 74
0
 42
0.0000001
 43
0.0000001
 44
0.0000000001
 40
0.0
 40
0.0
 40
0.0
 40
0.0
 40
0.1937703879
 40
0.3801228825
 40
0.5519283057
 40
0.6302968845
 40
0.7026276332
 40
0.7682326207
 40
0.8264916757
 40
0.8768604495
 40
0.8989394658
 40
0.9188813397
 40
0.9366445063
 40
0.9521953692
 40
0.9655102432
 40
0.976579176
 40
0.9854145006
 40
0.9920732609
 40
0.9946371549
 40
0.9967446855
 40
0.9984818424
 40
1.0
 40
1.0
 40
1.0
 40
1.0
 10
261.5457767755
 20
51.2545460741
 30
0.0
 10
261.2377338563
 20
51.2545460741
 30
0.0
 10
260.6334333547
 20
51.2509826219
 30
0.0
 10
259.7561390772
 20
51.2350534386
 30
0.0
 10
259.0624992119
 20
51.2129775796
 30
0.0
 10
258.550313299
 20
51.1899628392
 30
0.0
 10
258.2069576109
 20
51.1711206272
 30
0.0
 10
257.8957420929
 20
51.1503733507
 30
0.0
 10
257.6196587287
 20
51.1279329997
 30
0.0
 10
257.4128818218
 20
51.107248583
 30
0.0
 10
257.2670582439
 20
51.0896672847
 30
0.0
 10
257.1728895539
 20
51.0767855456
 30
0.0
 10
257.0892439516
 20
51.0636616907
 30
0.0
 10
257.0163123189
 20
51.0503367519
 30
0.0
 10
256.9542634546
 20
51.0368550396
 30
0.0
 10
256.9031887277
 20
51.023283366
 30
0.0
 10
256.8631991989
 20
51.0096612323
 30
0.0
 10
256.8370223281
 20
50.9975190837
 30
0.0
 10
256.822147654
 20
50.9872734545
 30
0.0
 10
256.8147398996
 20
50.9801909557
 30
0.0
 10
256.8100666976
 20
50.9729218292
 30
0.0
 10
256.8089347329
 20
50.9677132878
 30
0.0
 10
256.8089347329
 20
50.9652998245
 30
0.0
  0
SPLINE
  5
3B4
100
AcDbEntity
  8
0
100
AcDbSpline
 62
7
  6
CONTINUOUS
 70
0
 71
3
 72
24
 73
20
 74
0
 42
0.0000001
 43
0.0000001
 44
0.0000000001
 40
0.0
 40
0.0
 40
0.0
 40
0.0
 40
0.1937803315
 40
0.3801423394
 40
0.5519565634
 40
0.7026616992
 40
0.7682700591
 40
0.8265321027
 40
0.8769034362
 40
0.9189251183
 40
0.9366892069
 40
0.9522408683
 40
0.9655564131
 40
0.9766259007
 40
0.9854616769
 40
0.992120776
 40
0.9946847894
 40
0.996792477
 40
1.0
 40
1.0
 40
1.0
 40
1.0
 10
261.256303091
 20
50.0848021023
 30
0.0
 10
261.0954362143
 20
50.0848021023
 30
0.0
 10
260.7798575333
 20
50.0866650715
 30
0.0
 10
260.3217129897
 20
50.0949749391
 30
0.0
 10
259.8994660259
 20
50.1084417156
 30
0.0
 10
259.577614904
 20
50.1240492011
 30
0.0
 10
259.3501743279
 20
50.1392033627
 30
0.0
 10
259.2059954099
 20
50.1509183308
 30
0.0
 10
259.0815444532
 20
50.1633845548
 30
0.0
 10
258.9907935617
 20
50.1747965651
 30
0.0
 10
258.9290024739
 20
50.1844855109
 30
0.0
 10
258.8909161439
 20
50.191444557
 30
0.0
 10
258.8585126816
 20
50.1984861948
 30
0.0
 10
258.8318407908
 20
50.2055697549
 30
0.0
 10
258.8109562045
 20
50.2126939561
 30
0.0
 10
258.797288693
 20
50.2190118723
 30
0.0
 10
258.789516817
 20
50.2243965322
 30
0.0
 10
258.7847711763
 20
50.2288547696
 30
0.0
 10
258.782618878
 20
50.233190194
 30
0.0
 10
258.782618878
 20
50.2358529215
 30
0.0
  0
SPLINE
  5
3B5
100
AcDbEntity
  8
0
100
AcDbSpline
 62
7
  6
CONTINUOUS
 70
0
 71
3
 72
24
 73
20
 74
0
 42
0.0000001
 43
0.0000001
 44
0.0000000001
 40
0.0
 40
0.0
 40
0.0
 40
0.0
 40
0.00320936
 40
0.0053172203
 40
0.0078808849
 40
0.0145378624
 40
0.0233698453
 40
0.0344340582
 40
0.0477429995
 40
0.0632868715
 40
0.0810421304
 40
0.1230436555
 40
0.1733926689
 40
0.2316317995
 40
0.2972184169
 40
0.4478914509
 40
0.6197030542
 40
0.8061098582
 40
1.0
 40
1.0
 40
1.0
 40
1.0
 10
266.677355728
 20
50.2358525796
 30
0.0
 10
266.677355728
 20
50.2331939569
 30
0.0
 10
266.6752104843
 20
50.228865339
 30
0.0
 10
266.6704769192
 20
50.2244119929
 30
0.0
 10
266.6627265275
 20
50.2190348609
 30
0.0
 10
266.6490958855
 20
50.2127250358
 30
0.0
 10
266.6282671912
 20
50.2056100805
 30
0.0
 10
266.601666649
 20
50.1985355029
 30
0.0
 10
266.5693496464
 20
50.1915026401
 30
0.0
 10
266.5313644971
 20
50.184551979
 30
0.0
 10
266.4697362708
 20
50.1748741841
 30
0.0
 10
266.3792214749
 20
50.1634741467
 30
0.0
 10
266.2550894361
 20
50.1510191571
 30
0.0
 10
266.111272181
 20
50.1393123768
 30
0.0
 10
265.8843776612
 20
50.1241641769
 30
0.0
 10
265.56325519
 20
50.1085535854
 30
0.0
 10
265.1418936471
 20
50.0950673776
 30
0.0
 10
264.6845922607
 20
50.0867208532
 30
0.0
 10
264.3695525908
 20
50.08482297
 30
0.0
 10
264.208934673
 20
50.0848021023
 30
0.0
  0
ELLIPSE
  5
3B6
100
AcDbEntity
  8
0
100
AcDbEllipse
 62
7
  6
CONTINUOUS
 10
219.1989346655
 20
181.0604960549
 30
0.0
 11
0.0
 21
14.0
 31
0.0
 40
1.0
 41
-2.2413114936
 42
-1.5707963268
  0
ELLIPSE
  5
3B7
100
AcDbEntity
  8
0
100
AcDbEllipse
 62
7
  6
CONTINUOUS
 10
199.5188783226
 20
189.3610402056
 30
0.0
 11
49.5319562263
 21
0.0
 31
0.0
 40
0.9791658496
 41
7.8121653332
 42
7.8211922536
  0
ELLIPSE
  5
3B8
100
AcDbEntity
  8
0
100
AcDbEllipse
 62
7
  6
CONTINUOUS
 10
200.0601564024
 20
189.3610402056
 30
0.0
 11
-0.0
 21
48.5
 31
0.0
 40
0.6808509827
 41
6.2503959268
 42
6.2639315403
  0
ELLIPSE
  5
3B9
100
AcDbEntity
  8
0
100
AcDbEllipse
 62
7
  6
CONTINUOUS
 10
200.0456883901
 20
189.3610402056
 30
0.0
 11
0.0
 21
48.5
 31
0.0
 40
0.3404254913
 41
-0.0393916255
 42
-0.0258533911
  0
ELLIPSE
  5
3BA
100
AcDbEntity
  8
0
100
AcDbEllipse
 62
7
  6
CONTINUOUS
 10
199.3954757727
 20
189.3610402056
 30
0.0
 11
-0.0
 21
48.5
 31
0.0
 40
0.6808509827
 41
-0.0529370879
 42
-0.0393916255
  0
ELLIPSE
  5
3BB
100
AcDbEntity
  8
0
100
AcDbEllipse
 62
7
  6
CONTINUOUS
 10
198.5218601763
 20
189.3610402056
 30
0.0
 11
49.5318853703
 21
-0.0
 31
0.0
 40
0.9791672503
 41
1.5088236759
 42
1.5178592388
  0
ELLIPSE
  5
3BC
100
AcDbEntity
  8
0
100
AcDbEllipse
 62
7
  6
CONTINUOUS
 10
192.3865272224
 20
189.3610402056
 30
0.0
 11
148.5959380588
 21
-0.0
 31
0.0
 40
0.3263884641
 41
1.5043040468
 42
1.5088236759
  0
ELLIPSE
  5
3BD
100
AcDbEntity
  8
0
100
AcDbEllipse
 62
7
  6
CONTINUOUS
 10
212.8031426963
 20
189.3610402056
 30
0.0
 11
148.5958686789
 21
0.0
 31
0.0
 40
0.3263886165
 41
1.6327689777
 42
1.6372886068
  0
ELLIPSE
  5
3BE
100
AcDbEntity
  8
0
100
AcDbEllipse
 62
7
  6
CONTINUOUS
 10
208.2016439866
 20
189.3610402056
 30
0.0
 11
74.2978454004
 21
0.0
 31
0.0
 40
0.6527780145
 41
1.6237334147
 42
1.6327689777
  0
ELLIPSE
  5
3BF
100
AcDbEntity
  8
0
100
AcDbEllipse
 62
7
  6
CONTINUOUS
 10
206.0176028281
 20
189.3610402056
 30
0.0
 11
0.0
 21
48.5
 31
0.0
 40
0.6808509827
 41
0.0393916255
 42
0.0529370879
  0
ELLIPSE
  5
3C0
100
AcDbEntity
  8
0
100
AcDbEllipse
 62
7
  6
CONTINUOUS
 10
205.3673902107
 20
189.3610402056
 30
0.0
 11
0.0
 21
48.5
 31
0.0
 40
0.3404254913
 41
0.0258533911
 42
0.0393916255
  0
ELLIPSE
  5
3C1
100
AcDbEntity
  8
0
100
AcDbEllipse
 62
7
  6
CONTINUOUS
 10
205.3529221983
 20
189.3610402056
 30
0.0
 11
0.0
 21
48.5
 31
0.0
 40
0.6808509827
 41
0.0192537669
 42
0.0327893804
  0
ELLIPSE
  5
3C2
100
AcDbEntity
  8
0
100
AcDbEllipse
 62
7
  6
CONTINUOUS
 10
206.7061164179
 20
189.3610402056
 30
0.0
 11
74.2979516844
 21
-0.0
 31
0.0
 40
0.6527770807
 41
1.6035857072
 42
1.6126126275
  0
ELLIPSE
  5
3C3
100
AcDbEntity
  8
0
100
AcDbEllipse
 62
7
  6
CONTINUOUS
 10
209.8120573199
 20
189.3610402056
 30
0.0
 11
148.5954435435
 21
-0.0
 31
0.0
 40
0.3263895503
 41
1.6126126275
 42
1.6171273334
  0
ELLIPSE
  5
3C4
100
AcDbEntity
  8
0
100
AcDbEllipse
 62
7
  6
CONTINUOUS
 10
195.3776139954
 20
189.3610402056
 30
0.0
 11
148.5955129232
 21
0.0
 31
0.0
 40
0.3263893979
 41
7.8076506274
 42
7.8121653332
  0
ELLIPSE
  5
3C5
100
AcDbEntity
  8
0
100
AcDbEllipse
 62
7
  6
CONTINUOUS
 10
195.244199586
 20
189.3610402056
 30
0.0
 11
74.2978280555
 21
-0.0
 31
0.0
 40
0.6527781669
 41
7.8166791606
 42
7.8257046656
  0
ELLIPSE
  5
3C6
100
AcDbEntity
  8
0
100
AcDbEllipse
 62
7
  6
CONTINUOUS
 10
196.4112198993
 20
189.3610402056
 30
0.0
 11
0.0
 21
48.5
 31
0.0
 40
0.6808509827
 41
6.2549083388
 42
6.2684425008
  0
ELLIPSE
  5
3C7
100
AcDbEntity
  8
0
100
AcDbEllipse
 62
7
  6
CONTINUOUS
 10
196.2478158766
 20
189.3610402056
 30
0.0
 11
0.0
 21
48.5
 31
0.0
 40
0.3404254913
 41
-0.0393916255
 42
-0.0258533911
  0
ELLIPSE
  5
3C8
100
AcDbEntity
  8
0
100
AcDbEllipse
 62
7
  6
CONTINUOUS
 10
195.5976032591
 20
189.3610402056
 30
0.0
 11
-0.0
 21
48.5
 31
0.0
 40
0.6808509827
 41
-0.0529370879
 42
-0.0393916255
  0
ELLIPSE
  5
3C9
100
AcDbEntity
  8
0
100
AcDbEllipse
 62
7
  6
CONTINUOUS
 10
193.4135630184
 20
189.3610402056
 30
0.0
 11
74.2978280555
 21
0.0
 31
0.0
 40
0.6527781669
 41
1.5088236759
 42
1.5178592388
  0
ELLIPSE
  5
3CA
100
AcDbEntity
  8
0
100
AcDbEllipse
 62
7
  6
CONTINUOUS
 10
188.8120546406
 20
189.3610402056
 30
0.0
 11
148.5960074387
 21
-0.0
 31
0.0
 40
0.3263883117
 41
1.5043040468
 42
1.5088236759
  0
ELLIPSE
  5
3CB
100
AcDbEntity
  8
0
100
AcDbEllipse
 62
7
  6
CONTINUOUS
 10
178.938921266
 20
189.3610402056
 30
0.0
 11
297.1908870871
 21
-0.0
 31
0.0
 40
0.1631947752
 41
1.499783044
 42
1.5043040468
  0
ELLIPSE
  5
3CC
100
AcDbEntity
  8
0
100
AcDbEllipse
 62
7
  6
CONTINUOUS
 10
188.2924939822
 20
189.3610402056
 30
0.0
 11
57.7872502804
 21
0.0
 31
0.0
 40
0.8392854785
 41
1.3860355977
 42
1.4134989906
  0
ELLIPSE
  5
3CD
100
AcDbEntity
  8
0
100
AcDbEllipse
 62
7
  6
CONTINUOUS
 10
219.1989346655
 20
197.4101249876
 30
0.0
 11
-0.0
 21
40.311393382
 31
0.0
 40
0.3472963553
 41
-2.4119671887
 42
-2.2413114936
  0
ELLIPSE
  5
3CE
100
AcDbEntity
  8
0
100
AcDbEllipse
 62
7
  6
CONTINUOUS
 10
157.1989346655
 20
181.0604960549
 30
0.0
 11
0.0
 21
14.0
 31
0.0
 40
1.0
 41
-4.7123889804
 42
-4.0418738136
  0
ELLIPSE
  5
3CF
100
AcDbEntity
  8
0
100
AcDbEllipse
 62
7
  6
CONTINUOUS
 10
157.1989346655
 20
197.4101249876
 30
0.0
 11
-0.0
 21
40.311393382
 31
0.0
 40
0.3472963553
 41
-4.0418738136
 42
-3.8712181185
  0
ELLIPSE
  5
3D0
100
AcDbEntity
  8
0
100
AcDbEllipse
 62
7
  6
CONTINUOUS
 10
228.5574167606
 20
189.3610402056
 30
0.0
 11
145.0577557532
 21
0.0
 31
0.0
 40
0.334349582
 41
1.8836047241
 42
1.9507487527
  0
ELLIPSE
  5
3D1
100
AcDbEntity
  8
0
100
AcDbEllipse
 62
7
  6
CONTINUOUS
 10
173.8681044183
 20
189.3610402056
 30
0.0
 11
84.0044641671
 21
0.0
 31
0.0
 40
0.5773502692
 41
1.6790874676
 42
1.7337600778
  0
ELLIPSE
  5
3D2
100
AcDbEntity
  8
0
100
AcDbEllipse
 62
7
  6
CONTINUOUS
 10
143.1089321532
 20
189.3610402056
 30
0.0
 11
145.5000086725
 21
-0.0
 31
0.0
 40
0.3333333135
 41
1.2768926391
 42
1.3515174977
  0
ELLIPSE
  5
3D3
100
AcDbEntity
  8
0
100
AcDbEllipse
 62
7
  6
CONTINUOUS
 10
209.5520687198
 20
189.3610402056
 30
0.0
 11
66.0425196087
 21
-0.0
 31
0.0
 40
0.7343753734
 41
1.6372886068
 42
1.6508560529
  0
ELLIPSE
  5
3D4
100
AcDbEntity
  8
0
100
AcDbEllipse
 62
7
  6
CONTINUOUS
 10
214.1735634593
 20
189.3610402056
 30
0.0
 11
123.8298193407
 21
0.0
 31
0.0
 40
0.3916665651
 41
1.6508560529
 42
1.6599090672
  0
ELLIPSE
  5
3D5
100
AcDbEntity
  8
0
100
AcDbEllipse
 62
7
  6
CONTINUOUS
 10
234.0099313632
 20
189.3610402056
 30
0.0
 11
346.7232669719
 21
0.0
 31
0.0
 40
0.1398810078
 41
1.6599090672
 42
1.6644382784
  0
ELLIPSE
  5
3D6
100
AcDbEntity
  8
0
100
AcDbEllipse
 62
7
  6
CONTINUOUS
 10
167.6052813679
 20
189.3610402056
 30
0.0
 11
346.7231975922
 21
-0.0
 31
0.0
 40
0.1398810358
 41
1.4771543752
 42
1.4816835863
  0
ELLIPSE
  5
3D7
100
AcDbEntity
  8
0
100
AcDbEllipse
 62
7
  6
CONTINUOUS
 10
187.4416384665
 20
189.3610402056
 30
0.0
 11
123.8298713755
 21
0.0
 31
0.0
 40
0.3916664005
 41
1.4816835863
 42
1.4907366006
  0
ELLIPSE
  5
3D8
100
AcDbEntity
  8
0
100
AcDbEllipse
 62
7
  6
CONTINUOUS
 10
192.0631378298
 20
189.3610402056
 30
0.0
 11
66.0425138271
 21
0.0
 31
0.0
 40
0.7343754377
 41
1.4907366006
 42
1.5043040468
  0
ELLIPSE
  5
3D9
100
AcDbEntity
  8
0
100
AcDbEllipse
 62
7
  6
CONTINUOUS
 10
194.4765813487
 20
189.3610402056
 30
0.0
 11
-0.0
 21
48.5
 31
0.0
 40
0.6127661182
 41
-0.06649228
 42
-0.0439058619
  0
ELLIPSE
  5
3DA
100
AcDbEntity
  8
0
100
AcDbEllipse
 62
7
  6
CONTINUOUS
 10
195.3461989321
 20
189.3610402056
 30
0.0
 11
0.0
 21
48.5
 31
0.0
 40
0.2042552558
 41
-0.0439058619
 42
-0.0213418263
  0
ELLIPSE
  5
3DB
100
AcDbEntity
  8
0
100
AcDbEllipse
 62
7
  6
CONTINUOUS
 10
139.2796015133
 20
189.3610402056
 30
0.0
 11
143.5623149723
 21
-0.0
 31
0.0
 40
0.334349582
 41
1.2722799227
 42
1.3210734713
  0
ELLIPSE
  5
3DC
100
AcDbEntity
  8
0
100
AcDbEllipse
 62
7
  6
CONTINUOUS
 10
232.65893294
 20
189.3610402056
 30
0.0
 11
143.9999957085
 21
0.0
 31
0.0
 40
0.3333333433
 41
1.9062172495
 42
1.9845874065
  0
ELLIPSE
  5
3DD
100
AcDbEntity
  8
0
100
AcDbEllipse
 62
7
  6
CONTINUOUS
 10
198.1295181927
 20
189.3610402056
 30
0.0
 11
-0.0
 21
48.5
 31
0.0
 40
0.6808509827
 41
-0.0710132828
 42
-0.0439058619
  0
ELLIPSE
  5
3DE
100
AcDbEntity
  8
0
100
AcDbEllipse
 62
7
  6
CONTINUOUS
 10
199.1440714456
 20
189.3610402056
 30
0.0
 11
0.0
 21
48.5
 31
0.0
 40
0.2042552558
 41
-0.0439058619
 42
-0.0213418263
  0
ELLIPSE
  5
3DF
100
AcDbEntity
  8
0
100
AcDbEllipse
 62
7
  6
CONTINUOUS
 10
186.5052637754
 20
189.3610402056
 30
0.0
 11
57.1914825439
 21
-0.0
 31
0.0
 40
0.8392858143
 41
1.3840884484
 42
1.4118466107
  0
ELLIPSE
  5
3E0
100
AcDbEntity
  8
0
100
AcDbEllipse
 62
7
  6
CONTINUOUS
 10
151.1989346655
 20
185.5604960549
 30
0.0
 11
0.0
 21
8.0
 31
0.0
 40
1.0
 41
0.0
 42
1.5707963268
  0
ELLIPSE
  5
3E1
100
AcDbEntity
  8
0
100
AcDbEllipse
 62
7
  6
CONTINUOUS
 10
225.1989346655
 20
185.5604960549
 30
0.0
 11
0.0
 21
8.0
 31
0.0
 40
1.0
 41
-1.5707963268
 42
0.0
  0
ELLIPSE
  5
3E2
100
AcDbEntity
  8
0
100
AcDbEllipse
 62
7
  6
CONTINUOUS
 10
186.5052637754
 20
189.3610402056
 30
0.0
 11
57.7872271538
 21
0.0
 31
0.0
 40
0.8392858143
 41
1.3860355977
 42
1.4134989906
  0
ELLIPSE
  5
3E3
100
AcDbEntity
  8
0
100
AcDbEllipse
 62
7
  6
CONTINUOUS
 10
232.65893294
 20
189.3610402056
 30
0.0
 11
145.4999956638
 21
0.0
 31
0.0
 40
0.3333333433
 41
1.9026257465
 42
1.9800646053
  0
ELLIPSE
  5
3E4
100
AcDbEntity
  8
0
100
AcDbEllipse
 62
7
  6
CONTINUOUS
 10
139.2796015133
 20
189.3610402056
 30
0.0
 11
145.0577557532
 21
-0.0
 31
0.0
 40
0.334349582
 41
1.2579879295
 42
1.323701941
  0
ELLIPSE
  5
3E5
100
AcDbEntity
  8
0
100
AcDbEllipse
 62
7
  6
CONTINUOUS
 10
179.0296158248
 20
189.3610402056
 30
0.0
 11
84.0044641671
 21
0.0
 31
0.0
 40
0.5773502692
 41
1.7411418783
 42
1.7846212026
  0
ELLIPSE
  5
3E6
100
AcDbEntity
  8
0
100
AcDbEllipse
 62
7
  6
CONTINUOUS
 10
179.0296158248
 20
189.3610402056
 30
0.0
 11
83.1384387633
 21
0.0
 31
0.0
 40
0.5773502692
 41
1.7429339532
 42
1.7868836808
  0
ELLIPSE
  5
3E7
100
AcDbEntity
  8
0
100
AcDbEllipse
 62
7
  6
CONTINUOUS
 10
206.2690073302
 20
189.3610402056
 30
0.0
 11
-0.0
 21
48.5
 31
0.0
 40
0.2042552737
 41
0.0213418263
 42
0.0439058619
  0
ELLIPSE
  5
3E8
100
AcDbEntity
  8
0
100
AcDbEllipse
 62
7
  6
CONTINUOUS
 10
207.1386249897
 20
189.3610402056
 30
0.0
 11
0.0
 21
48.5
 31
0.0
 40
0.6127661718
 41
0.0439058619
 42
0.06649228
  0
ELLIPSE
  5
3E9
100
AcDbEntity
  8
0
100
AcDbEllipse
 62
7
  6
CONTINUOUS
 10
151.1989346655
 20
26.7002225512
 30
0.0
 11
8.0
 21
0.0
 31
0.0
 40
0.8390996312
 41
-3.1415926536
 42
-1.5707963268
  0
ELLIPSE
  5
3EA
100
AcDbEntity
  8
KONSTRUKTIONSELEMENTE
100
AcDbEllipse
 62
7
  6
CONTINUOUS
 10
151.1989346655
 20
109.2746284524
 30
0.0
 11
8.0
 21
0.0
 31
0.0
 40
0.8390996312
 41
1.5707963268
 42
3.1415926536
  0
ELLIPSE
  5
3EB
100
AcDbEntity
  8
KONSTRUKTIONSELEMENTE
100
AcDbEllipse
 62
7
  6
CONTINUOUS
 10
225.1989346655
 20
109.2746284524
 30
0.0
 11
8.0
 21
-0.0
 31
0.0
 40
0.8390996312
 41
0.0
 42
1.5707963268
  0
ELLIPSE
  5
3EC
100
AcDbEntity
  8
0
100
AcDbEllipse
 62
7
  6
CONTINUOUS
 10
225.1989346655
 20
26.7002225512
 30
0.0
 11
8.0
 21
0.0
 31
0.0
 40
0.8390996312
 41
-1.5707963268
 42
-0.0
  0
ENDSEC
  0
SECTION
  2
OBJECTS
  0
DICTIONARY
  5
C
100
AcDbDictionary
280
0
281
1
  3
ACAD_GROUP
350
D
  3
ACAD_MLINESTYLE
350
17
  3
ACAD_LAYOUT
350
1A
  3
ACAD_PLOTSETTINGS
350
19
  3
ACAD_PLOTSTYLENAME
350
E
  0
DICTIONARY
  5
D
102
{ACAD_REACTORS
330
C
102
}
100
AcDbDictionary
280
0
281
1
  0
ACDBDICTIONARYWDFLT
  5
E
102
{ACAD_REACTORS
330
C
102
}
100
AcDbDictionary
281
1
  3
Normal
350
F
100
AcDbDictionaryWithDefault
340
F
  0
DICTIONARY
  5
17
102
{ACAD_REACTORS
330
C
102
}
100
AcDbDictionary
280
0
281
1
  3
Standard
350
18
  0
DICTIONARY
  5
19
102
{ACAD_REACTORS
330
C
102
}
100
AcDbDictionary
281
1
  0
DICTIONARY
  5
1A
102
{ACAD_REACTORS
330
C
102
}
100
AcDbDictionary
281
1
  3
Model
350
3ED
  3
Layout1
350
3EE
  0
ACDBPLACEHOLDER
  5
F
102
{ACAD_REACTORS
330
E
102
}
  0
MLINESTYLE
  5
18
102
{ACAD_REACTORS
330
17
102
}
100
AcDbMlineStyle
  2
STANDARD
 70
0
  3

 62
256
 51
90.0
 52
90.0
 71
2
 49
0.5
 62
256
  6
BYLAYER
 49
-0.5
 62
256
  6
BYLAYER
  0
LAYOUT
  5
3ED
102
{ACAD_REACTORS
330
1A
102
}
100
AcDbPlotSettings
  1

  2
none_device
  4
ISO_A2_(594.00_x_420.00_MM)
  6

 40
0.0
 41
0.0
 42
0.0
 43
0.0
 44
594.0
 45
420.0
 46
0.0
 47
0.0
 48
0.0
 49
0.0
140
0.0
141
0.0
142
1.0
143
1.0
 70
1024
 72
1
 73
0
 74
0
  7

 75
0
147
1.0
148
0.0
149
0.0
100
AcDbLayout
  1
Model
 70
0
 71
0
 10
0.0
 20
0.0
 11
594.0
 21
420.0
 12
0.0
 22
0.0
 32
0.0
 14
0.0
 24
0.0
 34
0.0
 15
0.0
 25
0.0
 35
0.0
146
0.0
 13
0.0
 23
0.0
 33
0.0
 16
1.0
 26
0.0
 36
0.0
 17
0.0
 27
1.0
 37
0.0
 76
0
330
20E
345
0
346
0
  0
LAYOUT
  5
3EE
102
{ACAD_REACTORS
330
1A
102
}
100
AcDbPlotSettings
  1

  2
none_device
  4
ISO_A2_(594.00_x_420.00_MM)
  6

 40
0.0
 41
0.0
 42
0.0
 43
0.0
 44
594.0
 45
420.0
 46
0.0
 47
0.0
 48
0.0
 49
0.0
140
0.0
141
0.0
142
1.0
143
1.0
 70
0
 72
1
 73
0
 74
0
  7

 75
0
147
1.0
148
0.0
149
0.0
100
AcDbLayout
  1
Layout1
 70
0
 71
1
 10
0.0
 20
0.0
 11
594.0
 21
420.0
 12
0.0
 22
0.0
 32
0.0
 14
0.0
 24
0.0
 34
0.0
 15
0.0
 25
0.0
 35
0.0
146
0.0
 13
0.0
 23
0.0
 33
0.0
 16
1.0
 26
0.0
 36
0.0
 17
0.0
 27
1.0
 37
0.0
 76
0
330
20F
345
0
346
0
  0
ENDSEC
  0
EOF
