999
DXF file: 001-m32121-p4.dxf
999
Pro/ENGINEER 2011490 by Parametric Technology Corporation
  0
SECTION
  2
HEADER
  9
$ACADVER
  1
AC1015
  9
$DWGCODEPAGE
  3
ANSI_1252
  9
$EXTMAX
 10
420.0
 20
297.0
 30
0.0
  9
$EXTMIN
 10
0.0
 20
0.0
 30
0.0
  9
$LIMMIN
 10
0.0
 20
0.0
  9
$LIMMAX
 10
420.0
 20
297.0
  9
$VIEWCTR
 10
210.0
 20
148.5
  9
$VIEWSIZE
 40
297.0
  9
$CLAYER
  8
0
  9
$LTSCALE
 40
23.1
  9
$CELTYPE
  6
BYLAYER
  9
$DIMSCALE
 40
1.0
  9
$DIMASZ
 40
3.5
  9
$DIMEXO
 40
2.625
  9
$DIMDLI
 40
15.96
  9
$DIMEXE
 40
7.56
  9
$DIMCEN
 40
3.78
  9
$DIMLFAC
 40
1.0
  9
$DIMBLK
  1
_FILLED
  9
$DIMTXT
 40
3.5
  9
$DIMTOL
 70
1
  9
$DIMLIM
 70
0
  9
$DIMTFAC
 40
1.0
  9
$DIMTP
 40
0.005
  9
$DIMTM
 40
0.005
  9
$PDMODE
 70
3
  9
$PDSIZE
 40
0.3125
  9
$HANDSEED
  5
366
  9
$TILEMODE
 70
1
  9
$MEASUREMENT
 70
1
  9
$INSUNITS
 70
4
  0
ENDSEC
  0
SECTION
  2
CLASSES
  0
CLASS
  1
ACDBDICTIONARYWDFLT
  2
AcDbDictionaryWithDefault
  3
AutoCAD 2000
 90
0
280
0
281
0
  0
CLASS
  1
ACDBPLACEHOLDER
  2
AcDbPlaceHolder
  3
AutoCAD 2000
 90
0
280
0
281
0
  0
CLASS
  1
LAYOUT
  2
AcDbLayout
  3
AutoCAD 2000
 90
0
280
0
281
0
  0
ENDSEC
  0
SECTION
  2
TABLES
  0
TABLE
  2
VPORT
  5
8
100
AcDbSymbolTable
 70
2
  0
VPORT
  5
1F4
100
AcDbSymbolTableRecord
100
AcDbViewportTableRecord
  2
*ACTIVE
 70
0
 10
0.0
 20
0.0
 11
1.0
 21
1.0
 12
210.0
 22
148.5
 13
0.0
 23
0.0
 14
1.0
 24
1.0
 15
0.0
 25
0.0
 16
0.0
 26
0.0
 36
1.0
 17
0.0
 27
0.0
 37
0.0
 40
297.0
 41
1.4141414141
 42
50.0
 43
0.0
 44
0.0
 50
0.0
 51
0.0
 71
0
 72
100
 73
1
 74
1
 75
0
 76
0
 77
0
 78
0
  0
ENDTAB
  0
TABLE
  2
LTYPE
  5
5
100
AcDbSymbolTable
 70
6
  0
LTYPE
  5
14
100
AcDbSymbolTableRecord
100
AcDbLinetypeTableRecord
  2
BYBLOCK
 70
0
  3

 72
65
 73
0
 40
0.0
  0
LTYPE
  5
15
100
AcDbSymbolTableRecord
100
AcDbLinetypeTableRecord
  2
BYLAYER
 70
0
  3

 72
65
 73
0
 40
0.0
  0
LTYPE
  5
16
100
AcDbSymbolTableRecord
100
AcDbLinetypeTableRecord
  2
CONTINUOUS
 70
64
  3
Solid line
 72
65
 73
0
 40
0.0
  0
LTYPE
  5
1F5
100
AcDbSymbolTableRecord
100
AcDbLinetypeTableRecord
  2
CENTER
 70
64
  3
____ _ ____ _ ____ _ ____ _ ____ _ ____ _ ____
 72
65
 73
4
 40
0.6
 49
0.375
 74
0
 49
-0.075
 74
0
 49
0.075
 74
0
 49
-0.075
 74
0
  0
LTYPE
  5
1F6
100
AcDbSymbolTableRecord
100
AcDbLinetypeTableRecord
  2
HIDDEN
 70
64
  3
- - - - - - - - - - - - - - - - - - - -
 72
65
 73
2
 40
0.2
 49
0.1
 74
0
 49
-0.1
 74
0
  0
LTYPE
  5
1F7
100
AcDbSymbolTableRecord
100
AcDbLinetypeTableRecord
  2
PHANTOM
 70
64
  3
_____ _ _ _____ _ _ _____ _ _ _____
 72
65
 73
6
 40
0.8
 49
0.45
 74
0
 49
-0.05
 74
0
 49
0.1
 74
0
 49
-0.05
 74
0
 49
0.1
 74
0
 49
-0.05
 74
0
  0
LTYPE
  5
1F8
100
AcDbSymbolTableRecord
100
AcDbLinetypeTableRecord
  2
DOT
 70
64
  3
. . . . . . . . . . . . . . . . . . . .
 72
65
 73
2
 40
0.2
 49
0.1
 74
0
 49
-0.1
 74
0
  0
LTYPE
  5
1F9
100
AcDbSymbolTableRecord
100
AcDbLinetypeTableRecord
  2
DASHED
 70
64
  3
- - - - - - - - - - - - - - - - - - - -
 72
65
 73
2
 40
0.2
 49
0.1
 74
0
 49
-0.1
 74
0
  0
ENDTAB
  0
TABLE
  2
LAYER
  5
2
100
AcDbSymbolTable
 70
36
  0
LAYER
  5
10
100
AcDbSymbolTableRecord
100
AcDbLayerTableRecord
  2
0
 70
0
 62
7
  6
CONTINUOUS
370
-3
390
F
  0
LAYER
  5
1FA
100
AcDbSymbolTableRecord
100
AcDbLayerTableRecord
  2
DEFAULT_1
 70
0
 62
7
  6
CENTER
370
-3
390
F
  0
LAYER
  5
1FB
100
AcDbSymbolTableRecord
100
AcDbLayerTableRecord
  2
DEFAULT_2
 70
0
 62
8
  6
HIDDEN
370
-3
390
F
  0
LAYER
  5
1FC
100
AcDbSymbolTableRecord
100
AcDbLayerTableRecord
  2
DEFAULT_3
 70
0
 62
7
  6
PHANTOM
370
-3
390
F
  0
LAYER
  5
1FD
100
AcDbSymbolTableRecord
100
AcDbLayerTableRecord
  2
AUSFORMSCHRAEGEN
 70
0
 62
7
  6
CONTINUOUS
370
-3
390
F
  0
LAYER
  5
1FE
100
AcDbSymbolTableRecord
100
AcDbLayerTableRecord
  2
BEZUGSACHSEN
 70
0
 62
7
  6
CONTINUOUS
370
-3
390
F
  0
LAYER
  5
1FF
100
AcDbSymbolTableRecord
100
AcDbLayerTableRecord
  2
BEZUGSEBENEN
 70
0
 62
7
  6
CONTINUOUS
370
-3
390
F
  0
LAYER
  5
200
100
AcDbSymbolTableRecord
100
AcDbLayerTableRecord
  2
BG_STARTBEZUEGE
 70
0
 62
7
  6
CONTINUOUS
370
-3
390
F
  0
LAYER
  5
201
100
AcDbSymbolTableRecord
100
AcDbLayerTableRecord
  2
FASEN
 70
0
 62
7
  6
CONTINUOUS
370
-3
390
F
  0
LAYER
  5
202
100
AcDbSymbolTableRecord
100
AcDbLayerTableRecord
  2
FLAECHENVERBUND
 70
0
 62
7
  6
CONTINUOUS
370
-3
390
F
  0
LAYER
  5
203
100
AcDbSymbolTableRecord
100
AcDbLayerTableRecord
  2
HILFEN
 70
0
 62
7
  6
CONTINUOUS
370
-3
390
F
  0
LAYER
  5
204
100
AcDbSymbolTableRecord
100
AcDbLayerTableRecord
  2
KONSTRUKTIONSELEMENTE
 70
0
 62
7
  6
CONTINUOUS
370
-3
390
F
  0
LAYER
  5
205
100
AcDbSymbolTableRecord
100
AcDbLayerTableRecord
  2
KURVEN
 70
0
 62
7
  6
CONTINUOUS
370
-3
390
F
  0
LAYER
  5
206
100
AcDbSymbolTableRecord
100
AcDbLayerTableRecord
  2
NORM
 70
0
 62
7
  6
CONTINUOUS
370
-3
390
F
  0
LAYER
  5
207
100
AcDbSymbolTableRecord
100
AcDbLayerTableRecord
  2
PLATZIERUNG
 70
0
 62
7
  6
CONTINUOUS
370
-3
390
F
  0
LAYER
  5
208
100
AcDbSymbolTableRecord
100
AcDbLayerTableRecord
  2
RUNDUNGEN
 70
0
 62
7
  6
CONTINUOUS
370
-3
390
F
  0
LAYER
  5
209
100
AcDbSymbolTableRecord
100
AcDbLayerTableRecord
  2
TEIL_STARTBEZUEGE
 70
0
 62
7
  6
CONTINUOUS
370
-3
390
F
  0
LAYER
  5
20A
100
AcDbSymbolTableRecord
100
AcDbLayerTableRecord
  2
T_STARTBEZUEGE
 70
0
 62
7
  6
CONTINUOUS
370
-3
390
F
  0
LAYER
  5
20B
100
AcDbSymbolTableRecord
100
AcDbLayerTableRecord
  2
ZEICHNUNGSBEMASSUNGEN
 70
0
 62
7
  6
CONTINUOUS
370
-3
390
F
  0
ENDTAB
  0
TABLE
  2
STYLE
  5
3
100
AcDbSymbolTable
 70
1
  0
STYLE
  5
11
100
AcDbSymbolTableRecord
100
AcDbTextStyleTableRecord
  2
STANDARD
 70
0
 40
0.0
 41
0.7
 50
0.0
 71
0
 42
0.2
  3
txt
  4

  0
STYLE
  5
20C
100
AcDbSymbolTableRecord
100
AcDbTextStyleTableRecord
  2
TEXTSTYLE_1
 70
0
 40
0.0
 41
0.8
 50
0.0
 71
0
 42
0.2
  3
gdt
  4

  0
ENDTAB
  0
TABLE
  2
VIEW
  5
6
100
AcDbSymbolTable
 70
0
  0
ENDTAB
  0
TABLE
  2
UCS
  5
7
100
AcDbSymbolTable
 70
0
  0
ENDTAB
  0
TABLE
  2
APPID
  5
9
100
AcDbSymbolTable
 70
1
  0
APPID
  5
20D
100
AcDbSymbolTableRecord
100
AcDbRegAppTableRecord
  2
ACAD
 70
0
  0
ENDTAB
  0
TABLE
  2
BLOCK_RECORD
  5
1
100
AcDbSymbolTable
 70
0
  0
BLOCK_RECORD
  5
20E
100
AcDbSymbolTableRecord
100
AcDbBlockTableRecord
  2
*Model_Space
  0
BLOCK_RECORD
  5
20F
100
AcDbSymbolTableRecord
100
AcDbBlockTableRecord
  2
*Paper_Space
  0
ENDTAB
  0
TABLE
  2
DIMSTYLE
  5
A
100
AcDbSymbolTable
 70
1
100
AcDbDimStyleTable
 71
0
  0
DIMSTYLE
105
210
100
AcDbSymbolTableRecord
100
AcDbDimStyleTableRecord
  2
STANDARD
 70
0
  3

  4

 40
1.0
 41
3.5
 42
0.0625
 43
0.38
 44
0.18
 45
0.0
 46
0.0
 47
0.005
 48
0.005
140
3.5
141
0.09
142
0.0
143
25.4
144
1.0
145
0.0
146
1.0
147
0.09
 71
1.0
 72
0.0
 73
0
 74
0
 75
0
 76
0
 77
1
 78
8
170
0
171
2
172
0
173
0
174
0
175
0
176
0
177
0
178
5
270
2
271
3
272
3
273
2
274
2
275
0
280
0
281
0
282
0
283
1
284
8
285
0
286
0
287
3
288
0
340
11
  0
ENDTAB
  0
ENDSEC
  0
SECTION
  2
BLOCKS
  0
BLOCK
  5
20
100
AcDbEntity
  8
0
100
AcDbBlockBegin
  2
*Model_Space
 70
0
 10
0.0
 20
0.0
 30
0.0
  3
*Model_Space
  1

  0
ENDBLK
  5
21
100
AcDbEntity
  8
0
100
AcDbBlockEnd
  0
BLOCK
  5
1C
100
AcDbEntity
  8
0
100
AcDbBlockBegin
  2
*Paper_Space
 70
0
 10
0.0
 20
0.0
 30
0.0
  3
*Paper_Space
  1

  0
ENDBLK
  5
1D
100
AcDbEntity
  8
0
100
AcDbBlockEnd
  0
ENDSEC
  0
SECTION
  2
ENTITIES
  0
MTEXT
  5
211
100
AcDbEntity
  8
0
100
AcDbMText
 62
5
  6
CONTINUOUS
  7
STANDARD
 71
2
 72
1
 10
140.1132959555
 20
76.9948109861
 30
0.0
 11
1.0
 21
0.0
 31
0.0
 44
0.9
  1
VLBS 10t\PRUD
 40
6.0
 41
35.7142857143
  0
MTEXT
  5
212
100
AcDbEntity
  8
0
100
AcDbMText
 62
5
  6
CONTINUOUS
  7
STANDARD
 71
2
 72
1
 10
255.2292435115
 20
213.4967175573
 30
0.0
 11
0.0
 21
1.0
 31
0.0
 44
0.9
  1
VLBS 10t \PRUD
 40
6.0
 41
40.4285714286
  0
MTEXT
  5
213
100
AcDbEntity
  8
0
100
AcDbMText
 62
5
  6
CONTINUOUS
  7
STANDARD
 71
2
 72
1
 10
138.0261447717
 20
155.9857038354
 30
0.0
 11
1.0
 21
0.0
 31
0.0
 44
0.9
  1
VLBS 10t\PRUD
 40
6.0
 41
35.7142857143
  0
LINE
  5
214
100
AcDbEntity
  8
0
100
AcDbLine
 62
7
  6
CONTINUOUS
 10
0.0
 20
0.0
 11
0.0
 21
297.0
  0
LINE
  5
215
100
AcDbEntity
  8
0
100
AcDbLine
 62
7
  6
CONTINUOUS
 10
0.0
 20
0.0
 11
420.0
 21
0.0
  0
LINE
  5
216
100
AcDbEntity
  8
0
100
AcDbLine
 62
7
  6
CONTINUOUS
 10
0.0
 20
297.0
 11
420.0
 21
297.0
  0
LINE
  5
217
100
AcDbEntity
  8
0
100
AcDbLine
 62
7
  6
CONTINUOUS
 10
420.0
 20
0.0
 11
420.0
 21
297.0
  0
LINE
  5
218
100
AcDbEntity
  8
0
100
AcDbLine
 62
7
  6
CONTINUOUS
 10
111.7315632187
 20
134.7220236553
 11
165.284887163
 21
134.7220236553
  0
LINE
  5
219
100
AcDbEntity
  8
0
100
AcDbLine
 62
7
  6
CONTINUOUS
 10
167.7039827378
 20
137.7220236553
 11
109.3124676439
 21
137.7220236553
  0
LINE
  5
21A
100
AcDbEntity
  8
BEZUGSACHSEN
100
AcDbLine
 62
7
  6
CONTINUOUS
 10
197.0383209064
 20
138.2220236553
 11
167.8259274523
 21
138.2220236553
  0
LINE
  5
21B
100
AcDbEntity
  8
BEZUGSACHSEN
100
AcDbLine
 62
7
  6
CONTINUOUS
 10
109.1905076833
 20
138.2220236553
 11
79.9781294753
 21
138.2220236553
  0
LINE
  5
21C
100
AcDbEntity
  8
RUNDUNGEN
100
AcDbLine
 62
7
  6
CONTINUOUS
 10
134.459837289
 20
286.4167493336
 11
99.5138757915
 21
271.9416581312
  0
LINE
  5
21D
100
AcDbEntity
  8
BEZUGSACHSEN
100
AcDbLine
 62
7
  6
CONTINUOUS
 10
73.9915634467
 20
144.6233418749
 11
73.9911374956
 21
144.6168996302
  0
LINE
  5
21E
100
AcDbEntity
  8
RUNDUNGEN
100
AcDbLine
 62
7
  6
CONTINUOUS
 10
78.3288469548
 20
210.2076153401
 11
73.9912073068
 21
144.617956665
  0
LINE
  5
21F
100
AcDbEntity
  8
BEZUGSACHSEN
100
AcDbLine
 62
7
  6
CONTINUOUS
 10
74.4541381735
 20
151.617956665
 11
73.9912073068
 21
144.617956665
  0
LINE
  5
220
100
AcDbEntity
  8
RUNDUNGEN
100
AcDbLine
 62
7
  6
CONTINUOUS
 10
79.9601385275
 20
219.5565089769
 11
78.3951270892
 21
210.7527864599
  0
LINE
  5
221
100
AcDbEntity
  8
RUNDUNGEN
100
AcDbLine
 62
7
  6
CONTINUOUS
 10
93.7885907149
 20
266.2163730546
 11
79.3134995125
 21
231.2704115571
  0
LINE
  5
222
100
AcDbEntity
  8
0
100
AcDbLine
 62
7
  6
CONTINUOUS
 10
113.5082251908
 20
160.1644285076
 11
163.5082251908
 21
160.1644285076
  0
LINE
  5
223
100
AcDbEntity
  8
RUNDUNGEN
100
AcDbLine
 62
7
  6
CONTINUOUS
 10
79.3134995125
 20
223.1736357534
 11
79.6567145174
 21
222.3450414336
  0
LINE
  5
224
100
AcDbEntity
  8
RUNDUNGEN
100
AcDbLine
 62
7
  6
CONTINUOUS
 10
105.0082251908
 20
175.7220236553
 11
105.0082251908
 21
187.8119296835
  0
LINE
  5
225
100
AcDbEntity
  8
RUNDUNGEN
100
AcDbLine
 62
7
  6
CONTINUOUS
 10
105.0082251908
 20
220.9132586842
 11
105.0082251908
 21
227.2220236553
  0
LINE
  5
226
100
AcDbEntity
  8
0
100
AcDbLine
 62
7
  6
CONTINUOUS
 10
187.8774357258
 20
178.0151814833
 11
189.9932252058
 21
178.0151814833
  0
LINE
  5
227
100
AcDbEntity
  8
0
100
AcDbLine
 62
7
  6
CONTINUOUS
 10
108.5082251908
 20
144.0628029966
 11
108.5082251908
 21
184.7220236553
  0
LINE
  5
228
100
AcDbEntity
  8
0
100
AcDbLine
 62
7
  6
CONTINUOUS
 10
189.9232252058
 20
179.6051814833
 11
187.9479620418
 21
179.6051814833
  0
LINE
  5
229
100
AcDbEntity
  8
0
100
AcDbLine
 62
7
  6
CONTINUOUS
 10
186.2905936158
 20
182.9167604453
 11
190.7866462608
 21
182.9167604453
  0
LINE
  5
22A
100
AcDbEntity
  8
0
100
AcDbLine
 62
7
  6
CONTINUOUS
 10
192.9024357408
 20
184.5036025553
 11
191.5800673158
 21
184.5036025553
  0
LINE
  5
22B
100
AcDbEntity
  8
0
100
AcDbLine
 62
7
  6
CONTINUOUS
 10
190.7866462608
 20
184.5036025553
 11
184.9682251908
 21
184.5036025553
  0
LINE
  5
22C
100
AcDbEntity
  8
0
100
AcDbLine
 62
7
  6
CONTINUOUS
 10
115.1882251908
 20
190.180463049
 11
115.1882251908
 21
189.5533424429
  0
LINE
  5
22D
100
AcDbEntity
  8
0
100
AcDbLine
 62
7
  6
CONTINUOUS
 10
115.1882251908
 20
189.3874448504
 11
115.1882251908
 21
187.6534318081
  0
LINE
  5
22E
100
AcDbEntity
  8
0
100
AcDbLine
 62
7
  6
CONTINUOUS
 10
116.6882251908
 20
189.3231309226
 11
116.6882251908
 21
187.6534318081
  0
LINE
  5
22F
100
AcDbEntity
  8
0
100
AcDbLine
 62
7
  6
CONTINUOUS
 10
117.2882251908
 20
188.73971948
 11
117.2882251908
 21
187.6534318081
  0
LINE
  5
230
100
AcDbEntity
  8
0
100
AcDbLine
 62
7
  6
CONTINUOUS
 10
118.9382251908
 20
189.3231309226
 11
118.9382251908
 21
188.73971948
  0
LINE
  5
231
100
AcDbEntity
  8
0
100
AcDbLine
 62
7
  6
CONTINUOUS
 10
143.9073397766
 20
190.2220238296
 11
143.8564482675
 21
190.2212277302
  0
LINE
  5
232
100
AcDbEntity
  8
0
100
AcDbLine
 62
7
  6
CONTINUOUS
 10
188.1419094108
 20
186.0904446653
 11
192.9024357408
 21
186.0904446653
  0
LINE
  5
233
100
AcDbEntity
  8
0
100
AcDbLine
 62
7
  6
CONTINUOUS
 10
115.1882251908
 20
187.6534318081
 11
116.6882251908
 21
187.6534318081
  0
LINE
  5
234
100
AcDbEntity
  8
0
100
AcDbLine
 62
7
  6
CONTINUOUS
 10
117.2882251908
 20
187.6534318081
 11
124.0082251908
 21
187.6534318081
  0
LINE
  5
235
100
AcDbEntity
  8
0
100
AcDbLine
 62
7
  6
CONTINUOUS
 10
192.9024357408
 20
187.6772867753
 11
188.1419094108
 21
187.6772867753
  0
LINE
  5
236
100
AcDbEntity
  8
0
100
AcDbLine
 62
7
  6
CONTINUOUS
 10
115.1882251908
 20
188.1814270595
 11
116.6882251908
 21
188.1814270595
  0
LINE
  5
237
100
AcDbEntity
  8
0
100
AcDbLine
 62
7
  6
CONTINUOUS
 10
117.2882251908
 20
188.1814270595
 11
124.0082251908
 21
188.1814270595
  0
LINE
  5
238
100
AcDbEntity
  8
0
100
AcDbLine
 62
7
  6
CONTINUOUS
 10
128.7573770611
 20
188.5085078017
 11
137.4882251908
 21
188.5085078017
  0
LINE
  5
239
100
AcDbEntity
  8
0
100
AcDbLine
 62
7
  6
CONTINUOUS
 10
117.2882251908
 20
188.73971948
 11
118.9382251908
 21
188.73971948
  0
LINE
  5
23A
100
AcDbEntity
  8
0
100
AcDbLine
 62
7
  6
CONTINUOUS
 10
120.4082251908
 20
188.73971948
 11
124.0082251908
 21
188.73971948
  0
LINE
  5
23B
100
AcDbEntity
  8
0
100
AcDbLine
 62
7
  6
CONTINUOUS
 10
144.2607035385
 20
188.9298093235
 11
145.8777251885
 21
188.9298093235
  0
LINE
  5
23C
100
AcDbEntity
  8
0
100
AcDbLine
 62
7
  6
CONTINUOUS
 10
127.9882251908
 20
189.0245619298
 11
137.4882251908
 21
189.0245619298
  0
LINE
  5
23D
100
AcDbEntity
  8
0
100
AcDbLine
 62
7
  6
CONTINUOUS
 10
145.8777251885
 20
189.155131803
 11
152.3458100901
 21
189.155131803
  0
LINE
  5
23E
100
AcDbEntity
  8
0
100
AcDbLine
 62
7
  6
CONTINUOUS
 10
127.9882251908
 20
189.30611474
 11
136.2754592364
 21
189.30611474
  0
LINE
  5
23F
100
AcDbEntity
  8
0
100
AcDbLine
 62
7
  6
CONTINUOUS
 10
144.2607035385
 20
189.4401751019
 11
145.8777251885
 21
189.4401751019
  0
LINE
  5
240
100
AcDbEntity
  8
0
100
AcDbLine
 62
7
  6
CONTINUOUS
 10
115.1882251908
 20
189.5533424429
 11
115.3251900445
 21
189.5533424429
  0
LINE
  5
241
100
AcDbEntity
  8
0
100
AcDbLine
 62
7
  6
CONTINUOUS
 10
144.4628311739
 20
189.6625061412
 11
152.3458100901
 21
189.6625061412
  0
LINE
  5
242
100
AcDbEntity
  8
0
100
AcDbLine
 62
7
  6
CONTINUOUS
 10
127.9882251908
 20
189.7119270485
 11
136.2754592364
 21
189.7119270485
  0
LINE
  5
243
100
AcDbEntity
  8
KONSTRUKTIONSELEMENTE
100
AcDbLine
 62
7
  6
CONTINUOUS
 10
113.5082251908
 20
189.7220236553
 11
115.1882251908
 21
189.7220236553
  0
LINE
  5
244
100
AcDbEntity
  8
KONSTRUKTIONSELEMENTE
100
AcDbLine
 62
7
  6
CONTINUOUS
 10
124.0082251908
 20
189.7220236553
 11
127.9882251908
 21
189.7220236553
  0
LINE
  5
245
100
AcDbEntity
  8
KONSTRUKTIONSELEMENTE
100
AcDbLine
 62
7
  6
CONTINUOUS
 10
137.4882251908
 20
189.7220236553
 11
142.8458100901
 21
189.7220236553
  0
LINE
  5
246
100
AcDbEntity
  8
KONSTRUKTIONSELEMENTE
100
AcDbLine
 62
7
  6
CONTINUOUS
 10
152.3458100901
 20
189.7220236553
 11
156.3958100901
 21
189.7220236553
  0
LINE
  5
247
100
AcDbEntity
  8
KONSTRUKTIONSELEMENTE
100
AcDbLine
 62
7
  6
CONTINUOUS
 10
163.3958100901
 20
189.7220236553
 11
163.5082251908
 21
189.7220236553
  0
LINE
  5
248
100
AcDbEntity
  8
0
100
AcDbLine
 62
7
  6
CONTINUOUS
 10
142.8458100901
 20
189.8470670209
 11
152.3458100901
 21
189.8470670209
  0
LINE
  5
249
100
AcDbEntity
  8
0
100
AcDbLine
 62
7
  6
CONTINUOUS
 10
146.6862357305
 20
190.0353099952
 11
148.5053844498
 21
190.0353099952
  0
LINE
  5
24A
100
AcDbEntity
  8
0
100
AcDbLine
 62
7
  6
CONTINUOUS
 10
115.1882251908
 20
190.0555143559
 11
120.4832251908
 21
190.0555143559
  0
LINE
  5
24B
100
AcDbEntity
  8
0
100
AcDbLine
 62
7
  6
CONTINUOUS
 10
146.8883633659
 20
190.1197850895
 11
148.3032568143
 21
190.1197850895
  0
LINE
  5
24C
100
AcDbEntity
  8
0
100
AcDbLine
 62
7
  6
CONTINUOUS
 10
136.2754592364
 20
190.1440453782
 11
137.4882251908
 21
190.1440453782
  0
LINE
  5
24D
100
AcDbEntity
  8
0
100
AcDbLine
 62
7
  6
CONTINUOUS
 10
146.8883633659
 20
190.1527337173
 11
148.3032568143
 21
190.1527337173
  0
LINE
  5
24E
100
AcDbEntity
  8
0
100
AcDbLine
 62
7
  6
CONTINUOUS
 10
115.1882251908
 20
190.180463049
 11
120.4832251908
 21
190.180463049
  0
LINE
  5
24F
100
AcDbEntity
  8
0
100
AcDbLine
 62
7
  6
CONTINUOUS
 10
115.1882251908
 20
190.1871041762
 11
120.4832251908
 21
190.1871041762
  0
LINE
  5
250
100
AcDbEntity
  8
0
100
AcDbLine
 62
7
  6
CONTINUOUS
 10
156.4133540602
 20
190.2078864776
 11
157.4458100952
 21
190.2078864776
  0
LINE
  5
251
100
AcDbEntity
  8
0
100
AcDbLine
 62
7
  6
CONTINUOUS
 10
162.3458100822
 20
190.2078864776
 11
163.37826612
 21
190.2078864776
  0
LINE
  5
252
100
AcDbEntity
  8
0
100
AcDbLine
 62
7
  6
CONTINUOUS
 10
127.9882251908
 20
190.2120565255
 11
137.4882251908
 21
190.2120565255
  0
LINE
  5
253
100
AcDbEntity
  8
0
100
AcDbLine
 62
7
  6
CONTINUOUS
 10
122.2082251908
 20
190.2220236553
 11
123.9998136691
 21
190.2220236553
  0
LINE
  5
254
100
AcDbEntity
  8
0
100
AcDbLine
 62
7
  6
CONTINUOUS
 10
142.8882214703
 20
190.2220236553
 11
143.8564482675
 21
190.2220236553
  0
LINE
  5
255
100
AcDbEntity
  8
0
100
AcDbLine
 62
7
  6
CONTINUOUS
 10
151.3351717712
 20
190.2220236553
 11
152.3033987062
 21
190.2220236553
  0
LINE
  5
256
100
AcDbEntity
  8
0
100
AcDbLine
 62
7
  6
CONTINUOUS
 10
188.1419094108
 20
190.8509709953
 11
192.9024357408
 21
190.8509709953
  0
LINE
  5
257
100
AcDbEntity
  8
0
100
AcDbLine
 62
7
  6
CONTINUOUS
 10
151.284280262
 20
190.2220238296
 11
151.3351717712
 21
190.2212277302
  0
LINE
  5
258
100
AcDbEntity
  8
0
100
AcDbLine
 62
7
  6
CONTINUOUS
 10
122.206583555
 20
190.2219831218
 11
122.2082251908
 21
190.2219054751
  0
LINE
  5
259
100
AcDbEntity
  8
0
100
AcDbLine
 62
7
  6
CONTINUOUS
 10
124.0082251908
 20
190.2219515433
 11
124.0074138874
 21
190.2220179252
  0
LINE
  5
25A
100
AcDbEntity
  8
0
100
AcDbLine
 62
7
  6
CONTINUOUS
 10
120.4082251908
 20
188.9877885751
 11
120.4082251908
 21
188.73971948
  0
LINE
  5
25B
100
AcDbEntity
  8
0
100
AcDbLine
 62
7
  6
CONTINUOUS
 10
124.0082251908
 20
188.73971948
 11
124.0082251908
 21
187.6534318081
  0
LINE
  5
25C
100
AcDbEntity
  8
0
100
AcDbLine
 62
7
  6
CONTINUOUS
 10
124.0082251908
 20
189.0711952445
 11
124.0082251908
 21
190.2219488709
  0
LINE
  5
25D
100
AcDbEntity
  8
BEZUGSACHSEN
100
AcDbLine
 62
7
  6
CONTINUOUS
 10
167.0082251908
 20
192.1220236553
 11
158.6263761993
 21
192.1220236553
  0
LINE
  5
25E
100
AcDbEntity
  8
RUNDUNGEN
100
AcDbLine
 62
7
  6
CONTINUOUS
 10
110.0082251908
 20
192.1220236553
 11
118.3900741824
 21
192.1220236553
  0
LINE
  5
25F
100
AcDbEntity
  8
0
100
AcDbLine
 62
7
  6
CONTINUOUS
 10
192.9024357408
 20
192.4378131053
 11
188.1419094108
 21
192.4378131053
  0
LINE
  5
260
100
AcDbEntity
  8
0
100
AcDbLine
 62
7
  6
CONTINUOUS
 10
127.9882251908
 20
190.2120565255
 11
127.9882251908
 21
189.7119270485
  0
LINE
  5
261
100
AcDbEntity
  8
0
100
AcDbLine
 62
7
  6
CONTINUOUS
 10
127.9882251908
 20
189.30611474
 11
127.9882251908
 21
187.6837816304
  0
LINE
  5
262
100
AcDbEntity
  8
0
100
AcDbLine
 62
7
  6
CONTINUOUS
 10
127.9882251908
 20
185.8702630586
 11
127.9882251908
 21
184.6558672871
  0
LINE
  5
263
100
AcDbEntity
  8
0
100
AcDbLine
 62
7
  6
CONTINUOUS
 10
184.9682251908
 20
199.0496552303
 11
188.2829620428
 21
199.0496552303
  0
LINE
  5
264
100
AcDbEntity
  8
0
100
AcDbLine
 62
7
  6
CONTINUOUS
 10
189.6053304678
 20
199.0496552303
 11
190.7866462608
 21
199.0496552303
  0
LINE
  5
265
100
AcDbEntity
  8
0
100
AcDbLine
 62
7
  6
CONTINUOUS
 10
192.9024357408
 20
200.3720236553
 11
191.5800673158
 21
200.3720236553
  0
LINE
  5
266
100
AcDbEntity
  8
0
100
AcDbLine
 62
7
  6
CONTINUOUS
 10
190.7866462608
 20
200.3720236553
 11
184.9682251908
 21
200.3720236553
  0
LINE
  5
267
100
AcDbEntity
  8
0
100
AcDbLine
 62
7
  6
CONTINUOUS
 10
136.2754592364
 20
190.1440453782
 11
136.2754592364
 21
189.30611474
  0
LINE
  5
268
100
AcDbEntity
  8
0
100
AcDbLine
 62
7
  6
CONTINUOUS
 10
137.4882251908
 20
190.2120565255
 11
137.4882251908
 21
188.5085078017
  0
LINE
  5
269
100
AcDbEntity
  8
0
100
AcDbLine
 62
7
  6
CONTINUOUS
 10
137.4882251908
 20
187.4899764511
 11
137.4882251908
 21
186.2748046942
  0
LINE
  5
26A
100
AcDbEntity
  8
0
100
AcDbLine
 62
7
  6
CONTINUOUS
 10
163.37826612
 20
190.2078864776
 11
163.3958100371
 21
190.1967198615
  0
LINE
  5
26B
100
AcDbEntity
  8
0
100
AcDbLine
 62
7
  6
CONTINUOUS
 10
142.8458100901
 20
190.2212276993
 11
142.8458100901
 21
189.155131803
  0
LINE
  5
26C
100
AcDbEntity
  8
0
100
AcDbLine
 62
7
  6
CONTINUOUS
 10
143.0479377256
 20
190.195552998
 11
143.0479377256
 21
189.8470670209
  0
LINE
  5
26D
100
AcDbEntity
  8
0
100
AcDbLine
 62
7
  6
CONTINUOUS
 10
143.654320632
 20
190.1464801182
 11
143.654320632
 21
189.8470670209
  0
LINE
  5
26E
100
AcDbEntity
  8
0
100
AcDbLine
 62
7
  6
CONTINUOUS
 10
144.058575903
 20
190.2149946044
 11
144.058575903
 21
190.2023455939
  0
LINE
  5
26F
100
AcDbEntity
  8
0
100
AcDbLine
 62
7
  6
CONTINUOUS
 10
144.2607035385
 20
190.1049196379
 11
144.2607035385
 21
189.8470670209
  0
LINE
  5
270
100
AcDbEntity
  8
0
100
AcDbLine
 62
7
  6
CONTINUOUS
 10
144.2607035385
 20
189.4401751019
 11
144.2607035385
 21
188.9298093235
  0
LINE
  5
271
100
AcDbEntity
  8
0
100
AcDbLine
 62
7
  6
CONTINUOUS
 10
144.4628311739
 20
190.1991964595
 11
144.4628311739
 21
190.1789478633
  0
LINE
  5
272
100
AcDbEntity
  8
0
100
AcDbLine
 62
7
  6
CONTINUOUS
 10
145.0692140804
 20
190.072146992
 11
145.0692140804
 21
189.8470670209
  0
LINE
  5
273
100
AcDbEntity
  8
0
100
AcDbLine
 62
7
  6
CONTINUOUS
 10
145.6755975531
 20
190.1640425326
 11
145.6755975531
 21
190.1336382491
  0
LINE
  5
274
100
AcDbEntity
  8
0
100
AcDbLine
 62
7
  6
CONTINUOUS
 10
145.6755975531
 20
190.0542372277
 11
145.6755975531
 21
189.8470670209
  0
LINE
  5
275
100
AcDbEntity
  8
0
100
AcDbLine
 62
7
  6
CONTINUOUS
 10
145.8777251885
 20
189.4401751019
 11
145.8777251885
 21
188.9298093235
  0
LINE
  5
276
100
AcDbEntity
  8
0
100
AcDbLine
 62
7
  6
CONTINUOUS
 10
146.6862357305
 20
190.0353099952
 11
146.6862357305
 21
189.8470670209
  0
LINE
  5
277
100
AcDbEntity
  8
0
100
AcDbLine
 62
7
  6
CONTINUOUS
 10
146.8883633659
 20
190.1527337173
 11
146.8883633659
 21
190.1197850895
  0
LINE
  5
278
100
AcDbEntity
  8
0
100
AcDbLine
 62
7
  6
CONTINUOUS
 10
148.3032568143
 20
190.1527337173
 11
148.3032568143
 21
190.1197850895
  0
LINE
  5
279
100
AcDbEntity
  8
0
100
AcDbLine
 62
7
  6
CONTINUOUS
 10
148.5053844498
 20
190.0353099952
 11
148.5053844498
 21
189.8470670209
  0
LINE
  5
27A
100
AcDbEntity
  8
0
100
AcDbLine
 62
7
  6
CONTINUOUS
 10
149.5160229103
 20
190.1640425326
 11
149.5160229103
 21
190.1336382491
  0
LINE
  5
27B
100
AcDbEntity
  8
0
100
AcDbLine
 62
7
  6
CONTINUOUS
 10
149.5160229103
 20
190.0542372277
 11
149.5160229103
 21
189.8470670209
  0
LINE
  5
27C
100
AcDbEntity
  8
0
100
AcDbLine
 62
7
  6
CONTINUOUS
 10
150.1224058167
 20
190.072146992
 11
150.1224058167
 21
189.8470670209
  0
LINE
  5
27D
100
AcDbEntity
  8
0
100
AcDbLine
 62
7
  6
CONTINUOUS
 10
150.7287888647
 20
190.1991964595
 11
150.7287888647
 21
190.1789478633
  0
LINE
  5
27E
100
AcDbEntity
  8
0
100
AcDbLine
 62
7
  6
CONTINUOUS
 10
150.9309165002
 20
190.1049196379
 11
150.9309165002
 21
189.8470670209
  0
LINE
  5
27F
100
AcDbEntity
  8
0
100
AcDbLine
 62
7
  6
CONTINUOUS
 10
151.1330441357
 20
190.214995417
 11
151.1330441357
 21
190.2023455939
  0
LINE
  5
280
100
AcDbEntity
  8
0
100
AcDbLine
 62
7
  6
CONTINUOUS
 10
151.5372994774
 20
190.1464801182
 11
151.5372994774
 21
189.8470670209
  0
LINE
  5
281
100
AcDbEntity
  8
0
100
AcDbLine
 62
7
  6
CONTINUOUS
 10
152.1436824369
 20
190.195552998
 11
152.1436824369
 21
189.8470670209
  0
LINE
  5
282
100
AcDbEntity
  8
0
100
AcDbLine
 62
7
  6
CONTINUOUS
 10
152.3458100901
 20
190.2212277243
 11
152.3458100901
 21
189.155131803
  0
LINE
  5
283
100
AcDbEntity
  8
0
100
AcDbLine
 62
7
  6
CONTINUOUS
 10
156.3958100901
 20
189.6948283354
 11
156.3958100901
 21
190.1951703774
  0
LINE
  5
284
100
AcDbEntity
  8
0
100
AcDbLine
 62
7
  6
CONTINUOUS
 10
157.4709389595
 20
190.2078864776
 11
157.4709389595
 21
190.1967984665
  0
LINE
  5
285
100
AcDbEntity
  8
0
100
AcDbLine
 62
7
  6
CONTINUOUS
 10
162.3206812207
 20
190.2078864776
 11
162.3206812207
 21
190.1967963326
  0
LINE
  5
286
100
AcDbEntity
  8
0
100
AcDbLine
 62
7
  6
CONTINUOUS
 10
163.3958100901
 20
189.6948347253
 11
163.3958100901
 21
190.1951694358
  0
LINE
  5
287
100
AcDbEntity
  8
0
100
AcDbLine
 62
7
  6
CONTINUOUS
 10
156.3958101356
 20
190.19672276
 11
156.4133540602
 21
190.2078864776
  0
LINE
  5
288
100
AcDbEntity
  8
0
100
AcDbLine
 62
7
  6
CONTINUOUS
 10
168.5082251908
 20
184.7220236553
 11
168.5082251908
 21
144.0628029966
  0
LINE
  5
289
100
AcDbEntity
  8
BEZUGSACHSEN
100
AcDbLine
 62
7
  6
CONTINUOUS
 10
172.0082251908
 20
227.2220236553
 11
172.0082251908
 21
220.9132586842
  0
LINE
  5
28A
100
AcDbEntity
  8
BEZUGSACHSEN
100
AcDbLine
 62
7
  6
CONTINUOUS
 10
172.0082251908
 20
175.7220236553
 11
172.0082251908
 21
187.8119296835
  0
LINE
  5
28B
100
AcDbEntity
  8
0
100
AcDbLine
 62
7
  6
CONTINUOUS
 10
187.6217778303
 20
196.5546767083
 11
184.9682251908
 21
195.0226473775
  0
LINE
  5
28C
100
AcDbEntity
  8
0
100
AcDbLine
 62
7
  6
CONTINUOUS
 10
184.9682251908
 20
193.4957078453
 11
188.4390907094
 21
195.4996129867
  0
LINE
  5
28D
100
AcDbEntity
  8
0
100
AcDbLine
 62
7
  6
CONTINUOUS
 10
184.9682251908
 20
200.3720236553
 11
184.9682251908
 21
199.0496552303
  0
LINE
  5
28E
100
AcDbEntity
  8
0
100
AcDbLine
 62
7
  6
CONTINUOUS
 10
184.9682251908
 20
195.0226473775
 11
184.9682251908
 21
193.4957078453
  0
LINE
  5
28F
100
AcDbEntity
  8
0
100
AcDbLine
 62
7
  6
CONTINUOUS
 10
184.9682251908
 20
184.5036025553
 11
184.9682251908
 21
180.9243920183
  0
LINE
  5
290
100
AcDbEntity
  8
0
100
AcDbLine
 62
7
  6
CONTINUOUS
 10
186.2905936158
 20
181.2625499093
 11
186.2905936158
 21
182.9167604453
  0
LINE
  5
291
100
AcDbEntity
  8
0
100
AcDbLine
 62
7
  6
CONTINUOUS
 10
188.2829620428
 20
199.0496552303
 11
188.2829620428
 21
197.6998813575
  0
LINE
  5
292
100
AcDbEntity
  8
0
100
AcDbLine
 62
7
  6
CONTINUOUS
 10
189.6053304678
 20
196.8633394343
 11
189.6053304678
 21
199.0496552303
  0
LINE
  5
293
100
AcDbEntity
  8
0
100
AcDbLine
 62
7
  6
CONTINUOUS
 10
190.7866462608
 20
182.9167604453
 11
190.7866462608
 21
184.5036025553
  0
LINE
  5
294
100
AcDbEntity
  8
0
100
AcDbLine
 62
7
  6
CONTINUOUS
 10
190.7866462608
 20
199.0496552303
 11
190.7866462608
 21
200.3720236553
  0
LINE
  5
295
100
AcDbEntity
  8
0
100
AcDbLine
 62
7
  6
CONTINUOUS
 10
191.5800673158
 20
200.3720236553
 11
191.5800673158
 21
196.8633394343
  0
LINE
  5
296
100
AcDbEntity
  8
0
100
AcDbLine
 62
7
  6
CONTINUOUS
 10
191.5800673158
 20
184.5036025553
 11
191.5800673158
 21
181.2625498257
  0
LINE
  5
297
100
AcDbEntity
  8
BEZUGSACHSEN
100
AcDbLine
 62
7
  6
CONTINUOUS
 10
197.7029508692
 20
223.1736357534
 11
197.3597358643
 21
222.3450414336
  0
LINE
  5
298
100
AcDbEntity
  8
BEZUGSACHSEN
100
AcDbLine
 62
7
  6
CONTINUOUS
 10
198.6876034269
 20
210.2076153401
 11
203.0252430749
 21
144.617956665
  0
LINE
  5
299
100
AcDbEntity
  8
BEZUGSACHSEN
100
AcDbLine
 62
7
  6
CONTINUOUS
 10
203.0253128724
 20
144.6168998368
 11
203.0248869349
 21
144.6233418752
  0
LINE
  5
29A
100
AcDbEntity
  8
BEZUGSACHSEN
100
AcDbLine
 62
7
  6
CONTINUOUS
 10
203.0253128861
 20
144.6168996302
 11
203.0252430749
 21
144.617956665
  0
LINE
  5
29B
100
AcDbEntity
  8
0
100
AcDbLine
 62
7
  6
CONTINUOUS
 10
192.9024357408
 20
180.9243920183
 11
192.9024357408
 21
184.5036025553
  0
LINE
  5
29C
100
AcDbEntity
  8
0
100
AcDbLine
 62
7
  6
CONTINUOUS
 10
192.9024357408
 20
186.0904446653
 11
192.9024357408
 21
187.6772867753
  0
LINE
  5
29D
100
AcDbEntity
  8
0
100
AcDbLine
 62
7
  6
CONTINUOUS
 10
192.9024357408
 20
190.8509709953
 11
192.9024357408
 21
192.4378131053
  0
LINE
  5
29E
100
AcDbEntity
  8
0
100
AcDbLine
 62
7
  6
CONTINUOUS
 10
192.9024357408
 20
196.3343920643
 11
192.9024357408
 21
200.3720236553
  0
LINE
  5
29F
100
AcDbEntity
  8
BEZUGSACHSEN
100
AcDbLine
 62
7
  6
CONTINUOUS
 10
197.0563118542
 20
219.5565089769
 11
198.6213232925
 21
210.7527864599
  0
LINE
  5
2A0
100
AcDbEntity
  8
BEZUGSACHSEN
100
AcDbLine
 62
7
  6
CONTINUOUS
 10
183.2278596668
 20
266.2163730546
 11
197.7029508692
 21
231.2704115571
  0
LINE
  5
2A1
100
AcDbEntity
  8
BEZUGSACHSEN
100
AcDbLine
 62
7
  6
CONTINUOUS
 10
142.5566130927
 20
286.4167493336
 11
177.5025745902
 21
271.9416581312
  0
LINE
  5
2A2
100
AcDbEntity
  8
KONSTRUKTIONSELEMENTE
100
AcDbLine
 62
7
  6
CONTINUOUS
 10
245.3383185448
 20
134.7220236553
 11
240.8383185448
 21
134.7220236553
  0
LINE
  5
2A3
100
AcDbEntity
  8
0
100
AcDbLine
 62
7
  6
CONTINUOUS
 10
279.589054041
 20
134.7220236553
 11
284.089054041
 21
134.7220236553
  0
LINE
  5
2A4
100
AcDbEntity
  8
KONSTRUKTIONSELEMENTE
100
AcDbLine
 62
7
  6
CONTINUOUS
 10
238.7376959302
 20
137.7220236553
 11
237.2376959302
 21
137.7220236553
  0
LINE
  5
2A5
100
AcDbEntity
  8
0
100
AcDbLine
 62
7
  6
CONTINUOUS
 10
286.1896766556
 20
137.7220236553
 11
287.6896766556
 21
137.7220236553
  0
LINE
  5
2A6
100
AcDbEntity
  8
BEZUGSACHSEN
100
AcDbLine
 62
7
  6
CONTINUOUS
 10
262.7136862929
 20
138.2220236553
 11
262.2136862929
 21
138.2220236553
  0
LINE
  5
2A7
100
AcDbEntity
  8
KONSTRUKTIONSELEMENTE
100
AcDbLine
 62
7
  6
CONTINUOUS
 10
240.8383185448
 20
134.7220236553
 11
238.7376959302
 21
137.7220236553
  0
LINE
  5
2A8
100
AcDbEntity
  8
KONSTRUKTIONSELEMENTE
100
AcDbLine
 62
7
  6
CONTINUOUS
 10
237.2376959302
 20
137.7220236553
 11
225.0166117015
 21
160.1644285076
  0
LINE
  5
2A9
100
AcDbEntity
  8
0
100
AcDbLine
 62
7
  6
CONTINUOUS
 10
275.7136862929
 20
192.4378131053
 11
276.2136862929
 21
192.4378131053
  0
LINE
  5
2AA
100
AcDbEntity
  8
0
100
AcDbLine
 62
7
  6
CONTINUOUS
 10
275.7136862929
 20
193.4957078453
 11
276.2136862929
 21
193.4957078453
  0
LINE
  5
2AB
100
AcDbEntity
  8
0
100
AcDbLine
 62
7
  6
CONTINUOUS
 10
247.1161862929
 20
187.07525564
 11
247.1161862929
 21
186.5307229197
  0
LINE
  5
2AC
100
AcDbEntity
  8
0
100
AcDbLine
 62
7
  6
CONTINUOUS
 10
247.5120203812
 20
187.2421247998
 11
247.5120203812
 21
186.7001533476
  0
LINE
  5
2AD
100
AcDbEntity
  8
0
100
AcDbLine
 62
7
  6
CONTINUOUS
 10
247.7099362929
 20
187.3236421915
 11
247.7099362929
 21
186.7829131399
  0
LINE
  5
2AE
100
AcDbEntity
  8
0
100
AcDbLine
 62
7
  6
CONTINUOUS
 10
247.9078522046
 20
187.4038933415
 11
247.9078522046
 21
186.8643817982
  0
LINE
  5
2AF
100
AcDbEntity
  8
0
100
AcDbLine
 62
7
  6
CONTINUOUS
 10
248.5016022046
 20
187.6371332653
 11
248.5016022046
 21
187.1011291055
  0
LINE
  5
2B0
100
AcDbEntity
  8
BEZUGSACHSEN
100
AcDbLine
 62
7
  6
CONTINUOUS
 10
249.2136862929
 20
281.2220232664
 11
249.2136862929
 21
151.2220250494
  0
LINE
  5
2B1
100
AcDbEntity
  8
0
100
AcDbLine
 62
7
  6
CONTINUOUS
 10
275.7136862929
 20
195.0226473775
 11
276.2136862929
 21
195.0226473775
  0
LINE
  5
2B2
100
AcDbEntity
  8
0
100
AcDbLine
 62
7
  6
CONTINUOUS
 10
275.7136862929
 20
199.0496552303
 11
276.2136862929
 21
199.0496552303
  0
LINE
  5
2B3
100
AcDbEntity
  8
0
100
AcDbLine
 62
7
  6
CONTINUOUS
 10
275.7136862929
 20
200.3720236553
 11
276.2136862929
 21
200.3720236553
  0
LINE
  5
2B4
100
AcDbEntity
  8
KONSTRUKTIONSELEMENTE
100
AcDbLine
 62
7
  6
CONTINUOUS
 10
245.3383185448
 20
134.7220236553
 11
248.6763777507
 21
153.6530981426
  0
LINE
  5
2B5
100
AcDbEntity
  8
0
100
AcDbLine
 62
7
  6
CONTINUOUS
 10
279.589054041
 20
134.7220236553
 11
276.2509948351
 21
153.6530981426
  0
LINE
  5
2B6
100
AcDbEntity
  8
BEZUGSACHSEN
100
AcDbLine
 62
7
  6
CONTINUOUS
 10
275.7136862929
 20
281.2220232664
 11
275.7136862929
 21
280.8734721386
  0
LINE
  5
2B7
100
AcDbEntity
  8
RUNDUNGEN
100
AcDbLine
 62
7
  6
CONTINUOUS
 10
275.7136862929
 20
280.8734721386
 11
275.7136862929
 21
151.2220250494
  0
LINE
  5
2B8
100
AcDbEntity
  8
0
100
AcDbLine
 62
7
  6
CONTINUOUS
 10
276.2136862929
 20
200.3720236553
 11
276.2136862929
 21
193.4957078453
  0
LINE
  5
2B9
100
AcDbEntity
  8
0
100
AcDbLine
 62
7
  6
CONTINUOUS
 10
276.2136862929
 20
192.4378131053
 11
276.2136862929
 21
187.7176662132
  0
LINE
  5
2BA
100
AcDbEntity
  8
0
100
AcDbLine
 62
7
  6
CONTINUOUS
 10
277.595353054
 20
187.1668794907
 11
277.595353054
 21
186.6237561133
  0
LINE
  5
2BB
100
AcDbEntity
  8
0
100
AcDbLine
 62
7
  6
CONTINUOUS
 10
280.3661862929
 20
185.8702630586
 11
280.3661862929
 21
185.3064848326
  0
LINE
  5
2BC
100
AcDbEntity
  8
0
100
AcDbLine
 62
7
  6
CONTINUOUS
 10
281.5536862929
 20
185.2304329094
 11
281.5536862929
 21
184.6558672871
  0
LINE
  5
2BD
100
AcDbEntity
  8
0
100
AcDbLine
 62
7
  6
CONTINUOUS
 10
287.6896766556
 20
137.7220236553
 11
299.9107608844
 21
160.1644285076
  0
LINE
  5
2BE
100
AcDbEntity
  8
0
100
AcDbLine
 62
7
  6
CONTINUOUS
 10
284.089054041
 20
134.7220236553
 11
286.1896766556
 21
137.7220236553
  0
LINE
  5
2BF
100
AcDbEntity
  8
0
100
AcDbLine
 62
7
  6
CONTINUOUS
 10
255.2136862929
 20
287.2220237553
 11
269.7136862929
 21
287.2220237553
  0
LWPOLYLINE
  5
2C0
100
AcDbEntity
  8
RUNDUNGEN
100
AcDbPolyline
 62
7
  6
CONTINUOUS
 90
157
 70
0
 10
73.9781294754
 20
69.78
 10
73.978224
 20
69.6345981393
 10
73.9785209578
 20
69.4841292756
 10
73.9790205147
 20
69.3337389737
 10
73.9797227518
 20
69.1834619057
 10
73.9806277681
 20
69.0333380096
 10
73.9817356604
 20
68.8834117365
 10
73.9830465167
 20
68.7337275573
 10
73.9845604935
 20
68.5843248335
 10
73.9862776727
 20
68.4352504071
 10
73.9881984753
 20
68.286526627
 10
73.9903233236
 20
68.1381837267
 10
73.9926528336
 20
67.9902458851
 10
73.995187948
 20
67.8427263977
 10
73.9979287991
 20
67.6956901548
 10
74.0008759278
 20
67.5491783729
 10
74.0040289551
 20
67.4032745899
 10
74.0073870513
 20
67.2580729094
 10
74.0109513633
 20
67.1135782222
 10
74.0147216112
 20
66.9698582727
 10
74.0187020114
 20
66.8268197153
 10
74.0228962432
 20
66.6844173418
 10
74.0273091415
 20
66.5425909082
 10
74.0319460515
 20
66.4012884782
 10
74.0368130095
 20
66.2604615768
 10
74.0419182444
 20
66.120025257
 10
74.047264593
 20
65.9800623625
 10
74.0528597643
 20
65.840537001
 10
74.058698842
 20
65.7017278636
 10
74.0647796281
 20
65.5638189682
 10
74.0710978338
 20
65.4270196986
 10
74.0776487929
 20
65.2915231504
 10
74.0844273855
 20
65.157509557
 10
74.0914286893
 20
65.0251346208
 10
74.0986439831
 20
64.8946042114
 10
74.1060666434
 20
64.7660617984
 10
74.1136815206
 20
64.6397714813
 10
74.1214746238
 20
64.5159406733
 10
74.1294300892
 20
64.3947728875
 10
74.1375314028
 20
64.2764484996
 10
74.1457612696
 20
64.1611278345
 10
74.1541007765
 20
64.0489633256
 10
74.1625337144
 20
63.9400438731
 10
74.1710362776
 20
63.8345294841
 10
74.1796092018
 20
63.7322602292
 10
74.1882449545
 20
63.6331830533
 10
74.1969481236
 20
63.5371119759
 10
74.2057213221
 20
63.4438987796
 10
74.214569525
 20
63.3533838806
 10
74.2234982903
 20
63.2654156803
 10
74.232515618
 20
63.1798330035
 10
74.2416324892
 20
63.0964621851
 10
74.2508533528
 20
63.0152030124
 10
74.2601921504
 20
62.9358823556
 10
74.2696378239
 20
62.858545309
 10
74.2791871095
 20
62.7831626282
 10
74.2888306328
 20
62.7097468878
 10
74.2985543806
 20
62.6383340562
 10
74.3083662021
 20
62.5687939903
 10
74.3182601011
 20
62.5010986525
 10
74.3282645961
 20
62.434990932
 10
74.3383999938
 20
62.3702914241
 10
74.3486938148
 20
62.3067937022
 10
74.3591794733
 20
62.2442774226
 10
74.3698706848
 20
62.1826573343
 10
74.3807961399
 20
62.1217726373
 10
74.3919507431
 20
62.0616580575
 10
74.4033387499
 20
62.0022920437
 10
74.4149572072
 20
61.9436876292
 10
74.4268026279
 20
61.885854743
 10
74.4388732716
 20
61.8287898998
 10
74.4511579499
 20
61.7725287993
 10
74.4636726249
 20
61.7169804305
 10
74.4764227951
 20
61.6621054222
 10
74.4894262143
 20
61.6078154315
 10
74.5026914653
 20
61.55406619
 10
74.5162524691
 20
61.5007178084
 10
74.5301324639
 20
61.4476843328
 10
74.5443803716
 20
61.3947936862
 10
74.5590413139
 20
61.3419050985
 10
74.5741662391
 20
61.2888724496
 10
74.5898162408
 20
61.235531351
 10
74.6060254467
 20
61.1818239058
 10
74.6228376589
 20
61.1276686867
 10
74.6402981089
 20
61.0729899017
 10
74.6584355857
 20
61.0177709512
 10
74.6773575558
 20
60.9617692526
 10
74.6971494587
 20
60.9048337121
 10
74.7179442187
 20
60.846702546
 10
74.7398995906
 20
60.7870814446
 10
74.7630821046
 20
60.7259530343
 10
74.787610504
 20
60.6631782115
 10
74.8135192208
 20
60.5988489826
 10
74.8408690197
 20
60.5329932838
 10
74.8697082494
 20
60.4656733195
 10
74.9000907692
 20
60.3969405963
 10
74.9320633711
 20
60.3268646175
 10
74.9656612784
 20
60.2555394959
 10
75.0009707959
 20
60.1829531671
 10
75.0380584305
 20
60.1091427797
 10
75.0770300739
 20
60.0340755578
 10
75.1179869396
 20
59.9577413485
 10
75.161031779
 20
59.8801392763
 10
75.2062504877
 20
59.8013089501
 10
75.2538165965
 20
59.7211517691
 10
75.3038130695
 20
59.639740321
 10
75.3566448167
 20
59.5566544351
 10
75.4126703802
 20
59.4716172134
 10
75.4722572211
 20
59.3843999568
 10
75.5360776635
 20
59.2944126515
 10
75.6037300909
 20
59.2026172697
 10
75.67522125
 20
59.1093482542
 10
75.7498244702
 20
59.0158231984
 10
75.8267069356
 20
58.923224496
 10
75.9057917214
 20
58.8317105455
 10
75.9866036433
 20
58.7418579176
 10
76.0693325073
 20
58.6534646755
 10
76.1540025806
 20
58.5665304236
 10
76.2406483836
 20
58.4810505086
 10
76.3293399239
 20
58.3969941524
 10
76.4200087113
 20
58.3144657364
 10
76.5126363118
 20
58.2335178206
 10
76.6071238953
 20
58.1542678132
 10
76.7033820122
 20
58.0768139352
 10
76.8013307232
 20
58.0012376259
 10
76.9008625739
 20
57.9276326218
 10
77.0019428904
 20
57.8560318157
 10
77.1045098658
 20
57.7864851559
 10
77.2085256475
 20
57.719023399
 10
77.3139447933
 20
57.6536809009
 10
77.4207216305
 20
57.5904903992
 10
77.5288091329
 20
57.5294837273
 10
77.6381599436
 20
57.4706912129
 10
77.7487255872
 20
57.4141421379
 10
77.8604570146
 20
57.3598644367
 10
77.9733042962
 20
57.3078848597
 10
78.0872167654
 20
57.2582288922
 10
78.2021429513
 20
57.210920775
 10
78.3180310161
 20
57.1659833219
 10
78.4348280664
 20
57.1234381913
 10
78.5524820149
 20
57.0833052168
 10
78.6709386368
 20
57.0456034645
 10
78.7901482886
 20
57.0103491341
 10
78.9100593356
 20
56.9775578445
 10
79.0306211846
 20
56.9472437218
 10
79.1517825463
 20
56.9194199295
 10
79.2734919619
 20
56.8940985203
 10
79.395697627
 20
56.871290478
 10
79.5183476951
 20
56.8510056593
 10
79.6413899795
 20
56.8332528523
 10
79.7647724163
 20
56.818039709
 10
79.8884426914
 20
56.8053728097
 10
80.0123484
 20
56.7952576408
 10
80.136437006
 20
56.7876985997
 10
80.2606559163
 20
56.7826989892
 10
80.3849525069
 20
56.7802610181
 10
80.4410608698
 20
56.7800000014
  0
LINE
  5
2C1
100
AcDbEntity
  8
0
100
AcDbLine
 62
7
  6
CONTINUOUS
 10
78.5082250908
 20
77.28
 11
78.5082250908
 21
62.78
  0
LINE
  5
2C2
100
AcDbEntity
  8
0
100
AcDbLine
 62
7
  6
CONTINUOUS
 10
113.5082251908
 20
32.5829254086
 11
163.5082251908
 21
32.5829254086
  0
LINE
  5
2C3
100
AcDbEntity
  8
0
100
AcDbLine
 62
7
  6
CONTINUOUS
 10
108.5082251908
 20
36.5692850234
 11
108.5082251908
 21
56.78
  0
LINE
  5
2C4
100
AcDbEntity
  8
0
100
AcDbLine
 62
7
  6
CONTINUOUS
 10
108.5082251908
 20
83.28
 11
108.5082251908
 21
103.4907149766
  0
LINE
  5
2C5
100
AcDbEntity
  8
0
100
AcDbLine
 62
7
  6
CONTINUOUS
 10
128.7967357328
 20
83.9920840883
 11
128.2513107279
 21
83.28
  0
LINE
  5
2C6
100
AcDbEntity
  8
0
100
AcDbLine
 62
7
  6
CONTINUOUS
 10
129.8073739102
 20
83.3983340883
 11
129.6865223202
 21
83.28
  0
LINE
  5
2C7
100
AcDbEntity
  8
0
100
AcDbLine
 62
7
  6
CONTINUOUS
 10
129.6052462747
 20
84.5858340883
 11
128.7967357328
 21
83.9920840883
  0
LINE
  5
2C8
100
AcDbEntity
  8
0
100
AcDbLine
 62
7
  6
CONTINUOUS
 10
130.2116291811
 20
83.59625
 11
129.8073739102
 21
83.3983340883
  0
LINE
  5
2C9
100
AcDbEntity
  8
0
100
AcDbLine
 62
7
  6
CONTINUOUS
 10
134.2541827401
 20
85.3775
 11
133.445671915
 21
84.9816659117
  0
LINE
  5
2CA
100
AcDbEntity
  8
0
100
AcDbLine
 62
7
  6
CONTINUOUS
 10
130.2116291811
 20
84.78375
 11
129.6052462747
 21
84.5858340883
  0
LINE
  5
2CB
100
AcDbEntity
  8
0
100
AcDbLine
 62
7
  6
CONTINUOUS
 10
130.6476168151
 20
56.78
 11
136.2754592364
 21
54.898333239
  0
LINE
  5
2CC
100
AcDbEntity
  8
0
100
AcDbLine
 62
7
  6
CONTINUOUS
 10
127.9882251908
 20
52.1275
 11
127.9882251908
 21
50.94
  0
LINE
  5
2CD
100
AcDbEntity
  8
0
100
AcDbLine
 62
7
  6
CONTINUOUS
 10
132.6371613731
 20
84.19
 11
132.2329061021
 21
83.3983340883
  0
LINE
  5
2CE
100
AcDbEntity
  8
0
100
AcDbLine
 62
7
  6
CONTINUOUS
 10
133.849927186
 20
83.7941659117
 11
133.4998568198
 21
83.28
  0
LINE
  5
2CF
100
AcDbEntity
  8
0
100
AcDbLine
 62
7
  6
CONTINUOUS
 10
133.445671915
 20
84.9816659117
 11
132.6371613731
 21
84.19
  0
LINE
  5
2D0
100
AcDbEntity
  8
0
100
AcDbLine
 62
7
  6
CONTINUOUS
 10
134.4563103755
 20
84.19
 11
133.849927186
 21
83.7941659117
  0
LWPOLYLINE
  5
2D1
100
AcDbEntity
  8
BEZUGSACHSEN
100
AcDbPolyline
 62
7
  6
CONTINUOUS
 90
157
 70
0
 10
196.5753895119
 20
56.7800000014
 10
196.6314962554
 20
56.780261003
 10
196.755791225
 20
56.7826988922
 10
196.8800085147
 20
56.7876983539
 10
197.004095503
 20
56.795257179
 10
197.1279995993
 20
56.8053720651
 10
197.2516682701
 20
56.8180386149
 10
197.3750491129
 20
56.8332513421
 10
197.4980898163
 20
56.8510036668
 10
197.6207383186
 20
56.8712879374
 10
197.7429424359
 20
56.8940953664
 10
197.8646503244
 20
56.9194160977
 10
197.9858101815
 20
56.9472391483
 10
198.1063705511
 20
56.9775524662
 10
198.2262801458
 20
57.0103428887
 10
198.3454883733
 20
57.0455962902
 10
198.4639436056
 20
57.0832970542
 10
198.5815962058
 20
57.1234289839
 10
198.6983919491
 20
57.1659730141
 10
198.8142787524
 20
57.2109093138
 10
198.9292037176
 20
57.2582162235
 10
199.0431150045
 20
57.3078709289
 10
199.1559611398
 20
57.3598491887
 10
199.2676914551
 20
57.4141255164
 10
199.3782560183
 20
57.4706731605
 10
199.4876057761
 20
57.5294641833
 10
199.595692258
 20
57.5904693052
 10
199.70246811
 20
57.6536581992
 10
199.8078863085
 20
57.7189990329
 10
199.911901183
 20
57.7864590697
 10
200.0144672954
 20
57.856003956
 10
200.1155467553
 20
57.9276029073
 10
200.2150778828
 20
58.0012060674
 10
200.3130261174
 20
58.0767806408
 10
200.4092839755
 20
58.1542328879
 10
200.5037715678
 20
58.2334814309
 10
200.5963993139
 20
58.3144279576
 10
200.6870684051
 20
58.3969550926
 10
200.7757600308
 20
58.4810099267
 10
200.8624053273
 20
58.5664876751
 10
200.947074439
 20
58.653419181
 10
201.0298017315
 20
58.7418088622
 10
201.1106119903
 20
58.83165761
 10
201.1896946111
 20
58.923166843
 10
201.2665768802
 20
59.0157629488
 10
201.3411845132
 20
59.1092911855
 10
201.4126827826
 20
59.2025673534
 10
201.4803453889
 20
59.2943748402
 10
201.5441752094
 20
59.384374159
 10
201.6037668785
 20
59.471597648
 10
201.6597943231
 20
59.5566370622
 10
201.7126247219
 20
59.6397201692
 10
201.7626184239
 20
59.7211263192
 10
201.8101817621
 20
59.8012778673
 10
201.8553978971
 20
59.8801025641
 10
201.8984411337
 20
59.9577004507
 10
201.9393967774
 20
60.0340309683
 10
201.9783673445
 20
60.1090945958
 10
202.0154538872
 20
60.1829011811
 10
202.0507619952
 20
60.2554828593
 10
202.0843584622
 20
60.32680303
 10
202.1163296888
 20
60.3968739563
 10
202.1467110898
 20
60.4656019745
 10
202.1755496267
 20
60.5329180346
 10
202.2028992199
 20
60.5987708717
 10
202.2288083205
 20
60.6630986501
 10
202.2533376819
 20
60.7258735425
 10
202.2765219585
 20
60.78700428
 10
202.2984792804
 20
60.8466284677
 10
202.3192757354
 20
60.904762277
 10
202.3390690065
 20
60.9616997447
 10
202.357991706
 20
61.0177016365
 10
202.3761296405
 20
61.072920017
 10
202.3935904809
 20
61.1275980423
 10
202.410403092
 20
61.1817525434
 10
202.4266128809
 20
61.2354599043
 10
202.4422634994
 20
61.288801085
 10
202.4573890122
 20
61.3418337708
 10
202.4720504611
 20
61.3947221492
 10
202.4862987116
 20
61.4476120028
 10
202.5001789427
 20
61.5006442665
 10
202.5137400731
 20
61.5539909632
 10
202.5270054286
 20
61.6077383652
 10
202.5400090003
 20
61.662026642
 10
202.5527593885
 20
61.7169001548
 10
202.5652743796
 20
61.7724474153
 10
202.5775594808
 20
61.8287078771
 10
202.5896306841
 20
61.885772742
 10
202.601476762
 20
61.943606188
 10
202.6130959632
 20
62.0022117028
 10
202.624484757
 20
62.0615791838
 10
202.6356401591
 20
62.1216954648
 10
202.6465663969
 20
62.1825819607
 10
202.6572583473
 20
62.244203793
 10
202.6677446848
 20
62.3067216475
 10
202.6780390893
 20
62.3702205291
 10
202.6881750151
 20
62.4349209864
 10
202.6981799994
 20
62.501029529
 10
202.7080743728
 20
62.5687257069
 10
202.7178866747
 20
62.638266777
 10
202.7276109238
 20
62.7096809064
 10
202.7372549958
 20
62.7830984732
 10
202.7468048563
 20
62.8584833979
 10
202.7562511238
 20
62.9358230883
 10
202.7655905238
 20
63.0151467361
 10
202.7748119865
 20
63.0964091694
 10
202.7839294552
 20
63.1797835521
 10
202.7929473746
 20
63.2653700725
 10
202.8018767333
 20
63.3533424887
 10
202.8107255357
 20
63.4438620451
 10
202.8194993429
 20
63.5370804085
 10
202.828203133
 20
63.6331572378
 10
202.8368395206
 20
63.7322408203
 10
202.8454131012
 20
63.8345172835
 10
202.8539163255
 20
63.9400395473
 10
202.8623499253
 20
64.0489675441
 10
202.8706900678
 20
64.1611409528
 10
202.8789205242
 20
64.2764706047
 10
202.8870223657
 20
64.3948038063
 10
202.8949782824
 20
64.5159799439
 10
202.9027717476
 20
64.6398183375
 10
202.9103868853
 20
64.7661151283
 10
202.9178096987
 20
64.8946626212
 10
202.9250250227
 20
65.0251962115
 10
202.9320262605
 20
65.1575726662
 10
202.9388047007
 20
65.291586076
 10
202.9453554504
 20
65.4270811187
 10
202.9516734114
 20
65.5638778625
 10
202.9577539373
 20
65.7017835326
 10
202.9635927571
 20
65.840589097
 10
202.969187687
 20
65.9801108622
 10
202.9745338281
 20
66.120070628
 10
202.9796388843
 20
66.260504235
 10
202.9845056955
 20
66.4013290176
 10
202.989142481
 20
66.5426297325
 10
202.9935552712
 20
66.6844547506
 10
202.9977494063
 20
66.8268558948
 10
203.0017297168
 20
66.9698932873
 10
203.0054998787
 20
67.1136120282
 10
203.0090641041
 20
67.2581052918
 10
203.0124221152
 20
67.4033053804
 10
203.0155750585
 20
67.5492073589
 10
203.0185221071
 20
67.6957172268
 10
203.0212628839
 20
67.8427515323
 10
203.0237979298
 20
67.9902690759
 10
203.0261273783
 20
68.1382050266
 10
203.0282521708
 20
68.2865460512
 10
203.0301729233
 20
68.435267956
 10
203.0318900578
 20
68.5843404958
 10
203.0334039948
 20
68.7337413015
 10
203.0347148166
 20
68.8834235417
 10
203.0358226796
 20
69.0333478566
 10
203.036727672
 20
69.1834697826
 10
203.0374298906
 20
69.3337448748
 10
203.0379294343
 20
69.4841332012
 10
203.0382263842
 20
69.6346000978
 10
203.0383209063
 20
69.78
  0
LINE
  5
2D2
100
AcDbEntity
  8
0
100
AcDbLine
 62
7
  6
CONTINUOUS
 10
192.9024357408
 20
56.28
 11
184.9682251908
 21
56.28
  0
LINE
  5
2D3
100
AcDbEntity
  8
RUNDUNGEN
100
AcDbLine
 62
7
  6
CONTINUOUS
 10
136.7559378832
 20
56.78
 11
80.4410604342
 21
56.78
  0
LINE
  5
2D4
100
AcDbEntity
  8
BEZUGSACHSEN
100
AcDbLine
 62
7
  6
CONTINUOUS
 10
136.7559378832
 20
56.78
 11
196.5753899475
 21
56.78
  0
LINE
  5
2D5
100
AcDbEntity
  8
0
100
AcDbLine
 62
7
  6
CONTINUOUS
 10
134.2182249959
 20
56.78
 11
137.4882251908
 21
55.69
  0
LINE
  5
2D6
100
AcDbEntity
  8
0
100
AcDbLine
 62
7
  6
CONTINUOUS
 10
130.2116291811
 20
84.78375
 11
130.2116291811
 21
83.59625
  0
LINE
  5
2D7
100
AcDbEntity
  8
0
100
AcDbLine
 62
7
  6
CONTINUOUS
 10
132.2329061021
 20
83.3983340883
 11
132.2087357565
 21
83.28
  0
LINE
  5
2D8
100
AcDbEntity
  8
0
100
AcDbLine
 62
7
  6
CONTINUOUS
 10
137.4882251908
 20
55.69
 11
137.4882251908
 21
54.106666761
  0
LINE
  5
2D9
100
AcDbEntity
  8
0
100
AcDbLine
 62
7
  6
CONTINUOUS
 10
135.6690761884
 20
83.7941659117
 11
136.0191466772
 21
83.28
  0
LINE
  5
2DA
100
AcDbEntity
  8
0
100
AcDbLine
 62
7
  6
CONTINUOUS
 10
136.8818422136
 20
84.19
 11
137.2860975377
 21
83.3983340883
  0
LINE
  5
2DB
100
AcDbEntity
  8
0
100
AcDbLine
 62
7
  6
CONTINUOUS
 10
137.2860975377
 20
83.3983340883
 11
137.3102678854
 21
83.28
  0
LINE
  5
2DC
100
AcDbEntity
  8
0
100
AcDbLine
 62
7
  6
CONTINUOUS
 10
135.062693282
 20
84.19
 11
135.6690761884
 21
83.7941659117
  0
LINE
  5
2DD
100
AcDbEntity
  8
0
100
AcDbLine
 62
7
  6
CONTINUOUS
 10
136.0733316009
 20
84.9816659117
 11
136.8818422136
 21
84.19
  0
LINE
  5
2DE
100
AcDbEntity
  8
0
100
AcDbLine
 62
7
  6
CONTINUOUS
 10
136.2754592364
 20
54.898333239
 11
127.9882251908
 21
52.1275
  0
LINE
  5
2DF
100
AcDbEntity
  8
0
100
AcDbLine
 62
7
  6
CONTINUOUS
 10
137.4882251908
 20
54.106666761
 11
127.9882251908
 21
50.94
  0
LWPOLYLINE
  5
2E0
100
AcDbEntity
  8
BEZUGSACHSEN
100
AcDbPolyline
 62
7
  6
CONTINUOUS
 90
157
 70
0
 10
80.4410608698
 20
83.2799999986
 10
80.3849541262
 20
83.279738997
 10
80.2606591567
 20
83.2773011078
 10
80.136441867
 20
83.2723016461
 10
80.0123548787
 20
83.264742821
 10
79.8884507824
 20
83.2546279349
 10
79.7647821116
 20
83.2419613851
 10
79.6414012688
 20
83.2267486579
 10
79.5183605654
 20
83.2089963332
 10
79.3957120631
 20
83.1887120626
 10
79.2735079457
 20
83.1659046336
 10
79.1518000573
 20
83.1405839023
 10
79.0306402002
 20
83.1127608517
 10
78.9100798306
 20
83.0824475338
 10
78.7901702359
 20
83.0496571113
 10
78.6709620083
 20
83.0144037098
 10
78.5525067761
 20
82.9767029458
 10
78.4348541759
 20
82.9365710161
 10
78.3180584326
 20
82.8940269859
 10
78.2021716293
 20
82.8490906862
 10
78.087246664
 20
82.8017837765
 10
77.9733353772
 20
82.7521290711
 10
77.8604892419
 20
82.7001508113
 10
77.7487589266
 20
82.6458744836
 10
77.6381943634
 20
82.5893268395
 10
77.5288446056
 20
82.5305358167
 10
77.4207581237
 20
82.4695306948
 10
77.3139822717
 20
82.4063418008
 10
77.2085640732
 20
82.3410009671
 10
77.1045491987
 20
82.2735409303
 10
77.0019830863
 20
82.203996044
 10
76.9009036263
 20
82.1323970927
 10
76.8013724989
 20
82.0587939326
 10
76.7034242643
 20
81.9832193592
 10
76.6071664062
 20
81.9057671121
 10
76.5126788139
 20
81.8265185691
 10
76.4200510678
 20
81.7455720424
 10
76.3293819766
 20
81.6630449074
 10
76.2406903509
 20
81.5789900733
 10
76.1540450544
 20
81.4935123249
 10
76.0693759426
 20
81.406580819
 10
75.9866486502
 20
81.3181911378
 10
75.9058383914
 20
81.22834239
 10
75.8267557705
 20
81.136833157
 10
75.7498735014
 20
81.0442370512
 10
75.6752658685
 20
80.9507088145
 10
75.6037675991
 20
80.8574326466
 10
75.5361049928
 20
80.7656251598
 10
75.4722751723
 20
80.675625841
 10
75.4126835032
 20
80.588402352
 10
75.3566560586
 20
80.5033629378
 10
75.3038256598
 20
80.4202798308
 10
75.2538319577
 20
80.3388736808
 10
75.2062686196
 20
80.2587221327
 10
75.1610524846
 20
80.179897436
 10
75.118009248
 20
80.1022995493
 10
75.0770536043
 20
80.0259690317
 10
75.0380830372
 20
79.9509054042
 10
75.0009964944
 20
79.8770988189
 10
74.9656883865
 20
79.8045171407
 10
74.9320919195
 20
79.73319697
 10
74.9001206929
 20
79.6631260437
 10
74.8697392919
 20
79.5943980255
 10
74.840900755
 20
79.5270819654
 10
74.8135511618
 20
79.4612291283
 10
74.7876420612
 20
79.3969013499
 10
74.7631126998
 20
79.3341264575
 10
74.7399284232
 20
79.27299572
 10
74.7179711012
 20
79.2133715323
 10
74.6971746463
 20
79.1552377231
 10
74.6773813752
 20
79.0983002553
 10
74.6584586756
 20
79.0422983635
 10
74.6403207412
 20
78.987079983
 10
74.6228599008
 20
78.9324019577
 10
74.6060472897
 20
78.8782474566
 10
74.5898375008
 20
78.8245400957
 10
74.5741868823
 20
78.771198915
 10
74.5590613694
 20
78.7181662292
 10
74.5443999206
 20
78.6652778508
 10
74.5301516701
 20
78.6123879972
 10
74.516271439
 20
78.5593557335
 10
74.5027103086
 20
78.5060090368
 10
74.489444953
 20
78.4522616348
 10
74.4764413814
 20
78.3979733581
 10
74.4636909932
 20
78.3430998452
 10
74.4511760021
 20
78.2875525847
 10
74.4388909009
 20
78.2312921229
 10
74.4268196976
 20
78.174227258
 10
74.4149736197
 20
78.116393812
 10
74.4033544185
 20
78.0577882973
 10
74.3919656247
 20
77.9984208162
 10
74.3808102226
 20
77.9383045352
 10
74.3698839848
 20
77.8774180393
 10
74.3591920343
 20
77.815796207
 10
74.3487056969
 20
77.7532783525
 10
74.3384112923
 20
77.6897794709
 10
74.3282753666
 20
77.6250790136
 10
74.3182703823
 20
77.558970471
 10
74.3083760089
 20
77.4912742931
 10
74.298563707
 20
77.421733223
 10
74.2888394578
 20
77.3503190936
 10
74.2791953859
 20
77.2769015268
 10
74.2696455254
 20
77.2015166021
 10
74.2601992579
 20
77.1241769117
 10
74.2508598578
 20
77.0448532639
 10
74.2416383952
 20
76.9635908306
 10
74.2325209265
 20
76.880216448
 10
74.2235030071
 20
76.7946299275
 10
74.2145736484
 20
76.7066575113
 10
74.205724846
 20
76.6161379549
 10
74.1969510387
 20
76.5229195915
 10
74.1882472487
 20
76.4268427622
 10
74.1796108611
 20
76.3277591797
 10
74.1710372804
 20
76.2254827165
 10
74.1625340562
 20
76.1199604527
 10
74.1541004564
 20
76.0110324559
 10
74.1457603139
 20
75.8988590472
 10
74.1375298575
 20
75.7835293953
 10
74.129428016
 20
75.6651961937
 10
74.1214720993
 20
75.5440200561
 10
74.113678634
 20
75.4201816625
 10
74.1060634964
 20
75.2938848717
 10
74.098640683
 20
75.1653373788
 10
74.0914253589
 20
75.0348037885
 10
74.0844241212
 20
74.9024273338
 10
74.077645681
 20
74.768413924
 10
74.0710949313
 20
74.6329188813
 10
74.0647769702
 20
74.4961221375
 10
74.0586964444
 20
74.3582164674
 10
74.0528576246
 20
74.219410903
 10
74.0472626947
 20
74.0798891378
 10
74.0419165535
 20
73.939929372
 10
74.0368114974
 20
73.799495765
 10
74.0319446862
 20
73.6586709824
 10
74.0273079007
 20
73.5173702675
 10
74.0228951105
 20
73.3755452494
 10
74.0187009754
 20
73.2331441052
 10
74.0147206649
 20
73.0901067127
 10
74.010950503
 20
72.9463879718
 10
74.0073862775
 20
72.8018947082
 10
74.0040282665
 20
72.6566946196
 10
74.0008753231
 20
72.5107926411
 10
73.9979282746
 20
72.3642827732
 10
73.9951874978
 20
72.2172484677
 10
73.9926524519
 20
72.0697309241
 10
73.9903230034
 20
71.9217949734
 10
73.9881982108
 20
71.7734539488
 10
73.9862774583
 20
71.624732044
 10
73.9845603239
 20
71.4756595042
 10
73.9830463869
 20
71.3262586985
 10
73.9817355651
 20
71.1765764583
 10
73.9806277021
 20
71.0266521434
 10
73.9797227097
 20
70.8765302174
 10
73.9790204911
 20
70.7262551252
 10
73.9785209474
 20
70.5758667988
 10
73.9782239975
 20
70.4253999022
 10
73.9781294753
 20
69.78
  0
LINE
  5
2E1
100
AcDbEntity
  8
BEZUGSACHSEN
100
AcDbLine
 62
7
  6
CONTINUOUS
 10
80.4410604342
 20
83.28
 11
196.5753900397
 21
83.28
  0
LINE
  5
2E2
100
AcDbEntity
  8
0
100
AcDbLine
 62
7
  6
CONTINUOUS
 10
134.4563103755
 20
84.19
 11
135.062693282
 21
84.19
  0
LINE
  5
2E3
100
AcDbEntity
  8
0
100
AcDbLine
 62
7
  6
CONTINUOUS
 10
134.2541827401
 20
85.3775
 11
135.2648209174
 21
85.3775
  0
LINE
  5
2E4
100
AcDbEntity
  8
0
100
AcDbLine
 62
7
  6
CONTINUOUS
 10
135.2648209174
 20
85.3775
 11
136.0733316009
 21
84.9816659117
  0
LINE
  5
2E5
100
AcDbEntity
  8
0
100
AcDbLine
 62
7
  6
CONTINUOUS
 10
168.5082251908
 20
103.4907143709
 11
168.5082251908
 21
83.28
  0
LINE
  5
2E6
100
AcDbEntity
  8
0
100
AcDbLine
 62
7
  6
CONTINUOUS
 10
168.5082251908
 20
56.78
 11
168.5082251908
 21
36.5692856291
  0
LINE
  5
2E7
100
AcDbEntity
  8
KONSTRUKTIONSELEMENTE
100
AcDbLine
 62
7
  6
CONTINUOUS
 10
113.5082251908
 20
107.4770745914
 11
163.5082251908
 21
107.4770745914
  0
LINE
  5
2E8
100
AcDbEntity
  8
0
100
AcDbLine
 62
7
  6
CONTINUOUS
 10
184.9682251908
 20
56.78
 11
184.9682251908
 21
56.28
  0
LINE
  5
2E9
100
AcDbEntity
  8
0
100
AcDbLine
 62
7
  6
CONTINUOUS
 10
190.7866462608
 20
56.78
 11
190.7866462608
 21
56.28
  0
LINE
  5
2EA
100
AcDbEntity
  8
0
100
AcDbLine
 62
7
  6
CONTINUOUS
 10
191.5800673158
 20
56.78
 11
191.5800673158
 21
56.28
  0
LINE
  5
2EB
100
AcDbEntity
  8
0
100
AcDbLine
 62
7
  6
CONTINUOUS
 10
192.9024357408
 20
56.78
 11
192.9024357408
 21
56.28
  0
LINE
  5
2EC
100
AcDbEntity
  8
BEZUGSACHSEN
100
AcDbLine
 62
7
  6
CONTINUOUS
 10
198.5082252908
 20
62.78
 11
198.5082252908
 21
77.28
  0
LWPOLYLINE
  5
2ED
100
AcDbEntity
  8
BEZUGSACHSEN
100
AcDbPolyline
 62
7
  6
CONTINUOUS
 90
156
 70
0
 10
203.0382263817
 20
70.4254018607
 10
203.0379294239
 20
70.5758707244
 10
203.037429867
 20
70.7262610263
 10
203.0367276299
 20
70.8765380943
 10
203.0358226136
 20
71.0266619904
 10
203.0347147213
 20
71.1765882635
 10
203.033403865
 20
71.3262724427
 10
203.0318898882
 20
71.4756751665
 10
203.030172709
 20
71.6247495929
 10
203.0282519063
 20
71.773473373
 10
203.0261270581
 20
71.9218162733
 10
203.023797548
 20
72.0697541149
 10
203.0212624337
 20
72.2172736023
 10
203.0185215826
 20
72.3643098452
 10
203.0155744539
 20
72.5108216271
 10
203.0124214266
 20
72.6567254101
 10
203.0090633304
 20
72.8019270906
 10
203.0054990184
 20
72.9464217778
 10
203.0017287705
 20
73.0901417273
 10
202.9977483702
 20
73.2331802847
 10
202.9935541385
 20
73.3755826582
 10
202.9891412402
 20
73.5174090918
 10
202.9845043301
 20
73.6587115218
 10
202.9796373722
 20
73.7995384232
 10
202.9745321373
 20
73.939974743
 10
202.9691857887
 20
74.0799376375
 10
202.9635906173
 20
74.219462999
 10
202.9577515397
 20
74.3582721365
 10
202.9516707536
 20
74.4961810318
 10
202.9453525479
 20
74.6329803014
 10
202.9388015888
 20
74.7684768496
 10
202.9320229962
 20
74.902490443
 10
202.9250216924
 20
75.0348653792
 10
202.9178063985
 20
75.1653957886
 10
202.9103837383
 20
75.2939382016
 10
202.9027688611
 20
75.4202285187
 10
202.8949757578
 20
75.5440593267
 10
202.8870202925
 20
75.6652271125
 10
202.8789189789
 20
75.7835515004
 10
202.8706891121
 20
75.8988721655
 10
202.8623496052
 20
76.0110366744
 10
202.8539166672
 20
76.1199561269
 10
202.8454141041
 20
76.2254705159
 10
202.8368411799
 20
76.3277397708
 10
202.8282054272
 20
76.4268169467
 10
202.8195022581
 20
76.5228880241
 10
202.8107290596
 20
76.6161012204
 10
202.8018808567
 20
76.7066161194
 10
202.7929520914
 20
76.7945843197
 10
202.7839347637
 20
76.8801669965
 10
202.7748178925
 20
76.9635378149
 10
202.7655970289
 20
77.0447969876
 10
202.7562582313
 20
77.1241176444
 10
202.7468125578
 20
77.201454691
 10
202.7372632722
 20
77.2768373717
 10
202.7276197489
 20
77.3502531122
 10
202.7178960011
 20
77.4216659438
 10
202.7080841796
 20
77.4912060097
 10
202.6981902806
 20
77.5589013475
 10
202.6881857856
 20
77.6250090679
 10
202.6780503879
 20
77.6897085759
 10
202.6677565669
 20
77.7532062978
 10
202.6572709084
 20
77.8157225774
 10
202.6465796969
 20
77.8773426657
 10
202.6356542418
 20
77.9382273627
 10
202.6244996385
 20
77.9983419425
 10
202.6131116317
 20
78.0577079563
 10
202.6014931745
 20
78.1163123708
 10
202.5896477538
 20
78.174145257
 10
202.5775771101
 20
78.2312101002
 10
202.5652924318
 20
78.2874712007
 10
202.5527777568
 20
78.3430195695
 10
202.5400275866
 20
78.3978945778
 10
202.5270241674
 20
78.4521845685
 10
202.5137589164
 20
78.50593381
 10
202.5001979126
 20
78.5592821916
 10
202.4863179177
 20
78.6123156671
 10
202.4720700101
 20
78.6652063138
 10
202.4574090678
 20
78.7180949015
 10
202.4422841426
 20
78.7711275504
 10
202.4266341408
 20
78.824468649
 10
202.410424935
 20
78.8781760942
 10
202.3936127228
 20
78.9323313133
 10
202.3761522728
 20
78.9870100983
 10
202.358014796
 20
79.0422290488
 10
202.3390928259
 20
79.0982307474
 10
202.319300923
 20
79.1551662879
 10
202.2985061629
 20
79.2132974539
 10
202.2765507911
 20
79.2729185553
 10
202.2533682771
 20
79.3340469657
 10
202.2288398777
 20
79.3968217885
 10
202.2029311609
 20
79.4611510173
 10
202.175581362
 20
79.5270067162
 10
202.1467421323
 20
79.5943266805
 10
202.1163596125
 20
79.6630594037
 10
202.0843870106
 20
79.7331353825
 10
202.0507891032
 20
79.8044605041
 10
202.0154795858
 20
79.8770468329
 10
201.9783919512
 20
79.9508572203
 10
201.9394203078
 20
80.0259244421
 10
201.8984634421
 20
80.1022586515
 10
201.8554186027
 20
80.1798607237
 10
201.810199894
 20
80.2586910499
 10
201.7626337851
 20
80.3388482309
 10
201.7126373122
 20
80.420259679
 10
201.659805565
 20
80.5033455649
 10
201.6037800015
 20
80.5883827865
 10
201.5441931606
 20
80.6756000432
 10
201.4803727182
 20
80.7655873485
 10
201.4127202908
 20
80.8573827303
 10
201.3412291316
 20
80.9506517458
 10
201.2666259115
 20
81.0441768016
 10
201.1897434461
 20
81.1367755039
 10
201.1106586603
 20
81.2282894545
 10
201.0298467384
 20
81.3181420824
 10
200.9471178744
 20
81.4065353245
 10
200.8624478011
 20
81.4934695764
 10
200.7758019981
 20
81.5789494914
 10
200.6871104578
 20
81.6630058476
 10
200.5964416704
 20
81.7455342636
 10
200.5038140699
 20
81.8264821794
 10
200.4093264864
 20
81.9057321868
 10
200.3130683695
 20
81.9831860648
 10
200.2151196585
 20
82.0587623741
 10
200.1155878077
 20
82.1323673782
 10
200.0145074913
 20
82.2039681843
 10
199.9119405159
 20
82.2735148441
 10
199.8079247342
 20
82.340976601
 10
199.7025055884
 20
82.4063190991
 10
199.5957287512
 20
82.4695096008
 10
199.4876412488
 20
82.5305162727
 10
199.3782904381
 20
82.5893087871
 10
199.2677247945
 20
82.6458578621
 10
199.1559933671
 20
82.7001355633
 10
199.0431460855
 20
82.7521151403
 10
198.9292336163
 20
82.8017711078
 10
198.8143074303
 20
82.849079225
 10
198.6984193656
 20
82.8940166781
 10
198.5816223153
 20
82.9365618087
 10
198.4639683668
 20
82.9766947832
 10
198.3455117449
 20
83.0143965355
 10
198.2263020931
 20
83.0496508659
 10
198.1063910461
 20
83.0824421555
 10
197.985829197
 20
83.1127562782
 10
197.8646678354
 20
83.1405800705
 10
197.7429584197
 20
83.1659014797
 10
197.6207527546
 20
83.188709522
 10
197.4981026866
 20
83.2089943407
 10
197.3750604022
 20
83.2267471477
 10
197.2516779654
 20
83.241960291
 10
197.1280076902
 20
83.2546271903
 10
197.0041019817
 20
83.2647423592
 10
196.8800133757
 20
83.2723014003
 10
196.7557944654
 20
83.2773010108
 10
196.6314978748
 20
83.2797389819
 10
196.5753895119
 20
83.2799999986
  0
LINE
  5
2EE
100
AcDbEntity
  8
BEZUGSACHSEN
100
AcDbLine
 62
7
  6
CONTINUOUS
 10
203.0382263817
 20
70.4254018607
 11
203.0383209064
 21
69.78
  0
ARC
  5
2EF
100
AcDbEntity
  8
RUNDUNGEN
100
AcDbCircle
 62
7
  6
CONTINUOUS
 10
116.0082251908
 20
175.7220236553
 40
11.0
100
AcDbArc
 50
180.0
 51
227.0131151298
  0
ARC
  5
2F0
100
AcDbEntity
  8
BEZUGSACHSEN
100
AcDbCircle
 62
7
  6
CONTINUOUS
 10
79.9781294753
 20
144.2220236553
 40
6.0
100
AcDbArc
 50
176.2264848083
 51
270.0
  0
ARC
  5
2F1
100
AcDbEntity
  8
RUNDUNGEN
100
AcDbCircle
 62
7
  6
CONTINUOUS
 10
79.9781294753
 20
144.2220236553
 40
6.0
100
AcDbArc
 50
176.2163688794
 51
270.0
  0
ARC
  5
2F2
100
AcDbEntity
  8
0
100
AcDbCircle
 62
7
  6
CONTINUOUS
 10
113.5082251908
 20
184.7220236553
 40
5.0
100
AcDbArc
 50
90.0
 51
180.0
  0
ARC
  5
2F3
100
AcDbEntity
  8
RUNDUNGEN
100
AcDbCircle
 62
7
  6
CONTINUOUS
 10
83.3179487619
 20
209.8776711655
 40
5.0
100
AcDbArc
 50
169.9200000051
 51
176.2163688818
  0
ARC
  5
2F4
100
AcDbEntity
  8
RUNDUNGEN
100
AcDbCircle
 62
7
  6
CONTINUOUS
 10
110.0082251908
 20
187.1220236553
 40
5.0
100
AcDbArc
 50
90.0
 51
178.7480152516
  0
ARC
  5
2F5
100
AcDbEntity
  8
BEZUGSACHSEN
100
AcDbCircle
 62
7
  6
CONTINUOUS
 10
118.3900741824
 20
195.8720236553
 40
3.75
100
AcDbArc
 50
270.0
 51
57.3106021126
  0
ARC
  5
2F6
100
AcDbEntity
  8
RUNDUNGEN
100
AcDbCircle
 62
7
  6
CONTINUOUS
 10
118.3900741824
 20
195.8720236553
 40
3.75
100
AcDbArc
 50
270.0
 51
57.3106021126
  0
ARC
  5
2F7
100
AcDbEntity
  8
0
100
AcDbCircle
 62
7
  6
CONTINUOUS
 10
120.4817946692
 20
228.1403730419
 40
38.0848587129
100
AcDbArc
 50
270.0021521112
 51
272.3014770991
  0
ARC
  5
2F8
100
AcDbEntity
  8
0
100
AcDbCircle
 62
7
  6
CONTINUOUS
 10
120.4957074162
 20
227.7427101375
 40
37.686957934
100
AcDbArc
 50
272.3046205551
 51
272.6146580446
  0
ARC
  5
2F9
100
AcDbEntity
  8
RUNDUNGEN
100
AcDbCircle
 62
7
  6
CONTINUOUS
 10
89.0871724908
 20
227.2220236553
 40
10.5789474
100
AcDbArc
 50
157.5
 51
202.5
  0
ARC
  5
2FA
100
AcDbEntity
  8
RUNDUNGEN
100
AcDbCircle
 62
7
  6
CONTINUOUS
 10
103.5622636933
 20
262.1679851528
 40
10.5789474
100
AcDbArc
 50
112.5
 51
157.5
  0
ARC
  5
2FB
100
AcDbEntity
  8
RUNDUNGEN
100
AcDbCircle
 62
7
  6
CONTINUOUS
 10
75.0373168549
 20
220.4316242718
 40
5.0
100
AcDbArc
 50
349.92
 51
22.5
  0
ARC
  5
2FC
100
AcDbEntity
  8
BEZUGSACHSEN
100
AcDbCircle
 62
7
  6
CONTINUOUS
 10
161.0082251908
 20
175.7220236553
 40
11.0
100
AcDbArc
 50
312.9868848702
 51
360.0
  0
ARC
  5
2FD
100
AcDbEntity
  8
BEZUGSACHSEN
100
AcDbCircle
 62
7
  6
CONTINUOUS
 10
197.0383209064
 20
144.2220236553
 40
6.0
100
AcDbArc
 50
270.0
 51
3.7836311206
  0
ARC
  5
2FE
100
AcDbEntity
  8
0
100
AcDbCircle
 62
7
  6
CONTINUOUS
 10
163.5082251908
 20
184.7220236553
 40
5.0
100
AcDbArc
 50
0.0
 51
90.0
  0
ARC
  5
2FF
100
AcDbEntity
  8
BEZUGSACHSEN
100
AcDbCircle
 62
7
  6
CONTINUOUS
 10
167.0082251908
 20
187.1220236553
 40
5.0
100
AcDbArc
 50
0.0
 51
90.0
  0
ARC
  5
300
100
AcDbEntity
  8
BEZUGSACHSEN
100
AcDbCircle
 62
7
  6
CONTINUOUS
 10
193.6985016198
 20
209.8776711655
 40
5.0
100
AcDbArc
 50
3.7836311182
 51
10.0799999949
  0
ARC
  5
301
100
AcDbEntity
  8
BEZUGSACHSEN
100
AcDbCircle
 62
7
  6
CONTINUOUS
 10
158.6263761993
 20
195.8720236553
 40
3.75
100
AcDbArc
 50
122.6893978874
 51
270.0
  0
ARC
  5
302
100
AcDbEntity
  8
0
100
AcDbCircle
 62
7
  6
CONTINUOUS
 10
188.1419094108
 20
189.2641288853
 40
3.17368422
100
AcDbArc
 50
90.0
 51
270.0
  0
ARC
  5
303
100
AcDbEntity
  8
0
100
AcDbCircle
 62
7
  6
CONTINUOUS
 10
187.8774357258
 20
180.9243920183
 40
2.909210535
100
AcDbArc
 50
180.0
 51
270.0
  0
ARC
  5
304
100
AcDbEntity
  8
0
100
AcDbCircle
 62
7
  6
CONTINUOUS
 10
189.9932252058
 20
180.9243920183
 40
2.909210535
100
AcDbArc
 50
270.0
 51
360.0
  0
ARC
  5
305
100
AcDbEntity
  8
0
100
AcDbCircle
 62
7
  6
CONTINUOUS
 10
190.5926988918
 20
196.3343920643
 40
2.309736849
100
AcDbArc
 50
201.1872687082
 51
360.0
  0
ARC
  5
306
100
AcDbEntity
  8
0
100
AcDbCircle
 62
7
  6
CONTINUOUS
 10
189.9226988898
 20
181.2625498257
 40
1.657368426
100
AcDbArc
 50
270.0181949201
 51
360.0
  0
ARC
  5
307
100
AcDbEntity
  8
0
100
AcDbCircle
 62
7
  6
CONTINUOUS
 10
187.9479620418
 20
181.2625499093
 40
1.657368426
100
AcDbArc
 50
180.0
 51
270.0
  0
ARC
  5
308
100
AcDbEntity
  8
0
100
AcDbCircle
 62
7
  6
CONTINUOUS
 10
151.284954796
 20
188.5811939401
 40
1.6408485959
100
AcDbArc
 50
93.5420190599
 51
95.3120815585
  0
ARC
  5
309
100
AcDbEntity
  8
0
100
AcDbCircle
 62
7
  6
CONTINUOUS
 10
143.9066652427
 20
188.5811939401
 40
1.6408485959
100
AcDbArc
 50
84.6879184415
 51
86.4579809401
  0
ARC
  5
30A
100
AcDbEntity
  8
0
100
AcDbCircle
 62
7
  6
CONTINUOUS
 10
151.2844343143
 20
188.5893711566
 40
1.6326548443
100
AcDbArc
 50
91.7661211251
 51
93.541517406
  0
ARC
  5
30B
100
AcDbEntity
  8
0
100
AcDbCircle
 62
7
  6
CONTINUOUS
 10
143.9071857244
 20
188.5893711566
 40
1.6326548443
100
AcDbArc
 50
86.458482594
 51
88.2338788749
  0
ARC
  5
30C
100
AcDbEntity
  8
0
100
AcDbCircle
 62
7
  6
CONTINUOUS
 10
151.2842896205
 20
188.5936904807
 40
1.6283331126
100
AcDbArc
 50
90.000329294
 51
91.7657163163
  0
ARC
  5
30D
100
AcDbEntity
  8
0
100
AcDbCircle
 62
7
  6
CONTINUOUS
 10
143.9073304182
 20
188.5936904807
 40
1.6283331126
100
AcDbArc
 50
88.2342836837
 51
89.999670706
  0
ARC
  5
30E
100
AcDbEntity
  8
0
100
AcDbCircle
 62
7
  6
CONTINUOUS
 10
188.1419094108
 20
189.2641288853
 40
1.58684211
100
AcDbArc
 50
90.0
 51
270.0
  0
ARC
  5
30F
100
AcDbEntity
  8
0
100
AcDbCircle
 62
7
  6
CONTINUOUS
 10
186.9605936178
 20
197.6998813575
 40
1.322368425
100
AcDbArc
 50
300.0
 51
360.0
  0
ARC
  5
310
100
AcDbEntity
  8
0
100
AcDbCircle
 62
7
  6
CONTINUOUS
 10
190.5926988918
 20
196.8633394343
 40
0.987368424
100
AcDbArc
 50
180.0
 51
360.0
  0
ARC
  5
311
100
AcDbEntity
  8
RUNDUNGEN
100
AcDbCircle
 62
7
  6
CONTINUOUS
 10
138.5082251908
 20
227.2220236553
 40
33.5000001
100
AcDbArc
 50
180.0
 51
237.310602548
  0
ARC
  5
312
100
AcDbEntity
  8
BEZUGSACHSEN
100
AcDbCircle
 62
7
  6
CONTINUOUS
 10
138.5082251908
 20
227.2220236553
 40
33.5000001
100
AcDbArc
 50
302.689397452
 51
180.0
  0
ARC
  5
313
100
AcDbEntity
  8
BEZUGSACHSEN
100
AcDbCircle
 62
7
  6
CONTINUOUS
 10
187.9292778908
 20
227.2220236553
 40
10.5789474
100
AcDbArc
 50
337.5
 51
22.5
  0
ARC
  5
314
100
AcDbEntity
  8
BEZUGSACHSEN
100
AcDbCircle
 62
7
  6
CONTINUOUS
 10
173.4541866884
 20
262.1679851528
 40
10.5789474
100
AcDbArc
 50
22.5
 51
67.5
  0
ARC
  5
315
100
AcDbEntity
  8
BEZUGSACHSEN
100
AcDbCircle
 62
7
  6
CONTINUOUS
 10
138.5082251908
 20
276.6430763553
 40
10.5789474
100
AcDbArc
 50
67.5
 51
112.5
  0
ARC
  5
316
100
AcDbEntity
  8
BEZUGSACHSEN
100
AcDbCircle
 62
7
  6
CONTINUOUS
 10
201.9791335268
 20
220.4316242718
 40
5.0
100
AcDbArc
 50
157.5
 51
190.08
  0
ARC
  5
317
100
AcDbEntity
  8
0
100
AcDbCircle
 62
7
  6
CONTINUOUS
 10
262.4636862929
 20
151.2220236553
 40
39.0
100
AcDbArc
 50
109.8613402839
 51
113.1740537466
  0
ARC
  5
318
100
AcDbEntity
  8
0
100
AcDbCircle
 62
7
  6
CONTINUOUS
 10
262.4636862929
 20
151.2220236553
 40
39.0
100
AcDbArc
 50
60.6931190562
 51
70.1385300036
  0
ARC
  5
319
100
AcDbEntity
  8
0
100
AcDbCircle
 62
7
  6
CONTINUOUS
 10
262.4636862929
 20
151.2220236553
 40
38.5
100
AcDbArc
 50
110.1395710313
 51
166.5692318599
  0
ARC
  5
31A
100
AcDbEntity
  8
0
100
AcDbCircle
 62
7
  6
CONTINUOUS
 10
262.4636862929
 20
151.2220236553
 40
38.5
100
AcDbArc
 50
13.4307681401
 51
69.8604289687
  0
ARC
  5
31B
100
AcDbEntity
  8
0
100
AcDbCircle
 62
7
  6
CONTINUOUS
 10
262.4636862929
 20
151.2220236553
 40
14.0
100
AcDbArc
 50
10.0
 51
18.7161397767
  0
ARC
  5
31C
100
AcDbEntity
  8
0
100
AcDbCircle
 62
7
  6
CONTINUOUS
 10
262.4636862929
 20
151.2220236553
 40
14.0
100
AcDbArc
 50
161.2838602233
 51
170.0
  0
ARC
  5
31D
100
AcDbEntity
  8
RUNDUNGEN
100
AcDbCircle
 62
7
  6
CONTINUOUS
 10
262.7136862929
 20
151.2220236553
 40
13.0
100
AcDbArc
 50
269.9999939885
 51
0.0000061447
  0
ARC
  5
31E
100
AcDbEntity
  8
BEZUGSACHSEN
100
AcDbCircle
 62
7
  6
CONTINUOUS
 10
262.2136862929
 20
151.2220236553
 40
13.0
100
AcDbArc
 50
179.9999938553
 51
270.0000060115
  0
ARC
  5
31F
100
AcDbEntity
  8
BEZUGSACHSEN
100
AcDbCircle
 62
7
  6
CONTINUOUS
 10
255.2136862929
 20
281.2220237553
 40
6.0
100
AcDbArc
 50
90.0
 51
180.0
  0
ARC
  5
320
100
AcDbEntity
  8
BEZUGSACHSEN
100
AcDbCircle
 62
7
  6
CONTINUOUS
 10
269.7136862929
 20
281.2220237553
 40
6.0
100
AcDbArc
 50
0.0
 51
90.0
  0
ARC
  5
321
100
AcDbEntity
  8
BEZUGSACHSEN
100
AcDbCircle
 62
7
  6
CONTINUOUS
 10
192.5082252908
 20
77.28
 40
6.0
100
AcDbArc
 50
0.0
 51
90.0
  0
ARC
  5
322
100
AcDbEntity
  8
BEZUGSACHSEN
100
AcDbCircle
 62
7
  6
CONTINUOUS
 10
84.5082250908
 20
77.28
 40
6.0
100
AcDbArc
 50
90.0
 51
180.0
  0
ARC
  5
323
100
AcDbEntity
  8
BEZUGSACHSEN
100
AcDbCircle
 62
7
  6
CONTINUOUS
 10
192.5082252908
 20
62.78
 40
6.0
100
AcDbArc
 50
270.0
 51
360.0
  0
ARC
  5
324
100
AcDbEntity
  8
RUNDUNGEN
100
AcDbCircle
 62
7
  6
CONTINUOUS
 10
84.5082250908
 20
62.78
 40
6.0
100
AcDbArc
 50
180.0
 51
270.0
  0
SPLINE
  5
325
100
AcDbEntity
  8
0
100
AcDbSpline
 62
7
  6
CONTINUOUS
 70
0
 71
3
 72
11
 73
7
 74
0
 42
0.0000001
 43
0.0000001
 44
0.0000000001
 40
0.0
 40
0.0
 40
0.0
 40
0.0
 40
0.2322069841
 40
0.4998887607
 40
0.767627782
 40
1.0
 40
1.0
 40
1.0
 40
1.0
 10
162.2358418282
 20
190.1733786216
 30
0.0
 10
161.8741353217
 20
190.1896348651
 30
0.0
 10
161.0946495207
 20
190.2044367651
 30
0.0
 10
159.8977482875
 20
190.2097239643
 30
0.0
 10
158.7005888202
 20
190.204472401
 30
0.0
 10
157.9207562092
 20
190.1897212582
 30
0.0
 10
157.5587896155
 20
190.1735137245
 30
0.0
  0
SPLINE
  5
326
100
AcDbEntity
  8
0
100
AcDbSpline
 62
7
  6
CONTINUOUS
 70
0
 71
3
 72
33
 73
29
 74
0
 42
0.0000001
 43
0.0000001
 44
0.0000000001
 40
0.0
 40
0.0
 40
0.0
 40
0.0
 40
0.0010930904
 40
0.0031438556
 40
0.010641691
 40
0.0227519119
 40
0.0394086619
 40
0.060455158
 40
0.0856980553
 40
0.1149002678
 40
0.1477797076
 40
0.2233057372
 40
0.3094154405
 40
0.4028386758
 40
0.4999962714
 40
0.597154022
 40
0.6905776866
 40
0.7766880681
 40
0.8522150746
 40
0.8850950717
 40
0.9142978762
 40
0.9395414181
 40
0.9605886076
 40
0.9772460841
 40
0.9893570316
 40
0.9968555793
 40
0.9989066803
 40
1.0
 40
1.0
 40
1.0
 40
1.0
 10
157.4458482829
 20
190.1968762594
 30
0.0
 10
157.4458468517
 20
190.1950820615
 30
0.0
 10
157.4500114836
 20
190.1907924728
 30
0.0
 10
157.4655002034
 20
190.1838650674
 30
0.0
 10
157.5004302239
 20
190.1743700016
 30
0.0
 10
157.5585694869
 20
190.1631277199
 30
0.0
 10
157.6395034225
 20
190.1504781756
 30
0.0
 10
157.7419036144
 20
190.1370764693
 30
0.0
 10
157.8650558708
 20
190.1231633125
 30
0.0
 10
158.007698765
 20
190.1091195849
 30
0.0
 10
158.2327456115
 20
190.0897780625
 30
0.0
 10
158.5513023711
 20
190.0679688157
 30
0.0
 10
158.9694914263
 20
190.047703286
 30
0.0
 10
159.4234897397
 20
190.0345523865
 30
0.0
 10
159.8957913149
 20
190.0299916768
 30
0.0
 10
160.3680936018
 20
190.034551673
 30
0.0
 10
160.822094007
 20
190.0477019329
 30
0.0
 10
161.2402865113
 20
190.0679669837
 30
0.0
 10
161.5588469283
 20
190.089775965
 30
0.0
 10
161.7838972892
 20
190.1091173581
 30
0.0
 10
161.9265431406
 20
190.1231610834
 30
0.0
 10
162.0496985858
 20
190.1370742721
 30
0.0
 10
162.1521021607
 20
190.1504761446
 30
0.0
 10
162.2330396893
 20
190.1631257069
 30
0.0
 10
162.2911823959
 20
190.1743685403
 30
0.0
 10
162.3261156261
 20
190.1838632155
 30
0.0
 10
162.3416062477
 20
190.1907913423
 30
0.0
 10
162.3457724494
 20
190.1950802856
 30
0.0
 10
162.3457718058
 20
190.1968748603
 30
0.0
  0
SPLINE
  5
327
100
AcDbEntity
  8
0
100
AcDbSpline
 62
7
  6
CONTINUOUS
 70
0
 71
3
 72
14
 73
10
 74
0
 42
0.0000001
 43
0.0000001
 44
0.0000000001
 40
0.0
 40
0.0
 40
0.0
 40
0.0
 40
0.0158275477
 40
0.0629295013
 40
0.1413537992
 40
0.2511071872
 40
0.3921376958
 40
0.5641775666
 40
1.0
 40
1.0
 40
1.0
 40
1.0
 10
122.2081950338
 20
190.2219458191
 30
0.0
 10
122.2081960126
 20
190.2215770418
 30
0.0
 10
122.2058631127
 20
190.2220943384
 30
0.0
 10
122.2034189993
 20
190.2212103267
 30
0.0
 10
122.1974697364
 20
190.2212251146
 30
0.0
 10
122.1900237006
 20
190.2206161573
 30
0.0
 10
122.1801051262
 20
190.2201342183
 30
0.0
 10
122.1627201908
 20
190.2191806535
 30
0.0
 10
122.1485568401
 20
190.2184856378
 30
0.0
 10
122.1384144414
 20
190.217988562
 30
0.0
  0
SPLINE
  5
328
100
AcDbEntity
  8
0
100
AcDbSpline
 62
7
  6
CONTINUOUS
 70
0
 71
3
 72
9
 73
5
 74
0
 42
0.0000001
 43
0.0000001
 44
0.0000000001
 40
0.0
 40
0.0
 40
0.0
 40
0.0
 40
0.3754926219
 40
1.0
 40
1.0
 40
1.0
 40
1.0
 10
122.1384144414
 20
190.217988562
 30
0.0
 10
121.9314259698
 20
190.2078441214
 30
0.0
 10
121.3798235103
 20
190.1883548889
 30
0.0
 10
120.8278950247
 20
190.180463049
 30
0.0
 10
120.4832251908
 20
190.180463049
 30
0.0
  0
SPLINE
  5
329
100
AcDbEntity
  8
0
100
AcDbSpline
 62
7
  6
CONTINUOUS
 70
0
 71
3
 72
22
 73
18
 74
0
 42
0.0000001
 43
0.0000001
 44
0.0000000001
 40
0.0
 40
0.0
 40
0.0
 40
0.0
 40
0.0088829254
 40
0.0187565758
 40
0.0305160266
 40
0.0446856497
 40
0.081112712
 40
0.1286864219
 40
0.1868289307
 40
0.2543349639
 40
0.3295722698
 40
0.4105944648
 40
0.5811592285
 40
0.7475738429
 40
0.8919662138
 40
0.9512243023
 40
1.0
 40
1.0
 40
1.0
 40
1.0
 10
115.1882251908
 20
189.3874448504
 30
0.0
 10
115.1882251908
 20
189.4024158606
 30
0.0
 10
115.1948046228
 20
189.4342913309
 30
0.0
 10
115.2230305728
 20
189.4782436332
 30
0.0
 10
115.2679018924
 20
189.5192611012
 30
0.0
 10
115.3571545716
 20
189.5754347862
 30
0.0
 10
115.5123237616
 20
189.6359424214
 30
0.0
 10
115.7445453612
 20
189.6953934578
 30
0.0
 10
116.0324448185
 20
189.7454176218
 30
0.0
 10
116.3686944108
 20
189.7856718621
 30
0.0
 10
116.7446907373
 20
189.8159177015
 30
0.0
 10
117.2948817575
 20
189.8433192157
 30
0.0
 10
117.9996373233
 20
189.8517394143
 30
0.0
 10
118.8106499831
 20
189.8254673549
 30
0.0
 10
119.4327925996
 20
189.7713133542
 30
0.0
 10
119.8526065355
 20
189.7013597587
 30
0.0
 10
120.0298529487
 20
189.6581166919
 30
0.0
 10
120.1082251908
 20
189.6333081357
 30
0.0
  0
SPLINE
  5
32A
100
AcDbEntity
  8
0
100
AcDbSpline
 62
7
  6
CONTINUOUS
 70
0
 71
3
 72
33
 73
29
 74
0
 42
0.0000001
 43
0.0000001
 44
0.0000000001
 40
0.0
 40
0.0
 40
0.0
 40
0.0
 40
0.0011259815
 40
0.0032175179
 40
0.0107982854
 40
0.022989415
 40
0.0397166153
 40
0.0608212654
 40
0.0861071151
 40
0.1153304257
 40
0.148214508
 40
0.2236899898
 40
0.309698719
 40
0.4029941594
 40
0.5000184884
 40
0.5970420963
 40
0.6903353964
 40
0.7763406422
 40
0.8518114044
 40
0.884692727
 40
0.9139130195
 40
0.9391956656
 40
0.9602969209
 40
0.9770206054
 40
0.9892081365
 40
0.9967853487
 40
0.998875199
 40
1.0
 40
1.0
 40
1.0
 40
1.0
 10
156.3958512077
 20
189.6964670114
 30
0.0
 10
156.3959026095
 20
189.6938231723
 30
0.0
 10
156.4019092464
 20
189.6875691774
 30
0.0
 10
156.4241040062
 20
189.6768242914
 30
0.0
 10
156.4741671284
 20
189.661812917
 30
0.0
 10
156.5574033681
 20
189.6432627163
 30
0.0
 10
156.673161464
 20
189.6219892535
 30
0.0
 10
156.8195264525
 20
189.59896105
 30
0.0
 10
156.9954729699
 20
189.5746918687
 30
0.0
 10
157.1992069544
 20
189.5498766196
 30
0.0
 10
157.5204801765
 20
189.5153571917
 30
0.0
 10
157.9752910297
 20
189.4758702265
 30
0.0
 10
158.5725419862
 20
189.438770827
 30
0.0
 10
159.2211067909
 20
189.4145177488
 30
0.0
 10
159.8959433719
 20
189.4060833366
 30
0.0
 10
160.5707748429
 20
189.4145243115
 30
0.0
 10
161.2193245197
 20
189.4387831424
 30
0.0
 10
161.8165508695
 20
189.4758868094
 30
0.0
 10
162.2713356909
 20
189.515375967
 30
0.0
 10
162.5925840302
 20
189.5498962
 30
0.0
 10
162.7962967986
 20
189.5747112243
 30
0.0
 10
162.9722205858
 20
189.5989798352
 30
0.0
 10
163.1185618154
 20
189.622006434
 30
0.0
 10
163.2342948921
 20
189.6432791455
 30
0.0
 10
163.3175065886
 20
189.661824998
 30
0.0
 10
163.3675474554
 20
189.6768381317
 30
0.0
 10
163.3897279822
 20
189.6875777647
 30
0.0
 10
163.3957238905
 20
189.6938357263
 30
0.0
 10
163.3957696119
 20
189.6964768969
 30
0.0
  0
SPLINE
  5
32B
100
AcDbEntity
  8
0
100
AcDbSpline
 62
7
  6
CONTINUOUS
 70
0
 71
3
 72
19
 73
15
 74
0
 42
0.0000001
 43
0.0000001
 44
0.0000000001
 40
0.0
 40
0.0
 40
0.0
 40
0.0
 40
0.0526343174
 40
0.0991996947
 40
0.1597419835
 40
0.2327491934
 40
0.315887366
 40
0.4999968099
 40
0.6841100041
 40
0.7672463075
 40
0.8402540923
 40
0.9007984988
 40
0.9473647801
 40
1.0
 40
1.0
 40
1.0
 40
1.0
 10
116.6882251908
 20
188.8111760133
 30
0.0
 10
116.6882251908
 20
188.8526166896
 30
0.0
 10
116.7705701869
 20
188.9084573643
 30
0.0
 10
116.8826697815
 20
188.9476870991
 30
0.0
 10
117.0230574894
 20
188.9818971433
 30
0.0
 10
117.1908778312
 20
189.0081873451
 30
0.0
 10
117.4578120062
 20
189.0355591765
 30
0.0
 10
117.8132205897
 20
189.0477629116
 30
0.0
 10
118.1686277155
 20
189.0355600763
 30
0.0
 10
118.4355639239
 20
189.0081888246
 30
0.0
 10
118.603384779
 20
188.9818980177
 30
0.0
 10
118.7437757023
 20
188.9476888108
 30
0.0
 10
118.8558782118
 20
188.9084587426
 30
0.0
 10
118.9382251908
 20
188.8526174003
 30
0.0
 10
118.9382251908
 20
188.8111760133
 30
0.0
  0
SPLINE
  5
32C
100
AcDbEntity
  8
0
100
AcDbSpline
 62
7
  6
CONTINUOUS
 70
0
 71
3
 72
14
 73
10
 74
0
 42
0.0000001
 43
0.0000001
 44
0.0000000001
 40
0.0
 40
0.0
 40
0.0
 40
0.0
 40
0.0681157877
 40
0.1356870415
 40
0.2673162885
 40
0.3946458075
 40
0.5186641021
 40
0.7605644731
 40
1.0
 40
1.0
 40
1.0
 40
1.0
 10
163.5082251908
 20
160.1644285076
 30
0.0
 10
163.7311443427
 20
160.1644285076
 30
0.0
 10
164.1762234512
 20
160.1249998072
 30
0.0
 10
165.0249335389
 20
159.8986878846
 30
0.0
 10
165.9764093963
 20
159.3734303433
 30
0.0
 10
166.8770203424
 20
158.4845614461
 30
0.0
 10
167.7584521635
 20
157.1204118037
 30
0.0
 10
168.3800831829
 20
155.2071220217
 30
0.0
 10
168.5082251908
 20
153.6275881315
 30
0.0
 10
168.5082251908
 20
152.8439993865
 30
0.0
  0
SPLINE
  5
32D
100
AcDbEntity
  8
0
100
AcDbSpline
 62
7
  6
CONTINUOUS
 70
0
 71
3
 72
14
 73
10
 74
0
 42
0.0000001
 43
0.0000001
 44
0.0000000001
 40
0.0
 40
0.0
 40
0.0
 40
0.0
 40
0.239433434
 40
0.4813301462
 40
0.6053487559
 40
0.7326793527
 40
0.8643110136
 40
0.931883786
 40
1.0
 40
1.0
 40
1.0
 40
1.0
 10
108.5082251908
 20
152.8439993865
 30
0.0
 10
108.5082251908
 20
153.6275811476
 30
0.0
 10
108.6363653542
 20
155.2070961152
 30
0.0
 10
109.2579844347
 20
157.1203683204
 30
0.0
 10
110.1393973604
 20
158.484520899
 30
0.0
 10
111.0400096038
 20
159.3734060955
 30
0.0
 10
111.9914960814
 20
159.8986797282
 30
0.0
 10
112.8402194287
 20
160.1249971648
 30
0.0
 10
113.2853046822
 20
160.1644285076
 30
0.0
 10
113.5082251908
 20
160.1644285076
 30
0.0
  0
SPLINE
  5
32E
100
AcDbEntity
  8
0
100
AcDbSpline
 62
7
  6
CONTINUOUS
 70
0
 71
3
 72
23
 73
19
 74
0
 42
0.0000001
 43
0.0000001
 44
0.0000000001
 40
0.0
 40
0.0
 40
0.0
 40
0.0
 40
0.0216419362
 40
0.0362123123
 40
0.0540970015
 40
0.1004632379
 40
0.160801365
 40
0.2335878538
 40
0.3164560794
 40
0.4999999213
 40
0.6835439693
 40
0.7664120663
 40
0.8391984796
 40
0.8995368045
 40
0.945902994
 40
0.9637876186
 40
0.9783579997
 40
1.0
 40
1.0
 40
1.0
 40
1.0
 10
118.9382251908
 20
189.3231309226
 30
0.0
 10
118.9382251908
 20
189.3402186862
 30
0.0
 10
118.9224879262
 20
189.368006229
 30
0.0
 10
118.8893400528
 20
189.3945071919
 30
0.0
 10
118.8350392872
 20
189.4256696448
 30
0.0
 10
118.7419157349
 20
189.4587520405
 30
0.0
 10
118.6038593238
 20
189.4912837655
 30
0.0
 10
118.4352215546
 20
189.5176241631
 30
0.0
 10
118.1686624176
 20
189.5444578328
 30
0.0
 10
117.813225235
 20
189.5565964876
 30
0.0
 10
117.457788164
 20
189.5444577856
 30
0.0
 10
117.1912290092
 20
189.5176242593
 30
0.0
 10
117.0225912598
 20
189.4912837418
 30
0.0
 10
116.8845347982
 20
189.4587520267
 30
0.0
 10
116.7914111092
 20
189.4256697947
 30
0.0
 10
116.7371104528
 20
189.394507282
 30
0.0
 10
116.7039626832
 20
189.3680062375
 30
0.0
 10
116.6882251908
 20
189.3402187368
 30
0.0
 10
116.6882251908
 20
189.3231309226
 30
0.0
  0
SPLINE
  5
32F
100
AcDbEntity
  8
0
100
AcDbSpline
 62
7
  6
CONTINUOUS
 70
0
 71
3
 72
9
 73
5
 74
0
 42
0.0000001
 43
0.0000001
 44
0.0000000001
 40
0.0
 40
0.0
 40
0.0
 40
0.0
 40
0.3068795402
 40
1.0
 40
1.0
 40
1.0
 40
1.0
 10
162.3457718058
 20
190.1968748603
 30
0.0
 10
162.3457707745
 20
190.1997509204
 30
0.0
 10
162.335149139
 20
190.2053586899
 30
0.0
 10
162.3270668947
 20
190.2066949351
 30
0.0
 10
162.3206812207
 20
190.2078864776
 30
0.0
  0
SPLINE
  5
330
100
AcDbEntity
  8
0
100
AcDbSpline
 62
7
  6
CONTINUOUS
 70
0
 71
3
 72
13
 73
9
 74
0
 42
0.0000001
 43
0.0000001
 44
0.0000000001
 40
0.0
 40
0.0
 40
0.0
 40
0.0
 40
0.3733002868
 40
0.665625364
 40
0.7781450305
 40
0.8686663761
 40
0.9401736905
 40
1.0
 40
1.0
 40
1.0
 40
1.0
 10
120.9332251908
 20
189.210555422
 30
0.0
 10
120.8595068503
 20
189.2006687174
 30
0.0
 10
120.7287087531
 20
189.1781754597
 30
0.0
 10
120.5789399062
 20
189.1350210473
 30
0.0
 10
120.4898063041
 20
189.0919754237
 30
0.0
 10
120.4447852094
 20
189.0603246604
 30
0.0
 10
120.4156489224
 20
189.0260452974
 30
0.0
 10
120.4082251908
 20
188.9997086915
 30
0.0
 10
120.4082251908
 20
188.9877885751
 30
0.0
  0
SPLINE
  5
331
100
AcDbEntity
  8
0
100
AcDbSpline
 62
7
  6
CONTINUOUS
 70
0
 71
3
 72
23
 73
19
 74
0
 42
0.0000001
 43
0.0000001
 44
0.0000000001
 40
0.0
 40
0.0
 40
0.0
 40
0.0
 40
0.2168582091
 40
0.4131907805
 40
0.5856117442
 40
0.6618824884
 40
0.7310858557
 40
0.7929138068
 40
0.8470669337
 40
0.8933164513
 40
0.9314667333
 40
0.9613233896
 40
0.9730930721
 40
0.9827441259
 40
0.9902681699
 40
0.9956569196
 40
0.9989024467
 40
1.0
 40
1.0
 40
1.0
 40
1.0
 10
122.2149319577
 20
190.0949868956
 30
0.0
 10
122.3447679826
 20
190.1009149029
 30
0.0
 10
122.5920954645
 20
190.1134723594
 30
0.0
 10
122.9424347229
 20
190.134736456
 30
0.0
 10
123.2085133653
 20
190.1532683013
 30
0.0
 10
123.3984948272
 20
190.167675206
 30
0.0
 10
123.5223471823
 20
190.1775323704
 30
0.0
 10
123.6329548957
 20
190.186723221
 30
0.0
 10
123.729823644
 20
190.1950842211
 30
0.0
 10
123.8125406184
 20
190.2024741133
 30
0.0
 10
123.8807082487
 20
190.2088023261
 30
0.0
 10
123.9283470871
 20
190.2133316375
 30
0.0
 10
123.9588631679
 20
190.2164080668
 30
0.0
 10
123.9762623899
 20
190.2180641445
 30
0.0
 10
123.989346593
 20
190.2197461759
 30
0.0
 10
123.999798105
 20
190.2202306621
 30
0.0
 10
124.0041285864
 20
190.2219905309
 30
0.0
 10
124.0082250772
 20
190.2212937348
 30
0.0
 10
124.0082251908
 20
190.2219515398
 30
0.0
  0
SPLINE
  5
332
100
AcDbEntity
  8
0
100
AcDbSpline
 62
7
  6
CONTINUOUS
 70
0
 71
3
 72
9
 73
5
 74
0
 42
0.0000001
 43
0.0000001
 44
0.0000000001
 40
0.0
 40
0.0
 40
0.0
 40
0.0
 40
0.6930925743
 40
1.0
 40
1.0
 40
1.0
 40
1.0
 10
157.4709389595
 20
190.2078864776
 30
0.0
 10
157.4645537581
 20
190.2066950233
 30
0.0
 10
157.4564714476
 20
190.2053577744
 30
0.0
 10
157.4458505772
 20
190.1997524829
 30
0.0
 10
157.4458482829
 20
190.1968762594
 30
0.0
  0
SPLINE
  5
333
100
AcDbEntity
  8
0
100
AcDbSpline
 62
7
  6
CONTINUOUS
 70
0
 71
3
 72
17
 73
13
 74
0
 42
0.0000001
 43
0.0000001
 44
0.0000000001
 40
0.0
 40
0.0
 40
0.0
 40
0.0
 40
0.0072328229
 40
0.0211823865
 40
0.0428576958
 40
0.0724093556
 40
0.1550175972
 40
0.2683849413
 40
0.4112540957
 40
0.5821169994
 40
0.7790637388
 40
1.0
 40
1.0
 40
1.0
 40
1.0
 10
163.3957693014
 20
190.1968568213
 30
0.0
 10
163.3957519234
 20
190.1940060315
 30
0.0
 10
163.3887105471
 20
190.1872884718
 30
0.0
 10
163.3739362055
 20
190.1806091792
 30
0.0
 10
163.3493651925
 20
190.1718998919
 30
0.0
 10
163.298614656
 20
190.1581585811
 30
0.0
 10
163.2114560015
 20
190.1397475588
 30
0.0
 10
163.0799263015
 20
190.1168980115
 30
0.0
 10
162.9133741531
 20
190.0921320064
 30
0.0
 10
162.7137602922
 20
190.066244561
 30
0.0
 10
162.4831762311
 20
190.0400426375
 30
0.0
 10
162.3192637986
 20
190.0237975054
 30
0.0
 10
162.232551987
 20
190.0157677342
 30
0.0
  0
SPLINE
  5
334
100
AcDbEntity
  8
0
100
AcDbSpline
 62
7
  6
CONTINUOUS
 70
0
 71
3
 72
11
 73
7
 74
0
 42
0.0000001
 43
0.0000001
 44
0.0000000001
 40
0.0
 40
0.0
 40
0.0
 40
0.0
 40
0.2323944276
 40
0.5000023168
 40
0.7676090145
 40
1.0
 40
1.0
 40
1.0
 40
1.0
 10
162.232551987
 20
190.0157677342
 30
0.0
 10
161.8716177186
 20
189.9823441495
 30
0.0
 10
161.0931378062
 20
189.9305711934
 30
0.0
 10
159.8957687943
 20
189.9035619593
 30
0.0
 10
158.6984052365
 20
189.9305746932
 30
0.0
 10
157.9199326874
 20
189.9823494367
 30
0.0
 10
157.5590038728
 20
190.01577369
 30
0.0
  0
SPLINE
  5
335
100
AcDbEntity
  8
0
100
AcDbSpline
 62
7
  6
CONTINUOUS
 70
0
 71
3
 72
17
 73
13
 74
0
 42
0.0000001
 43
0.0000001
 44
0.0000000001
 40
0.0
 40
0.0
 40
0.0
 40
0.0
 40
0.2209397377
 40
0.4178888337
 40
0.5887530149
 40
0.7316224087
 40
0.844989002
 40
0.9275955724
 40
0.957146091
 40
0.9788200945
 40
0.9927682298
 40
1.0
 40
1.0
 40
1.0
 40
1.0
 10
157.5590038728
 20
190.01577369
 30
0.0
 10
157.4722953464
 20
190.0238034389
 30
0.0
 10
157.3083894179
 20
190.0400484525
 30
0.0
 10
157.0778149519
 20
190.0662500385
 30
0.0
 10
156.8782103077
 20
190.0921369749
 30
0.0
 10
156.7116668424
 20
190.1169023797
 30
0.0
 10
156.5801451037
 20
190.139751162
 30
0.0
 10
156.4929926368
 20
190.1581617075
 30
0.0
 10
156.4422465046
 20
190.1719023713
 30
0.0
 10
156.4176785523
 20
190.180611623
 30
0.0
 10
156.4029064015
 20
190.1872899433
 30
0.0
 10
156.3958671385
 20
190.1940082258
 30
0.0
 10
156.3958507971
 20
190.1968584548
 30
0.0
  0
SPLINE
  5
336
100
AcDbEntity
  8
0
100
AcDbSpline
 62
7
  6
CONTINUOUS
 70
0
 71
3
 72
15
 73
11
 74
0
 42
0.0000001
 43
0.0000001
 44
0.0000000001
 40
0.0
 40
0.0
 40
0.0
 40
0.0
 40
0.089940515
 40
0.1819833039
 40
0.2792272684
 40
0.3859786508
 40
0.5076268686
 40
0.6498667466
 40
0.8158958069
 40
1.0
 40
1.0
 40
1.0
 40
1.0
 10
108.5082251908
 20
36.5692887893
 30
0.0
 10
108.5082251908
 20
36.3554269973
 30
0.0
 10
108.5412829222
 20
35.921701598
 30
0.0
 10
108.7092779492
 20
35.27536654
 30
0.0
 10
109.0207206382
 20
34.6383873688
 30
0.0
 10
109.5043972711
 20
34.0260616114
 30
0.0
 10
110.1908938231
 20
33.4629507407
 30
0.0
 10
111.1042912904
 20
32.9883725043
 30
0.0
 10
112.2355366888
 20
32.6606715822
 30
0.0
 10
113.0704597115
 20
32.5829254086
 30
0.0
 10
113.5082251908
 20
32.5829254086
 30
0.0
  0
SPLINE
  5
337
100
AcDbEntity
  8
KONSTRUKTIONSELEMENTE
100
AcDbSpline
 62
7
  6
CONTINUOUS
 70
0
 71
3
 72
15
 73
11
 74
0
 42
0.0000001
 43
0.0000001
 44
0.0000000001
 40
0.0
 40
0.0
 40
0.0
 40
0.0
 40
0.089940515
 40
0.1819833039
 40
0.2792272684
 40
0.3859786508
 40
0.5076268686
 40
0.6498667466
 40
0.8158958069
 40
1.0
 40
1.0
 40
1.0
 40
1.0
 10
108.5082251908
 20
103.4907112107
 30
0.0
 10
108.5082251908
 20
103.7045730027
 30
0.0
 10
108.5412829222
 20
104.138298402
 30
0.0
 10
108.7092779492
 20
104.78463346
 30
0.0
 10
109.0207206382
 20
105.4216126312
 30
0.0
 10
109.5043972711
 20
106.0339383886
 30
0.0
 10
110.1908938231
 20
106.5970492593
 30
0.0
 10
111.1042912904
 20
107.0716274957
 30
0.0
 10
112.2355366888
 20
107.3993284178
 30
0.0
 10
113.0704597115
 20
107.4770745914
 30
0.0
 10
113.5082251908
 20
107.4770745914
 30
0.0
  0
SPLINE
  5
338
100
AcDbEntity
  8
0
100
AcDbSpline
 62
7
  6
CONTINUOUS
 70
0
 71
3
 72
15
 73
11
 74
0
 42
0.0000001
 43
0.0000001
 44
0.0000000001
 40
0.0
 40
0.0
 40
0.0
 40
0.0
 40
0.1841016268
 40
0.3501280561
 40
0.4923674128
 40
0.6140160815
 40
0.7207695092
 40
0.8180150964
 40
0.9100590025
 40
1.0
 40
1.0
 40
1.0
 40
1.0
 10
163.5082251908
 20
32.5829254086
 30
0.0
 10
163.9459846699
 20
32.5829254086
 30
0.0
 10
164.7808954881
 20
32.6606683969
 30
0.0
 10
165.9121293046
 20
32.9883605354
 30
0.0
 10
166.8255243065
 20
33.4629295526
 30
0.0
 10
167.5120305992
 20
34.026035907
 30
0.0
 10
167.9957203726
 20
34.6383646053
 30
0.0
 10
168.30716935
 20
35.2753539808
 30
0.0
 10
168.4751666797
 20
35.9216965091
 30
0.0
 10
168.5082251908
 20
36.3554258003
 30
0.0
 10
168.5082251908
 20
36.5692887893
 30
0.0
  0
SPLINE
  5
339
100
AcDbEntity
  8
KONSTRUKTIONSELEMENTE
100
AcDbSpline
 62
7
  6
CONTINUOUS
 70
0
 71
3
 72
15
 73
11
 74
0
 42
0.0000001
 43
0.0000001
 44
0.0000000001
 40
0.0
 40
0.0
 40
0.0
 40
0.0
 40
0.1841016268
 40
0.3501280561
 40
0.4923674128
 40
0.6140160815
 40
0.7207695092
 40
0.8180150964
 40
0.9100590025
 40
1.0
 40
1.0
 40
1.0
 40
1.0
 10
163.5082251908
 20
107.4770745914
 30
0.0
 10
163.9459846699
 20
107.4770745914
 30
0.0
 10
164.7808954881
 20
107.3993316031
 30
0.0
 10
165.9121293046
 20
107.0716394646
 30
0.0
 10
166.8255243065
 20
106.5970704474
 30
0.0
 10
167.5120305992
 20
106.033964093
 30
0.0
 10
167.9957203726
 20
105.4216353947
 30
0.0
 10
168.30716935
 20
104.7846460192
 30
0.0
 10
168.4751666797
 20
104.1383034909
 30
0.0
 10
168.5082251908
 20
103.7045741997
 30
0.0
 10
168.5082251908
 20
103.4907112107
 30
0.0
  0
ELLIPSE
  5
33A
100
AcDbEntity
  8
0
100
AcDbEllipse
 62
7
  6
CONTINUOUS
 10
155.5082251908
 20
144.0628029966
 30
0.0
 11
0.0
 21
18.3117050706
 31
0.0
 40
0.7099284283
 41
-1.9243876641
 42
-1.5707963268
  0
ELLIPSE
  5
33B
100
AcDbEntity
  8
0
100
AcDbEllipse
 62
7
  6
CONTINUOUS
 10
165.5959929206
 20
151.2220236553
 30
0.0
 11
238.9782948908
 21
0.0
 31
0.0
 40
0.1631947371
 41
1.638133523
 42
1.6432207407
  0
ELLIPSE
  5
33C
100
AcDbEntity
  8
0
100
AcDbEllipse
 62
7
  6
CONTINUOUS
 10
153.5360235696
 20
151.2220236553
 30
0.0
 11
59.7446949469
 21
0.0
 31
0.0
 40
0.6527776238
 41
1.6178008132
 42
1.638133523
  0
ELLIPSE
  5
33D
100
AcDbEntity
  8
0
100
AcDbEllipse
 62
7
  6
CONTINUOUS
 10
151.9764482905
 20
151.2220236553
 30
0.0
 11
-0.0
 21
39.0
 31
0.0
 40
0.6808509827
 41
0.0317681637
 42
0.0470044864
  0
ELLIPSE
  5
33E
100
AcDbEntity
  8
0
100
AcDbEllipse
 62
7
  6
CONTINUOUS
 10
151.3860653339
 20
151.2220236553
 30
0.0
 11
0.0
 21
39.0
 31
0.0
 40
0.2042552558
 41
0.0063889275
 42
0.0317681637
  0
ELLIPSE
  5
33F
100
AcDbEntity
  8
0
100
AcDbEllipse
 62
7
  6
CONTINUOUS
 10
151.6371574223
 20
151.2220236553
 30
0.0
 11
0.0
 21
39.0
 31
0.0
 40
0.6808509827
 41
0.0189861785
 42
0.0342160728
  0
ELLIPSE
  5
340
100
AcDbEntity
  8
0
100
AcDbEllipse
 62
7
  6
CONTINUOUS
 10
152.772618845
 20
151.2220236553
 30
0.0
 11
59.7446949469
 21
-0.0
 31
0.0
 40
0.6527776238
 41
1.6050123996
 42
1.6253318927
  0
ELLIPSE
  5
341
100
AcDbEntity
  8
0
100
AcDbEllipse
 62
7
  6
CONTINUOUS
 10
162.5423802182
 20
151.2220236553
 30
0.0
 11
238.9782948908
 21
-0.0
 31
0.0
 40
0.1631947371
 41
1.6253318927
 42
1.6304149718
  0
ELLIPSE
  5
342
100
AcDbEntity
  8
0
100
AcDbEllipse
 62
7
  6
CONTINUOUS
 10
132.6492432862
 20
151.2220236553
 30
0.0
 11
238.978239101
 21
-0.0
 31
0.0
 40
0.1631947752
 41
1.5111776818
 42
1.5162607609
  0
ELLIPSE
  5
343
100
AcDbEntity
  8
0
100
AcDbEllipse
 62
7
  6
CONTINUOUS
 10
142.4190004779
 20
151.2220236553
 30
0.0
 11
59.7447158682
 21
0.0
 31
0.0
 40
0.6527773952
 41
1.5162607609
 42
1.536580254
  0
ELLIPSE
  5
344
100
AcDbEntity
  8
0
100
AcDbEllipse
 62
7
  6
CONTINUOUS
 10
143.5544626164
 20
151.2220236553
 30
0.0
 11
-0.0
 21
39.0
 31
0.0
 40
0.6808509827
 41
6.2489692343
 42
6.2641991286
  0
ELLIPSE
  5
345
100
AcDbEntity
  8
0
100
AcDbEllipse
 62
7
  6
CONTINUOUS
 10
143.8055547048
 20
151.2220236553
 30
0.0
 11
0.0
 21
39.0
 31
0.0
 40
0.2042552558
 41
-0.0317681637
 42
-0.0063889275
  0
ELLIPSE
  5
346
100
AcDbEntity
  8
0
100
AcDbEllipse
 62
7
  6
CONTINUOUS
 10
143.2151717482
 20
151.2220236553
 30
0.0
 11
0.0
 21
39.0
 31
0.0
 40
0.6808509827
 41
-0.0470044864
 42
-0.0317681637
  0
ELLIPSE
  5
347
100
AcDbEntity
  8
0
100
AcDbEllipse
 62
7
  6
CONTINUOUS
 10
141.655595486
 20
151.2220236553
 30
0.0
 11
59.7447158682
 21
0.0
 31
0.0
 40
0.6527773952
 41
1.5034591306
 42
1.5237918404
  0
ELLIPSE
  5
348
100
AcDbEntity
  8
0
100
AcDbEllipse
 62
7
  6
CONTINUOUS
 10
129.5956312966
 20
151.2220236553
 30
0.0
 11
238.978239101
 21
-0.0
 31
0.0
 40
0.1631947752
 41
1.4983719129
 42
1.5034591306
  0
ELLIPSE
  5
349
100
AcDbEntity
  8
0
100
AcDbEllipse
 62
7
  6
CONTINUOUS
 10
136.6198502467
 20
151.2220236553
 30
0.0
 11
46.4680981636
 21
0.0
 31
0.0
 40
0.8392854785
 41
1.3702234361
 42
1.4012024652
  0
ELLIPSE
  5
34A
100
AcDbEntity
  8
0
100
AcDbEllipse
 62
7
  6
CONTINUOUS
 10
155.5082251908
 20
144.6480970348
 30
0.0
 11
0.0
 21
15.0599270988
 31
0.0
 40
0.86321799
 41
-2.2904243985
 42
-2.0486798709
  0
ELLIPSE
  5
34B
100
AcDbEntity
  8
0
100
AcDbEllipse
 62
7
  6
CONTINUOUS
 10
121.5082251908
 20
144.0628029966
 30
0.0
 11
0.0
 21
18.3117050706
 31
0.0
 40
0.7099284283
 41
-4.7123889804
 42
-4.358797643
  0
ELLIPSE
  5
34C
100
AcDbEntity
  8
0
100
AcDbEllipse
 62
7
  6
CONTINUOUS
 10
121.5082251908
 20
144.6480970348
 30
0.0
 11
0.0
 21
15.0599270988
 31
0.0
 40
0.86321799
 41
-4.2345054363
 42
-3.9927609086
  0
ELLIPSE
  5
34D
100
AcDbEntity
  8
0
100
AcDbEllipse
 62
7
  6
CONTINUOUS
 10
181.5324823532
 20
151.2220236553
 30
0.0
 11
116.644380915
 21
0.0
 31
0.0
 40
0.334349582
 41
1.9692476558
 42
2.0477089162
  0
ELLIPSE
  5
34E
100
AcDbEntity
  8
0
100
AcDbEllipse
 62
7
  6
CONTINUOUS
 10
94.4682226266
 20
151.2220236553
 30
0.0
 11
117.0000069737
 21
-0.0
 31
0.0
 40
0.3333333135
 41
1.1942700569
 42
1.2802290889
  0
ELLIPSE
  5
34F
100
AcDbEntity
  8
0
100
AcDbEllipse
 62
7
  6
CONTINUOUS
 10
131.8009440226
 20
151.2220236553
 30
0.0
 11
67.5499814952
 21
0.0
 31
0.0
 40
0.5773502692
 41
1.6864160182
 42
1.744769895
  0
ELLIPSE
  5
350
100
AcDbEntity
  8
0
100
AcDbEllipse
 62
7
  6
CONTINUOUS
 10
91.0184361197
 20
151.2220236553
 30
0.0
 11
115.148940134
 21
-0.0
 31
0.0
 40
0.334349582
 41
1.1848846503
 42
1.2439471518
  0
ELLIPSE
  5
351
100
AcDbEntity
  8
0
100
AcDbEllipse
 62
7
  6
CONTINUOUS
 10
127.2224170627
 20
151.2220236553
 30
0.0
 11
199.1488174683
 21
-0.0
 31
0.0
 40
0.1958334501
 41
1.4729050125
 42
1.4780029598
  0
ELLIPSE
  5
352
100
AcDbEntity
  8
0
100
AcDbEllipse
 62
7
  6
CONTINUOUS
 10
134.6036789198
 20
151.2220236553
 30
0.0
 11
119.4894020608
 21
0.0
 31
0.0
 40
0.3263887786
 41
1.4780029598
 42
1.4830984896
  0
ELLIPSE
  5
353
100
AcDbEntity
  8
0
100
AcDbEllipse
 62
7
  6
CONTINUOUS
 10
138.0921921648
 20
151.2220236553
 30
0.0
 11
79.6595839642
 21
-0.0
 31
0.0
 40
0.489583275
 41
1.4830984896
 42
1.4932828314
  0
ELLIPSE
  5
354
100
AcDbEntity
  8
0
100
AcDbEllipse
 62
7
  6
CONTINUOUS
 10
141.176448587
 20
151.2220236553
 30
0.0
 11
39.829782486
 21
-0.0
 31
0.0
 40
0.9791667834
 41
1.4932828314
 42
1.508544589
  0
ELLIPSE
  5
355
100
AcDbEntity
  8
0
100
AcDbEllipse
 62
7
  6
CONTINUOUS
 10
142.1675976886
 20
151.2220236553
 30
0.0
 11
0.0
 21
39.0
 31
0.0
 40
0.6127657675
 41
-0.0622517378
 42
-0.0368459386
  0
ELLIPSE
  5
356
100
AcDbEntity
  8
0
100
AcDbEllipse
 62
7
  6
CONTINUOUS
 10
142.8033987798
 20
151.2220236553
 30
0.0
 11
0.0
 21
39.0
 31
0.0
 40
0.1702127457
 41
-0.0368459386
 42
-0.0063889275
  0
ELLIPSE
  5
357
100
AcDbEntity
  8
0
100
AcDbEllipse
 62
7
  6
CONTINUOUS
 10
185.2582234841
 20
151.2220236553
 30
0.0
 11
115.4999965578
 21
0.0
 31
0.0
 40
0.3333333433
 41
1.997193295
 42
2.0896029579
  0
ELLIPSE
  5
358
100
AcDbEntity
  8
0
100
AcDbEllipse
 62
7
  6
CONTINUOUS
 10
152.3882214042
 20
151.2220236553
 30
0.0
 11
-0.0
 21
39.0
 31
0.0
 40
0.1702127606
 41
0.0063889275
 42
0.0368459386
  0
ELLIPSE
  5
359
100
AcDbEntity
  8
0
100
AcDbEllipse
 62
7
  6
CONTINUOUS
 10
153.024022551
 20
151.2220236553
 30
0.0
 11
0.0
 21
39.0
 31
0.0
 40
0.6127658212
 41
0.0368459386
 42
0.0622517378
  0
ELLIPSE
  5
35A
100
AcDbEntity
  8
0
100
AcDbEllipse
 62
7
  6
CONTINUOUS
 10
154.0151718117
 20
151.2220236553
 30
0.0
 11
39.8297871351
 21
-0.0
 31
0.0
 40
0.9791666691
 41
1.6330480646
 42
1.6483098222
  0
ELLIPSE
  5
35B
100
AcDbEntity
  8
0
100
AcDbEllipse
 62
7
  6
CONTINUOUS
 10
157.0994289539
 20
151.2220236553
 30
0.0
 11
79.6595979117
 21
0.0
 31
0.0
 40
0.4895831892
 41
1.6483098222
 42
1.6584941639
  0
ELLIPSE
  5
35C
100
AcDbEntity
  8
0
100
AcDbEllipse
 62
7
  6
CONTINUOUS
 10
160.5879312045
 20
151.2220236553
 30
0.0
 11
119.489290481
 21
-0.0
 31
0.0
 40
0.3263890834
 41
1.6584941639
 42
1.6635896938
  0
ELLIPSE
  5
35D
100
AcDbEntity
  8
0
100
AcDbEllipse
 62
7
  6
CONTINUOUS
 10
167.9692085702
 20
151.2220236553
 30
0.0
 11
199.1488732582
 21
0.0
 31
0.0
 40
0.1958333952
 41
1.6635896938
 42
1.6686876411
  0
ELLIPSE
  5
35E
100
AcDbEntity
  8
0
100
AcDbEllipse
 62
7
  6
CONTINUOUS
 10
136.2176735819
 20
151.2220236553
 30
0.0
 11
66.6839560914
 21
-0.0
 31
0.0
 40
0.5773502692
 41
1.7549293097
 42
1.7970991056
  0
ELLIPSE
  5
35F
100
AcDbEntity
  8
0
100
AcDbEllipse
 62
7
  6
CONTINUOUS
 10
135.0028323017
 20
151.2220236553
 30
0.0
 11
46.468079567
 21
0.0
 31
0.0
 40
0.8392858143
 41
1.3702234361
 42
1.4012024652
  0
ELLIPSE
  5
360
100
AcDbEntity
  8
0
100
AcDbEllipse
 62
7
  6
CONTINUOUS
 10
135.0028323017
 20
151.2220236553
 30
0.0
 11
45.8723349571
 21
-0.0
 31
0.0
 40
0.8392858143
 41
1.3675823793
 42
1.39897816
  0
ELLIPSE
  5
361
100
AcDbEntity
  8
0
100
AcDbEllipse
 62
7
  6
CONTINUOUS
 10
185.2582234841
 20
151.2220236553
 30
0.0
 11
116.9999965131
 21
0.0
 31
0.0
 40
0.3333333433
 41
1.9913770058
 42
2.0822978928
  0
ELLIPSE
  5
362
100
AcDbEntity
  8
0
100
AcDbEllipse
 62
7
  6
CONTINUOUS
 10
91.0184361197
 20
151.2220236553
 30
0.0
 11
116.644380915
 21
-0.0
 31
0.0
 40
0.334349582
 41
1.1723449978
 42
1.2482902267
  0
ELLIPSE
  5
363
100
AcDbEntity
  8
0
100
AcDbEllipse
 62
7
  6
CONTINUOUS
 10
136.2176735819
 20
151.2220236553
 30
0.0
 11
67.5499814952
 21
0.0
 31
0.0
 40
0.5773502692
 41
1.7525421124
 42
1.7990416751
  0
ENDSEC
  0
SECTION
  2
OBJECTS
  0
DICTIONARY
  5
C
100
AcDbDictionary
280
0
281
1
  3
ACAD_GROUP
350
D
  3
ACAD_MLINESTYLE
350
17
  3
ACAD_LAYOUT
350
1A
  3
ACAD_PLOTSETTINGS
350
19
  3
ACAD_PLOTSTYLENAME
350
E
  0
DICTIONARY
  5
D
102
{ACAD_REACTORS
330
C
102
}
100
AcDbDictionary
280
0
281
1
  0
ACDBDICTIONARYWDFLT
  5
E
102
{ACAD_REACTORS
330
C
102
}
100
AcDbDictionary
281
1
  3
Normal
350
F
100
AcDbDictionaryWithDefault
340
F
  0
DICTIONARY
  5
17
102
{ACAD_REACTORS
330
C
102
}
100
AcDbDictionary
280
0
281
1
  3
Standard
350
18
  0
DICTIONARY
  5
19
102
{ACAD_REACTORS
330
C
102
}
100
AcDbDictionary
281
1
  0
DICTIONARY
  5
1A
102
{ACAD_REACTORS
330
C
102
}
100
AcDbDictionary
281
1
  3
Model
350
364
  3
Layout1
350
365
  0
ACDBPLACEHOLDER
  5
F
102
{ACAD_REACTORS
330
E
102
}
  0
MLINESTYLE
  5
18
102
{ACAD_REACTORS
330
17
102
}
100
AcDbMlineStyle
  2
STANDARD
 70
0
  3

 62
256
 51
90.0
 52
90.0
 71
2
 49
0.5
 62
256
  6
BYLAYER
 49
-0.5
 62
256
  6
BYLAYER
  0
LAYOUT
  5
364
102
{ACAD_REACTORS
330
1A
102
}
100
AcDbPlotSettings
  1

  2
none_device
  4
ISO_A3_(420.00_x_297.00_MM)
  6

 40
0.0
 41
0.0
 42
0.0
 43
0.0
 44
420.0
 45
297.0
 46
0.0
 47
0.0
 48
0.0
 49
0.0
140
0.0
141
0.0
142
1.0
143
1.0
 70
1024
 72
1
 73
0
 74
0
  7

 75
0
147
1.0
148
0.0
149
0.0
100
AcDbLayout
  1
Model
 70
0
 71
0
 10
0.0
 20
0.0
 11
420.0
 21
297.0
 12
0.0
 22
0.0
 32
0.0
 14
0.0
 24
0.0
 34
0.0
 15
0.0
 25
0.0
 35
0.0
146
0.0
 13
0.0
 23
0.0
 33
0.0
 16
1.0
 26
0.0
 36
0.0
 17
0.0
 27
1.0
 37
0.0
 76
0
330
20E
345
0
346
0
  0
LAYOUT
  5
365
102
{ACAD_REACTORS
330
1A
102
}
100
AcDbPlotSettings
  1

  2
none_device
  4
ISO_A3_(420.00_x_297.00_MM)
  6

 40
0.0
 41
0.0
 42
0.0
 43
0.0
 44
420.0
 45
297.0
 46
0.0
 47
0.0
 48
0.0
 49
0.0
140
0.0
141
0.0
142
1.0
143
1.0
 70
0
 72
1
 73
0
 74
0
  7

 75
0
147
1.0
148
0.0
149
0.0
100
AcDbLayout
  1
Layout1
 70
0
 71
1
 10
0.0
 20
0.0
 11
420.0
 21
297.0
 12
0.0
 22
0.0
 32
0.0
 14
0.0
 24
0.0
 34
0.0
 15
0.0
 25
0.0
 35
0.0
146
0.0
 13
0.0
 23
0.0
 33
0.0
 16
1.0
 26
0.0
 36
0.0
 17
0.0
 27
1.0
 37
0.0
 76
0
330
20F
345
0
346
0
  0
ENDSEC
  0
EOF
