999
DXF file: 001-m32120-p3.dxf
999
Pro/ENGINEER 2011490 by Parametric Technology Corporation
  0
SECTION
  2
HEADER
  9
$ACADVER
  1
AC1015
  9
$DWGCODEPAGE
  3
ANSI_1252
  9
$EXTMAX
 10
420.0
 20
297.0
 30
0.0
  9
$EXTMIN
 10
0.0
 20
0.0
 30
0.0
  9
$LIMMIN
 10
0.0
 20
0.0
  9
$LIMMAX
 10
420.0
 20
297.0
  9
$VIEWCTR
 10
210.0
 20
148.5
  9
$VIEWSIZE
 40
297.0
  9
$CLAYER
  8
0
  9
$LTSCALE
 40
23.1
  9
$CELTYPE
  6
BYLAYER
  9
$DIMSCALE
 40
1.0
  9
$DIMASZ
 40
3.5
  9
$DIMEXO
 40
2.625
  9
$DIMDLI
 40
15.96
  9
$DIMEXE
 40
7.56
  9
$DIMCEN
 40
3.78
  9
$DIMLFAC
 40
1.0
  9
$DIMBLK
  1
_FILLED
  9
$DIMTXT
 40
3.5
  9
$DIMTOL
 70
1
  9
$DIMLIM
 70
0
  9
$DIMTFAC
 40
1.0
  9
$DIMTP
 40
0.005
  9
$DIMTM
 40
0.005
  9
$PDMODE
 70
3
  9
$PDSIZE
 40
0.3125
  9
$HANDSEED
  5
3B8
  9
$TILEMODE
 70
1
  9
$MEASUREMENT
 70
1
  9
$INSUNITS
 70
4
  0
ENDSEC
  0
SECTION
  2
CLASSES
  0
CLASS
  1
ACDBDICTIONARYWDFLT
  2
AcDbDictionaryWithDefault
  3
AutoCAD 2000
 90
0
280
0
281
0
  0
CLASS
  1
ACDBPLACEHOLDER
  2
AcDbPlaceHolder
  3
AutoCAD 2000
 90
0
280
0
281
0
  0
CLASS
  1
LAYOUT
  2
AcDbLayout
  3
AutoCAD 2000
 90
0
280
0
281
0
  0
ENDSEC
  0
SECTION
  2
TABLES
  0
TABLE
  2
VPORT
  5
8
100
AcDbSymbolTable
 70
2
  0
VPORT
  5
1F4
100
AcDbSymbolTableRecord
100
AcDbViewportTableRecord
  2
*ACTIVE
 70
0
 10
0.0
 20
0.0
 11
1.0
 21
1.0
 12
210.0
 22
148.5
 13
0.0
 23
0.0
 14
1.0
 24
1.0
 15
0.0
 25
0.0
 16
0.0
 26
0.0
 36
1.0
 17
0.0
 27
0.0
 37
0.0
 40
297.0
 41
1.4141414141
 42
50.0
 43
0.0
 44
0.0
 50
0.0
 51
0.0
 71
0
 72
100
 73
1
 74
1
 75
0
 76
0
 77
0
 78
0
  0
ENDTAB
  0
TABLE
  2
LTYPE
  5
5
100
AcDbSymbolTable
 70
6
  0
LTYPE
  5
14
100
AcDbSymbolTableRecord
100
AcDbLinetypeTableRecord
  2
BYBLOCK
 70
0
  3

 72
65
 73
0
 40
0.0
  0
LTYPE
  5
15
100
AcDbSymbolTableRecord
100
AcDbLinetypeTableRecord
  2
BYLAYER
 70
0
  3

 72
65
 73
0
 40
0.0
  0
LTYPE
  5
16
100
AcDbSymbolTableRecord
100
AcDbLinetypeTableRecord
  2
CONTINUOUS
 70
64
  3
Solid line
 72
65
 73
0
 40
0.0
  0
LTYPE
  5
1F5
100
AcDbSymbolTableRecord
100
AcDbLinetypeTableRecord
  2
CENTER
 70
64
  3
____ _ ____ _ ____ _ ____ _ ____ _ ____ _ ____
 72
65
 73
4
 40
0.6
 49
0.375
 74
0
 49
-0.075
 74
0
 49
0.075
 74
0
 49
-0.075
 74
0
  0
LTYPE
  5
1F6
100
AcDbSymbolTableRecord
100
AcDbLinetypeTableRecord
  2
HIDDEN
 70
64
  3
- - - - - - - - - - - - - - - - - - - -
 72
65
 73
2
 40
0.2
 49
0.1
 74
0
 49
-0.1
 74
0
  0
LTYPE
  5
1F7
100
AcDbSymbolTableRecord
100
AcDbLinetypeTableRecord
  2
PHANTOM
 70
64
  3
_____ _ _ _____ _ _ _____ _ _ _____
 72
65
 73
6
 40
0.8
 49
0.45
 74
0
 49
-0.05
 74
0
 49
0.1
 74
0
 49
-0.05
 74
0
 49
0.1
 74
0
 49
-0.05
 74
0
  0
LTYPE
  5
1F8
100
AcDbSymbolTableRecord
100
AcDbLinetypeTableRecord
  2
DOT
 70
64
  3
. . . . . . . . . . . . . . . . . . . .
 72
65
 73
2
 40
0.2
 49
0.1
 74
0
 49
-0.1
 74
0
  0
LTYPE
  5
1F9
100
AcDbSymbolTableRecord
100
AcDbLinetypeTableRecord
  2
DASHED
 70
64
  3
- - - - - - - - - - - - - - - - - - - -
 72
65
 73
2
 40
0.2
 49
0.1
 74
0
 49
-0.1
 74
0
  0
ENDTAB
  0
TABLE
  2
LAYER
  5
2
100
AcDbSymbolTable
 70
36
  0
LAYER
  5
10
100
AcDbSymbolTableRecord
100
AcDbLayerTableRecord
  2
0
 70
0
 62
7
  6
CONTINUOUS
370
-3
390
F
  0
LAYER
  5
1FA
100
AcDbSymbolTableRecord
100
AcDbLayerTableRecord
  2
DEFAULT_1
 70
0
 62
7
  6
CENTER
370
-3
390
F
  0
LAYER
  5
1FB
100
AcDbSymbolTableRecord
100
AcDbLayerTableRecord
  2
DEFAULT_2
 70
0
 62
8
  6
HIDDEN
370
-3
390
F
  0
LAYER
  5
1FC
100
AcDbSymbolTableRecord
100
AcDbLayerTableRecord
  2
DEFAULT_3
 70
0
 62
7
  6
PHANTOM
370
-3
390
F
  0
LAYER
  5
1FD
100
AcDbSymbolTableRecord
100
AcDbLayerTableRecord
  2
AUSFORMSCHRAEGEN
 70
0
 62
7
  6
CONTINUOUS
370
-3
390
F
  0
LAYER
  5
1FE
100
AcDbSymbolTableRecord
100
AcDbLayerTableRecord
  2
BEZUGSACHSEN
 70
0
 62
7
  6
CONTINUOUS
370
-3
390
F
  0
LAYER
  5
1FF
100
AcDbSymbolTableRecord
100
AcDbLayerTableRecord
  2
BEZUGSEBENEN
 70
0
 62
7
  6
CONTINUOUS
370
-3
390
F
  0
LAYER
  5
200
100
AcDbSymbolTableRecord
100
AcDbLayerTableRecord
  2
BG_STARTBEZUEGE
 70
0
 62
7
  6
CONTINUOUS
370
-3
390
F
  0
LAYER
  5
201
100
AcDbSymbolTableRecord
100
AcDbLayerTableRecord
  2
FASEN
 70
0
 62
7
  6
CONTINUOUS
370
-3
390
F
  0
LAYER
  5
202
100
AcDbSymbolTableRecord
100
AcDbLayerTableRecord
  2
FLAECHENVERBUND
 70
0
 62
7
  6
CONTINUOUS
370
-3
390
F
  0
LAYER
  5
203
100
AcDbSymbolTableRecord
100
AcDbLayerTableRecord
  2
HILFEN
 70
0
 62
7
  6
CONTINUOUS
370
-3
390
F
  0
LAYER
  5
204
100
AcDbSymbolTableRecord
100
AcDbLayerTableRecord
  2
KONSTRUKTIONSELEMENTE
 70
0
 62
7
  6
CONTINUOUS
370
-3
390
F
  0
LAYER
  5
205
100
AcDbSymbolTableRecord
100
AcDbLayerTableRecord
  2
KURVEN
 70
0
 62
7
  6
CONTINUOUS
370
-3
390
F
  0
LAYER
  5
206
100
AcDbSymbolTableRecord
100
AcDbLayerTableRecord
  2
NORM
 70
0
 62
7
  6
CONTINUOUS
370
-3
390
F
  0
LAYER
  5
207
100
AcDbSymbolTableRecord
100
AcDbLayerTableRecord
  2
PLATZIERUNG
 70
0
 62
7
  6
CONTINUOUS
370
-3
390
F
  0
LAYER
  5
208
100
AcDbSymbolTableRecord
100
AcDbLayerTableRecord
  2
RUNDUNGEN
 70
0
 62
7
  6
CONTINUOUS
370
-3
390
F
  0
LAYER
  5
209
100
AcDbSymbolTableRecord
100
AcDbLayerTableRecord
  2
TEIL_STARTBEZUEGE
 70
0
 62
7
  6
CONTINUOUS
370
-3
390
F
  0
LAYER
  5
20A
100
AcDbSymbolTableRecord
100
AcDbLayerTableRecord
  2
T_STARTBEZUEGE
 70
0
 62
7
  6
CONTINUOUS
370
-3
390
F
  0
LAYER
  5
20B
100
AcDbSymbolTableRecord
100
AcDbLayerTableRecord
  2
ZEICHNUNGSBEMASSUNGEN
 70
0
 62
7
  6
CONTINUOUS
370
-3
390
F
  0
ENDTAB
  0
TABLE
  2
STYLE
  5
3
100
AcDbSymbolTable
 70
1
  0
STYLE
  5
11
100
AcDbSymbolTableRecord
100
AcDbTextStyleTableRecord
  2
STANDARD
 70
0
 40
0.0
 41
0.7
 50
0.0
 71
0
 42
0.2
  3
txt
  4

  0
STYLE
  5
20C
100
AcDbSymbolTableRecord
100
AcDbTextStyleTableRecord
  2
TEXTSTYLE_1
 70
0
 40
0.0
 41
0.8
 50
0.0
 71
0
 42
0.2
  3
gdt
  4

  0
ENDTAB
  0
TABLE
  2
VIEW
  5
6
100
AcDbSymbolTable
 70
0
  0
ENDTAB
  0
TABLE
  2
UCS
  5
7
100
AcDbSymbolTable
 70
0
  0
ENDTAB
  0
TABLE
  2
APPID
  5
9
100
AcDbSymbolTable
 70
1
  0
APPID
  5
20D
100
AcDbSymbolTableRecord
100
AcDbRegAppTableRecord
  2
ACAD
 70
0
  0
ENDTAB
  0
TABLE
  2
BLOCK_RECORD
  5
1
100
AcDbSymbolTable
 70
0
  0
BLOCK_RECORD
  5
20E
100
AcDbSymbolTableRecord
100
AcDbBlockTableRecord
  2
*Model_Space
  0
BLOCK_RECORD
  5
20F
100
AcDbSymbolTableRecord
100
AcDbBlockTableRecord
  2
*Paper_Space
  0
ENDTAB
  0
TABLE
  2
DIMSTYLE
  5
A
100
AcDbSymbolTable
 70
1
100
AcDbDimStyleTable
 71
0
  0
DIMSTYLE
105
210
100
AcDbSymbolTableRecord
100
AcDbDimStyleTableRecord
  2
STANDARD
 70
0
  3

  4

 40
1.0
 41
3.5
 42
0.0625
 43
0.38
 44
0.18
 45
0.0
 46
0.0
 47
0.005
 48
0.005
140
3.5
141
0.09
142
0.0
143
25.4
144
1.0
145
0.0
146
1.0
147
0.09
 71
1.0
 72
0.0
 73
0
 74
0
 75
0
 76
0
 77
1
 78
8
170
0
171
2
172
0
173
0
174
0
175
0
176
0
177
0
178
5
270
2
271
3
272
3
273
2
274
2
275
0
280
0
281
0
282
0
283
1
284
8
285
0
286
0
287
3
288
0
340
11
  0
ENDTAB
  0
ENDSEC
  0
SECTION
  2
BLOCKS
  0
BLOCK
  5
20
100
AcDbEntity
  8
0
100
AcDbBlockBegin
  2
*Model_Space
 70
0
 10
0.0
 20
0.0
 30
0.0
  3
*Model_Space
  1

  0
ENDBLK
  5
21
100
AcDbEntity
  8
0
100
AcDbBlockEnd
  0
BLOCK
  5
1C
100
AcDbEntity
  8
0
100
AcDbBlockBegin
  2
*Paper_Space
 70
0
 10
0.0
 20
0.0
 30
0.0
  3
*Paper_Space
  1

  0
ENDBLK
  5
1D
100
AcDbEntity
  8
0
100
AcDbBlockEnd
  0
ENDSEC
  0
SECTION
  2
ENTITIES
  0
MTEXT
  5
211
100
AcDbEntity
  8
0
100
AcDbMText
 62
5
  6
CONTINUOUS
  7
STANDARD
 71
2
 72
1
 10
138.6543631702
 20
72.4087334026
 30
0.0
 11
1.0
 21
0.0
 31
0.0
 44
0.9
  1
VLBS-U-6,7t\PRUD
 40
6.0
 41
49.0
  0
MTEXT
  5
212
100
AcDbEntity
  8
0
100
AcDbMText
 62
5
  6
CONTINUOUS
  7
STANDARD
 71
2
 72
1
 10
138.9652797963
 20
165.4157383504
 30
0.0
 11
1.0
 21
0.0
 31
0.0
 44
0.9
  1
VLBS-U-6,7t\PRUD
 40
6.0
 41
49.0
  0
MTEXT
  5
213
100
AcDbEntity
  8
0
100
AcDbMText
 62
5
  6
CONTINUOUS
  7
STANDARD
 71
2
 72
1
 10
266.2013413782
 20
199.7882773056
 30
0.0
 11
0.0
 21
1.0
 31
0.0
 44
0.9
  1
VLBS-U-6,7t\PRUD
 40
6.0
 41
49.0
  0
LINE
  5
214
100
AcDbEntity
  8
0
100
AcDbLine
 62
7
  6
CONTINUOUS
 10
0.0
 20
0.0
 11
0.0
 21
297.0
  0
LINE
  5
215
100
AcDbEntity
  8
0
100
AcDbLine
 62
7
  6
CONTINUOUS
 10
0.0
 20
0.0
 11
420.0
 21
0.0
  0
LINE
  5
216
100
AcDbEntity
  8
0
100
AcDbLine
 62
7
  6
CONTINUOUS
 10
0.0
 20
297.0
 11
420.0
 21
297.0
  0
LINE
  5
217
100
AcDbEntity
  8
0
100
AcDbLine
 62
7
  6
CONTINUOUS
 10
420.0
 20
0.0
 11
420.0
 21
297.0
  0
LINE
  5
218
100
AcDbEntity
  8
RUNDUNGEN
100
AcDbLine
 62
7
  6
CONTINUOUS
 10
134.0089785104
 20
271.9596580688
 11
100.8307839658
 21
258.2167999134
  0
LINE
  5
219
100
AcDbEntity
  8
KONSTRUKTIONSELEMENTE
100
AcDbLine
 62
7
  6
CONTINUOUS
 10
109.9616264404
 20
131.7649323904
 11
166.153106384
 21
131.7649323904
  0
LINE
  5
21A
100
AcDbEntity
  8
BEZUGSACHSEN
100
AcDbLine
 62
7
  6
CONTINUOUS
 10
191.5573665122
 20
134.2649323904
 11
167.034153589
 21
134.2649323904
  0
LINE
  5
21B
100
AcDbEntity
  8
BEZUGSACHSEN
100
AcDbLine
 62
7
  6
CONTINUOUS
 10
109.0803676572
 20
134.2649323904
 11
84.5573663122
 21
134.2649323904
  0
LINE
  5
21C
100
AcDbEntity
  8
KONSTRUKTIONSELEMENTE
100
AcDbLine
 62
7
  6
CONTINUOUS
 10
167.5814603066
 20
134.7649323904
 11
108.5332725178
 21
134.7649323904
  0
LINE
  5
21D
100
AcDbEntity
  8
RUNDUNGEN
100
AcDbLine
 62
7
  6
CONTINUOUS
 10
80.5573663122
 20
215.2649323904
 11
80.5573663122
 21
138.2649323904
  0
LINE
  5
21E
100
AcDbEntity
  8
RUNDUNGEN
100
AcDbLine
 62
7
  6
CONTINUOUS
 10
95.1054988893
 20
252.4915148369
 11
81.3626407338
 21
219.3133202923
  0
LINE
  5
21F
100
AcDbEntity
  8
0
100
AcDbLine
 62
7
  6
CONTINUOUS
 10
111.0573664122
 20
147.1388252779
 11
165.0573664122
 21
147.1388252779
  0
LINE
  5
220
100
AcDbEntity
  8
0
100
AcDbLine
 62
7
  6
CONTINUOUS
 10
184.7065769472
 20
165.4380902184
 11
186.8223664272
 21
165.4380902184
  0
LINE
  5
221
100
AcDbEntity
  8
RUNDUNGEN
100
AcDbLine
 62
7
  6
CONTINUOUS
 10
104.5573663122
 20
167.7649323904
 11
104.5573663122
 21
176.5940259581
  0
LINE
  5
222
100
AcDbEntity
  8
RUNDUNGEN
100
AcDbLine
 62
7
  6
CONTINUOUS
 10
104.5573663122
 20
211.4625537776
 11
104.5573663122
 21
215.2649323904
  0
LINE
  5
223
100
AcDbEntity
  8
KONSTRUKTIONSELEMENTE
100
AcDbLine
 62
7
  6
CONTINUOUS
 10
108.0573664122
 20
143.6795210431
 11
108.0573664122
 21
137.6035218459
  0
LINE
  5
224
100
AcDbEntity
  8
0
100
AcDbLine
 62
7
  6
CONTINUOUS
 10
108.0573664122
 20
143.6795210431
 11
108.0573664122
 21
172.7649323904
  0
LINE
  5
225
100
AcDbEntity
  8
0
100
AcDbLine
 62
7
  6
CONTINUOUS
 10
186.7523664272
 20
167.0280902184
 11
184.7771032632
 21
167.0280902184
  0
LINE
  5
226
100
AcDbEntity
  8
0
100
AcDbLine
 62
7
  6
CONTINUOUS
 10
183.1197348372
 20
170.3396691804
 11
187.6157874822
 21
170.3396691804
  0
LINE
  5
227
100
AcDbEntity
  8
0
100
AcDbLine
 62
7
  6
CONTINUOUS
 10
189.7315769622
 20
171.9265112904
 11
188.4092085372
 21
171.9265112904
  0
LINE
  5
228
100
AcDbEntity
  8
0
100
AcDbLine
 62
7
  6
CONTINUOUS
 10
187.6157874822
 20
171.9265112904
 11
181.7973664122
 21
171.9265112904
  0
LINE
  5
229
100
AcDbEntity
  8
0
100
AcDbLine
 62
7
  6
CONTINUOUS
 10
113.6673664122
 20
176.2117713068
 11
113.6673664122
 21
175.5481491408
  0
LINE
  5
22A
100
AcDbEntity
  8
0
100
AcDbLine
 62
7
  6
CONTINUOUS
 10
113.6673664122
 20
175.1902509953
 11
113.6673664122
 21
173.0595747219
  0
LINE
  5
22B
100
AcDbEntity
  8
0
100
AcDbLine
 62
7
  6
CONTINUOUS
 10
113.6673664122
 20
173.0595747219
 11
115.1673664122
 21
173.0595747219
  0
LINE
  5
22C
100
AcDbEntity
  8
0
100
AcDbLine
 62
7
  6
CONTINUOUS
 10
115.7673664122
 20
173.0595747219
 11
122.4873664122
 21
173.0595747219
  0
LINE
  5
22D
100
AcDbEntity
  8
0
100
AcDbLine
 62
7
  6
CONTINUOUS
 10
145.1758221825
 20
173.234122404
 11
146.5162475546
 21
173.234122404
  0
LINE
  5
22E
100
AcDbEntity
  8
0
100
AcDbLine
 62
7
  6
CONTINUOUS
 10
184.9710506322
 20
173.5133534004
 11
189.7315769622
 21
173.5133534004
  0
LINE
  5
22F
100
AcDbEntity
  8
0
100
AcDbLine
 62
7
  6
CONTINUOUS
 10
113.6673664122
 20
173.608199081
 11
115.1673664122
 21
173.608199081
  0
LINE
  5
230
100
AcDbEntity
  8
0
100
AcDbLine
 62
7
  6
CONTINUOUS
 10
115.7673664122
 20
173.608199081
 11
122.4873664122
 21
173.608199081
  0
LINE
  5
231
100
AcDbEntity
  8
0
100
AcDbLine
 62
7
  6
CONTINUOUS
 10
145.1758221825
 20
173.7793286895
 11
146.5162475546
 21
173.7793286895
  0
LINE
  5
232
100
AcDbEntity
  8
0
100
AcDbLine
 62
7
  6
CONTINUOUS
 10
145.1758221825
 20
174.1645801568
 11
145.5588008602
 21
174.1645801568
  0
LINE
  5
233
100
AcDbEntity
  8
0
100
AcDbLine
 62
7
  6
CONTINUOUS
 10
147.0907158394
 20
174.2373010134
 11
147.6651838561
 21
174.2373010134
  0
LINE
  5
234
100
AcDbEntity
  8
0
100
AcDbLine
 62
7
  6
CONTINUOUS
 10
115.7673664122
 20
174.3451265815
 11
117.4173664122
 21
174.3451265815
  0
LINE
  5
235
100
AcDbEntity
  8
0
100
AcDbLine
 62
7
  6
CONTINUOUS
 10
118.8873664122
 20
174.3451265815
 11
122.4873664122
 21
174.3451265815
  0
LINE
  5
236
100
AcDbEntity
  8
0
100
AcDbLine
 62
7
  6
CONTINUOUS
 10
127.4687282131
 20
174.7033480347
 11
135.8073664122
 21
174.7033480347
  0
LINE
  5
237
100
AcDbEntity
  8
0
100
AcDbLine
 62
7
  6
CONTINUOUS
 10
189.7315769622
 20
175.1001955104
 11
184.9710506322
 21
175.1001955104
  0
LINE
  5
238
100
AcDbEntity
  8
0
100
AcDbLine
 62
7
  6
CONTINUOUS
 10
147.0907158394
 20
175.1072012447
 11
147.6651838561
 21
175.1072012447
  0
LINE
  5
239
100
AcDbEntity
  8
0
100
AcDbLine
 62
7
  6
CONTINUOUS
 10
126.8073664122
 20
175.2213731123
 11
135.8073664122
 21
175.2213731123
  0
LINE
  5
23A
100
AcDbEntity
  8
0
100
AcDbLine
 62
7
  6
CONTINUOUS
 10
126.8073664122
 20
175.5006646834
 11
134.6584302449
 21
175.5006646834
  0
LINE
  5
23B
100
AcDbEntity
  8
0
100
AcDbLine
 62
7
  6
CONTINUOUS
 10
113.6673664122
 20
175.5481491408
 11
114.1099692103
 21
175.5481491408
  0
LINE
  5
23C
100
AcDbEntity
  8
0
100
AcDbLine
 62
7
  6
CONTINUOUS
 10
118.4747270845
 20
175.5481491408
 11
118.9040037076
 21
175.5481491408
  0
LINE
  5
23D
100
AcDbEntity
  8
0
100
AcDbLine
 62
7
  6
CONTINUOUS
 10
147.0907158394
 20
175.618219337
 11
147.6651838561
 21
175.618219337
  0
LINE
  5
23E
100
AcDbEntity
  8
0
100
AcDbLine
 62
7
  6
CONTINUOUS
 10
141.3460348685
 20
175.7639114356
 11
142.3034815629
 21
175.7639114356
  0
LINE
  5
23F
100
AcDbEntity
  8
KONSTRUKTIONSELEMENTE
100
AcDbLine
 62
7
  6
CONTINUOUS
 10
111.0573664122
 20
175.7649323904
 11
113.6673664122
 21
175.7649323904
  0
LINE
  5
240
100
AcDbEntity
  8
KONSTRUKTIONSELEMENTE
100
AcDbLine
 62
7
  6
CONTINUOUS
 10
122.4873664122
 20
175.7649323904
 11
134.6584302449
 21
175.7649323904
  0
LINE
  5
241
100
AcDbEntity
  8
KONSTRUKTIONSELEMENTE
100
AcDbLine
 62
7
  6
CONTINUOUS
 10
135.8073664122
 20
175.7649323904
 11
141.3460348685
 21
175.7649323904
  0
LINE
  5
242
100
AcDbEntity
  8
KONSTRUKTIONSELEMENTE
100
AcDbLine
 62
7
  6
CONTINUOUS
 10
142.3034815629
 20
175.7649323904
 11
146.4141711309
 21
175.7649323904
  0
LINE
  5
243
100
AcDbEntity
  8
KONSTRUKTIONSELEMENTE
100
AcDbLine
 62
7
  6
CONTINUOUS
 10
148.3417283643
 20
175.7649323904
 11
149.38858804
 21
175.7649323904
  0
LINE
  5
244
100
AcDbEntity
  8
KONSTRUKTIONSELEMENTE
100
AcDbLine
 62
7
  6
CONTINUOUS
 10
151.4949710359
 20
175.7649323904
 11
155.0460348685
 21
175.7649323904
  0
LINE
  5
245
100
AcDbEntity
  8
KONSTRUKTIONSELEMENTE
100
AcDbLine
 62
7
  6
CONTINUOUS
 10
163.0460348685
 20
175.7649323904
 11
165.0573664122
 21
175.7649323904
  0
LINE
  5
246
100
AcDbEntity
  8
0
100
AcDbLine
 62
7
  6
CONTINUOUS
 10
146.8992262323
 20
175.7991445492
 11
147.8566731949
 21
175.7991445492
  0
LINE
  5
247
100
AcDbEntity
  8
0
100
AcDbLine
 62
7
  6
CONTINUOUS
 10
113.6673664122
 20
176.0517281932
 11
118.9623664122
 21
176.0517281932
  0
LINE
  5
248
100
AcDbEntity
  8
0
100
AcDbLine
 62
7
  6
CONTINUOUS
 10
113.6673664122
 20
176.2117713068
 11
118.9623664122
 21
176.2117713068
  0
LINE
  5
249
100
AcDbEntity
  8
0
100
AcDbLine
 62
7
  6
CONTINUOUS
 10
155.0660851201
 20
176.215828929
 11
156.2460348846
 21
176.215828929
  0
LINE
  5
24A
100
AcDbEntity
  8
0
100
AcDbLine
 62
7
  6
CONTINUOUS
 10
161.8460348479
 20
176.215828929
 11
163.025984617
 21
176.215828929
  0
LINE
  5
24B
100
AcDbEntity
  8
0
100
AcDbLine
 62
7
  6
CONTINUOUS
 10
113.6673664122
 20
176.2202685403
 11
118.9623664122
 21
176.2202685403
  0
LINE
  5
24C
100
AcDbEntity
  8
0
100
AcDbLine
 62
7
  6
CONTINUOUS
 10
134.6584302449
 20
176.2428653912
 11
135.8073664122
 21
176.2428653912
  0
LINE
  5
24D
100
AcDbEntity
  8
0
100
AcDbLine
 62
7
  6
CONTINUOUS
 10
126.8073664122
 20
176.2630372536
 11
135.8073664122
 21
176.2630372536
  0
LINE
  5
24E
100
AcDbEntity
  8
0
100
AcDbLine
 62
7
  6
CONTINUOUS
 10
141.3460348685
 20
176.2639281731
 11
142.3034815629
 21
176.2639281731
  0
LINE
  5
24F
100
AcDbEntity
  8
0
100
AcDbLine
 62
7
  6
CONTINUOUS
 10
120.6873664122
 20
176.2649323904
 11
122.4617885105
 21
176.2649323904
  0
LINE
  5
250
100
AcDbEntity
  8
0
100
AcDbLine
 62
7
  6
CONTINUOUS
 10
184.9710506322
 20
178.2738797304
 11
189.7315769622
 21
178.2738797304
  0
LINE
  5
251
100
AcDbEntity
  8
0
100
AcDbLine
 62
7
  6
CONTINUOUS
 10
120.6857248183
 20
176.2648807981
 11
120.6873664122
 21
176.2647815482
  0
LINE
  5
252
100
AcDbEntity
  8
0
100
AcDbLine
 62
7
  6
CONTINUOUS
 10
122.4873664122
 20
176.2647189449
 11
122.4865648841
 21
176.2648161266
  0
LINE
  5
253
100
AcDbEntity
  8
0
100
AcDbLine
 62
7
  6
CONTINUOUS
 10
115.1673664122
 20
175.1067860299
 11
115.1673664122
 21
173.0595747219
  0
LINE
  5
254
100
AcDbEntity
  8
0
100
AcDbLine
 62
7
  6
CONTINUOUS
 10
115.7673664122
 20
174.3451265815
 11
115.7673664122
 21
173.0595747219
  0
LINE
  5
255
100
AcDbEntity
  8
0
100
AcDbLine
 62
7
  6
CONTINUOUS
 10
117.4173664122
 20
175.1067860299
 11
117.4173664122
 21
174.3451265815
  0
LINE
  5
256
100
AcDbEntity
  8
0
100
AcDbLine
 62
7
  6
CONTINUOUS
 10
118.8873664122
 20
174.6700011498
 11
118.8873664122
 21
174.3451265815
  0
LINE
  5
257
100
AcDbEntity
  8
BEZUGSACHSEN
100
AcDbLine
 62
7
  6
CONTINUOUS
 10
168.0573665122
 20
179.8540164917
 11
157.8573664122
 21
179.8540164917
  0
LINE
  5
258
100
AcDbEntity
  8
RUNDUNGEN
100
AcDbLine
 62
7
  6
CONTINUOUS
 10
108.0573663122
 20
179.8540164917
 11
118.2573664122
 21
179.8540164917
  0
LINE
  5
259
100
AcDbEntity
  8
0
100
AcDbLine
 62
7
  6
CONTINUOUS
 10
189.7315769622
 20
179.8607218404
 11
184.9710506322
 21
179.8607218404
  0
LINE
  5
25A
100
AcDbEntity
  8
0
100
AcDbLine
 62
7
  6
CONTINUOUS
 10
122.4873664122
 20
174.3451265815
 11
122.4873664122
 21
173.0595747219
  0
LINE
  5
25B
100
AcDbEntity
  8
0
100
AcDbLine
 62
7
  6
CONTINUOUS
 10
122.4873664122
 20
174.9250042353
 11
122.4873664122
 21
176.2618947731
  0
LINE
  5
25C
100
AcDbEntity
  8
0
100
AcDbLine
 62
7
  6
CONTINUOUS
 10
181.7973664122
 20
186.4725639654
 11
185.1121032642
 21
186.4725639654
  0
LINE
  5
25D
100
AcDbEntity
  8
0
100
AcDbLine
 62
7
  6
CONTINUOUS
 10
186.4344716892
 20
186.4725639654
 11
187.6157874822
 21
186.4725639654
  0
LINE
  5
25E
100
AcDbEntity
  8
0
100
AcDbLine
 62
7
  6
CONTINUOUS
 10
189.7315769622
 20
187.7949323904
 11
188.4092085372
 21
187.7949323904
  0
LINE
  5
25F
100
AcDbEntity
  8
0
100
AcDbLine
 62
7
  6
CONTINUOUS
 10
187.6157874822
 20
187.7949323904
 11
181.7973664122
 21
187.7949323904
  0
LINE
  5
260
100
AcDbEntity
  8
0
100
AcDbLine
 62
7
  6
CONTINUOUS
 10
126.8073664122
 20
176.2630372536
 11
126.8073664122
 21
175.763005666
  0
LINE
  5
261
100
AcDbEntity
  8
0
100
AcDbLine
 62
7
  6
CONTINUOUS
 10
126.8073664122
 20
175.5006646834
 11
126.8073664122
 21
173.8543213342
  0
LINE
  5
262
100
AcDbEntity
  8
0
100
AcDbLine
 62
7
  6
CONTINUOUS
 10
126.8073664122
 20
171.862514175
 11
126.8073664122
 21
170.5450030118
  0
LINE
  5
263
100
AcDbEntity
  8
0
100
AcDbLine
 62
7
  6
CONTINUOUS
 10
134.6584302449
 20
176.2428653912
 11
134.6584302449
 21
175.5006646834
  0
LINE
  5
264
100
AcDbEntity
  8
0
100
AcDbLine
 62
7
  6
CONTINUOUS
 10
135.8073664122
 20
176.2630372536
 11
135.8073664122
 21
174.7033480347
  0
LINE
  5
265
100
AcDbEntity
  8
0
100
AcDbLine
 62
7
  6
CONTINUOUS
 10
135.8073664122
 20
173.6260504585
 11
135.8073664122
 21
172.3452240082
  0
LINE
  5
266
100
AcDbEntity
  8
0
100
AcDbLine
 62
7
  6
CONTINUOUS
 10
141.3460348685
 20
176.2639281731
 11
141.3460348685
 21
175.7639114356
  0
LINE
  5
267
100
AcDbEntity
  8
0
100
AcDbLine
 62
7
  6
CONTINUOUS
 10
141.3460348685
 20
175.1110377285
 11
141.3460348685
 21
174.3641701708
  0
LINE
  5
268
100
AcDbEntity
  8
0
100
AcDbLine
 62
7
  6
CONTINUOUS
 10
141.5375242074
 20
174.5798589849
 11
141.5375242074
 21
174.0500874129
  0
LINE
  5
269
100
AcDbEntity
  8
0
100
AcDbLine
 62
7
  6
CONTINUOUS
 10
142.111992224
 20
174.2373010134
 11
142.111992224
 21
173.7010340333
  0
LINE
  5
26A
100
AcDbEntity
  8
0
100
AcDbLine
 62
7
  6
CONTINUOUS
 10
142.3034815629
 20
176.2639281731
 11
142.3034815629
 21
175.7639114356
  0
LINE
  5
26B
100
AcDbEntity
  8
0
100
AcDbLine
 62
7
  6
CONTINUOUS
 10
142.3034815629
 20
175.1634866704
 11
142.3034815629
 21
174.8292359904
  0
LINE
  5
26C
100
AcDbEntity
  8
0
100
AcDbLine
 62
7
  6
CONTINUOUS
 10
142.4949709018
 20
175.3131370736
 11
142.4949709018
 21
174.7967494194
  0
LINE
  5
26D
100
AcDbEntity
  8
0
100
AcDbLine
 62
7
  6
CONTINUOUS
 10
142.8779495795
 20
175.4513770033
 11
142.8779495795
 21
174.9374364611
  0
LINE
  5
26E
100
AcDbEntity
  8
0
100
AcDbLine
 62
7
  6
CONTINUOUS
 10
142.8779495795
 20
174.0148437841
 11
142.8779495795
 21
173.4742718584
  0
LINE
  5
26F
100
AcDbEntity
  8
0
100
AcDbLine
 62
7
  6
CONTINUOUS
 10
143.4524175962
 20
175.7304254277
 11
143.4524175962
 21
175.0248451743
  0
LINE
  5
270
100
AcDbEntity
  8
0
100
AcDbLine
 62
7
  6
CONTINUOUS
 10
143.8353968103
 20
173.8593044938
 11
143.8353968103
 21
173.3156809081
  0
LINE
  5
271
100
AcDbEntity
  8
0
100
AcDbLine
 62
7
  6
CONTINUOUS
 10
144.6013541658
 20
175.1634866704
 11
144.6013541658
 21
174.3641701708
  0
LINE
  5
272
100
AcDbEntity
  8
0
100
AcDbLine
 62
7
  6
CONTINUOUS
 10
144.7928435047
 20
174.5798589849
 11
144.7928435047
 21
174.1889686687
  0
LINE
  5
273
100
AcDbEntity
  8
0
100
AcDbLine
 62
7
  6
CONTINUOUS
 10
163.025984617
 20
176.215828929
 11
163.0460347768
 21
176.1901189292
  0
LINE
  5
274
100
AcDbEntity
  8
0
100
AcDbLine
 62
7
  6
CONTINUOUS
 10
145.1758221825
 20
173.7793286895
 11
145.1758221825
 21
173.234122404
  0
LINE
  5
275
100
AcDbEntity
  8
0
100
AcDbLine
 62
7
  6
CONTINUOUS
 10
145.5588008602
 20
175.2146484573
 11
145.5588008602
 21
174.8292359904
  0
LINE
  5
276
100
AcDbEntity
  8
0
100
AcDbLine
 62
7
  6
CONTINUOUS
 10
145.7502901991
 20
175.3604766685
 11
145.7502901991
 21
174.8449296586
  0
LINE
  5
277
100
AcDbEntity
  8
0
100
AcDbLine
 62
7
  6
CONTINUOUS
 10
146.1332688768
 20
175.4949491675
 11
146.1332688768
 21
174.981775094
  0
LINE
  5
278
100
AcDbEntity
  8
0
100
AcDbLine
 62
7
  6
CONTINUOUS
 10
146.5162475546
 20
175.5783651851
 11
146.5162475546
 21
175.0666520499
  0
LINE
  5
279
100
AcDbEntity
  8
0
100
AcDbLine
 62
7
  6
CONTINUOUS
 10
146.5162475546
 20
173.7793286895
 11
146.5162475546
 21
173.234122404
  0
LINE
  5
27A
100
AcDbEntity
  8
0
100
AcDbLine
 62
7
  6
CONTINUOUS
 10
147.0907158394
 20
175.618219337
 11
147.0907158394
 21
175.1072012447
  0
LINE
  5
27B
100
AcDbEntity
  8
0
100
AcDbLine
 62
7
  6
CONTINUOUS
 10
147.6651838561
 20
175.618219337
 11
147.6651838561
 21
175.1072012447
  0
LINE
  5
27C
100
AcDbEntity
  8
0
100
AcDbLine
 62
7
  6
CONTINUOUS
 10
147.8566731949
 20
173.8593044938
 11
147.8566731949
 21
173.3156809081
  0
LINE
  5
27D
100
AcDbEntity
  8
0
100
AcDbLine
 62
7
  6
CONTINUOUS
 10
148.2396518727
 20
175.5783651851
 11
148.2396518727
 21
175.0666520499
  0
LINE
  5
27E
100
AcDbEntity
  8
0
100
AcDbLine
 62
7
  6
CONTINUOUS
 10
148.8141200234
 20
175.4949491675
 11
148.8141200234
 21
174.981775094
  0
LINE
  5
27F
100
AcDbEntity
  8
0
100
AcDbLine
 62
7
  6
CONTINUOUS
 10
148.8141200234
 20
174.0148437841
 11
148.8141200234
 21
173.4742718584
  0
LINE
  5
280
100
AcDbEntity
  8
0
100
AcDbLine
 62
7
  6
CONTINUOUS
 10
149.1970987012
 20
175.3604766685
 11
149.1970987012
 21
174.8449296586
  0
LINE
  5
281
100
AcDbEntity
  8
0
100
AcDbLine
 62
7
  6
CONTINUOUS
 10
149.38858804
 20
176.2148296809
 11
149.38858804
 21
175.6445370244
  0
LINE
  5
282
100
AcDbEntity
  8
0
100
AcDbLine
 62
7
  6
CONTINUOUS
 10
149.38858804
 20
175.2146484573
 11
149.38858804
 21
174.8292359904
  0
LINE
  5
283
100
AcDbEntity
  8
0
100
AcDbLine
 62
7
  6
CONTINUOUS
 10
149.580077446
 20
174.2373010134
 11
149.580077446
 21
173.7010340333
  0
LINE
  5
284
100
AcDbEntity
  8
0
100
AcDbLine
 62
7
  6
CONTINUOUS
 10
150.1545455129
 20
174.5798589849
 11
150.1545455129
 21
174.0500874129
  0
LINE
  5
285
100
AcDbEntity
  8
0
100
AcDbLine
 62
7
  6
CONTINUOUS
 10
150.3460348685
 20
176.221479184
 11
150.3460348685
 21
176.1809740672
  0
LINE
  5
286
100
AcDbEntity
  8
0
100
AcDbLine
 62
7
  6
CONTINUOUS
 10
150.3460348685
 20
175.1634866704
 11
150.3460348685
 21
174.3641701708
  0
LINE
  5
287
100
AcDbEntity
  8
0
100
AcDbLine
 62
7
  6
CONTINUOUS
 10
151.4949710359
 20
176.1293646395
 11
151.4949710359
 21
175.5220139235
  0
LINE
  5
288
100
AcDbEntity
  8
0
100
AcDbLine
 62
7
  6
CONTINUOUS
 10
155.0460348685
 20
175.6862829335
 11
155.0460348685
 21
176.1875665973
  0
LINE
  5
289
100
AcDbEntity
  8
0
100
AcDbLine
 62
7
  6
CONTINUOUS
 10
156.2747535764
 20
176.215828929
 11
156.2747535764
 21
176.1620469734
  0
LINE
  5
28A
100
AcDbEntity
  8
0
100
AcDbLine
 62
7
  6
CONTINUOUS
 10
161.8173161606
 20
176.215828929
 11
161.8173161606
 21
176.1620455449
  0
LINE
  5
28B
100
AcDbEntity
  8
0
100
AcDbLine
 62
7
  6
CONTINUOUS
 10
163.0460348685
 20
175.6862943374
 11
163.0460348685
 21
176.1875650124
  0
LINE
  5
28C
100
AcDbEntity
  8
0
100
AcDbLine
 62
7
  6
CONTINUOUS
 10
168.0573664122
 20
172.7649323904
 11
168.0573664122
 21
143.6795210431
  0
LINE
  5
28D
100
AcDbEntity
  8
KONSTRUKTIONSELEMENTE
100
AcDbLine
 62
7
  6
CONTINUOUS
 10
168.0573664122
 20
143.6795210431
 11
168.0573664122
 21
137.6035218459
  0
LINE
  5
28E
100
AcDbEntity
  8
0
100
AcDbLine
 62
7
  6
CONTINUOUS
 10
155.046034951
 20
176.1901239456
 11
155.0660851201
 21
176.215828929
  0
LINE
  5
28F
100
AcDbEntity
  8
BEZUGSACHSEN
100
AcDbLine
 62
7
  6
CONTINUOUS
 10
171.5573665122
 20
167.7649323904
 11
171.5573665122
 21
176.5940259581
  0
LINE
  5
290
100
AcDbEntity
  8
BEZUGSACHSEN
100
AcDbLine
 62
7
  6
CONTINUOUS
 10
171.5573665122
 20
211.4625537776
 11
171.5573665122
 21
215.2649323904
  0
LINE
  5
291
100
AcDbEntity
  8
0
100
AcDbLine
 62
7
  6
CONTINUOUS
 10
184.4509190517
 20
183.9775854435
 11
181.7973664122
 21
182.4455561127
  0
LINE
  5
292
100
AcDbEntity
  8
0
100
AcDbLine
 62
7
  6
CONTINUOUS
 10
181.7973664122
 20
180.9186165804
 11
185.2682319308
 21
182.9225217219
  0
LINE
  5
293
100
AcDbEntity
  8
0
100
AcDbLine
 62
7
  6
CONTINUOUS
 10
181.7973664122
 20
187.7949323904
 11
181.7973664122
 21
186.4725639654
  0
LINE
  5
294
100
AcDbEntity
  8
0
100
AcDbLine
 62
7
  6
CONTINUOUS
 10
181.7973664122
 20
182.4455561127
 11
181.7973664122
 21
180.9186165804
  0
LINE
  5
295
100
AcDbEntity
  8
0
100
AcDbLine
 62
7
  6
CONTINUOUS
 10
181.7973664122
 20
171.9265112904
 11
181.7973664122
 21
168.3473007534
  0
LINE
  5
296
100
AcDbEntity
  8
0
100
AcDbLine
 62
7
  6
CONTINUOUS
 10
183.1197348372
 20
168.6854586444
 11
183.1197348372
 21
170.3396691804
  0
LINE
  5
297
100
AcDbEntity
  8
0
100
AcDbLine
 62
7
  6
CONTINUOUS
 10
185.1121032642
 20
186.4725639654
 11
185.1121032642
 21
185.1227900927
  0
LINE
  5
298
100
AcDbEntity
  8
0
100
AcDbLine
 62
7
  6
CONTINUOUS
 10
186.4344716892
 20
184.2862481694
 11
186.4344716892
 21
186.4725639654
  0
LINE
  5
299
100
AcDbEntity
  8
0
100
AcDbLine
 62
7
  6
CONTINUOUS
 10
187.6157874822
 20
170.3396691804
 11
187.6157874822
 21
171.9265112904
  0
LINE
  5
29A
100
AcDbEntity
  8
0
100
AcDbLine
 62
7
  6
CONTINUOUS
 10
187.6157874822
 20
186.4725639654
 11
187.6157874822
 21
187.7949323904
  0
LINE
  5
29B
100
AcDbEntity
  8
0
100
AcDbLine
 62
7
  6
CONTINUOUS
 10
188.4092085372
 20
187.7949323904
 11
188.4092085372
 21
184.2862481694
  0
LINE
  5
29C
100
AcDbEntity
  8
0
100
AcDbLine
 62
7
  6
CONTINUOUS
 10
188.4092085372
 20
171.9265112904
 11
188.4092085372
 21
168.6854585609
  0
LINE
  5
29D
100
AcDbEntity
  8
0
100
AcDbLine
 62
7
  6
CONTINUOUS
 10
189.7315769622
 20
168.3473007534
 11
189.7315769622
 21
171.9265112904
  0
LINE
  5
29E
100
AcDbEntity
  8
0
100
AcDbLine
 62
7
  6
CONTINUOUS
 10
189.7315769622
 20
173.5133534004
 11
189.7315769622
 21
175.1001955104
  0
LINE
  5
29F
100
AcDbEntity
  8
0
100
AcDbLine
 62
7
  6
CONTINUOUS
 10
189.7315769622
 20
178.2738797304
 11
189.7315769622
 21
179.8607218404
  0
LINE
  5
2A0
100
AcDbEntity
  8
0
100
AcDbLine
 62
7
  6
CONTINUOUS
 10
189.7315769622
 20
183.7573007994
 11
189.7315769622
 21
187.7949323904
  0
LINE
  5
2A1
100
AcDbEntity
  8
BEZUGSACHSEN
100
AcDbLine
 62
7
  6
CONTINUOUS
 10
195.5573665122
 20
215.2649323904
 11
195.5573665122
 21
138.2649323904
  0
LINE
  5
2A2
100
AcDbEntity
  8
BEZUGSACHSEN
100
AcDbLine
 62
7
  6
CONTINUOUS
 10
181.0092339352
 20
252.4915148369
 11
194.7520920906
 21
219.3133202923
  0
LINE
  5
2A3
100
AcDbEntity
  8
BEZUGSACHSEN
100
AcDbLine
 62
7
  6
CONTINUOUS
 10
142.1057543141
 20
271.9596580688
 11
175.2839488586
 21
258.2167999134
  0
LINE
  5
2A4
100
AcDbEntity
  8
KONSTRUKTIONSELEMENTE
100
AcDbLine
 62
7
  6
CONTINUOUS
 10
294.1500135294
 20
131.7649323904
 11
291.1500135294
 21
131.7649323904
  0
LINE
  5
2A5
100
AcDbEntity
  8
KONSTRUKTIONSELEMENTE
100
AcDbLine
 62
7
  6
CONTINUOUS
 10
255.4185804305
 20
131.7649323904
 11
252.4185804305
 21
131.7649323904
  0
LINE
  5
2A6
100
AcDbEntity
  8
BEZUGSACHSEN
100
AcDbLine
 62
7
  6
CONTINUOUS
 10
273.5342969799
 20
134.2649323904
 11
273.0342969799
 21
134.2649323904
  0
LINE
  5
2A7
100
AcDbEntity
  8
KONSTRUKTIONSELEMENTE
100
AcDbLine
 62
7
  6
CONTINUOUS
 10
295.6789944715
 20
134.7649323904
 11
294.6789944715
 21
134.7649323904
  0
LINE
  5
2A8
100
AcDbEntity
  8
KONSTRUKTIONSELEMENTE
100
AcDbLine
 62
7
  6
CONTINUOUS
 10
251.8895994884
 20
134.7649323904
 11
250.8895994884
 21
134.7649323904
  0
LINE
  5
2A9
100
AcDbEntity
  8
KONSTRUKTIONSELEMENTE
100
AcDbLine
 62
7
  6
CONTINUOUS
 10
250.8895994884
 20
134.7649323904
 11
242.7842969799
 21
147.1388252779
  0
LINE
  5
2AA
100
AcDbEntity
  8
KONSTRUKTIONSELEMENTE
100
AcDbLine
 62
7
  6
CONTINUOUS
 10
252.4185804305
 20
131.7649323904
 11
251.8895994884
 21
134.7649323904
  0
LINE
  5
2AB
100
AcDbEntity
  8
0
100
AcDbLine
 62
7
  6
CONTINUOUS
 10
284.5342969799
 20
179.8607218404
 11
285.0342969799
 21
179.8607218404
  0
LINE
  5
2AC
100
AcDbEntity
  8
0
100
AcDbLine
 62
7
  6
CONTINUOUS
 10
284.5342969799
 20
180.9186165804
 11
285.0342969799
 21
180.9186165804
  0
LINE
  5
2AD
100
AcDbEntity
  8
0
100
AcDbLine
 62
7
  6
CONTINUOUS
 10
284.5342969799
 20
182.4455561127
 11
285.0342969799
 21
182.4455561127
  0
LINE
  5
2AE
100
AcDbEntity
  8
0
100
AcDbLine
 62
7
  6
CONTINUOUS
 10
257.5692969799
 20
171.9047253315
 11
257.5692969799
 21
171.319555749
  0
LINE
  5
2AF
100
AcDbEntity
  8
0
100
AcDbLine
 62
7
  6
CONTINUOUS
 10
257.9442976952
 20
172.1265412553
 11
257.9442976952
 21
171.5464067847
  0
LINE
  5
2B0
100
AcDbEntity
  8
0
100
AcDbLine
 62
7
  6
CONTINUOUS
 10
258.1317969799
 20
172.2347594346
 11
258.1317969799
 21
171.6570497961
  0
LINE
  5
2B1
100
AcDbEntity
  8
0
100
AcDbLine
 62
7
  6
CONTINUOUS
 10
258.3192962647
 20
172.3412141769
 11
258.3192962647
 21
171.7658699426
  0
LINE
  5
2B2
100
AcDbEntity
  8
KONSTRUKTIONSELEMENTE
100
AcDbLine
 62
7
  6
CONTINUOUS
 10
244.0865235001
 20
152.6562329805
 11
242.7842969799
 21
147.1388252779
  0
LINE
  5
2B3
100
AcDbEntity
  8
0
100
AcDbLine
 62
7
  6
CONTINUOUS
 10
284.5342969799
 20
186.4725639654
 11
285.0342969799
 21
186.4725639654
  0
LINE
  5
2B4
100
AcDbEntity
  8
0
100
AcDbLine
 62
7
  6
CONTINUOUS
 10
258.8817962647
 20
172.6502066711
 11
258.8817962647
 21
172.0816186018
  0
LINE
  5
2B5
100
AcDbEntity
  8
0
100
AcDbLine
 62
7
  6
CONTINUOUS
 10
259.6317976952
 20
173.0387158332
 11
259.6317976952
 21
172.4783983445
  0
LINE
  5
2B6
100
AcDbEntity
  8
0
100
AcDbLine
 62
7
  6
CONTINUOUS
 10
260.5692962647
 20
173.4881853888
 11
260.5692962647
 21
172.9371379839
  0
LINE
  5
2B7
100
AcDbEntity
  8
0
100
AcDbLine
 62
7
  6
CONTINUOUS
 10
260.8342969799
 20
173.608199081
 11
260.8342969799
 21
173.0595747219
  0
LINE
  5
2B8
100
AcDbEntity
  8
BEZUGSACHSEN
100
AcDbLine
 62
7
  6
CONTINUOUS
 10
262.0342969799
 20
268.7649320404
 11
262.0342969799
 21
145.2649323904
  0
LINE
  5
2B9
100
AcDbEntity
  8
0
100
AcDbLine
 62
7
  6
CONTINUOUS
 10
284.5342969799
 20
187.7949323904
 11
285.0342969799
 21
187.7949323904
  0
LINE
  5
2BA
100
AcDbEntity
  8
KONSTRUKTIONSELEMENTE
100
AcDbLine
 62
7
  6
CONTINUOUS
 10
284.5606084294
 20
149.8691741104
 11
291.1500135294
 21
131.7649323904
  0
LINE
  5
2BB
100
AcDbEntity
  8
KONSTRUKTIONSELEMENTE
100
AcDbLine
 62
7
  6
CONTINUOUS
 10
255.4185804305
 20
131.7649323904
 11
262.0079855305
 21
149.8691741104
  0
LINE
  5
2BC
100
AcDbEntity
  8
BEZUGSACHSEN
100
AcDbLine
 62
7
  6
CONTINUOUS
 10
284.5342969799
 20
268.7649320404
 11
284.5342969799
 21
268.2641399388
  0
LINE
  5
2BD
100
AcDbEntity
  8
RUNDUNGEN
100
AcDbLine
 62
7
  6
CONTINUOUS
 10
284.5342969799
 20
268.2641399388
 11
284.5342969799
 21
145.2649323904
  0
LINE
  5
2BE
100
AcDbEntity
  8
0
100
AcDbLine
 62
7
  6
CONTINUOUS
 10
285.0342969799
 20
187.7949323904
 11
285.0342969799
 21
180.9186165804
  0
LINE
  5
2BF
100
AcDbEntity
  8
0
100
AcDbLine
 62
7
  6
CONTINUOUS
 10
285.0342969799
 20
179.8607218404
 11
285.0342969799
 21
173.9107191193
  0
LINE
  5
2C0
100
AcDbEntity
  8
0
100
AcDbLine
 62
7
  6
CONTINUOUS
 10
285.7342969799
 20
173.608199081
 11
285.7342969799
 21
173.0595747219
  0
LINE
  5
2C1
100
AcDbEntity
  8
0
100
AcDbLine
 62
7
  6
CONTINUOUS
 10
286.4442970693
 20
173.2797356361
 11
286.4442970693
 21
172.724427891
  0
LINE
  5
2C2
100
AcDbEntity
  8
0
100
AcDbLine
 62
7
  6
CONTINUOUS
 10
289.0692969799
 20
171.862514175
 11
289.0692969799
 21
171.2763763911
  0
LINE
  5
2C3
100
AcDbEntity
  8
0
100
AcDbLine
 62
7
  6
CONTINUOUS
 10
290.1942969799
 20
171.1480350377
 11
290.1942969799
 21
170.5450030118
  0
LINE
  5
2C4
100
AcDbEntity
  8
0
100
AcDbLine
 62
7
  6
CONTINUOUS
 10
302.4820704597
 20
152.6562329805
 11
303.7842969799
 21
147.1388252779
  0
LINE
  5
2C5
100
AcDbEntity
  8
KONSTRUKTIONSELEMENTE
100
AcDbLine
 62
7
  6
CONTINUOUS
 10
294.6789944715
 20
134.7649323904
 11
294.1500135294
 21
131.7649323904
  0
LINE
  5
2C6
100
AcDbEntity
  8
KONSTRUKTIONSELEMENTE
100
AcDbLine
 62
7
  6
CONTINUOUS
 10
301.5183401346
 20
143.6795210431
 11
295.6789944715
 21
134.7649323904
  0
LINE
  5
2C7
100
AcDbEntity
  8
0
100
AcDbLine
 62
7
  6
CONTINUOUS
 10
301.5183401346
 20
143.6795210431
 11
303.7842969799
 21
147.1388252779
  0
LINE
  5
2C8
100
AcDbEntity
  8
0
100
AcDbLine
 62
7
  6
CONTINUOUS
 10
266.0342969799
 20
272.7649324904
 11
280.5342969799
 21
272.7649324904
  0
LINE
  5
2C9
100
AcDbEntity
  8
BEZUGSACHSEN
100
AcDbLine
 62
7
  6
CONTINUOUS
 10
80.5573663122
 20
57.2027099237
 11
80.5573663122
 21
71.7027099237
  0
LINE
  5
2CA
100
AcDbEntity
  8
0
100
AcDbLine
 62
7
  6
CONTINUOUS
 10
108.0573664122
 20
36.218666769
 11
108.0573664122
 21
53.2027099237
  0
LINE
  5
2CB
100
AcDbEntity
  8
0
100
AcDbLine
 62
7
  6
CONTINUOUS
 10
108.0573664122
 20
75.7027099237
 11
108.0573664122
 21
90.7307060555
  0
LINE
  5
2CC
100
AcDbEntity
  8
KONSTRUKTIONSELEMENTE
100
AcDbLine
 62
7
  6
CONTINUOUS
 10
108.0573664122
 20
90.7307060555
 11
108.0573664122
 21
92.6867530783
  0
LINE
  5
2CD
100
AcDbEntity
  8
0
100
AcDbLine
 62
7
  6
CONTINUOUS
 10
111.0573664122
 20
33.9527099237
 11
165.0573664122
 21
33.9527099237
  0
LINE
  5
2CE
100
AcDbEntity
  8
0
100
AcDbLine
 62
7
  6
CONTINUOUS
 10
113.6673664122
 20
53.2027099237
 11
113.6673664122
 21
52.0027099237
  0
LINE
  5
2CF
100
AcDbEntity
  8
0
100
AcDbLine
 62
7
  6
CONTINUOUS
 10
115.1673664122
 20
53.2027099237
 11
115.1673664122
 21
52.0027099237
  0
LINE
  5
2D0
100
AcDbEntity
  8
0
100
AcDbLine
 62
7
  6
CONTINUOUS
 10
115.7673664122
 20
53.2027099237
 11
115.7673664122
 21
52.0027099237
  0
LINE
  5
2D1
100
AcDbEntity
  8
0
100
AcDbLine
 62
7
  6
CONTINUOUS
 10
127.5733237677
 20
78.8552106389
 11
126.9988557511
 21
78.1052092084
  0
LINE
  5
2D2
100
AcDbEntity
  8
0
100
AcDbLine
 62
7
  6
CONTINUOUS
 10
128.3392811232
 20
79.4177106389
 11
127.5733237677
 21
78.8552106389
  0
LINE
  5
2D3
100
AcDbEntity
  8
0
100
AcDbLine
 62
7
  6
CONTINUOUS
 10
128.9137491398
 20
79.6052099237
 11
128.3392811232
 21
79.4177106389
  0
LINE
  5
2D4
100
AcDbEntity
  8
0
100
AcDbLine
 62
7
  6
CONTINUOUS
 10
122.4873664122
 20
53.2027099237
 11
122.4873664122
 21
52.0027099237
  0
LINE
  5
2D5
100
AcDbEntity
  8
0
100
AcDbLine
 62
7
  6
CONTINUOUS
 10
126.9988557511
 20
78.1052092084
 11
126.8073664122
 21
77.1677106389
  0
LINE
  5
2D6
100
AcDbEntity
  8
0
100
AcDbLine
 62
7
  6
CONTINUOUS
 10
128.1477917843
 20
77.9177099237
 11
127.9563024455
 21
77.3552099237
  0
LINE
  5
2D7
100
AcDbEntity
  8
0
100
AcDbLine
 62
7
  6
CONTINUOUS
 10
131.2116217428
 20
79.0427099237
 11
130.828643065
 21
78.2927106389
  0
LINE
  5
2D8
100
AcDbEntity
  8
0
100
AcDbLine
 62
7
  6
CONTINUOUS
 10
132.360557776
 20
78.6677092084
 11
131.9775790983
 21
78.1052092084
  0
LINE
  5
2D9
100
AcDbEntity
  8
0
100
AcDbLine
 62
7
  6
CONTINUOUS
 10
128.5307704621
 20
78.2927106389
 11
128.1477917843
 21
77.9177099237
  0
LINE
  5
2DA
100
AcDbEntity
  8
0
100
AcDbLine
 62
7
  6
CONTINUOUS
 10
131.9775790983
 20
79.7927092084
 11
131.2116217428
 21
79.0427099237
  0
LINE
  5
2DB
100
AcDbEntity
  8
0
100
AcDbLine
 62
7
  6
CONTINUOUS
 10
132.9350260609
 20
79.0427099237
 11
132.360557776
 21
78.6677092084
  0
LINE
  5
2DC
100
AcDbEntity
  8
0
100
AcDbLine
 62
7
  6
CONTINUOUS
 10
128.9137491398
 20
78.4802099237
 11
128.5307704621
 21
78.2927106389
  0
LINE
  5
2DD
100
AcDbEntity
  8
0
100
AcDbLine
 62
7
  6
CONTINUOUS
 10
132.743536722
 20
80.1677099237
 11
131.9775790983
 21
79.7927092084
  0
LINE
  5
2DE
100
AcDbEntity
  8
0
100
AcDbLine
 62
7
  6
CONTINUOUS
 10
147.8566731949
 20
52.5802099293
 11
146.5162475546
 21
52.3927099237
  0
LINE
  5
2DF
100
AcDbEntity
  8
0
100
AcDbLine
 62
7
  6
CONTINUOUS
 10
113.6673664122
 20
52.0027099237
 11
115.1673664122
 21
52.0027099237
  0
LINE
  5
2E0
100
AcDbEntity
  8
0
100
AcDbLine
 62
7
  6
CONTINUOUS
 10
115.7673664122
 20
52.0027099237
 11
122.4873664122
 21
52.0027099237
  0
LINE
  5
2E1
100
AcDbEntity
  8
0
100
AcDbLine
 62
7
  6
CONTINUOUS
 10
132.3273662048
 20
53.2027099237
 11
135.8073664122
 21
52.0427099237
  0
LINE
  5
2E2
100
AcDbEntity
  8
0
100
AcDbLine
 62
7
  6
CONTINUOUS
 10
128.9458461942
 20
53.2027099237
 11
134.6584302449
 21
51.2927098343
  0
LINE
  5
2E3
100
AcDbEntity
  8
0
100
AcDbLine
 62
7
  6
CONTINUOUS
 10
126.8073664122
 20
77.1677106389
 11
126.8073664122
 21
76.2302099237
  0
LINE
  5
2E4
100
AcDbEntity
  8
0
100
AcDbLine
 62
7
  6
CONTINUOUS
 10
126.8073664122
 20
48.6677099237
 11
126.8073664122
 21
47.5427099237
  0
LINE
  5
2E5
100
AcDbEntity
  8
0
100
AcDbLine
 62
7
  6
CONTINUOUS
 10
127.9563024455
 20
77.3552099237
 11
127.9563024455
 21
76.2302099237
  0
LINE
  5
2E6
100
AcDbEntity
  8
0
100
AcDbLine
 62
7
  6
CONTINUOUS
 10
128.9137491398
 20
79.6052099237
 11
128.9137491398
 21
78.4802099237
  0
LINE
  5
2E7
100
AcDbEntity
  8
0
100
AcDbLine
 62
7
  6
CONTINUOUS
 10
130.828643065
 20
78.2927106389
 11
130.6371537262
 21
77.3552099237
  0
LINE
  5
2E8
100
AcDbEntity
  8
0
100
AcDbLine
 62
7
  6
CONTINUOUS
 10
131.9775790983
 20
78.1052092084
 11
131.7860897594
 21
77.3552099237
  0
LINE
  5
2E9
100
AcDbEntity
  8
0
100
AcDbLine
 62
7
  6
CONTINUOUS
 10
131.7860897594
 20
76.2302099237
 11
131.651408796
 21
75.7027099237
  0
LINE
  5
2EA
100
AcDbEntity
  8
0
100
AcDbLine
 62
7
  6
CONTINUOUS
 10
130.6371537262
 20
76.2302099237
 11
130.4575792795
 21
75.7027099237
  0
LINE
  5
2EB
100
AcDbEntity
  8
0
100
AcDbLine
 62
7
  6
CONTINUOUS
 10
145.1758221825
 20
52.3927099237
 11
146.5162475546
 21
52.3927099237
  0
LINE
  5
2EC
100
AcDbEntity
  8
0
100
AcDbLine
 62
7
  6
CONTINUOUS
 10
189.7315769622
 20
52.7027099237
 11
181.7973664122
 21
52.7027099237
  0
LINE
  5
2ED
100
AcDbEntity
  8
RUNDUNGEN
100
AcDbLine
 62
7
  6
CONTINUOUS
 10
135.5397122398
 20
53.2027099237
 11
84.5573663122
 21
53.2027099237
  0
LINE
  5
2EE
100
AcDbEntity
  8
BEZUGSACHSEN
100
AcDbLine
 62
7
  6
CONTINUOUS
 10
135.5397122398
 20
53.2027099237
 11
191.5573665122
 21
53.2027099237
  0
LINE
  5
2EF
100
AcDbEntity
  8
0
100
AcDbLine
 62
7
  6
CONTINUOUS
 10
143.8353968103
 20
52.5802099293
 11
145.1758221825
 21
52.3927099237
  0
LINE
  5
2F0
100
AcDbEntity
  8
0
100
AcDbLine
 62
7
  6
CONTINUOUS
 10
142.8779495795
 20
52.9552099237
 11
143.8353968103
 21
52.5802099293
  0
LINE
  5
2F1
100
AcDbEntity
  8
0
100
AcDbLine
 62
7
  6
CONTINUOUS
 10
130.6371537262
 20
77.3552099237
 11
130.6371537262
 21
76.2302099237
  0
LINE
  5
2F2
100
AcDbEntity
  8
0
100
AcDbLine
 62
7
  6
CONTINUOUS
 10
131.7860897594
 20
77.3552099237
 11
131.7860897594
 21
76.2302099237
  0
LINE
  5
2F3
100
AcDbEntity
  8
0
100
AcDbLine
 62
7
  6
CONTINUOUS
 10
135.8073664122
 20
75.8552092084
 11
135.7762175756
 21
75.7027099237
  0
LINE
  5
2F4
100
AcDbEntity
  8
0
100
AcDbLine
 62
7
  6
CONTINUOUS
 10
134.6584302449
 20
75.8552092084
 11
134.6194942248
 21
75.7027099237
  0
LINE
  5
2F5
100
AcDbEntity
  8
0
100
AcDbLine
 62
7
  6
CONTINUOUS
 10
142.5409283431
 20
53.2027099237
 11
142.8779495795
 21
52.9552099237
  0
LINE
  5
2F6
100
AcDbEntity
  8
0
100
AcDbLine
 62
7
  6
CONTINUOUS
 10
127.9563024455
 20
76.2302099237
 11
128.1358768921
 21
75.7027099237
  0
LINE
  5
2F7
100
AcDbEntity
  8
0
100
AcDbLine
 62
7
  6
CONTINUOUS
 10
126.8073664122
 20
76.2302099237
 11
126.9420473757
 21
75.7027099237
  0
LINE
  5
2F8
100
AcDbEntity
  8
0
100
AcDbLine
 62
7
  6
CONTINUOUS
 10
134.6584302449
 20
77.3552099237
 11
134.6584302449
 21
75.8552092084
  0
LINE
  5
2F9
100
AcDbEntity
  8
0
100
AcDbLine
 62
7
  6
CONTINUOUS
 10
135.8073664122
 20
77.3552099237
 11
135.8073664122
 21
75.8552092084
  0
LINE
  5
2FA
100
AcDbEntity
  8
0
100
AcDbLine
 62
7
  6
CONTINUOUS
 10
135.8073664122
 20
52.0427099237
 11
135.8073664122
 21
50.5427100131
  0
LINE
  5
2FB
100
AcDbEntity
  8
0
100
AcDbLine
 62
7
  6
CONTINUOUS
 10
134.466940906
 20
78.1052092084
 11
134.6584302449
 21
77.3552099237
  0
LINE
  5
2FC
100
AcDbEntity
  8
0
100
AcDbLine
 62
7
  6
CONTINUOUS
 10
135.6158770566
 20
78.2927106389
 11
135.8073664122
 21
77.3552099237
  0
LINE
  5
2FD
100
AcDbEntity
  8
0
100
AcDbLine
 62
7
  6
CONTINUOUS
 10
134.0839620941
 20
78.6677092084
 11
134.466940906
 21
78.1052092084
  0
LINE
  5
2FE
100
AcDbEntity
  8
0
100
AcDbLine
 62
7
  6
CONTINUOUS
 10
135.2328983285
 20
79.0427099237
 11
135.6158770566
 21
78.2927106389
  0
LINE
  5
2FF
100
AcDbEntity
  8
0
100
AcDbLine
 62
7
  6
CONTINUOUS
 10
144.2183754881
 20
76.9552106389
 11
144.2183754881
 21
75.7027099237
  0
LINE
  5
300
100
AcDbEntity
  8
0
100
AcDbLine
 62
7
  6
CONTINUOUS
 10
144.9843328436
 20
76.9552106389
 11
144.9843328436
 21
75.7027099237
  0
LINE
  5
301
100
AcDbEntity
  8
0
100
AcDbLine
 62
7
  6
CONTINUOUS
 10
149.580077446
 20
76.5802099237
 11
149.4008434988
 21
75.7027099237
  0
LINE
  5
302
100
AcDbEntity
  8
0
100
AcDbLine
 62
7
  6
CONTINUOUS
 10
134.466940906
 20
79.7927092084
 11
135.2328983285
 21
79.0427099237
  0
LINE
  5
303
100
AcDbEntity
  8
0
100
AcDbLine
 62
7
  6
CONTINUOUS
 10
150.3460348685
 20
76.5802099237
 11
150.1966731711
 21
75.7027099237
  0
LINE
  5
304
100
AcDbEntity
  8
0
100
AcDbLine
 62
7
  6
CONTINUOUS
 10
134.6584302449
 20
51.2927098343
 11
126.8073664122
 21
48.6677099237
  0
LINE
  5
305
100
AcDbEntity
  8
0
100
AcDbLine
 62
7
  6
CONTINUOUS
 10
135.8073664122
 20
50.5427100131
 11
126.8073664122
 21
47.5427099237
  0
LINE
  5
306
100
AcDbEntity
  8
BEZUGSACHSEN
100
AcDbLine
 62
7
  6
CONTINUOUS
 10
84.5573663122
 20
75.7027099237
 11
191.5573665122
 21
75.7027099237
  0
LINE
  5
307
100
AcDbEntity
  8
0
100
AcDbLine
 62
7
  6
CONTINUOUS
 10
149.580077446
 20
76.5802099237
 11
150.3460348685
 21
76.5802099237
  0
LINE
  5
308
100
AcDbEntity
  8
0
100
AcDbLine
 62
7
  6
CONTINUOUS
 10
144.2183754881
 20
76.9552106389
 11
144.9843328436
 21
76.9552106389
  0
LINE
  5
309
100
AcDbEntity
  8
0
100
AcDbLine
 62
7
  6
CONTINUOUS
 10
133.7009834164
 20
80.1677099237
 11
134.466940906
 21
79.7927092084
  0
LINE
  5
30A
100
AcDbEntity
  8
0
100
AcDbLine
 62
7
  6
CONTINUOUS
 10
133.5094940775
 20
79.0427099237
 11
134.0839620941
 21
78.6677092084
  0
LINE
  5
30B
100
AcDbEntity
  8
0
100
AcDbLine
 62
7
  6
CONTINUOUS
 10
149.1511412893
 20
53.2027099237
 11
148.8141200234
 21
52.9552099237
  0
LINE
  5
30C
100
AcDbEntity
  8
0
100
AcDbLine
 62
7
  6
CONTINUOUS
 10
148.8141200234
 20
52.9552099237
 11
147.8566731949
 21
52.5802099293
  0
LINE
  5
30D
100
AcDbEntity
  8
0
100
AcDbLine
 62
7
  6
CONTINUOUS
 10
132.9350260609
 20
79.0427099237
 11
133.5094940775
 21
79.0427099237
  0
LINE
  5
30E
100
AcDbEntity
  8
0
100
AcDbLine
 62
7
  6
CONTINUOUS
 10
132.743536722
 20
80.1677099237
 11
133.7009834164
 21
80.1677099237
  0
LINE
  5
30F
100
AcDbEntity
  8
KONSTRUKTIONSELEMENTE
100
AcDbLine
 62
7
  6
CONTINUOUS
 10
168.0573664122
 20
92.6867530783
 11
168.0573664122
 21
90.7307060555
  0
LINE
  5
310
100
AcDbEntity
  8
0
100
AcDbLine
 62
7
  6
CONTINUOUS
 10
168.0573664122
 20
90.7307060555
 11
168.0573664122
 21
75.7027099237
  0
LINE
  5
311
100
AcDbEntity
  8
0
100
AcDbLine
 62
7
  6
CONTINUOUS
 10
168.0573664122
 20
53.2027099237
 11
168.0573664122
 21
36.218666769
  0
LINE
  5
312
100
AcDbEntity
  8
KONSTRUKTIONSELEMENTE
100
AcDbLine
 62
7
  6
CONTINUOUS
 10
111.0573664122
 20
94.9527099237
 11
165.0573664122
 21
94.9527099237
  0
LINE
  5
313
100
AcDbEntity
  8
0
100
AcDbLine
 62
7
  6
CONTINUOUS
 10
181.7973664122
 20
53.2027099237
 11
181.7973664122
 21
52.7027099237
  0
LINE
  5
314
100
AcDbEntity
  8
0
100
AcDbLine
 62
7
  6
CONTINUOUS
 10
187.6157874822
 20
53.2027099237
 11
187.6157874822
 21
52.7027099237
  0
LINE
  5
315
100
AcDbEntity
  8
0
100
AcDbLine
 62
7
  6
CONTINUOUS
 10
188.4092085372
 20
53.2027099237
 11
188.4092085372
 21
52.7027099237
  0
LINE
  5
316
100
AcDbEntity
  8
0
100
AcDbLine
 62
7
  6
CONTINUOUS
 10
189.7315769622
 20
53.2027099237
 11
189.7315769622
 21
52.7027099237
  0
LINE
  5
317
100
AcDbEntity
  8
BEZUGSACHSEN
100
AcDbLine
 62
7
  6
CONTINUOUS
 10
195.5573665122
 20
71.7027099237
 11
195.5573665122
 21
57.2027099237
  0
ARC
  5
318
100
AcDbEntity
  8
RUNDUNGEN
100
AcDbCircle
 62
7
  6
CONTINUOUS
 10
115.5573663122
 20
167.7649323904
 40
11.0
100
AcDbArc
 50
180.0
 51
227.0127508465
  0
ARC
  5
319
100
AcDbEntity
  8
RUNDUNGEN
100
AcDbCircle
 62
7
  6
CONTINUOUS
 10
84.5573663122
 20
138.2649323904
 40
4.0
100
AcDbArc
 50
180.0
 51
270.0
  0
ARC
  5
31A
100
AcDbEntity
  8
BEZUGSACHSEN
100
AcDbCircle
 62
7
  6
CONTINUOUS
 10
118.2573664122
 20
183.6540164917
 40
3.8
100
AcDbArc
 50
270.0
 51
57.9383738092
  0
ARC
  5
31B
100
AcDbEntity
  8
RUNDUNGEN
100
AcDbCircle
 62
7
  6
CONTINUOUS
 10
118.2573664122
 20
183.6540164917
 40
3.8
100
AcDbArc
 50
270.0
 51
57.9383738092
  0
ARC
  5
31C
100
AcDbEntity
  8
RUNDUNGEN
100
AcDbCircle
 62
7
  6
CONTINUOUS
 10
108.0573663122
 20
176.3540164917
 40
3.5
100
AcDbArc
 50
90.0
 51
180.0
  0
ARC
  5
31D
100
AcDbEntity
  8
0
100
AcDbCircle
 62
7
  6
CONTINUOUS
 10
111.0573664122
 20
172.7649323904
 40
3.0
100
AcDbArc
 50
90.0
 51
180.0
  0
ARC
  5
31E
100
AcDbEntity
  8
BEZUGSACHSEN
100
AcDbCircle
 62
7
  6
CONTINUOUS
 10
91.1363137122
 20
215.2649323904
 40
10.5789474
100
AcDbArc
 50
157.5
 51
180.0
  0
ARC
  5
31F
100
AcDbEntity
  8
RUNDUNGEN
100
AcDbCircle
 62
7
  6
CONTINUOUS
 10
91.1363137122
 20
215.2649323904
 40
10.5789474
100
AcDbArc
 50
157.5
 51
180.0
  0
ARC
  5
320
100
AcDbEntity
  8
BEZUGSACHSEN
100
AcDbCircle
 62
7
  6
CONTINUOUS
 10
104.8791718676
 20
248.443126935
 40
10.5789474
100
AcDbArc
 50
112.5
 51
157.5
  0
ARC
  5
321
100
AcDbEntity
  8
RUNDUNGEN
100
AcDbCircle
 62
7
  6
CONTINUOUS
 10
104.8791718676
 20
248.443126935
 40
10.5789474
100
AcDbArc
 50
112.5
 51
157.5
  0
ARC
  5
322
100
AcDbEntity
  8
0
100
AcDbCircle
 62
7
  6
CONTINUOUS
 10
157.1430152703
 20
160.7821573888
 40
15.4548716283
100
AcDbArc
 50
92.8649116789
 51
93.2320477022
  0
ARC
  5
323
100
AcDbEntity
  8
0
100
AcDbCircle
 62
7
  6
CONTINUOUS
 10
160.9490798563
 20
160.7826246004
 40
15.4544037263
100
AcDbArc
 50
86.767951758
 51
87.1349253861
  0
ARC
  5
324
100
AcDbEntity
  8
BEZUGSACHSEN
100
AcDbCircle
 62
7
  6
CONTINUOUS
 10
160.5573665122
 20
167.7649323904
 40
11.0
100
AcDbArc
 50
312.9872491535
 51
360.0
  0
ARC
  5
325
100
AcDbEntity
  8
BEZUGSACHSEN
100
AcDbCircle
 62
7
  6
CONTINUOUS
 10
191.5573665122
 20
138.2649323904
 40
4.0
100
AcDbArc
 50
270.0
 51
360.0
  0
ARC
  5
326
100
AcDbEntity
  8
BEZUGSACHSEN
100
AcDbCircle
 62
7
  6
CONTINUOUS
 10
157.8573664122
 20
183.6540164917
 40
3.8
100
AcDbArc
 50
122.0616261908
 51
270.0
  0
ARC
  5
327
100
AcDbEntity
  8
BEZUGSACHSEN
100
AcDbCircle
 62
7
  6
CONTINUOUS
 10
168.0573665122
 20
176.3540164917
 40
3.5
100
AcDbArc
 50
1.4090868945
 51
90.0
  0
ARC
  5
328
100
AcDbEntity
  8
0
100
AcDbCircle
 62
7
  6
CONTINUOUS
 10
184.9710506322
 20
176.6870376204
 40
3.17368422
100
AcDbArc
 50
90.0
 51
270.0
  0
ARC
  5
329
100
AcDbEntity
  8
0
100
AcDbCircle
 62
7
  6
CONTINUOUS
 10
165.0573664122
 20
172.7649323904
 40
3.0
100
AcDbArc
 50
0.0
 51
90.0
  0
ARC
  5
32A
100
AcDbEntity
  8
0
100
AcDbCircle
 62
7
  6
CONTINUOUS
 10
184.7065769472
 20
168.3473007534
 40
2.909210535
100
AcDbArc
 50
180.0
 51
270.0
  0
ARC
  5
32B
100
AcDbEntity
  8
0
100
AcDbCircle
 62
7
  6
CONTINUOUS
 10
186.8223664272
 20
168.3473007534
 40
2.909210535
100
AcDbArc
 50
270.0
 51
360.0
  0
ARC
  5
32C
100
AcDbEntity
  8
0
100
AcDbCircle
 62
7
  6
CONTINUOUS
 10
187.4218401132
 20
183.7573007994
 40
2.309736849
100
AcDbArc
 50
201.1872687082
 51
360.0
  0
ARC
  5
32D
100
AcDbEntity
  8
0
100
AcDbCircle
 62
7
  6
CONTINUOUS
 10
186.7518401112
 20
168.6854585609
 40
1.657368426
100
AcDbArc
 50
270.01819492
 51
360.0
  0
ARC
  5
32E
100
AcDbEntity
  8
0
100
AcDbCircle
 62
7
  6
CONTINUOUS
 10
184.7771032632
 20
168.6854586444
 40
1.657368426
100
AcDbArc
 50
180.0
 51
270.0
  0
ARC
  5
32F
100
AcDbEntity
  8
0
100
AcDbCircle
 62
7
  6
CONTINUOUS
 10
184.9710506322
 20
176.6870376204
 40
1.58684211
100
AcDbArc
 50
90.0
 51
270.0
  0
ARC
  5
330
100
AcDbEntity
  8
0
100
AcDbCircle
 62
7
  6
CONTINUOUS
 10
183.7897348392
 20
185.1227900927
 40
1.322368425
100
AcDbArc
 50
300.0
 51
360.0
  0
ARC
  5
331
100
AcDbEntity
  8
0
100
AcDbCircle
 62
7
  6
CONTINUOUS
 10
187.4218401132
 20
184.2862481694
 40
0.987368424
100
AcDbArc
 50
180.0
 51
360.0
  0
ARC
  5
332
100
AcDbEntity
  8
RUNDUNGEN
100
AcDbCircle
 62
7
  6
CONTINUOUS
 10
138.0573664122
 20
215.2649323904
 40
33.5000001
100
AcDbArc
 50
180.0
 51
237.9383740056
  0
ARC
  5
333
100
AcDbEntity
  8
BEZUGSACHSEN
100
AcDbCircle
 62
7
  6
CONTINUOUS
 10
138.0573664122
 20
215.2649323904
 40
33.5000001
100
AcDbArc
 50
302.0616259944
 51
180.0
  0
ARC
  5
334
100
AcDbEntity
  8
BEZUGSACHSEN
100
AcDbCircle
 62
7
  6
CONTINUOUS
 10
184.9784191122
 20
215.2649323904
 40
10.5789474
100
AcDbArc
 50
0.0
 51
22.5
  0
ARC
  5
335
100
AcDbEntity
  8
BEZUGSACHSEN
100
AcDbCircle
 62
7
  6
CONTINUOUS
 10
171.2355609568
 20
248.443126935
 40
10.5789474
100
AcDbArc
 50
22.5
 51
67.5
  0
ARC
  5
336
100
AcDbEntity
  8
BEZUGSACHSEN
100
AcDbCircle
 62
7
  6
CONTINUOUS
 10
138.0573664122
 20
262.1859850904
 40
10.5789474
100
AcDbArc
 50
67.5
 51
112.5
  0
ARC
  5
337
100
AcDbEntity
  8
0
100
AcDbCircle
 62
7
  6
CONTINUOUS
 10
273.2842969799
 20
145.7649323904
 40
30.5
100
AcDbArc
 50
111.6471316135
 51
121.0138928096
  0
ARC
  5
338
100
AcDbEntity
  8
0
100
AcDbCircle
 62
7
  6
CONTINUOUS
 10
273.2842969799
 20
145.7649323904
 40
30.5
100
AcDbArc
 50
56.3287960145
 51
68.3536592875
  0
ARC
  5
339
100
AcDbEntity
  8
0
100
AcDbCircle
 62
7
  6
CONTINUOUS
 10
273.2842969799
 20
145.7649323904
 40
30.0
100
AcDbArc
 50
112.0337092081
 51
166.72
  0
ARC
  5
33A
100
AcDbEntity
  8
0
100
AcDbCircle
 62
7
  6
CONTINUOUS
 10
273.2842969799
 20
145.7649323904
 40
30.0
100
AcDbArc
 50
13.28
 51
67.9662907919
  0
ARC
  5
33B
100
AcDbEntity
  8
0
100
AcDbCircle
 62
7
  6
CONTINUOUS
 10
273.2842969799
 20
146.1349323904
 40
12.77
100
AcDbArc
 50
181.5974790851
 51
358.4025209149
  0
ARC
  5
33C
100
AcDbEntity
  8
KONSTRUKTIONSELEMENTE
100
AcDbCircle
 62
7
  6
CONTINUOUS
 10
273.2842969799
 20
145.7649323904
 40
12.0
100
AcDbArc
 50
159.6678648501
 51
160.0
  0
ARC
  5
33D
100
AcDbEntity
  8
KONSTRUKTIONSELEMENTE
100
AcDbCircle
 62
7
  6
CONTINUOUS
 10
273.2842969799
 20
145.7649323904
 40
12.0
100
AcDbArc
 50
20.0
 51
20.3321247293
  0
ARC
  5
33E
100
AcDbEntity
  8
0
100
AcDbCircle
 62
7
  6
CONTINUOUS
 10
273.2842969799
 20
146.1349323904
 40
11.97
100
AcDbArc
 50
167.2820441698
 51
12.7179558302
  0
ARC
  5
33F
100
AcDbEntity
  8
BEZUGSACHSEN
100
AcDbCircle
 62
7
  6
CONTINUOUS
 10
273.5342969799
 20
145.2649323904
 40
11.0
100
AcDbArc
 50
270.0
 51
360.0
  0
ARC
  5
340
100
AcDbEntity
  8
RUNDUNGEN
100
AcDbCircle
 62
7
  6
CONTINUOUS
 10
273.5342969799
 20
145.2649323904
 40
11.0
100
AcDbArc
 50
270.0
 51
360.0
  0
ARC
  5
341
100
AcDbEntity
  8
BEZUGSACHSEN
100
AcDbCircle
 62
7
  6
CONTINUOUS
 10
273.0342969799
 20
145.2649323904
 40
11.0
100
AcDbArc
 50
180.0
 51
270.0
  0
ARC
  5
342
100
AcDbEntity
  8
BEZUGSACHSEN
100
AcDbCircle
 62
7
  6
CONTINUOUS
 10
266.0342969799
 20
268.7649324904
 40
4.0
100
AcDbArc
 50
90.0
 51
180.0
  0
ARC
  5
343
100
AcDbEntity
  8
BEZUGSACHSEN
100
AcDbCircle
 62
7
  6
CONTINUOUS
 10
280.5342969799
 20
268.7649324904
 40
4.0
100
AcDbArc
 50
0.0
 51
90.0
  0
ARC
  5
344
100
AcDbEntity
  8
RUNDUNGEN
100
AcDbCircle
 62
7
  6
CONTINUOUS
 10
84.5573663122
 20
57.2027099237
 40
4.0
100
AcDbArc
 50
180.0
 51
270.0
  0
ARC
  5
345
100
AcDbEntity
  8
BEZUGSACHSEN
100
AcDbCircle
 62
7
  6
CONTINUOUS
 10
191.5573665122
 20
57.2027099237
 40
4.0
100
AcDbArc
 50
270.0
 51
360.0
  0
ARC
  5
346
100
AcDbEntity
  8
BEZUGSACHSEN
100
AcDbCircle
 62
7
  6
CONTINUOUS
 10
84.5573663122
 20
71.7027099237
 40
4.0
100
AcDbArc
 50
90.0
 51
180.0
  0
ARC
  5
347
100
AcDbEntity
  8
BEZUGSACHSEN
100
AcDbCircle
 62
7
  6
CONTINUOUS
 10
191.5573665122
 20
71.7027099237
 40
4.0
100
AcDbArc
 50
0.0
 51
90.0
  0
SPLINE
  5
348
100
AcDbEntity
  8
0
100
AcDbSpline
 62
7
  6
CONTINUOUS
 70
0
 71
3
 72
11
 73
7
 74
0
 42
0.0000001
 43
0.0000001
 44
0.0000000001
 40
0.0
 40
0.0
 40
0.0
 40
0.0
 40
0.2322383349
 40
0.4999985277
 40
0.7677594807
 40
1.0
 40
1.0
 40
1.0
 40
1.0
 10
161.7215550651
 20
176.2177104955
 30
0.0
 10
161.3077692032
 20
176.23845055
 30
0.0
 10
160.4156576527
 20
176.2545510634
 30
0.0
 10
159.0460643679
 20
176.2591904015
 30
0.0
 10
157.6764671732
 20
176.2545515126
 30
0.0
 10
156.7843503801
 20
176.238451899
 30
0.0
 10
156.3705605688
 20
176.2177127976
 30
0.0
  0
SPLINE
  5
349
100
AcDbEntity
  8
0
100
AcDbSpline
 62
7
  6
CONTINUOUS
 70
0
 71
3
 72
27
 73
23
 74
0
 42
0.0000001
 43
0.0000001
 44
0.0000000001
 40
0.0
 40
0.0
 40
0.0
 40
0.0
 40
0.0043163112
 40
0.0124706909
 40
0.0249912325
 40
0.0419044007
 40
0.0883569571
 40
0.1502411262
 40
0.2253090677
 40
0.3108040265
 40
0.4035431407
 40
0.4999967678
 40
0.5964505247
 40
0.6891900029
 40
0.7746855501
 40
0.8497543527
 40
0.9116395506
 40
0.9580933017
 40
0.9750071111
 40
0.9875282877
 40
0.9956832663
 40
1.0
 40
1.0
 40
1.0
 40
1.0
 10
156.2460796964
 20
176.1904352161
 30
0.0
 10
156.2460817173
 20
176.1822625314
 30
0.0
 10
156.2653276067
 20
176.1627912306
 30
0.0
 10
156.3066788815
 20
176.1434892007
 30
0.0
 10
156.3744815061
 20
176.1188933568
 30
0.0
 10
156.5127538573
 20
176.0812953886
 30
0.0
 10
156.7456553592
 20
176.0339164038
 30
0.0
 10
157.0888210545
 20
175.981212179
 30
0.0
 10
157.5074070746
 20
175.933094283
 30
0.0
 10
157.9855345316
 20
175.894534243
 30
0.0
 10
158.5051377828
 20
175.8695841098
 30
0.0
 10
159.0460154453
 20
175.8609478146
 30
0.0
 10
159.5868938166
 20
175.8695828857
 30
0.0
 10
160.106499173
 20
175.8945319139
 30
0.0
 10
160.5846301416
 20
175.9330911161
 30
0.0
 10
161.003220952
 20
175.9812084503
 30
0.0
 10
161.34639256
 20
176.0339125962
 30
0.0
 10
161.5792996137
 20
176.081291531
 30
0.0
 10
161.7175766687
 20
176.1188899591
 30
0.0
 10
161.7853831285
 20
176.1434855907
 30
0.0
 10
161.8267373201
 20
176.1627888833
 30
0.0
 10
161.8459862465
 20
176.1822589168
 30
0.0
 10
161.8459899352
 20
176.1904324008
 30
0.0
  0
SPLINE
  5
34A
100
AcDbEntity
  8
0
100
AcDbSpline
 62
7
  6
CONTINUOUS
 70
0
 71
3
 72
13
 73
9
 74
0
 42
0.0000001
 43
0.0000001
 44
0.0000000001
 40
0.0
 40
0.0
 40
0.0
 40
0.0
 40
0.0159235126
 40
0.0630700023
 40
0.141516912
 40
0.2512750753
 40
0.5643021305
 40
1.0
 40
1.0
 40
1.0
 40
1.0
 10
120.6873360362
 20
176.2648328643
 30
0.0
 10
120.6873368758
 20
176.264461564
 30
0.0
 10
120.685014895
 20
176.264879145
 30
0.0
 10
120.6825569702
 20
176.2639850701
 30
0.0
 10
120.6766200721
 20
176.2638667679
 30
0.0
 10
120.6652490625
 20
176.2627955012
 30
0.0
 10
120.6450618409
 20
176.261581815
 30
0.0
 10
120.6277162623
 20
176.2604094098
 30
0.0
 10
120.6175766426
 20
176.2597739171
 30
0.0
  0
SPLINE
  5
34B
100
AcDbEntity
  8
0
100
AcDbSpline
 62
7
  6
CONTINUOUS
 70
0
 71
3
 72
9
 73
5
 74
0
 42
0.0000001
 43
0.0000001
 44
0.0000000001
 40
0.0
 40
0.0
 40
0.0
 40
0.0
 40
0.3755514282
 40
1.0
 40
1.0
 40
1.0
 40
1.0
 10
120.6175766426
 20
176.2597739171
 30
0.0
 10
120.410668362
 20
176.2468061036
 30
0.0
 10
119.8591402751
 20
176.2218750588
 30
0.0
 10
119.3070784313
 20
176.2117713068
 30
0.0
 10
118.9623664122
 20
176.2117713068
 30
0.0
  0
SPLINE
  5
34C
100
AcDbEntity
  8
0
100
AcDbSpline
 62
7
  6
CONTINUOUS
 70
0
 71
3
 72
20
 73
16
 74
0
 42
0.0000001
 43
0.0000001
 44
0.0000000001
 40
0.0
 40
0.0
 40
0.0
 40
0.0
 40
0.0227242712
 40
0.0509340857
 40
0.088273815
 40
0.1358742524
 40
0.1935482082
 40
0.2603376145
 40
0.3347580595
 40
0.4149437245
 40
0.5839043456
 40
0.7488388057
 40
0.8920325289
 40
0.9510243098
 40
1.0
 40
1.0
 40
1.0
 40
1.0
 10
113.6673664122
 20
175.1902509953
 30
0.0
 10
113.6673664122
 20
175.229070635
 30
0.0
 10
113.6972549449
 20
175.3166939808
 30
0.0
 10
113.8118534619
 20
175.4199273748
 30
0.0
 10
113.9842772391
 20
175.5091956534
 30
0.0
 10
114.2160744296
 20
175.5864677208
 30
0.0
 10
114.5029927197
 20
175.6515258472
 30
0.0
 10
114.8388996324
 20
175.7038286496
 30
0.0
 10
115.2151727128
 20
175.7432011452
 30
0.0
 10
115.7668585524
 20
175.7789655989
 30
0.0
 10
116.4746684649
 20
175.7901142924
 30
0.0
 10
117.2892367941
 20
175.7563399134
 30
0.0
 10
117.9137689387
 20
175.6862015965
 30
0.0
 10
118.3335103821
 20
175.595856103
 30
0.0
 10
118.5099228074
 20
175.5401074883
 30
0.0
 10
118.5873664122
 20
175.5084489183
 30
0.0
  0
SPLINE
  5
34D
100
AcDbEntity
  8
0
100
AcDbSpline
 62
7
  6
CONTINUOUS
 70
0
 71
3
 72
29
 73
25
 74
0
 42
0.0000001
 43
0.0000001
 44
0.0000000001
 40
0.0
 40
0.0
 40
0.0
 40
0.0
 40
0.0043907215
 40
0.0126716309
 40
0.0253292651
 40
0.0423692983
 40
0.0636599776
 40
0.089015826
 40
0.1509517652
 40
0.2259338384
 40
0.3112515569
 40
0.4037722565
 40
0.5000025415
 40
0.5962327344
 40
0.6887531562
 40
0.7740704051
 40
0.849051821
 40
0.9109869421
 40
0.9363423356
 40
0.9576325327
 40
0.9746720694
 40
0.987329201
 40
0.9956096308
 40
1.0
 40
1.0
 40
1.0
 40
1.0
 10
163.0459865296
 20
176.1903902904
 30
0.0
 10
163.0459412731
 20
176.1784731179
 30
0.0
 10
163.0183888494
 20
176.1499959609
 30
0.0
 10
162.9593690444
 20
176.1198099006
 30
0.0
 10
162.8623487964
 20
176.0810395097
 30
0.0
 10
162.7305889247
 20
176.0401676552
 30
0.0
 10
162.5633149713
 20
175.9957158296
 30
0.0
 10
162.2760603209
 20
175.9299988997
 30
0.0
 10
161.8427007109
 20
175.8499763171
 30
0.0
 10
161.2452799952
 20
175.7657906262
 30
0.0
 10
160.5622914132
 20
175.6974544104
 30
0.0
 10
159.8195608122
 20
175.6528375976
 30
0.0
 10
159.0460129574
 20
175.6373315999
 30
0.0
 10
158.2724658915
 20
175.652839323
 30
0.0
 10
157.529737666
 20
175.6974576747
 30
0.0
 10
156.8467530333
 20
175.7657950602
 30
0.0
 10
156.2493377414
 20
175.8499814024
 30
0.0
 10
155.8159834928
 20
175.930004181
 30
0.0
 10
155.5287337005
 20
175.9957209887
 30
0.0
 10
155.3614637191
 20
176.040172627
 30
0.0
 10
155.2297078718
 20
176.0810438565
 30
0.0
 10
155.1326918971
 20
176.1198143219
 30
0.0
 10
155.0736755163
 20
176.149998793
 30
0.0
 10
155.0461264462
 20
176.1784772125
 30
0.0
 10
155.0460831165
 20
176.1903934357
 30
0.0
  0
SPLINE
  5
34E
100
AcDbEntity
  8
0
100
AcDbSpline
 62
7
  6
CONTINUOUS
 70
0
 71
3
 72
29
 73
25
 74
0
 42
0.0000001
 43
0.0000001
 44
0.0000000001
 40
0.0
 40
0.0
 40
0.0
 40
0.0
 40
0.0044544438
 40
0.0127858263
 40
0.0254825422
 40
0.0425521669
 40
0.0638634049
 40
0.0892311581
 40
0.1511662408
 40
0.2261196785
 40
0.3113891229
 40
0.4038503796
 40
0.5000164585
 40
0.596181915
 40
0.6886413091
 40
0.7739076631
 40
0.8488568346
 40
0.9107866432
 40
0.9361514736
 40
0.9574596052
 40
0.9745260387
 40
0.9872195157
 40
0.9955478153
 40
1.0
 40
1.0
 40
1.0
 40
1.0
 10
155.0460838016
 20
175.6890033433
 30
0.0
 10
155.0462127177
 20
175.6769074708
 30
0.0
 10
155.0737071118
 20
175.6480736122
 30
0.0
 10
155.1330105209
 20
175.617210091
 30
0.0
 10
155.2301337027
 20
175.5778245078
 30
0.0
 10
155.3620238405
 20
175.5362297781
 30
0.0
 10
155.5293605306
 20
175.4910397429
 30
0.0
 10
155.8166153274
 20
175.424230194
 30
0.0
 10
156.2499171678
 20
175.3428765321
 30
0.0
 10
156.847249465
 20
175.2572768516
 30
0.0
 10
157.5301175602
 20
175.1877876871
 30
0.0
 10
158.2727326287
 20
175.1424143512
 30
0.0
 10
159.0461768891
 20
175.1266475253
 30
0.0
 10
159.8196158562
 20
175.1424257556
 30
0.0
 10
160.5622151343
 20
175.1878091923
 30
0.0
 10
161.2450572839
 20
175.2573059805
 30
0.0
 10
161.842354318
 20
175.3429098928
 30
0.0
 10
162.2756215077
 20
175.4242647895
 30
0.0
 10
162.5628449767
 20
175.4910735629
 30
0.0
 10
162.7301561034
 20
175.5362623151
 30
0.0
 10
162.8620202879
 20
175.5778530775
 30
0.0
 10
162.9591159781
 20
175.6172388912
 30
0.0
 10
163.0183972587
 20
175.6480924699
 30
0.0
 10
163.0458701329
 20
175.6769340299
 30
0.0
 10
163.0459866804
 20
175.6890238928
 30
0.0
  0
SPLINE
  5
34F
100
AcDbEntity
  8
0
100
AcDbSpline
 62
7
  6
CONTINUOUS
 70
0
 71
3
 72
9
 73
5
 74
0
 42
0.0000001
 43
0.0000001
 44
0.0000000001
 40
0.0
 40
0.0
 40
0.0
 40
0.0
 40
0.2178876751
 40
1.0
 40
1.0
 40
1.0
 40
1.0
 10
119.0858500464
 20
174.3452644866
 30
0.0
 10
119.1084225924
 20
174.3552466982
 30
0.0
 10
119.2140846805
 20
174.3963866445
 30
0.0
 10
119.3251388551
 20
174.4222171413
 30
0.0
 10
119.4123664122
 20
174.4377164512
 30
0.0
  0
SPLINE
  5
350
100
AcDbEntity
  8
0
100
AcDbSpline
 62
7
  6
CONTINUOUS
 70
0
 71
3
 72
19
 73
15
 74
0
 42
0.0000001
 43
0.0000001
 44
0.0000000001
 40
0.0
 40
0.0
 40
0.0
 40
0.0
 40
0.0261995133
 40
0.0607437382
 40
0.1075223001
 40
0.1671891253
 40
0.3198853012
 40
0.4999993921
 40
0.6801137853
 40
0.8328102218
 40
0.8924778492
 40
0.9392563854
 40
0.9738004389
 40
1.0
 40
1.0
 40
1.0
 40
1.0
 10
117.4173664122
 20
175.1067860299
 30
0.0
 10
117.4173664122
 20
175.1280038128
 30
0.0
 10
117.3974201024
 20
175.1769667362
 30
0.0
 10
117.3280886528
 20
175.2323392574
 30
0.0
 10
117.2246380756
 20
175.2816531971
 30
0.0
 10
117.0233505668
 20
175.3430018165
 30
0.0
 10
116.707806808
 20
175.3904817452
 30
0.0
 10
116.2923676705
 20
175.4096394112
 30
0.0
 10
115.876928296
 20
175.3904820737
 30
0.0
 10
115.5613834392
 20
175.3430018482
 30
0.0
 10
115.3600951095
 20
175.2816532748
 30
0.0
 10
115.2566438227
 20
175.2323394288
 30
0.0
 10
115.1873129463
 20
175.1769665544
 30
0.0
 10
115.1673664122
 20
175.1280038515
 30
0.0
 10
115.1673664122
 20
175.1067860299
 30
0.0
  0
SPLINE
  5
351
100
AcDbEntity
  8
0
100
AcDbSpline
 62
7
  6
CONTINUOUS
 70
0
 71
3
 72
13
 73
9
 74
0
 42
0.0000001
 43
0.0000001
 44
0.0000000001
 40
0.0
 40
0.0
 40
0.0
 40
0.0
 40
0.3573354192
 40
0.6408127533
 40
0.7533577508
 40
0.847830061
 40
0.9278702904
 40
1.0
 40
1.0
 40
1.0
 40
1.0
 10
119.4123664122
 20
174.9604550916
 30
0.0
 10
119.3378157494
 20
174.9474454968
 30
0.0
 10
119.2051829256
 20
174.9177207904
 30
0.0
 10
119.0548718831
 20
174.8605112835
 30
0.0
 10
118.9669199605
 20
174.8044926477
 30
0.0
 10
118.9221346327
 20
174.7626854099
 30
0.0
 10
118.8939550108
 20
174.7177598116
 30
0.0
 10
118.8873664122
 20
174.6852769384
 30
0.0
 10
118.8873664122
 20
174.6700011498
 30
0.0
  0
SPLINE
  5
352
100
AcDbEntity
  8
0
100
AcDbSpline
 62
7
  6
CONTINUOUS
 70
0
 71
3
 72
10
 73
6
 74
0
 42
0.0000001
 43
0.0000001
 44
0.0000000001
 40
0.0
 40
0.0
 40
0.0
 40
0.0
 40
0.63455643
 40
0.8644680133
 40
1.0
 40
1.0
 40
1.0
 40
1.0
 10
118.9623664122
 20
176.0517281932
 30
0.0
 10
119.6879271313
 20
176.0517281932
 30
0.0
 10
120.6769373085
 20
176.0878832137
 30
0.0
 10
121.8160762289
 20
176.187231318
 30
0.0
 10
122.2315287714
 20
176.2323254059
 30
0.0
 10
122.3853518739
 20
176.2511375829
 30
0.0
  0
SPLINE
  5
353
100
AcDbEntity
  8
0
100
AcDbSpline
 62
7
  6
CONTINUOUS
 70
0
 71
3
 72
14
 73
10
 74
0
 42
0.0000001
 43
0.0000001
 44
0.0000000001
 40
0.0
 40
0.0
 40
0.0
 40
0.0
 40
0.435763924
 40
0.6076418169
 40
0.7485246772
 40
0.8582095559
 40
0.9366594015
 40
0.9838884312
 40
1.0
 40
1.0
 40
1.0
 40
1.0
 10
122.3853518739
 20
176.2511375829
 30
0.0
 10
122.4001904144
 20
176.252952299
 30
0.0
 10
122.4209023259
 20
176.2555037352
 30
0.0
 10
122.4463158029
 20
176.2588152504
 30
0.0
 10
122.4607966329
 20
176.2606444388
 30
0.0
 10
122.4716854887
 20
176.2623617738
 30
0.0
 10
122.48034188
 20
176.2631039514
 30
0.0
 10
122.483970553
 20
176.2646141348
 30
0.0
 10
122.4873325794
 20
176.2642721721
 30
0.0
 10
122.4873323186
 20
176.2648248874
 30
0.0
  0
SPLINE
  5
354
100
AcDbEntity
  8
0
100
AcDbSpline
 62
7
  6
CONTINUOUS
 70
0
 71
3
 72
9
 73
5
 74
0
 42
0.0000001
 43
0.0000001
 44
0.0000000001
 40
0.0
 40
0.0
 40
0.0
 40
0.0
 40
0.1785692308
 40
1.0
 40
1.0
 40
1.0
 40
1.0
 10
161.8459899352
 20
176.1904324008
 30
0.0
 10
161.8459910029
 20
176.1927982308
 30
0.0
 10
161.8418950234
 20
176.2060733025
 30
0.0
 10
161.8274429138
 20
176.2118429329
 30
0.0
 10
161.8173161606
 20
176.215828929
 30
0.0
  0
SPLINE
  5
355
100
AcDbEntity
  8
0
100
AcDbSpline
 62
7
  6
CONTINUOUS
 70
0
 71
3
 72
21
 73
17
 74
0
 42
0.0000001
 43
0.0000001
 44
0.0000000001
 40
0.0
 40
0.0
 40
0.0
 40
0.0
 40
0.0265380712
 40
0.0612539225
 40
0.1080595159
 40
0.1676600226
 40
0.2390484278
 40
0.3201957587
 40
0.4999930684
 40
0.679793821
 40
0.7609422732
 40
0.8323330264
 40
0.8919390007
 40
0.9387460042
 40
0.9734618435
 40
1.0
 40
1.0
 40
1.0
 40
1.0
 10
115.1673664122
 20
174.5867015069
 30
0.0
 10
115.1673664122
 20
174.6082437265
 30
0.0
 10
115.1870782172
 20
174.6578112444
 30
0.0
 10
115.2563393446
 20
174.7143607032
 30
0.0
 10
115.3597966545
 20
174.764561366
 30
0.0
 10
115.4979760993
 20
174.8076106625
 30
0.0
 10
115.6667162397
 20
174.8427638204
 30
0.0
 10
115.9343014595
 20
174.8784879711
 30
0.0
 10
116.2923523022
 20
174.8947500583
 30
0.0
 10
116.6504039048
 20
174.8784895787
 30
0.0
 10
116.9179953407
 20
174.8427687527
 30
0.0
 10
117.0867422603
 20
174.8076127033
 30
0.0
 10
117.2249297421
 20
174.7645643741
 30
0.0
 10
117.3283928447
 20
174.7143621269
 30
0.0
 10
117.3976540076
 20
174.65781111
 30
0.0
 10
117.4173664122
 20
174.6082437958
 30
0.0
 10
117.4173664122
 20
174.5867015069
 30
0.0
  0
SPLINE
  5
356
100
AcDbEntity
  8
0
100
AcDbSpline
 62
7
  6
CONTINUOUS
 70
0
 71
3
 72
9
 73
5
 74
0
 42
0.0000001
 43
0.0000001
 44
0.0000000001
 40
0.0
 40
0.0
 40
0.0
 40
0.0
 40
0.3527559034
 40
1.0
 40
1.0
 40
1.0
 40
1.0
 10
156.2747535764
 20
176.215828929
 30
0.0
 10
156.2704655957
 20
176.2141411349
 30
0.0
 10
156.2590416965
 20
176.2092456815
 30
0.0
 10
156.2460776056
 20
176.1988904241
 30
0.0
 10
156.2460796964
 20
176.1904352161
 30
0.0
  0
SPLINE
  5
357
100
AcDbEntity
  8
0
100
AcDbSpline
 62
7
  6
CONTINUOUS
 70
0
 71
3
 72
13
 73
9
 74
0
 42
0.0000001
 43
0.0000001
 44
0.0000000001
 40
0.0
 40
0.0
 40
0.0
 40
0.0
 40
0.075871499
 40
0.2879349312
 40
0.4999983634
 40
0.7120617956
 40
0.9241252278
 40
1.0
 40
1.0
 40
1.0
 40
1.0
 10
114.5532763849
 20
75.7059799443
 30
0.0
 10
114.6773744211
 20
75.8182923679
 30
0.0
 10
115.1920935266
 20
76.2220975895
 30
0.0
 10
116.3457965052
 20
76.7465055384
 30
0.0
 10
118.0773664122
 20
76.9808121163
 30
0.0
 10
119.8089363192
 20
76.7465055384
 30
0.0
 10
120.9626468507
 20
76.2220941565
 30
0.0
 10
121.4773701061
 20
75.8182831869
 30
0.0
 10
121.6014725011
 20
75.7059654079
 30
0.0
  0
ELLIPSE
  5
358
100
AcDbEntity
  8
KONSTRUKTIONSELEMENTE
100
AcDbEllipse
 62
7
  6
CONTINUOUS
 10
116.0573664122
 20
137.6035218459
 30
0.0
 11
0.0
 21
8.3546604395
 31
0.0
 40
0.9575493891
 41
1.5707963268
 42
1.9174593082
  0
ELLIPSE
  5
359
100
AcDbEntity
  8
0
100
AcDbEllipse
 62
7
  6
CONTINUOUS
 10
153.836504103
 20
145.7649323904
 30
0.0
 11
65.412773124
 21
0.0
 31
0.0
 40
0.4662697902
 41
1.638868219
 42
1.7480342838
  0
ELLIPSE
  5
35A
100
AcDbEntity
  8
0
100
AcDbEllipse
 62
7
  6
CONTINUOUS
 10
153.836504103
 20
145.7649323904
 30
0.0
 11
65.412773124
 21
0.0
 31
0.0
 40
0.4662697902
 41
1.6241823496
 42
1.6335252503
  0
ELLIPSE
  5
35B
100
AcDbEntity
  8
0
100
AcDbEllipse
 62
7
  6
CONTINUOUS
 10
146.1166737894
 20
145.7649323904
 30
0.0
 11
57.1063834429
 21
-0.0
 31
0.0
 40
0.5340909047
 41
1.4764762231
 42
1.5134698628
  0
ELLIPSE
  5
35C
100
AcDbEntity
  8
0
100
AcDbEllipse
 62
7
  6
CONTINUOUS
 10
142.4107161291
 20
145.7649323904
 30
0.0
 11
0.0
 21
30.5
 31
0.0
 40
0.3404254913
 41
-0.3274603233
 42
-0.3080455024
  0
ELLIPSE
  5
35D
100
AcDbEntity
  8
0
100
AcDbEllipse
 62
7
  6
CONTINUOUS
 10
139.0711420591
 20
145.7649323904
 30
0.0
 11
0.0
 21
30.5
 31
0.0
 40
0.6808509827
 41
-0.3470040586
 42
-0.3274603233
  0
ELLIPSE
  5
35E
100
AcDbEntity
  8
0
100
AcDbEllipse
 62
7
  6
CONTINUOUS
 10
135.5400799131
 20
145.7649323904
 30
0.0
 11
31.1489287437
 21
-0.0
 31
0.0
 40
0.9791669001
 41
1.2106864648
 42
1.2237922682
  0
ELLIPSE
  5
35F
100
AcDbEntity
  8
0
100
AcDbEllipse
 62
7
  6
CONTINUOUS
 10
113.5877174795
 20
145.7649323904
 30
0.0
 11
93.446863281
 21
-0.0
 31
0.0
 40
0.3263886976
 41
1.2041093937
 42
1.2106864648
  0
ELLIPSE
  5
360
100
AcDbEntity
  8
0
100
AcDbEllipse
 62
7
  6
CONTINUOUS
 10
181.1681665733
 20
145.7649323904
 30
0.0
 11
93.4468196504
 21
0.0
 31
0.0
 40
0.32638885
 41
1.9309061888
 42
1.9374832599
  0
ELLIPSE
  5
361
100
AcDbEntity
  8
0
100
AcDbEllipse
 62
7
  6
CONTINUOUS
 10
164.7039071785
 20
145.7649323904
 30
0.0
 11
46.7234040232
 21
0.0
 31
0.0
 40
0.652777781
 41
1.9178003854
 42
1.9309061888
  0
ELLIPSE
  5
362
100
AcDbEntity
  8
0
100
AcDbEllipse
 62
7
  6
CONTINUOUS
 10
155.8762468411
 20
145.7649323904
 30
0.0
 11
0.0
 21
30.5
 31
0.0
 40
0.6808509827
 41
0.3274603233
 42
0.3470040586
  0
ELLIPSE
  5
363
100
AcDbEntity
  8
0
100
AcDbEllipse
 62
7
  6
CONTINUOUS
 10
152.5366727711
 20
145.7649323904
 30
0.0
 11
-0.0
 21
30.5
 31
0.0
 40
0.3404254913
 41
0.3080455024
 42
0.3274603233
  0
ELLIPSE
  5
364
100
AcDbEntity
  8
0
100
AcDbEllipse
 62
7
  6
CONTINUOUS
 10
160.45666496
 20
145.7649323904
 30
0.0
 11
77.87229401
 21
0.0
 31
0.0
 40
0.3916669001
 41
1.7457863982
 42
1.7582863028
  0
ELLIPSE
  5
365
100
AcDbEntity
  8
0
100
AcDbEllipse
 62
7
  6
CONTINUOUS
 10
134.2992325683
 20
145.7649323904
 30
0.0
 11
77.8723049177
 21
-0.0
 31
0.0
 40
0.3916668453
 41
1.3833063507
 42
1.3958062554
  0
ELLIPSE
  5
366
100
AcDbEntity
  8
0
100
AcDbEllipse
 62
7
  6
CONTINUOUS
 10
141.0728434293
 20
145.7649323904
 30
0.0
 11
41.5319135785
 21
-0.0
 31
0.0
 40
0.7343750233
 41
1.3645001022
 42
1.3833063507
  0
ELLIPSE
  5
367
100
AcDbEntity
  8
0
100
AcDbEllipse
 62
7
  6
CONTINUOUS
 10
145.7518206781
 20
145.7649323904
 30
0.0
 11
-0.0
 21
30.5
 31
0.0
 40
0.6127661718
 41
-0.2378089059
 42
-0.2062962246
  0
ELLIPSE
  5
368
100
AcDbEntity
  8
0
100
AcDbEllipse
 62
7
  6
CONTINUOUS
 10
148.6869714077
 20
145.7649323904
 30
0.0
 11
-0.0
 21
30.5
 31
0.0
 40
0.2042552737
 41
-0.2695642782
 42
-0.2378089059
  0
ELLIPSE
  5
369
100
AcDbEntity
  8
0
100
AcDbEllipse
 62
7
  6
CONTINUOUS
 10
143.0433965485
 20
145.7649323904
 30
0.0
 11
0.0
 21
30.5
 31
0.0
 40
0.2042553143
 41
0.2441393819
 42
0.2759478186
  0
ELLIPSE
  5
36A
100
AcDbEntity
  8
0
100
AcDbEllipse
 62
7
  6
CONTINUOUS
 10
146.055139938
 20
145.7649323904
 30
0.0
 11
0.0
 21
30.5
 31
0.0
 40
0.6127657675
 41
0.2125811085
 42
0.2441393819
  0
ELLIPSE
  5
36B
100
AcDbEntity
  8
0
100
AcDbEllipse
 62
7
  6
CONTINUOUS
 10
150.8745443709
 20
145.7649323904
 30
0.0
 11
41.5319099426
 21
-0.0
 31
0.0
 40
0.7343750875
 41
1.7645472534
 42
1.7833774353
  0
ELLIPSE
  5
36C
100
AcDbEntity
  8
0
100
AcDbEllipse
 62
7
  6
CONTINUOUS
 10
160.8703050191
 20
145.7649323904
 30
0.0
 11
93.4468864888
 21
0.0
 31
0.0
 40
0.3263886165
 41
1.7582863028
 42
1.7645472534
  0
ELLIPSE
  5
36D
100
AcDbEntity
  8
0
100
AcDbEllipse
 62
7
  6
CONTINUOUS
 10
139.1553968318
 20
145.7649323904
 30
0.0
 11
0.0
 21
30.5
 31
0.0
 40
0.3404254913
 41
-0.3274603233
 42
-0.3080455024
  0
ELLIPSE
  5
36E
100
AcDbEntity
  8
0
100
AcDbEllipse
 62
7
  6
CONTINUOUS
 10
135.8158227618
 20
145.7649323904
 30
0.0
 11
-0.0
 21
30.5
 31
0.0
 40
0.6808509827
 41
-0.3470040586
 42
-0.3274603233
  0
ELLIPSE
  5
36F
100
AcDbEntity
  8
0
100
AcDbEllipse
 62
7
  6
CONTINUOUS
 10
126.9881661339
 20
145.7649323904
 30
0.0
 11
46.7233931156
 21
-0.0
 31
0.0
 40
0.6527779334
 41
1.2106864648
 42
1.2237922682
  0
ELLIPSE
  5
370
100
AcDbEntity
  8
0
100
AcDbEllipse
 62
7
  6
CONTINUOUS
 10
110.5238721467
 20
145.7649323904
 30
0.0
 11
93.4469069116
 21
-0.0
 31
0.0
 40
0.3263885452
 41
1.2041093937
 42
1.2106864648
  0
ELLIPSE
  5
371
100
AcDbEntity
  8
0
100
AcDbEllipse
 62
7
  6
CONTINUOUS
 10
77.0209446779
 20
145.7649323904
 30
0.0
 11
186.8935724624
 21
-0.0
 31
0.0
 40
0.1631944834
 41
1.1975156643
 42
1.2041093937
  0
ELLIPSE
  5
372
100
AcDbEntity
  8
0
100
AcDbEllipse
 62
7
  6
CONTINUOUS
 10
146.2604174814
 20
145.7649323904
 30
0.0
 11
0.0
 21
30.5
 31
0.0
 40
0.2042552558
 41
0.2378089059
 42
0.2695642782
  0
ELLIPSE
  5
373
100
AcDbEntity
  8
0
100
AcDbEllipse
 62
7
  6
CONTINUOUS
 10
149.1955679541
 20
145.7649323904
 30
0.0
 11
0.0
 21
30.5
 31
0.0
 40
0.6127661182
 41
0.2062962246
 42
0.2378089059
  0
ELLIPSE
  5
374
100
AcDbEntity
  8
0
100
AcDbEllipse
 62
7
  6
CONTINUOUS
 10
151.7477364753
 20
145.7649323904
 30
0.0
 11
31.148932457
 21
0.0
 31
0.0
 40
0.9791667834
 41
1.7582863028
 42
1.7770925514
  0
ELLIPSE
  5
375
100
AcDbEntity
  8
KONSTRUKTIONSELEMENTE
100
AcDbEllipse
 62
7
  6
CONTINUOUS
 10
160.0573664122
 20
141.9693569682
 30
0.0
 11
-0.0
 21
15.7569240482
 31
0.0
 40
0.5077133059
 41
-2.2752468806
 42
-2.0456662618
  0
ELLIPSE
  5
376
100
AcDbEntity
  8
KONSTRUKTIONSELEMENTE
100
AcDbEllipse
 62
7
  6
CONTINUOUS
 10
160.0573664122
 20
137.6035218459
 30
0.0
 11
0.0
 21
8.3546604395
 31
0.0
 40
0.9575493891
 41
-1.9174593082
 42
-1.5707963268
  0
ELLIPSE
  5
377
100
AcDbEntity
  8
KONSTRUKTIONSELEMENTE
100
AcDbEllipse
 62
7
  6
CONTINUOUS
 10
116.0573664122
 20
141.9693569682
 30
0.0
 11
0.0
 21
15.7569240482
 31
0.0
 40
0.5077133059
 41
-4.2375190454
 42
-4.0079384265
  0
ELLIPSE
  5
378
100
AcDbEntity
  8
0
100
AcDbEllipse
 62
7
  6
CONTINUOUS
 10
174.0184318672
 20
145.7649323904
 30
0.0
 11
91.2218876386
 21
-0.0
 31
0.0
 40
0.334349582
 41
2.0169239518
 42
2.114770942
  0
ELLIPSE
  5
379
100
AcDbEntity
  8
0
100
AcDbEllipse
 62
7
  6
CONTINUOUS
 10
130.280085244
 20
145.7649323904
 30
0.0
 11
52.8275496308
 21
0.0
 31
0.0
 40
0.5773502692
 41
1.718849014
 42
1.7939821224
  0
ELLIPSE
  5
37A
100
AcDbEntity
  8
0
100
AcDbEllipse
 62
7
  6
CONTINUOUS
 10
98.5773641931
 20
145.7649323904
 30
0.0
 11
91.5000054538
 21
-0.0
 31
0.0
 40
0.3333333135
 41
1.1517546344
 42
1.2571547562
  0
ELLIPSE
  5
37B
100
AcDbEntity
  8
0
100
AcDbEllipse
 62
7
  6
CONTINUOUS
 10
144.1775247097
 20
145.7649323904
 30
0.0
 11
-0.0
 21
30.5
 31
0.0
 40
0.6808509827
 41
-0.2441393819
 42
-0.2251767919
  0
ELLIPSE
  5
37C
100
AcDbEntity
  8
0
100
AcDbEllipse
 62
7
  6
CONTINUOUS
 10
138.3817831067
 20
145.7649323904
 30
0.0
 11
46.7233873137
 21
-0.0
 31
0.0
 40
0.6527780145
 41
1.3456195349
 42
1.3582152183
  0
ELLIPSE
  5
37D
100
AcDbEntity
  8
0
100
AcDbEllipse
 62
7
  6
CONTINUOUS
 10
128.5238907397
 20
145.7649323904
 30
0.0
 11
93.4468864888
 21
-0.0
 31
0.0
 40
0.3263886165
 41
1.3582152183
 42
1.3645001022
  0
ELLIPSE
  5
37E
100
AcDbEntity
  8
0
100
AcDbEllipse
 62
7
  6
CONTINUOUS
 10
166.2320178929
 20
145.7649323904
 30
0.0
 11
93.4469301194
 21
-0.0
 31
0.0
 40
0.3263884641
 41
1.7770925514
 42
1.7833774353
  0
ELLIPSE
  5
37F
100
AcDbEntity
  8
0
100
AcDbEllipse
 62
7
  6
CONTINUOUS
 10
152.1965878949
 20
145.7649323904
 30
0.0
 11
0.0
 21
30.5
 31
0.0
 40
0.2042553029
 41
0.3016008496
 42
0.3339600828
  0
ELLIPSE
  5
380
100
AcDbEntity
  8
0
100
AcDbEllipse
 62
7
  6
CONTINUOUS
 10
156.280672659
 20
145.7649323904
 30
0.0
 11
0.0
 21
30.5
 31
0.0
 40
0.6127659088
 41
0.3339600828
 42
0.3666869331
  0
ELLIPSE
  5
381
100
AcDbEntity
  8
0
100
AcDbEllipse
 62
7
  6
CONTINUOUS
 10
164.4702897404
 20
145.7649323904
 30
0.0
 11
41.5319135785
 21
0.0
 31
0.0
 40
0.7343750233
 41
1.9374832599
 42
1.9573160862
  0
ELLIPSE
  5
382
100
AcDbEntity
  8
0
100
AcDbEllipse
 62
7
  6
CONTINUOUS
 10
178.1694402222
 20
145.7649323904
 30
0.0
 11
77.8723432105
 21
0.0
 31
0.0
 40
0.3916666527
 41
1.9573160862
 42
1.9706269115
  0
ELLIPSE
  5
383
100
AcDbEntity
  8
0
100
AcDbEllipse
 62
7
  6
CONTINUOUS
 10
165.0573664122
 20
143.6795210431
 30
0.0
 11
-0.0
 21
3.4593042348
 31
0.0
 40
0.8672264121
 41
-1.5707963268
 42
0.0
  0
ELLIPSE
  5
384
100
AcDbEntity
  8
0
100
AcDbEllipse
 62
7
  6
CONTINUOUS
 10
232.7324221721
 20
145.7649323904
 30
0.0
 11
218.0425643312
 21
0.0
 31
0.0
 40
0.1398809452
 41
1.9706269115
 42
1.9773103342
  0
ELLIPSE
  5
385
100
AcDbEntity
  8
0
100
AcDbEllipse
 62
7
  6
CONTINUOUS
 10
58.9596648169
 20
145.7649323904
 30
0.0
 11
218.0425207006
 21
0.0
 31
0.0
 40
0.1398809732
 41
1.1642823194
 42
1.1709657421
  0
ELLIPSE
  5
386
100
AcDbEntity
  8
0
100
AcDbEllipse
 62
7
  6
CONTINUOUS
 10
113.5226170453
 20
145.7649323904
 30
0.0
 11
77.8723759334
 21
-0.0
 31
0.0
 40
0.3916664881
 41
1.1709657421
 42
1.1842765674
  0
ELLIPSE
  5
387
100
AcDbEntity
  8
0
100
AcDbEllipse
 62
7
  6
CONTINUOUS
 10
127.2217812331
 20
145.7649323904
 30
0.0
 11
41.5319099426
 21
0.0
 31
0.0
 40
0.7343750875
 41
1.1842765674
 42
1.2041093937
  0
ELLIPSE
  5
388
100
AcDbEntity
  8
0
100
AcDbEllipse
 62
7
  6
CONTINUOUS
 10
135.4113975976
 20
145.7649323904
 30
0.0
 11
-0.0
 21
30.5
 31
0.0
 40
0.6127658552
 41
-0.3666869331
 42
-0.3339600828
  0
ELLIPSE
  5
389
100
AcDbEntity
  8
0
100
AcDbEllipse
 62
7
  6
CONTINUOUS
 10
139.4954820041
 20
145.7649323904
 30
0.0
 11
-0.0
 21
30.5
 31
0.0
 40
0.2042552851
 41
-0.3339600828
 42
-0.3016008496
  0
ELLIPSE
  5
38A
100
AcDbEntity
  8
0
100
AcDbEllipse
 62
7
  6
CONTINUOUS
 10
111.0573664122
 20
143.6795210431
 30
0.0
 11
0.0
 21
3.4593042348
 31
0.0
 40
0.8672264121
 41
0.0
 42
1.5707963268
  0
ELLIPSE
  5
38B
100
AcDbEntity
  8
0
100
AcDbEllipse
 62
7
  6
CONTINUOUS
 10
153.5975176583
 20
145.7649323904
 30
0.0
 11
46.723376406
 21
0.0
 31
0.0
 40
0.6527781669
 41
1.7896708567
 42
1.802284474
  0
ELLIPSE
  5
38C
100
AcDbEntity
  8
0
100
AcDbEllipse
 62
7
  6
CONTINUOUS
 10
147.6422043307
 20
145.7649323904
 30
0.0
 11
-0.0
 21
30.5
 31
0.0
 40
0.6808509827
 41
0.2314881472
 42
0.2504798387
  0
ELLIPSE
  5
38D
100
AcDbEntity
  8
0
100
AcDbEllipse
 62
7
  6
CONTINUOUS
 10
145.0685876163
 20
145.7649323904
 30
0.0
 11
-0.0
 21
30.5
 31
0.0
 40
0.3404254913
 41
0.2504798387
 42
0.2695642782
  0
ELLIPSE
  5
38E
100
AcDbEntity
  8
0
100
AcDbEllipse
 62
7
  6
CONTINUOUS
 10
134.6968148033
 20
145.7649323904
 30
0.0
 11
51.9615242271
 21
-0.0
 31
0.0
 40
0.5773502692
 41
1.8079850017
 42
1.8693616945
  0
ELLIPSE
  5
38F
100
AcDbEntity
  8
0
100
AcDbEllipse
 62
7
  6
CONTINUOUS
 10
142.7508013015
 20
145.7649323904
 30
0.0
 11
0.0
 21
30.0
 31
0.0
 40
0.2042552851
 41
-0.3249896547
 42
-0.3067899137
  0
ELLIPSE
  5
390
100
AcDbEntity
  8
0
100
AcDbEllipse
 62
7
  6
CONTINUOUS
 10
95.2984286225
 20
145.7649323904
 30
0.0
 11
89.7264468577
 21
-0.0
 31
0.0
 40
0.334349582
 41
1.1378858763
 42
1.2119794854
  0
ELLIPSE
  5
391
100
AcDbEntity
  8
0
100
AcDbEllipse
 62
7
  6
CONTINUOUS
 10
144.3613508899
 20
145.7649323904
 30
0.0
 11
57.1064106733
 21
-0.0
 31
0.0
 40
0.5340906501
 41
1.4455511163
 42
1.4826494241
  0
ELLIPSE
  5
392
100
AcDbEntity
  8
0
100
AcDbEllipse
 62
7
  6
CONTINUOUS
 10
137.9860362417
 20
145.7649323904
 30
0.0
 11
0.0
 21
30.5
 31
0.0
 40
0.6808509421
 41
-0.3732806625
 42
-0.3339600828
  0
ELLIPSE
  5
393
100
AcDbEntity
  8
0
100
AcDbEllipse
 62
7
  6
CONTINUOUS
 10
145.0685876163
 20
145.7649323904
 30
0.0
 11
-0.0
 21
30.0
 31
0.0
 40
0.3404254913
 41
0.2547463988
 42
0.2635144788
  0
ELLIPSE
  5
394
100
AcDbEntity
  8
0
100
AcDbEllipse
 62
7
  6
CONTINUOUS
 10
147.6422043307
 20
145.7649323904
 30
0.0
 11
-0.0
 21
30.0
 31
0.0
 40
0.6808509827
 41
0.2354185387
 42
0.2547463988
  0
ELLIPSE
  5
395
100
AcDbEntity
  8
0
100
AcDbEllipse
 62
7
  6
CONTINUOUS
 10
153.5975176583
 20
145.7649323904
 30
0.0
 11
45.9574194158
 21
0.0
 31
0.0
 40
0.6527781669
 41
1.7933796945
 42
1.8062148655
  0
ELLIPSE
  5
396
100
AcDbEntity
  8
0
100
AcDbEllipse
 62
7
  6
CONTINUOUS
 10
153.088158531
 20
145.7649323904
 30
0.0
 11
31.148917604
 21
-0.0
 31
0.0
 40
0.9791672503
 41
1.7833774353
 42
1.7959731187
  0
ELLIPSE
  5
397
100
AcDbEntity
  8
0
100
AcDbEllipse
 62
7
  6
CONTINUOUS
 10
142.7508013015
 20
145.7649323904
 30
0.0
 11
-0.0
 21
30.5
 31
0.0
 40
0.2042552851
 41
-0.3339600828
 42
-0.3016008496
  0
ELLIPSE
  5
398
100
AcDbEntity
  8
0
100
AcDbEllipse
 62
7
  6
CONTINUOUS
 10
150.7698641905
 20
145.7649323904
 30
0.0
 11
0.0
 21
30.5
 31
0.0
 40
0.6808509827
 41
0.2251767919
 42
0.2441393819
  0
ELLIPSE
  5
399
100
AcDbEntity
  8
0
100
AcDbEllipse
 62
7
  6
CONTINUOUS
 10
148.2600783916
 20
145.7649323904
 30
0.0
 11
0.0
 21
30.5
 31
0.0
 40
0.3404256537
 41
0.2441393819
 42
0.2631919769
  0
ELLIPSE
  5
39A
100
AcDbEntity
  8
0
100
AcDbEllipse
 62
7
  6
CONTINUOUS
 10
177.5373649003
 20
145.7649323904
 30
0.0
 11
91.4999972731
 21
0.0
 31
0.0
 40
0.3333333433
 41
2.0443655171
 42
2.1584696995
  0
ELLIPSE
  5
39B
100
AcDbEntity
  8
0
100
AcDbEllipse
 62
7
  6
CONTINUOUS
 10
177.5373649003
 20
145.7649323904
 30
0.0
 11
89.9999973178
 21
-0.0
 31
0.0
 40
0.3333333433
 41
2.0529254667
 42
2.1696144892
  0
ELLIPSE
  5
39C
100
AcDbEntity
  8
0
100
AcDbEllipse
 62
7
  6
CONTINUOUS
 10
139.4954820041
 20
145.7649323904
 30
0.0
 11
-0.0
 21
30.0
 31
0.0
 40
0.2042552851
 41
-0.3397485209
 42
-0.3067899137
  0
ELLIPSE
  5
39D
100
AcDbEntity
  8
0
100
AcDbEllipse
 62
7
  6
CONTINUOUS
 10
135.4113975976
 20
145.7649323904
 30
0.0
 11
0.0
 21
30.0
 31
0.0
 40
0.6127658552
 41
-0.373095807
 42
-0.3397485209
  0
ELLIPSE
  5
39E
100
AcDbEntity
  8
0
100
AcDbEllipse
 62
7
  6
CONTINUOUS
 10
127.2217812331
 20
145.7649323904
 30
0.0
 11
40.85105896
 21
0.0
 31
0.0
 40
0.7343750875
 41
1.1774839188
 42
1.1977005198
  0
ELLIPSE
  5
39F
100
AcDbEntity
  8
0
100
AcDbEllipse
 62
7
  6
CONTINUOUS
 10
113.5226170453
 20
145.7649323904
 30
0.0
 11
76.5957796066
 21
-0.0
 31
0.0
 40
0.3916664881
 41
1.1639119448
 42
1.1774839188
  0
ELLIPSE
  5
3A0
100
AcDbEntity
  8
0
100
AcDbEllipse
 62
7
  6
CONTINUOUS
 10
58.9596648169
 20
145.7649323904
 30
0.0
 11
214.4680531481
 21
-0.0
 31
0.0
 40
0.1398809732
 41
1.15709626
 42
1.1639119448
  0
ELLIPSE
  5
3A1
100
AcDbEntity
  8
0
100
AcDbEllipse
 62
7
  6
CONTINUOUS
 10
232.7324221721
 20
145.7649323904
 30
0.0
 11
214.4680960635
 21
0.0
 31
0.0
 40
0.1398809452
 41
1.9776807088
 42
1.9844963936
  0
ELLIPSE
  5
3A2
100
AcDbEntity
  8
0
100
AcDbEllipse
 62
7
  6
CONTINUOUS
 10
134.6968148033
 20
145.7649323904
 30
0.0
 11
52.8275496308
 21
0.0
 31
0.0
 40
0.5773502692
 41
1.8040239524
 42
1.8643202558
  0
ELLIPSE
  5
3A3
100
AcDbEntity
  8
0
100
AcDbEllipse
 62
7
  6
CONTINUOUS
 10
178.1694402222
 20
145.7649323904
 30
0.0
 11
76.5957474201
 21
0.0
 31
0.0
 40
0.3916666527
 41
1.9641087348
 42
1.9776807088
  0
ELLIPSE
  5
3A4
100
AcDbEntity
  8
0
100
AcDbEllipse
 62
7
  6
CONTINUOUS
 10
164.4702897404
 20
145.7649323904
 30
0.0
 11
40.8510625362
 21
-0.0
 31
0.0
 40
0.7343750233
 41
1.9438921338
 42
1.9641087348
  0
ELLIPSE
  5
3A5
100
AcDbEntity
  8
0
100
AcDbEllipse
 62
7
  6
CONTINUOUS
 10
156.280672659
 20
145.7649323904
 30
0.0
 11
-0.0
 21
30.0
 31
0.0
 40
0.6127659088
 41
0.3397485209
 42
0.373095807
  0
ELLIPSE
  5
3A6
100
AcDbEntity
  8
0
100
AcDbEllipse
 62
7
  6
CONTINUOUS
 10
152.1965878949
 20
145.7649323904
 30
0.0
 11
-0.0
 21
30.0
 31
0.0
 40
0.2042553029
 41
0.3067899137
 42
0.3397485209
  0
ELLIPSE
  5
3A7
100
AcDbEntity
  8
0
100
AcDbEllipse
 62
7
  6
CONTINUOUS
 10
95.2984286225
 20
145.7649323904
 30
0.0
 11
91.2218876386
 21
-0.0
 31
0.0
 40
0.334349582
 41
1.1246687018
 42
1.2181208555
  0
ELLIPSE
  5
3A8
100
AcDbEntity
  8
0
100
AcDbEllipse
 62
7
  6
CONTINUOUS
 10
166.2320178929
 20
145.7649323904
 30
0.0
 11
91.9150132322
 21
0.0
 31
0.0
 40
0.3263884641
 41
1.7805817231
 42
1.7869762125
  0
ELLIPSE
  5
3A9
100
AcDbEntity
  8
0
100
AcDbEllipse
 62
7
  6
CONTINUOUS
 10
128.5238907397
 20
145.7649323904
 30
0.0
 11
91.9149703169
 21
-0.0
 31
0.0
 40
0.3263886165
 41
1.3546164411
 42
1.3610109305
  0
ELLIPSE
  5
3AA
100
AcDbEntity
  8
0
100
AcDbEllipse
 62
7
  6
CONTINUOUS
 10
138.3817831067
 20
145.7649323904
 30
0.0
 11
45.9574301446
 21
0.0
 31
0.0
 40
0.6527780145
 41
1.3418001643
 42
1.3546164411
  0
ELLIPSE
  5
3AB
100
AcDbEntity
  8
0
100
AcDbEllipse
 62
7
  6
CONTINUOUS
 10
144.1775247097
 20
145.7649323904
 30
0.0
 11
0.0
 21
30.0
 31
0.0
 40
0.6808509827
 41
-0.2482933506
 42
-0.2289961625
  0
ELLIPSE
  5
3AC
100
AcDbEntity
  8
0
100
AcDbEllipse
 62
7
  6
CONTINUOUS
 10
146.6873105087
 20
145.7649323904
 30
0.0
 11
0.0
 21
30.0
 31
0.0
 40
0.3404256537
 41
-0.2599518276
 42
-0.2482933506
  0
ELLIPSE
  5
3AD
100
AcDbEntity
  8
0
100
AcDbEllipse
 62
7
  6
CONTINUOUS
 10
148.2600783916
 20
145.7649323904
 30
0.0
 11
0.0
 21
30.0
 31
0.0
 40
0.3404256537
 41
6.5314786578
 42
6.5431371348
  0
ELLIPSE
  5
3AE
100
AcDbEntity
  8
0
100
AcDbEllipse
 62
7
  6
CONTINUOUS
 10
150.7698641905
 20
145.7649323904
 30
0.0
 11
-0.0
 21
30.0
 31
0.0
 40
0.6808509827
 41
0.2289961625
 42
0.2482933506
  0
ELLIPSE
  5
3AF
100
AcDbEntity
  8
0
100
AcDbEllipse
 62
7
  6
CONTINUOUS
 10
153.088158531
 20
145.7649323904
 30
0.0
 11
30.6382796105
 21
0.0
 31
0.0
 40
0.9791672503
 41
1.7869762125
 42
1.7997924893
  0
ELLIPSE
  5
3B0
100
AcDbEntity
  8
0
100
AcDbEllipse
 62
7
  6
CONTINUOUS
 10
146.6873105087
 20
145.7649323904
 30
0.0
 11
-0.0
 21
30.5
 31
0.0
 40
0.3404256537
 41
-0.2631919769
 42
-0.2441393819
  0
ELLIPSE
  5
3B1
100
AcDbEntity
  8
0
100
AcDbEllipse
 62
7
  6
CONTINUOUS
 10
144.3613508899
 20
145.7649323904
 30
0.0
 11
56.1702400066
 21
0.0
 31
0.0
 40
0.5340906501
 41
1.4434524337
 42
1.4806883311
  0
ELLIPSE
  5
3B2
100
AcDbEntity
  8
0
100
AcDbEllipse
 62
7
  6
CONTINUOUS
 10
111.0573664122
 20
36.218666769
 30
0.0
 11
3.0
 21
0.0
 31
0.0
 40
0.7553189484
 41
3.1415926536
 42
4.7123889804
  0
ELLIPSE
  5
3B3
100
AcDbEntity
  8
KONSTRUKTIONSELEMENTE
100
AcDbEllipse
 62
7
  6
CONTINUOUS
 10
111.0573664122
 20
92.6867530783
 30
0.0
 11
3.0
 21
0.0
 31
0.0
 40
0.7553189484
 41
1.5707963268
 42
3.1415926536
  0
ELLIPSE
  5
3B4
100
AcDbEntity
  8
KONSTRUKTIONSELEMENTE
100
AcDbEllipse
 62
7
  6
CONTINUOUS
 10
165.0573664122
 20
92.6867530783
 30
0.0
 11
3.0
 21
-0.0
 31
0.0
 40
0.7553189484
 41
0.0
 42
1.5707963268
  0
ELLIPSE
  5
3B5
100
AcDbEntity
  8
0
100
AcDbEllipse
 62
7
  6
CONTINUOUS
 10
165.0573664122
 20
36.218666769
 30
0.0
 11
3.0
 21
0.0
 31
0.0
 40
0.7553189484
 41
-1.5707963268
 42
0.0
  0
ENDSEC
  0
SECTION
  2
OBJECTS
  0
DICTIONARY
  5
C
100
AcDbDictionary
280
0
281
1
  3
ACAD_GROUP
350
D
  3
ACAD_MLINESTYLE
350
17
  3
ACAD_LAYOUT
350
1A
  3
ACAD_PLOTSETTINGS
350
19
  3
ACAD_PLOTSTYLENAME
350
E
  0
DICTIONARY
  5
D
102
{ACAD_REACTORS
330
C
102
}
100
AcDbDictionary
280
0
281
1
  0
ACDBDICTIONARYWDFLT
  5
E
102
{ACAD_REACTORS
330
C
102
}
100
AcDbDictionary
281
1
  3
Normal
350
F
100
AcDbDictionaryWithDefault
340
F
  0
DICTIONARY
  5
17
102
{ACAD_REACTORS
330
C
102
}
100
AcDbDictionary
280
0
281
1
  3
Standard
350
18
  0
DICTIONARY
  5
19
102
{ACAD_REACTORS
330
C
102
}
100
AcDbDictionary
281
1
  0
DICTIONARY
  5
1A
102
{ACAD_REACTORS
330
C
102
}
100
AcDbDictionary
281
1
  3
Model
350
3B6
  3
Layout1
350
3B7
  0
ACDBPLACEHOLDER
  5
F
102
{ACAD_REACTORS
330
E
102
}
  0
MLINESTYLE
  5
18
102
{ACAD_REACTORS
330
17
102
}
100
AcDbMlineStyle
  2
STANDARD
 70
0
  3

 62
256
 51
90.0
 52
90.0
 71
2
 49
0.5
 62
256
  6
BYLAYER
 49
-0.5
 62
256
  6
BYLAYER
  0
LAYOUT
  5
3B6
102
{ACAD_REACTORS
330
1A
102
}
100
AcDbPlotSettings
  1

  2
none_device
  4
ISO_A3_(420.00_x_297.00_MM)
  6

 40
0.0
 41
0.0
 42
0.0
 43
0.0
 44
420.0
 45
297.0
 46
0.0
 47
0.0
 48
0.0
 49
0.0
140
0.0
141
0.0
142
1.0
143
1.0
 70
1024
 72
1
 73
0
 74
0
  7

 75
0
147
1.0
148
0.0
149
0.0
100
AcDbLayout
  1
Model
 70
0
 71
0
 10
0.0
 20
0.0
 11
420.0
 21
297.0
 12
0.0
 22
0.0
 32
0.0
 14
0.0
 24
0.0
 34
0.0
 15
0.0
 25
0.0
 35
0.0
146
0.0
 13
0.0
 23
0.0
 33
0.0
 16
1.0
 26
0.0
 36
0.0
 17
0.0
 27
1.0
 37
0.0
 76
0
330
20E
345
0
346
0
  0
LAYOUT
  5
3B7
102
{ACAD_REACTORS
330
1A
102
}
100
AcDbPlotSettings
  1

  2
none_device
  4
ISO_A3_(420.00_x_297.00_MM)
  6

 40
0.0
 41
0.0
 42
0.0
 43
0.0
 44
420.0
 45
297.0
 46
0.0
 47
0.0
 48
0.0
 49
0.0
140
0.0
141
0.0
142
1.0
143
1.0
 70
0
 72
1
 73
0
 74
0
  7

 75
0
147
1.0
148
0.0
149
0.0
100
AcDbLayout
  1
Layout1
 70
0
 71
1
 10
0.0
 20
0.0
 11
420.0
 21
297.0
 12
0.0
 22
0.0
 32
0.0
 14
0.0
 24
0.0
 34
0.0
 15
0.0
 25
0.0
 35
0.0
146
0.0
 13
0.0
 23
0.0
 33
0.0
 16
1.0
 26
0.0
 36
0.0
 17
0.0
 27
1.0
 37
0.0
 76
0
330
20F
345
0
346
0
  0
ENDSEC
  0
EOF
