999
DXF file: 001-m32119-p3.dxf
999
Pro/ENGINEER 2011490 by Parametric Technology Corporation
  0
SECTION
  2
HEADER
  9
$ACADVER
  1
AC1015
  9
$DWGCODEPAGE
  3
ANSI_1252
  9
$EXTMAX
 10
420.0
 20
297.0
 30
0.0
  9
$EXTMIN
 10
0.0
 20
0.0
 30
0.0
  9
$LIMMIN
 10
0.0
 20
0.0
  9
$LIMMAX
 10
420.0
 20
297.0
  9
$VIEWCTR
 10
210.0
 20
148.5
  9
$VIEWSIZE
 40
297.0
  9
$CLAYER
  8
0
  9
$LTSCALE
 40
23.1
  9
$CELTYPE
  6
BYLAYER
  9
$DIMSCALE
 40
1.0
  9
$DIMASZ
 40
3.5
  9
$DIMEXO
 40
2.625
  9
$DIMDLI
 40
15.96
  9
$DIMEXE
 40
7.56
  9
$DIMCEN
 40
3.78
  9
$DIMLFAC
 40
1.0
  9
$DIMBLK
  1
_FILLED
  9
$DIMTXT
 40
3.5
  9
$DIMTOL
 70
1
  9
$DIMLIM
 70
0
  9
$DIMTFAC
 40
1.0
  9
$DIMTP
 40
0.005
  9
$DIMTM
 40
0.005
  9
$PDMODE
 70
3
  9
$PDSIZE
 40
0.3125
  9
$HANDSEED
  5
33D
  9
$TILEMODE
 70
1
  9
$MEASUREMENT
 70
1
  9
$INSUNITS
 70
4
  0
ENDSEC
  0
SECTION
  2
CLASSES
  0
CLASS
  1
ACDBDICTIONARYWDFLT
  2
AcDbDictionaryWithDefault
  3
AutoCAD 2000
 90
0
280
0
281
0
  0
CLASS
  1
ACDBPLACEHOLDER
  2
AcDbPlaceHolder
  3
AutoCAD 2000
 90
0
280
0
281
0
  0
CLASS
  1
LAYOUT
  2
AcDbLayout
  3
AutoCAD 2000
 90
0
280
0
281
0
  0
ENDSEC
  0
SECTION
  2
TABLES
  0
TABLE
  2
VPORT
  5
8
100
AcDbSymbolTable
 70
2
  0
VPORT
  5
1F4
100
AcDbSymbolTableRecord
100
AcDbViewportTableRecord
  2
*ACTIVE
 70
0
 10
0.0
 20
0.0
 11
1.0
 21
1.0
 12
210.0
 22
148.5
 13
0.0
 23
0.0
 14
1.0
 24
1.0
 15
0.0
 25
0.0
 16
0.0
 26
0.0
 36
1.0
 17
0.0
 27
0.0
 37
0.0
 40
297.0
 41
1.4141414141
 42
50.0
 43
0.0
 44
0.0
 50
0.0
 51
0.0
 71
0
 72
100
 73
1
 74
1
 75
0
 76
0
 77
0
 78
0
  0
ENDTAB
  0
TABLE
  2
LTYPE
  5
5
100
AcDbSymbolTable
 70
6
  0
LTYPE
  5
14
100
AcDbSymbolTableRecord
100
AcDbLinetypeTableRecord
  2
BYBLOCK
 70
0
  3

 72
65
 73
0
 40
0.0
  0
LTYPE
  5
15
100
AcDbSymbolTableRecord
100
AcDbLinetypeTableRecord
  2
BYLAYER
 70
0
  3

 72
65
 73
0
 40
0.0
  0
LTYPE
  5
16
100
AcDbSymbolTableRecord
100
AcDbLinetypeTableRecord
  2
CONTINUOUS
 70
64
  3
Solid line
 72
65
 73
0
 40
0.0
  0
LTYPE
  5
1F5
100
AcDbSymbolTableRecord
100
AcDbLinetypeTableRecord
  2
CENTER
 70
64
  3
____ _ ____ _ ____ _ ____ _ ____ _ ____ _ ____
 72
65
 73
4
 40
0.6
 49
0.375
 74
0
 49
-0.075
 74
0
 49
0.075
 74
0
 49
-0.075
 74
0
  0
LTYPE
  5
1F6
100
AcDbSymbolTableRecord
100
AcDbLinetypeTableRecord
  2
HIDDEN
 70
64
  3
- - - - - - - - - - - - - - - - - - - -
 72
65
 73
2
 40
0.2
 49
0.1
 74
0
 49
-0.1
 74
0
  0
LTYPE
  5
1F7
100
AcDbSymbolTableRecord
100
AcDbLinetypeTableRecord
  2
PHANTOM
 70
64
  3
_____ _ _ _____ _ _ _____ _ _ _____
 72
65
 73
6
 40
0.8
 49
0.45
 74
0
 49
-0.05
 74
0
 49
0.1
 74
0
 49
-0.05
 74
0
 49
0.1
 74
0
 49
-0.05
 74
0
  0
LTYPE
  5
1F8
100
AcDbSymbolTableRecord
100
AcDbLinetypeTableRecord
  2
DOT
 70
64
  3
. . . . . . . . . . . . . . . . . . . .
 72
65
 73
2
 40
0.2
 49
0.1
 74
0
 49
-0.1
 74
0
  0
LTYPE
  5
1F9
100
AcDbSymbolTableRecord
100
AcDbLinetypeTableRecord
  2
DASHED
 70
64
  3
- - - - - - - - - - - - - - - - - - - -
 72
65
 73
2
 40
0.2
 49
0.1
 74
0
 49
-0.1
 74
0
  0
ENDTAB
  0
TABLE
  2
LAYER
  5
2
100
AcDbSymbolTable
 70
36
  0
LAYER
  5
10
100
AcDbSymbolTableRecord
100
AcDbLayerTableRecord
  2
0
 70
0
 62
7
  6
CONTINUOUS
370
-3
390
F
  0
LAYER
  5
1FA
100
AcDbSymbolTableRecord
100
AcDbLayerTableRecord
  2
DEFAULT_1
 70
0
 62
7
  6
CENTER
370
-3
390
F
  0
LAYER
  5
1FB
100
AcDbSymbolTableRecord
100
AcDbLayerTableRecord
  2
DEFAULT_2
 70
0
 62
8
  6
HIDDEN
370
-3
390
F
  0
LAYER
  5
1FC
100
AcDbSymbolTableRecord
100
AcDbLayerTableRecord
  2
DEFAULT_3
 70
0
 62
7
  6
PHANTOM
370
-3
390
F
  0
LAYER
  5
1FD
100
AcDbSymbolTableRecord
100
AcDbLayerTableRecord
  2
AUSFORMSCHRAEGEN
 70
0
 62
7
  6
CONTINUOUS
370
-3
390
F
  0
LAYER
  5
1FE
100
AcDbSymbolTableRecord
100
AcDbLayerTableRecord
  2
BEZUGSACHSEN
 70
0
 62
7
  6
CONTINUOUS
370
-3
390
F
  0
LAYER
  5
1FF
100
AcDbSymbolTableRecord
100
AcDbLayerTableRecord
  2
BEZUGSEBENEN
 70
0
 62
7
  6
CONTINUOUS
370
-3
390
F
  0
LAYER
  5
200
100
AcDbSymbolTableRecord
100
AcDbLayerTableRecord
  2
BG_STARTBEZUEGE
 70
0
 62
7
  6
CONTINUOUS
370
-3
390
F
  0
LAYER
  5
201
100
AcDbSymbolTableRecord
100
AcDbLayerTableRecord
  2
FASEN
 70
0
 62
7
  6
CONTINUOUS
370
-3
390
F
  0
LAYER
  5
202
100
AcDbSymbolTableRecord
100
AcDbLayerTableRecord
  2
FLAECHENVERBUND
 70
0
 62
7
  6
CONTINUOUS
370
-3
390
F
  0
LAYER
  5
203
100
AcDbSymbolTableRecord
100
AcDbLayerTableRecord
  2
HILFEN
 70
0
 62
7
  6
CONTINUOUS
370
-3
390
F
  0
LAYER
  5
204
100
AcDbSymbolTableRecord
100
AcDbLayerTableRecord
  2
KONSTRUKTIONSELEMENTE
 70
0
 62
7
  6
CONTINUOUS
370
-3
390
F
  0
LAYER
  5
205
100
AcDbSymbolTableRecord
100
AcDbLayerTableRecord
  2
KURVEN
 70
0
 62
7
  6
CONTINUOUS
370
-3
390
F
  0
LAYER
  5
206
100
AcDbSymbolTableRecord
100
AcDbLayerTableRecord
  2
NORM
 70
0
 62
7
  6
CONTINUOUS
370
-3
390
F
  0
LAYER
  5
207
100
AcDbSymbolTableRecord
100
AcDbLayerTableRecord
  2
PLATZIERUNG
 70
0
 62
7
  6
CONTINUOUS
370
-3
390
F
  0
LAYER
  5
208
100
AcDbSymbolTableRecord
100
AcDbLayerTableRecord
  2
RUNDUNGEN
 70
0
 62
7
  6
CONTINUOUS
370
-3
390
F
  0
LAYER
  5
209
100
AcDbSymbolTableRecord
100
AcDbLayerTableRecord
  2
TEIL_STARTBEZUEGE
 70
0
 62
7
  6
CONTINUOUS
370
-3
390
F
  0
LAYER
  5
20A
100
AcDbSymbolTableRecord
100
AcDbLayerTableRecord
  2
T_STARTBEZUEGE
 70
0
 62
7
  6
CONTINUOUS
370
-3
390
F
  0
LAYER
  5
20B
100
AcDbSymbolTableRecord
100
AcDbLayerTableRecord
  2
ZEICHNUNGSBEMASSUNGEN
 70
0
 62
7
  6
CONTINUOUS
370
-3
390
F
  0
ENDTAB
  0
TABLE
  2
STYLE
  5
3
100
AcDbSymbolTable
 70
1
  0
STYLE
  5
11
100
AcDbSymbolTableRecord
100
AcDbTextStyleTableRecord
  2
STANDARD
 70
0
 40
0.0
 41
0.7
 50
0.0
 71
0
 42
0.2
  3
txt
  4

  0
STYLE
  5
20C
100
AcDbSymbolTableRecord
100
AcDbTextStyleTableRecord
  2
TEXTSTYLE_1
 70
0
 40
0.0
 41
0.8
 50
0.0
 71
0
 42
0.2
  3
gdt
  4

  0
ENDTAB
  0
TABLE
  2
VIEW
  5
6
100
AcDbSymbolTable
 70
0
  0
ENDTAB
  0
TABLE
  2
UCS
  5
7
100
AcDbSymbolTable
 70
0
  0
ENDTAB
  0
TABLE
  2
APPID
  5
9
100
AcDbSymbolTable
 70
1
  0
APPID
  5
20D
100
AcDbSymbolTableRecord
100
AcDbRegAppTableRecord
  2
ACAD
 70
0
  0
ENDTAB
  0
TABLE
  2
BLOCK_RECORD
  5
1
100
AcDbSymbolTable
 70
0
  0
BLOCK_RECORD
  5
20E
100
AcDbSymbolTableRecord
100
AcDbBlockTableRecord
  2
*Model_Space
  0
BLOCK_RECORD
  5
20F
100
AcDbSymbolTableRecord
100
AcDbBlockTableRecord
  2
*Paper_Space
  0
ENDTAB
  0
TABLE
  2
DIMSTYLE
  5
A
100
AcDbSymbolTable
 70
1
100
AcDbDimStyleTable
 71
0
  0
DIMSTYLE
105
210
100
AcDbSymbolTableRecord
100
AcDbDimStyleTableRecord
  2
STANDARD
 70
0
  3

  4

 40
1.0
 41
3.5
 42
0.0625
 43
0.38
 44
0.18
 45
0.0
 46
0.0
 47
0.005
 48
0.005
140
3.5
141
0.09
142
0.0
143
25.4
144
1.0
145
0.0
146
1.0
147
0.09
 71
1.0
 72
0.0
 73
0
 74
0
 75
0
 76
0
 77
1
 78
8
170
0
171
2
172
0
173
0
174
0
175
0
176
0
177
0
178
5
270
2
271
3
272
3
273
2
274
2
275
0
280
0
281
0
282
0
283
1
284
8
285
0
286
0
287
3
288
0
340
11
  0
ENDTAB
  0
ENDSEC
  0
SECTION
  2
BLOCKS
  0
BLOCK
  5
20
100
AcDbEntity
  8
0
100
AcDbBlockBegin
  2
*Model_Space
 70
0
 10
0.0
 20
0.0
 30
0.0
  3
*Model_Space
  1

  0
ENDBLK
  5
21
100
AcDbEntity
  8
0
100
AcDbBlockEnd
  0
BLOCK
  5
1C
100
AcDbEntity
  8
0
100
AcDbBlockBegin
  2
*Paper_Space
 70
0
 10
0.0
 20
0.0
 30
0.0
  3
*Paper_Space
  1

  0
ENDBLK
  5
1D
100
AcDbEntity
  8
0
100
AcDbBlockEnd
  0
ENDSEC
  0
SECTION
  2
ENTITIES
  0
MTEXT
  5
211
100
AcDbEntity
  8
0
100
AcDbMText
 62
5
  6
CONTINUOUS
  7
STANDARD
 71
2
 72
1
 10
144.3864289945
 20
111.7523256067
 30
0.0
 11
1.0
 21
0.0
 31
0.0
 44
0.9
  1
VLBS-U-4t\PRUD
 40
5.5
 41
37.4523809524
  0
MTEXT
  5
212
100
AcDbEntity
  8
0
100
AcDbMText
 62
5
  6
CONTINUOUS
  7
STANDARD
 71
2
 72
1
 10
255.7332232911
 20
214.9800637975
 30
0.0
 11
0.0
 21
1.0
 31
0.0
 44
0.9
  1
VLBS-U-4t\PRUD
 40
5.5
 41
37.4523809524
  0
MTEXT
  5
213
100
AcDbEntity
  8
0
100
AcDbMText
 62
5
  6
CONTINUOUS
  7
STANDARD
 71
2
 72
1
 10
143.7514803632
 20
194.5683355286
 30
0.0
 11
1.0
 21
0.0
 31
0.0
 44
0.9
  1
VLBS-U-4t\PRUD
 40
5.5
 41
37.4523809524
  0
LINE
  5
214
100
AcDbEntity
  8
0
100
AcDbLine
 62
7
  6
CONTINUOUS
 10
0.0
 20
0.0
 11
0.0
 21
297.0
  0
LINE
  5
215
100
AcDbEntity
  8
0
100
AcDbLine
 62
7
  6
CONTINUOUS
 10
0.0
 20
0.0
 11
420.0
 21
0.0
  0
LINE
  5
216
100
AcDbEntity
  8
0
100
AcDbLine
 62
7
  6
CONTINUOUS
 10
0.0
 20
297.0
 11
420.0
 21
297.0
  0
LINE
  5
217
100
AcDbEntity
  8
0
100
AcDbLine
 62
7
  6
CONTINUOUS
 10
420.0
 20
0.0
 11
420.0
 21
297.0
  0
LINE
  5
218
100
AcDbEntity
  8
RUNDUNGEN
100
AcDbLine
 62
7
  6
CONTINUOUS
 10
121.8069759388
 20
168.4464860502
 11
166.9318026871
 21
168.4464860502
  0
LINE
  5
219
100
AcDbEntity
  8
BEZUGSACHSEN
100
AcDbLine
 62
7
  6
CONTINUOUS
 10
105.869388613
 20
169.9464860502
 11
121.6087680243
 21
169.9464860502
  0
LINE
  5
21A
100
AcDbEntity
  8
BEZUGSACHSEN
100
AcDbLine
 62
7
  6
CONTINUOUS
 10
167.1300106017
 20
169.9464860502
 11
182.869390013
 21
169.9464860502
  0
LINE
  5
21B
100
AcDbEntity
  8
RUNDUNGEN
100
AcDbLine
 62
7
  6
CONTINUOUS
 10
141.2877805362
 20
268.8335166531
 11
116.2227056118
 21
258.4512226775
  0
LINE
  5
21C
100
AcDbEntity
  8
0
100
AcDbLine
 62
7
  6
CONTINUOUS
 10
167.369389313
 20
170.7464860502
 11
121.369389313
 21
170.7464860502
  0
LINE
  5
21D
100
AcDbEntity
  8
RUNDUNGEN
100
AcDbLine
 62
7
  6
CONTINUOUS
 10
100.869388613
 20
225.9464860502
 11
100.869388613
 21
177.9464860502
  0
LINE
  5
21E
100
AcDbEntity
  8
BEZUGSACHSEN
100
AcDbLine
 62
7
  6
CONTINUOUS
 10
100.869388613
 20
174.9464860502
 11
100.869388613
 21
177.9464860502
  0
LINE
  5
21F
100
AcDbEntity
  8
RUNDUNGEN
100
AcDbLine
 62
7
  6
CONTINUOUS
 10
111.8646526857
 20
254.0931697514
 11
101.4823587101
 21
229.028094827
  0
LINE
  5
220
100
AcDbEntity
  8
0
100
AcDbLine
 62
7
  6
CONTINUOUS
 10
123.369389313
 20
180.2837479843
 11
165.369389313
 21
180.2837479843
  0
LINE
  5
221
100
AcDbEntity
  8
0
100
AcDbLine
 62
7
  6
CONTINUOUS
 10
180.203863058
 20
185.2985908462
 11
181.814389418
 21
185.2985908462
  0
LINE
  5
222
100
AcDbEntity
  8
0
100
AcDbLine
 62
7
  6
CONTINUOUS
 10
181.764389418
 20
186.5085908462
 11
180.25754727
 21
186.5085908462
  0
LINE
  5
223
100
AcDbEntity
  8
0
100
AcDbLine
 62
7
  6
CONTINUOUS
 10
178.995968288
 20
189.0296435802
 11
182.418336803
 21
189.0296435802
  0
LINE
  5
224
100
AcDbEntity
  8
0
100
AcDbLine
 62
7
  6
CONTINUOUS
 10
184.028863163
 20
190.2375383502
 11
183.022284188
 21
190.2375383502
  0
LINE
  5
225
100
AcDbEntity
  8
0
100
AcDbLine
 62
7
  6
CONTINUOUS
 10
182.418336803
 20
190.2375383502
 11
177.989389313
 21
190.2375383502
  0
LINE
  5
226
100
AcDbEntity
  8
0
100
AcDbLine
 62
7
  6
CONTINUOUS
 10
180.405178853
 20
191.4454331202
 11
184.028863163
 21
191.4454331202
  0
LINE
  5
227
100
AcDbEntity
  8
0
100
AcDbLine
 62
7
  6
CONTINUOUS
 10
184.028863163
 20
192.6533278902
 11
180.405178853
 21
192.6533278902
  0
LINE
  5
228
100
AcDbEntity
  8
RUNDUNGEN
100
AcDbLine
 62
7
  6
CONTINUOUS
 10
118.869388613
 20
194.4464860502
 11
118.869388613
 21
198.137012292
  0
LINE
  5
229
100
AcDbEntity
  8
RUNDUNGEN
100
AcDbLine
 62
7
  6
CONTINUOUS
 10
118.869388613
 20
223.3351666365
 11
118.869388613
 21
225.9464860502
  0
LINE
  5
22A
100
AcDbEntity
  8
0
100
AcDbLine
 62
7
  6
CONTINUOUS
 10
121.369389313
 20
170.7464860502
 11
121.369389313
 21
197.4464860502
  0
LINE
  5
22B
100
AcDbEntity
  8
0
100
AcDbLine
 62
7
  6
CONTINUOUS
 10
180.405178853
 20
195.0691174302
 11
184.028863163
 21
195.0691174302
  0
LINE
  5
22C
100
AcDbEntity
  8
0
100
AcDbLine
 62
7
  6
CONTINUOUS
 10
184.028863163
 20
196.2770122002
 11
180.405178853
 21
196.2770122002
  0
LINE
  5
22D
100
AcDbEntity
  8
0
100
AcDbLine
 62
7
  6
CONTINUOUS
 10
126.369389313
 20
200.4137343986
 11
126.369389313
 21
197.7366389786
  0
LINE
  5
22E
100
AcDbEntity
  8
0
100
AcDbLine
 62
7
  6
CONTINUOUS
 10
126.369389313
 20
197.7366389786
 11
127.369389313
 21
197.7366389786
  0
LINE
  5
22F
100
AcDbEntity
  8
0
100
AcDbLine
 62
7
  6
CONTINUOUS
 10
127.769389313
 20
197.7366389786
 11
132.249389313
 21
197.7366389786
  0
LINE
  5
230
100
AcDbEntity
  8
0
100
AcDbLine
 62
7
  6
CONTINUOUS
 10
142.0018533949
 20
198.6749412557
 11
142.729389313
 21
198.6749412557
  0
LINE
  5
231
100
AcDbEntity
  8
0
100
AcDbLine
 62
7
  6
CONTINUOUS
 10
126.369389313
 20
198.8207345026
 11
127.369389313
 21
198.8207345026
  0
LINE
  5
232
100
AcDbEntity
  8
0
100
AcDbLine
 62
7
  6
CONTINUOUS
 10
127.769389313
 20
198.8207345026
 11
132.249389313
 21
198.8207345026
  0
LINE
  5
233
100
AcDbEntity
  8
0
100
AcDbLine
 62
7
  6
CONTINUOUS
 10
150.0252092737
 20
198.8302418376
 11
150.8549966026
 21
198.8302418376
  0
LINE
  5
234
100
AcDbEntity
  8
0
100
AcDbLine
 62
7
  6
CONTINUOUS
 10
127.769389313
 20
199.2693100662
 11
128.869389313
 21
199.2693100662
  0
LINE
  5
235
100
AcDbEntity
  8
0
100
AcDbLine
 62
7
  6
CONTINUOUS
 10
129.849389313
 20
199.2693100662
 11
132.249389313
 21
199.2693100662
  0
LINE
  5
236
100
AcDbEntity
  8
0
100
AcDbLine
 62
7
  6
CONTINUOUS
 10
150.8549966026
 20
199.3692009792
 11
152.7911667783
 21
199.3692009792
  0
LINE
  5
237
100
AcDbEntity
  8
KONSTRUKTIONSELEMENTE
100
AcDbLine
 62
7
  6
CONTINUOUS
 10
123.369389313
 20
199.4464860502
 11
126.369389313
 21
199.4464860502
  0
LINE
  5
238
100
AcDbEntity
  8
KONSTRUKTIONSELEMENTE
100
AcDbLine
 62
7
  6
CONTINUOUS
 10
132.249389313
 20
199.4464860502
 11
136.229389313
 21
199.4464860502
  0
LINE
  5
239
100
AcDbEntity
  8
KONSTRUKTIONSELEMENTE
100
AcDbLine
 62
7
  6
CONTINUOUS
 10
142.729389313
 20
199.4464860502
 11
146.2911667783
 21
199.4464860502
  0
LINE
  5
23A
100
AcDbEntity
  8
KONSTRUKTIONSELEMENTE
100
AcDbLine
 62
7
  6
CONTINUOUS
 10
152.7911667783
 20
199.4464860502
 11
157.6158906552
 21
199.4464860502
  0
LINE
  5
23B
100
AcDbEntity
  8
KONSTRUKTIONSELEMENTE
100
AcDbLine
 62
7
  6
CONTINUOUS
 10
163.6158906552
 20
199.4464860502
 11
165.369389313
 21
199.4464860502
  0
LINE
  5
23C
100
AcDbEntity
  8
0
100
AcDbLine
 62
7
  6
CONTINUOUS
 10
136.229389313
 20
199.7112550356
 11
142.729389313
 21
199.7112550356
  0
LINE
  5
23D
100
AcDbEntity
  8
0
100
AcDbLine
 62
7
  6
CONTINUOUS
 10
150.0252092737
 20
199.8590407787
 11
150.8549966026
 21
199.8590407787
  0
LINE
  5
23E
100
AcDbEntity
  8
0
100
AcDbLine
 62
7
  6
CONTINUOUS
 10
136.229389313
 20
199.9102984737
 11
141.899602081
 21
199.9102984737
  0
LINE
  5
23F
100
AcDbEntity
  8
0
100
AcDbLine
 62
7
  6
CONTINUOUS
 10
126.369389313
 20
200.3151851428
 11
129.899389313
 21
200.3151851428
  0
LINE
  5
240
100
AcDbEntity
  8
0
100
AcDbLine
 62
7
  6
CONTINUOUS
 10
147.3975496251
 20
200.372726038
 11
150.0252092737
 21
200.372726038
  0
LINE
  5
241
100
AcDbEntity
  8
0
100
AcDbLine
 62
7
  6
CONTINUOUS
 10
150.8549966026
 20
200.372726038
 11
152.7911667783
 21
200.372726038
  0
LINE
  5
242
100
AcDbEntity
  8
0
100
AcDbLine
 62
7
  6
CONTINUOUS
 10
126.369389313
 20
200.4137343986
 11
129.899389313
 21
200.4137343986
  0
LINE
  5
243
100
AcDbEntity
  8
0
100
AcDbLine
 62
7
  6
CONTINUOUS
 10
126.369389313
 20
200.4189688412
 11
129.899389313
 21
200.4189688412
  0
LINE
  5
244
100
AcDbEntity
  8
0
100
AcDbLine
 62
7
  6
CONTINUOUS
 10
146.2911667783
 20
200.4243122337
 11
150.0252092737
 21
200.4243122337
  0
LINE
  5
245
100
AcDbEntity
  8
0
100
AcDbLine
 62
7
  6
CONTINUOUS
 10
150.8549966026
 20
200.4243122337
 11
152.7911667783
 21
200.4243122337
  0
LINE
  5
246
100
AcDbEntity
  8
0
100
AcDbLine
 62
7
  6
CONTINUOUS
 10
157.6309283439
 20
200.4280692507
 11
158.5158907004
 21
200.4280692507
  0
LINE
  5
247
100
AcDbEntity
  8
0
100
AcDbLine
 62
7
  6
CONTINUOUS
 10
162.7158905927
 20
200.4280692507
 11
163.6008529665
 21
200.4280692507
  0
LINE
  5
248
100
AcDbEntity
  8
0
100
AcDbLine
 62
7
  6
CONTINUOUS
 10
141.899602081
 20
200.4331814591
 11
142.729389313
 21
200.4331814591
  0
LINE
  5
249
100
AcDbEntity
  8
0
100
AcDbLine
 62
7
  6
CONTINUOUS
 10
136.229389313
 20
200.44418284
 11
142.729389313
 21
200.44418284
  0
LINE
  5
24A
100
AcDbEntity
  8
0
100
AcDbLine
 62
7
  6
CONTINUOUS
 10
131.0493893129
 20
200.4464860502
 11
132.225558153
 21
200.4464860502
  0
LINE
  5
24B
100
AcDbEntity
  8
0
100
AcDbLine
 62
7
  6
CONTINUOUS
 10
150.0252092737
 20
200.4464860502
 11
150.8549966026
 21
200.4464860502
  0
LINE
  5
24C
100
AcDbEntity
  8
0
100
AcDbLine
 62
7
  6
CONTINUOUS
 10
177.989389313
 20
201.3099070752
 11
180.512547277
 21
201.3099070752
  0
LINE
  5
24D
100
AcDbEntity
  8
0
100
AcDbLine
 62
7
  6
CONTINUOUS
 10
181.519126252
 20
201.3099070752
 11
182.418336803
 21
201.3099070752
  0
LINE
  5
24E
100
AcDbEntity
  8
BEZUGSACHSEN
100
AcDbLine
 62
7
  6
CONTINUOUS
 10
166.369390013
 20
201.4464860502
 11
159.8937001465
 21
201.4464860502
  0
LINE
  5
24F
100
AcDbEntity
  8
RUNDUNGEN
100
AcDbLine
 62
7
  6
CONTINUOUS
 10
122.369388613
 20
201.4464860502
 11
128.8450784795
 21
201.4464860502
  0
LINE
  5
250
100
AcDbEntity
  8
0
100
AcDbLine
 62
7
  6
CONTINUOUS
 10
131.0482910267
 20
200.4464126777
 11
131.0493893129
 21
200.4463493837
  0
LINE
  5
251
100
AcDbEntity
  8
0
100
AcDbLine
 62
7
  6
CONTINUOUS
 10
132.249389313
 20
200.4462831615
 11
132.2488538001
 21
200.4463442369
  0
LINE
  5
252
100
AcDbEntity
  8
0
100
AcDbLine
 62
7
  6
CONTINUOUS
 10
127.369389313
 20
199.7349218782
 11
127.369389313
 21
197.7366389786
  0
LINE
  5
253
100
AcDbEntity
  8
0
100
AcDbLine
 62
7
  6
CONTINUOUS
 10
127.769389313
 20
199.2693100662
 11
127.769389313
 21
197.7366389786
  0
LINE
  5
254
100
AcDbEntity
  8
0
100
AcDbLine
 62
7
  6
CONTINUOUS
 10
128.869389313
 20
199.7349218782
 11
128.869389313
 21
199.2693100662
  0
LINE
  5
255
100
AcDbEntity
  8
0
100
AcDbLine
 62
7
  6
CONTINUOUS
 10
129.849389313
 20
199.4676711314
 11
129.849389313
 21
199.2693100662
  0
LINE
  5
256
100
AcDbEntity
  8
0
100
AcDbLine
 62
7
  6
CONTINUOUS
 10
184.028863163
 20
202.3164860502
 11
183.022284188
 21
202.3164860502
  0
LINE
  5
257
100
AcDbEntity
  8
0
100
AcDbLine
 62
7
  6
CONTINUOUS
 10
182.418336803
 20
202.3164860502
 11
177.989389313
 21
202.3164860502
  0
LINE
  5
258
100
AcDbEntity
  8
0
100
AcDbLine
 62
7
  6
CONTINUOUS
 10
132.249389313
 20
197.7366389786
 11
132.249389313
 21
200.4438966717
  0
LINE
  5
259
100
AcDbEntity
  8
0
100
AcDbLine
 62
7
  6
CONTINUOUS
 10
136.229389313
 20
200.44418284
 11
136.229389313
 21
198.047792487
  0
LINE
  5
25A
100
AcDbEntity
  8
0
100
AcDbLine
 62
7
  6
CONTINUOUS
 10
136.229389313
 20
197.306171725
 11
136.229389313
 21
195.5818413136
  0
LINE
  5
25B
100
AcDbEntity
  8
0
100
AcDbLine
 62
7
  6
CONTINUOUS
 10
162.7158905927
 20
200.4134038295
 11
162.6943516243
 21
200.4280692507
  0
LINE
  5
25C
100
AcDbEntity
  8
0
100
AcDbLine
 62
7
  6
CONTINUOUS
 10
141.899602081
 20
200.4331814591
 11
141.899602081
 21
199.9102984737
  0
LINE
  5
25D
100
AcDbEntity
  8
0
100
AcDbLine
 62
7
  6
CONTINUOUS
 10
142.729389313
 20
200.44418284
 11
142.729389313
 21
198.6749412557
  0
LINE
  5
25E
100
AcDbEntity
  8
0
100
AcDbLine
 62
7
  6
CONTINUOUS
 10
142.729389313
 20
198.570300301
 11
142.729389313
 21
196.9270873259
  0
LINE
  5
25F
100
AcDbEntity
  8
0
100
AcDbLine
 62
7
  6
CONTINUOUS
 10
163.6008529665
 20
200.4280692507
 11
163.6158905693
 21
200.4134491786
  0
LINE
  5
260
100
AcDbEntity
  8
0
100
AcDbLine
 62
7
  6
CONTINUOUS
 10
146.2911667783
 20
200.4243122337
 11
146.2911667783
 21
199.3692009792
  0
LINE
  5
261
100
AcDbEntity
  8
0
100
AcDbLine
 62
7
  6
CONTINUOUS
 10
150.0252092737
 20
200.4464860483
 11
150.0252092737
 21
200.4243122337
  0
LINE
  5
262
100
AcDbEntity
  8
0
100
AcDbLine
 62
7
  6
CONTINUOUS
 10
150.0252092737
 20
200.372726038
 11
150.0252092737
 21
200.0606691729
  0
LINE
  5
263
100
AcDbEntity
  8
0
100
AcDbLine
 62
7
  6
CONTINUOUS
 10
150.0252092737
 20
199.8590407787
 11
150.0252092737
 21
198.8302418376
  0
LINE
  5
264
100
AcDbEntity
  8
0
100
AcDbLine
 62
7
  6
CONTINUOUS
 10
150.8549966026
 20
200.372726038
 11
150.8549966026
 21
198.8302418376
  0
LINE
  5
265
100
AcDbEntity
  8
0
100
AcDbLine
 62
7
  6
CONTINUOUS
 10
150.8549966026
 20
200.4243122337
 11
150.8549966026
 21
200.4464860483
  0
LINE
  5
266
100
AcDbEntity
  8
0
100
AcDbLine
 62
7
  6
CONTINUOUS
 10
152.7911667783
 20
200.4243122337
 11
152.7911667783
 21
199.3692009792
  0
LINE
  5
267
100
AcDbEntity
  8
0
100
AcDbLine
 62
7
  6
CONTINUOUS
 10
157.6158906552
 20
199.4095353584
 11
157.6158906552
 21
200.4112098953
  0
LINE
  5
268
100
AcDbEntity
  8
0
100
AcDbLine
 62
7
  6
CONTINUOUS
 10
158.5374296861
 20
200.4280692507
 11
158.5374296861
 21
200.3952943311
  0
LINE
  5
269
100
AcDbEntity
  8
0
100
AcDbLine
 62
7
  6
CONTINUOUS
 10
162.6943516243
 20
200.4280692507
 11
162.6943516243
 21
200.395293072
  0
LINE
  5
26A
100
AcDbEntity
  8
0
100
AcDbLine
 62
7
  6
CONTINUOUS
 10
163.6158906552
 20
199.4095475805
 11
163.6158906552
 21
200.411206686
  0
LINE
  5
26B
100
AcDbEntity
  8
0
100
AcDbLine
 62
7
  6
CONTINUOUS
 10
157.6158907305
 20
200.4134541825
 11
157.6309283439
 21
200.4280692507
  0
LINE
  5
26C
100
AcDbEntity
  8
0
100
AcDbLine
 62
7
  6
CONTINUOUS
 10
167.369389313
 20
197.4464860502
 11
167.369389313
 21
170.7464860502
  0
LINE
  5
26D
100
AcDbEntity
  8
BEZUGSACHSEN
100
AcDbLine
 62
7
  6
CONTINUOUS
 10
169.869390013
 20
194.4464860502
 11
169.869390013
 21
198.137012292
  0
LINE
  5
26E
100
AcDbEntity
  8
BEZUGSACHSEN
100
AcDbLine
 62
7
  6
CONTINUOUS
 10
169.869390013
 20
223.3351666365
 11
169.869390013
 21
225.9464860502
  0
LINE
  5
26F
100
AcDbEntity
  8
0
100
AcDbLine
 62
7
  6
CONTINUOUS
 10
158.5374296861
 20
200.4280692507
 11
158.5158907004
 21
200.4134110137
  0
LINE
  5
270
100
AcDbEntity
  8
0
100
AcDbLine
 62
7
  6
CONTINUOUS
 10
177.989389313
 20
202.3164860502
 11
177.989389313
 21
201.3099070752
  0
LINE
  5
271
100
AcDbEntity
  8
0
100
AcDbLine
 62
7
  6
CONTINUOUS
 10
177.989389313
 20
198.2445726646
 11
177.989389313
 21
197.0822753802
  0
LINE
  5
272
100
AcDbEntity
  8
0
100
AcDbLine
 62
7
  6
CONTINUOUS
 10
177.989389313
 20
190.2375383502
 11
177.989389313
 21
187.5130645912
  0
LINE
  5
273
100
AcDbEntity
  8
0
100
AcDbLine
 62
7
  6
CONTINUOUS
 10
178.995968288
 20
187.7701698282
 11
178.995968288
 21
189.0296435802
  0
LINE
  5
274
100
AcDbEntity
  8
0
100
AcDbLine
 62
7
  6
CONTINUOUS
 10
180.512547277
 20
201.3099070752
 11
180.512547277
 21
200.2824672365
  0
LINE
  5
275
100
AcDbEntity
  8
0
100
AcDbLine
 62
7
  6
CONTINUOUS
 10
180.0092577895
 20
199.4107442732
 11
177.989389313
 21
198.2445726646
  0
LINE
  5
276
100
AcDbEntity
  8
0
100
AcDbLine
 62
7
  6
CONTINUOUS
 10
177.989389313
 20
197.0822753802
 11
180.6313914888
 21
198.6076360476
  0
LINE
  5
277
100
AcDbEntity
  8
0
100
AcDbLine
 62
7
  6
CONTINUOUS
 10
181.519126252
 20
199.6456965032
 11
181.519126252
 21
201.3099070752
  0
LINE
  5
278
100
AcDbEntity
  8
0
100
AcDbLine
 62
7
  6
CONTINUOUS
 10
182.418336803
 20
189.0296435802
 11
182.418336803
 21
190.2375383502
  0
LINE
  5
279
100
AcDbEntity
  8
0
100
AcDbLine
 62
7
  6
CONTINUOUS
 10
182.418336803
 20
201.3099070752
 11
182.418336803
 21
202.3164860502
  0
LINE
  5
27A
100
AcDbEntity
  8
0
100
AcDbLine
 62
7
  6
CONTINUOUS
 10
183.022284188
 20
202.3164860502
 11
183.022284188
 21
199.6456965032
  0
LINE
  5
27B
100
AcDbEntity
  8
0
100
AcDbLine
 62
7
  6
CONTINUOUS
 10
183.022284188
 20
190.2375383502
 11
183.022284188
 21
187.7701644487
  0
LINE
  5
27C
100
AcDbEntity
  8
0
100
AcDbLine
 62
7
  6
CONTINUOUS
 10
184.028863163
 20
187.5130645912
 11
184.028863163
 21
190.2375383502
  0
LINE
  5
27D
100
AcDbEntity
  8
0
100
AcDbLine
 62
7
  6
CONTINUOUS
 10
184.028863163
 20
191.4454331202
 11
184.028863163
 21
192.6533278902
  0
LINE
  5
27E
100
AcDbEntity
  8
0
100
AcDbLine
 62
7
  6
CONTINUOUS
 10
184.028863163
 20
195.0691174302
 11
184.028863163
 21
196.2770122002
  0
LINE
  5
27F
100
AcDbEntity
  8
0
100
AcDbLine
 62
7
  6
CONTINUOUS
 10
184.028863163
 20
199.2430649132
 11
184.028863163
 21
202.3164860502
  0
LINE
  5
280
100
AcDbEntity
  8
BEZUGSACHSEN
100
AcDbLine
 62
7
  6
CONTINUOUS
 10
187.869390013
 20
225.9464860502
 11
187.869390013
 21
174.9464860502
  0
LINE
  5
281
100
AcDbEntity
  8
BEZUGSACHSEN
100
AcDbLine
 62
7
  6
CONTINUOUS
 10
176.8741259403
 20
254.0931697514
 11
187.2564199158
 21
229.028094827
  0
LINE
  5
282
100
AcDbEntity
  8
BEZUGSACHSEN
100
AcDbLine
 62
7
  6
CONTINUOUS
 10
147.4509980898
 20
268.8335166531
 11
172.5160730142
 21
258.4512226775
  0
LINE
  5
283
100
AcDbEntity
  8
RUNDUNGEN
100
AcDbLine
 62
7
  6
CONTINUOUS
 10
276.365795607
 20
168.4464860502
 11
273.365795607
 21
168.4464860502
  0
LINE
  5
284
100
AcDbEntity
  8
RUNDUNGEN
100
AcDbLine
 62
7
  6
CONTINUOUS
 10
251.5615769789
 20
168.4464860502
 11
248.5615769789
 21
168.4464860502
  0
LINE
  5
285
100
AcDbEntity
  8
RUNDUNGEN
100
AcDbLine
 62
7
  6
CONTINUOUS
 10
278.3913476626
 20
170.7464860502
 11
276.7713476626
 21
170.7464860502
  0
LINE
  5
286
100
AcDbEntity
  8
RUNDUNGEN
100
AcDbLine
 62
7
  6
CONTINUOUS
 10
246.5360249232
 20
170.7464860502
 11
248.1560249232
 21
170.7464860502
  0
LINE
  5
287
100
AcDbEntity
  8
KONSTRUKTIONSELEMENTE
100
AcDbLine
 62
7
  6
CONTINUOUS
 10
246.5360249232
 20
170.7464860502
 11
241.4636862929
 21
180.2837479843
  0
LINE
  5
288
100
AcDbEntity
  8
RUNDUNGEN
100
AcDbLine
 62
7
  6
CONTINUOUS
 10
248.5615769789
 20
168.4464860502
 11
248.1560249232
 21
170.7464860502
  0
LINE
  5
289
100
AcDbEntity
  8
0
100
AcDbLine
 62
7
  6
CONTINUOUS
 10
270.4636862929
 20
201.3099070752
 11
270.9636862929
 21
201.3099070752
  0
LINE
  5
28A
100
AcDbEntity
  8
0
100
AcDbLine
 62
7
  6
CONTINUOUS
 10
270.4636862929
 20
202.3164860502
 11
270.9636862929
 21
202.3164860502
  0
LINE
  5
28B
100
AcDbEntity
  8
0
100
AcDbLine
 62
7
  6
CONTINUOUS
 10
251.0411862929
 20
197.2487862752
 11
251.0411862929
 21
196.0682479868
  0
LINE
  5
28C
100
AcDbEntity
  8
0
100
AcDbLine
 62
7
  6
CONTINUOUS
 10
251.3120201428
 20
197.4106718244
 11
251.3120201428
 21
196.2408767978
  0
LINE
  5
28D
100
AcDbEntity
  8
0
100
AcDbLine
 62
7
  6
CONTINUOUS
 10
251.4474362929
 20
197.4896537473
 11
251.4474362929
 21
196.3250272642
  0
LINE
  5
28E
100
AcDbEntity
  8
0
100
AcDbLine
 62
7
  6
CONTINUOUS
 10
251.582852443
 20
197.5673504327
 11
251.582852443
 21
196.4077625842
  0
LINE
  5
28F
100
AcDbEntity
  8
0
100
AcDbLine
 62
7
  6
CONTINUOUS
 10
251.989102443
 20
197.7928834712
 11
251.989102443
 21
196.6476698901
  0
LINE
  5
290
100
AcDbEntity
  8
KONSTRUKTIONSELEMENTE
100
AcDbLine
 62
7
  6
CONTINUOUS
 10
241.7827234797
 20
182.0930977812
 11
241.4636862929
 21
180.2837479843
  0
LINE
  5
291
100
AcDbEntity
  8
0
100
AcDbLine
 62
7
  6
CONTINUOUS
 10
252.5307701428
 20
198.0764930995
 11
252.5307701428
 21
196.9488420287
  0
LINE
  5
292
100
AcDbEntity
  8
0
100
AcDbLine
 62
7
  6
CONTINUOUS
 10
253.207852443
 20
198.4046808519
 11
253.207852443
 21
197.2966727799
  0
LINE
  5
293
100
AcDbEntity
  8
0
100
AcDbLine
 62
7
  6
CONTINUOUS
 10
253.8849362929
 20
198.7049422707
 11
253.8849362929
 21
197.6142988738
  0
LINE
  5
294
100
AcDbEntity
  8
0
100
AcDbLine
 62
7
  6
CONTINUOUS
 10
254.1636862929
 20
198.8207345026
 11
254.1636862929
 21
197.7366389786
  0
LINE
  5
295
100
AcDbEntity
  8
BEZUGSACHSEN
100
AcDbLine
 62
7
  6
CONTINUOUS
 10
254.4636862929
 20
264.4464867502
 11
254.4636862929
 21
177.9464860502
  0
LINE
  5
296
100
AcDbEntity
  8
RUNDUNGEN
100
AcDbLine
 62
7
  6
CONTINUOUS
 10
251.5615769789
 20
168.4464860502
 11
253.6004165158
 21
180.0093196492
  0
LINE
  5
297
100
AcDbEntity
  8
RUNDUNGEN
100
AcDbLine
 62
7
  6
CONTINUOUS
 10
271.32695607
 20
180.0093196492
 11
273.365795607
 21
168.4464860502
  0
LINE
  5
298
100
AcDbEntity
  8
BEZUGSACHSEN
100
AcDbLine
 62
7
  6
CONTINUOUS
 10
270.4636862929
 20
264.4464867502
 11
270.4636862929
 21
264.2141189906
  0
LINE
  5
299
100
AcDbEntity
  8
RUNDUNGEN
100
AcDbLine
 62
7
  6
CONTINUOUS
 10
270.4636862929
 20
264.2141189906
 11
270.4636862929
 21
177.9464860502
  0
LINE
  5
29A
100
AcDbEntity
  8
0
100
AcDbLine
 62
7
  6
CONTINUOUS
 10
270.7636862929
 20
198.8207345026
 11
270.7636862929
 21
197.7366389786
  0
LINE
  5
29B
100
AcDbEntity
  8
0
100
AcDbLine
 62
7
  6
CONTINUOUS
 10
270.9636862929
 20
202.3164860502
 11
270.9636862929
 21
198.7380808208
  0
LINE
  5
29C
100
AcDbEntity
  8
0
100
AcDbLine
 62
7
  6
CONTINUOUS
 10
271.8953530242
 20
198.3221913879
 11
271.8953530242
 21
197.2093126675
  0
LINE
  5
29D
100
AcDbEntity
  8
0
100
AcDbLine
 62
7
  6
CONTINUOUS
 10
273.7911862929
 20
197.306171725
 11
273.7911862929
 21
196.1294649777
  0
LINE
  5
29E
100
AcDbEntity
  8
0
100
AcDbLine
 62
7
  6
CONTINUOUS
 10
274.6036862929
 20
196.793703823
 11
274.6036862929
 21
195.5818413136
  0
LINE
  5
29F
100
AcDbEntity
  8
0
100
AcDbLine
 62
7
  6
CONTINUOUS
 10
283.1446491062
 20
182.0930977812
 11
283.4636862929
 21
180.2837479843
  0
LINE
  5
2A0
100
AcDbEntity
  8
RUNDUNGEN
100
AcDbLine
 62
7
  6
CONTINUOUS
 10
276.7713476626
 20
170.7464860502
 11
276.365795607
 21
168.4464860502
  0
LINE
  5
2A1
100
AcDbEntity
  8
0
100
AcDbLine
 62
7
  6
CONTINUOUS
 10
278.3913476626
 20
170.7464860502
 11
283.4636862929
 21
180.2837479843
  0
LINE
  5
2A2
100
AcDbEntity
  8
AUSFORMSCHRAEGEN
100
AcDbLine
 62
7
  6
CONTINUOUS
 10
259.4636862929
 20
269.4464867502
 11
265.4636862929
 21
269.4464867502
  0
LINE
  5
2A3
100
AcDbEntity
  8
BEZUGSACHSEN
100
AcDbLine
 62
7
  6
CONTINUOUS
 10
100.869388613
 20
108.03
 11
100.869388613
 21
102.03
  0
LINE
  5
2A4
100
AcDbEntity
  8
0
100
AcDbLine
 62
7
  6
CONTINUOUS
 10
121.369389313
 20
85.5551927789
 11
121.369389313
 21
97.03
  0
LINE
  5
2A5
100
AcDbEntity
  8
0
100
AcDbLine
 62
7
  6
CONTINUOUS
 10
121.369389313
 20
113.03
 11
121.369389313
 21
123.7413473072
  0
LINE
  5
2A6
100
AcDbEntity
  8
KONSTRUKTIONSELEMENTE
100
AcDbLine
 62
7
  6
CONTINUOUS
 10
121.369389313
 20
123.7413473072
 11
121.369389313
 21
124.5048072211
  0
LINE
  5
2A7
100
AcDbEntity
  8
0
100
AcDbLine
 62
7
  6
CONTINUOUS
 10
123.369389313
 20
84.03
 11
165.369389313
 21
84.03
  0
LINE
  5
2A8
100
AcDbEntity
  8
0
100
AcDbLine
 62
7
  6
CONTINUOUS
 10
126.369389313
 20
97.03
 11
126.369389313
 21
96.73
  0
LINE
  5
2A9
100
AcDbEntity
  8
0
100
AcDbLine
 62
7
  6
CONTINUOUS
 10
127.369389313
 20
97.03
 11
127.369389313
 21
96.73
  0
LINE
  5
2AA
100
AcDbEntity
  8
0
100
AcDbLine
 62
7
  6
CONTINUOUS
 10
127.769389313
 20
97.03
 11
127.769389313
 21
96.73
  0
LINE
  5
2AB
100
AcDbEntity
  8
0
100
AcDbLine
 62
7
  6
CONTINUOUS
 10
137.3357721598
 20
115.9108338499
 11
136.7825807364
 21
115.5045838499
  0
LINE
  5
2AC
100
AcDbEntity
  8
0
100
AcDbLine
 62
7
  6
CONTINUOUS
 10
137.7506657274
 20
116.04625
 11
137.3357721598
 21
115.9108338499
  0
LINE
  5
2AD
100
AcDbEntity
  8
0
100
AcDbLine
 62
7
  6
CONTINUOUS
 10
132.249389313
 20
97.03
 11
132.249389313
 21
96.73
  0
LINE
  5
2AE
100
AcDbEntity
  8
0
100
AcDbLine
 62
7
  6
CONTINUOUS
 10
136.3676871688
 20
114.9629161501
 11
136.229389313
 21
114.2858338499
  0
LINE
  5
2AF
100
AcDbEntity
  8
0
100
AcDbLine
 62
7
  6
CONTINUOUS
 10
137.197474304
 20
114.8275
 11
137.0591764481
 21
114.42125
  0
LINE
  5
2B0
100
AcDbEntity
  8
0
100
AcDbLine
 62
7
  6
CONTINUOUS
 10
139.4102403851
 20
115.64
 11
139.1336446733
 21
115.0983338499
  0
LINE
  5
2B1
100
AcDbEntity
  8
0
100
AcDbLine
 62
7
  6
CONTINUOUS
 10
140.2400275202
 20
115.3691661501
 11
139.9634318085
 21
114.9629161501
  0
LINE
  5
2B2
100
AcDbEntity
  8
0
100
AcDbLine
 62
7
  6
CONTINUOUS
 10
136.7825807364
 20
115.5045838499
 11
136.3676871688
 21
114.9629161501
  0
LINE
  5
2B3
100
AcDbEntity
  8
0
100
AcDbLine
 62
7
  6
CONTINUOUS
 10
137.4740700157
 20
115.0983338499
 11
137.197474304
 21
114.8275
  0
LINE
  5
2B4
100
AcDbEntity
  8
0
100
AcDbLine
 62
7
  6
CONTINUOUS
 10
139.9634318085
 20
116.1816661501
 11
139.4102403851
 21
115.64
  0
LINE
  5
2B5
100
AcDbEntity
  8
0
100
AcDbLine
 62
7
  6
CONTINUOUS
 10
140.6549212815
 20
115.64
 11
140.2400275202
 21
115.3691661501
  0
LINE
  5
2B6
100
AcDbEntity
  8
0
100
AcDbLine
 62
7
  6
CONTINUOUS
 10
137.7506657274
 20
115.23375
 11
137.4740700157
 21
115.0983338499
  0
LINE
  5
2B7
100
AcDbEntity
  8
0
100
AcDbLine
 62
7
  6
CONTINUOUS
 10
140.5166234256
 20
116.4525
 11
139.9634318085
 21
116.1816661501
  0
LINE
  5
2B8
100
AcDbEntity
  8
0
100
AcDbLine
 62
7
  6
CONTINUOUS
 10
137.6176564517
 20
97.03
 11
141.899602081
 21
95.5983332688
  0
LINE
  5
2B9
100
AcDbEntity
  8
0
100
AcDbLine
 62
7
  6
CONTINUOUS
 10
136.229389313
 20
114.2858338499
 11
136.229389313
 21
113.60875
  0
LINE
  5
2BA
100
AcDbEntity
  8
0
100
AcDbLine
 62
7
  6
CONTINUOUS
 10
136.229389313
 20
93.7025
 11
136.229389313
 21
92.89
  0
LINE
  5
2BB
100
AcDbEntity
  8
0
100
AcDbLine
 62
7
  6
CONTINUOUS
 10
137.0591764481
 20
114.42125
 11
137.0591764481
 21
113.60875
  0
LINE
  5
2BC
100
AcDbEntity
  8
0
100
AcDbLine
 62
7
  6
CONTINUOUS
 10
137.7506657274
 20
116.04625
 11
137.7506657274
 21
115.23375
  0
LINE
  5
2BD
100
AcDbEntity
  8
0
100
AcDbLine
 62
7
  6
CONTINUOUS
 10
139.1336446733
 20
115.0983338499
 11
138.9953468175
 21
114.42125
  0
LINE
  5
2BE
100
AcDbEntity
  8
0
100
AcDbLine
 62
7
  6
CONTINUOUS
 10
139.9634318085
 20
114.9629161501
 11
139.8251339526
 21
114.42125
  0
LINE
  5
2BF
100
AcDbEntity
  8
0
100
AcDbLine
 62
7
  6
CONTINUOUS
 10
139.8251339526
 20
113.60875
 11
139.6868360968
 21
113.0670838499
  0
LINE
  5
2C0
100
AcDbEntity
  8
0
100
AcDbLine
 62
7
  6
CONTINUOUS
 10
138.9953468175
 20
113.60875
 11
138.8570489616
 21
113.2025
  0
LINE
  5
2C1
100
AcDbEntity
  8
0
100
AcDbLine
 62
7
  6
CONTINUOUS
 10
139.6868360968
 20
113.0670838499
 11
139.6678997011
 21
113.03
  0
LINE
  5
2C2
100
AcDbEntity
  8
0
100
AcDbLine
 62
7
  6
CONTINUOUS
 10
138.8570489616
 20
113.2025
 11
138.7396021671
 21
113.03
  0
LINE
  5
2C3
100
AcDbEntity
  8
0
100
AcDbLine
 62
7
  6
CONTINUOUS
 10
184.028863163
 20
96.53
 11
177.989389313
 21
96.53
  0
LINE
  5
2C4
100
AcDbEntity
  8
0
100
AcDbLine
 62
7
  6
CONTINUOUS
 10
126.369389313
 20
96.73
 11
127.369389313
 21
96.73
  0
LINE
  5
2C5
100
AcDbEntity
  8
0
100
AcDbLine
 62
7
  6
CONTINUOUS
 10
127.769389313
 20
96.73
 11
132.249389313
 21
96.73
  0
LINE
  5
2C6
100
AcDbEntity
  8
RUNDUNGEN
100
AcDbLine
 62
7
  6
CONTINUOUS
 10
143.201197698
 20
97.03
 11
105.869388613
 21
97.03
  0
LINE
  5
2C7
100
AcDbEntity
  8
BEZUGSACHSEN
100
AcDbLine
 62
7
  6
CONTINUOUS
 10
143.201197698
 20
97.03
 11
182.869390013
 21
97.03
  0
LINE
  5
2C8
100
AcDbEntity
  8
0
100
AcDbLine
 62
7
  6
CONTINUOUS
 10
140.0593891538
 20
97.03
 11
142.729389313
 21
96.14
  0
LINE
  5
2C9
100
AcDbEntity
  8
0
100
AcDbLine
 62
7
  6
CONTINUOUS
 10
138.9953468175
 20
114.42125
 11
138.9953468175
 21
113.60875
  0
LINE
  5
2CA
100
AcDbEntity
  8
0
100
AcDbLine
 62
7
  6
CONTINUOUS
 10
139.8251339526
 20
114.42125
 11
139.8251339526
 21
113.60875
  0
LINE
  5
2CB
100
AcDbEntity
  8
0
100
AcDbLine
 62
7
  6
CONTINUOUS
 10
142.729389313
 20
113.3379161501
 11
142.6664957075
 21
113.03
  0
LINE
  5
2CC
100
AcDbEntity
  8
0
100
AcDbLine
 62
7
  6
CONTINUOUS
 10
141.899602081
 20
113.3379161501
 11
141.820985126
 21
113.03
  0
LINE
  5
2CD
100
AcDbEntity
  8
0
100
AcDbLine
 62
7
  6
CONTINUOUS
 10
136.3676871688
 20
113.0670838499
 11
136.3866235645
 21
113.03
  0
LINE
  5
2CE
100
AcDbEntity
  8
0
100
AcDbLine
 62
7
  6
CONTINUOUS
 10
137.0591764481
 20
113.60875
 11
137.197474304
 21
113.2025
  0
LINE
  5
2CF
100
AcDbEntity
  8
0
100
AcDbLine
 62
7
  6
CONTINUOUS
 10
136.229389313
 20
113.60875
 11
136.3676871688
 21
113.0670838499
  0
LINE
  5
2D0
100
AcDbEntity
  8
0
100
AcDbLine
 62
7
  6
CONTINUOUS
 10
141.899602081
 20
114.42125
 11
141.899602081
 21
113.3379161501
  0
LINE
  5
2D1
100
AcDbEntity
  8
0
100
AcDbLine
 62
7
  6
CONTINUOUS
 10
142.729389313
 20
114.42125
 11
142.729389313
 21
113.3379161501
  0
LINE
  5
2D2
100
AcDbEntity
  8
0
100
AcDbLine
 62
7
  6
CONTINUOUS
 10
142.729389313
 20
96.14
 11
142.729389313
 21
95.0566667312
  0
LINE
  5
2D3
100
AcDbEntity
  8
0
100
AcDbLine
 62
7
  6
CONTINUOUS
 10
137.197474304
 20
113.2025
 11
137.3149210985
 21
113.03
  0
LINE
  5
2D4
100
AcDbEntity
  8
0
100
AcDbLine
 62
7
  6
CONTINUOUS
 10
141.7613042251
 20
114.9629161501
 11
141.899602081
 21
114.42125
  0
LINE
  5
2D5
100
AcDbEntity
  8
0
100
AcDbLine
 62
7
  6
CONTINUOUS
 10
142.591091445
 20
115.0983338499
 11
142.729389313
 21
114.42125
  0
LINE
  5
2D6
100
AcDbEntity
  8
0
100
AcDbLine
 62
7
  6
CONTINUOUS
 10
141.4847084166
 20
115.3691661501
 11
141.7613042251
 21
114.9629161501
  0
LINE
  5
2D7
100
AcDbEntity
  8
0
100
AcDbLine
 62
7
  6
CONTINUOUS
 10
142.314495697
 20
115.64
 11
142.591091445
 21
115.0983338499
  0
LINE
  5
2D8
100
AcDbEntity
  8
0
100
AcDbLine
 62
7
  6
CONTINUOUS
 10
141.7613042251
 20
116.1816661501
 11
142.314495697
 21
115.64
  0
LINE
  5
2D9
100
AcDbEntity
  8
0
100
AcDbLine
 62
7
  6
CONTINUOUS
 10
141.899602081
 20
95.5983332688
 11
136.229389313
 21
93.7025
  0
LINE
  5
2DA
100
AcDbEntity
  8
0
100
AcDbLine
 62
7
  6
CONTINUOUS
 10
142.729389313
 20
95.0566667312
 11
136.229389313
 21
92.89
  0
LINE
  5
2DB
100
AcDbEntity
  8
BEZUGSACHSEN
100
AcDbLine
 62
7
  6
CONTINUOUS
 10
105.869388613
 20
113.03
 11
182.869390013
 21
113.03
  0
LINE
  5
2DC
100
AcDbEntity
  8
0
100
AcDbLine
 62
7
  6
CONTINUOUS
 10
141.2081127049
 20
116.4525
 11
141.7613042251
 21
116.1816661501
  0
LINE
  5
2DD
100
AcDbEntity
  8
0
100
AcDbLine
 62
7
  6
CONTINUOUS
 10
141.069814849
 20
115.64
 11
141.4847084166
 21
115.3691661501
  0
LINE
  5
2DE
100
AcDbEntity
  8
0
100
AcDbLine
 62
7
  6
CONTINUOUS
 10
140.6549212815
 20
115.64
 11
141.069814849
 21
115.64
  0
LINE
  5
2DF
100
AcDbEntity
  8
0
100
AcDbLine
 62
7
  6
CONTINUOUS
 10
140.5166234256
 20
116.4525
 11
141.2081127049
 21
116.4525
  0
LINE
  5
2E0
100
AcDbEntity
  8
KONSTRUKTIONSELEMENTE
100
AcDbLine
 62
7
  6
CONTINUOUS
 10
123.369389313
 20
126.03
 11
165.369389313
 21
126.03
  0
LINE
  5
2E1
100
AcDbEntity
  8
KONSTRUKTIONSELEMENTE
100
AcDbLine
 62
7
  6
CONTINUOUS
 10
167.369389313
 20
124.5048072211
 11
167.369389313
 21
123.7413473072
  0
LINE
  5
2E2
100
AcDbEntity
  8
0
100
AcDbLine
 62
7
  6
CONTINUOUS
 10
167.369389313
 20
123.7413473072
 11
167.369389313
 21
113.03
  0
LINE
  5
2E3
100
AcDbEntity
  8
0
100
AcDbLine
 62
7
  6
CONTINUOUS
 10
167.369389313
 20
97.03
 11
167.369389313
 21
85.5551927789
  0
LINE
  5
2E4
100
AcDbEntity
  8
0
100
AcDbLine
 62
7
  6
CONTINUOUS
 10
177.989389313
 20
97.03
 11
177.989389313
 21
96.53
  0
LINE
  5
2E5
100
AcDbEntity
  8
0
100
AcDbLine
 62
7
  6
CONTINUOUS
 10
182.418336803
 20
97.03
 11
182.418336803
 21
96.53
  0
LINE
  5
2E6
100
AcDbEntity
  8
0
100
AcDbLine
 62
7
  6
CONTINUOUS
 10
183.022284188
 20
97.0323382096
 11
183.022284188
 21
96.53
  0
LINE
  5
2E7
100
AcDbEntity
  8
0
100
AcDbLine
 62
7
  6
CONTINUOUS
 10
184.028863163
 20
97.1662954433
 11
184.028863163
 21
96.53
  0
LINE
  5
2E8
100
AcDbEntity
  8
BEZUGSACHSEN
100
AcDbLine
 62
7
  6
CONTINUOUS
 10
187.869390013
 20
102.03
 11
187.869390013
 21
108.03
  0
ARC
  5
2E9
100
AcDbEntity
  8
RUNDUNGEN
100
AcDbCircle
 62
7
  6
CONTINUOUS
 10
126.869388613
 20
194.4464860502
 40
8.0
100
AcDbArc
 50
180.0
 51
226.5649838881
  0
ARC
  5
2EA
100
AcDbEntity
  8
BEZUGSACHSEN
100
AcDbCircle
 62
7
  6
CONTINUOUS
 10
105.869388613
 20
174.9464860502
 40
5.0
100
AcDbArc
 50
180.0
 51
270.0
  0
ARC
  5
2EB
100
AcDbEntity
  8
RUNDUNGEN
100
AcDbCircle
 62
7
  6
CONTINUOUS
 10
122.369388613
 20
197.9464860502
 40
3.5
100
AcDbArc
 50
90.0
 51
180.0
  0
ARC
  5
2EC
100
AcDbEntity
  8
BEZUGSACHSEN
100
AcDbCircle
 62
7
  6
CONTINUOUS
 10
128.8450784795
 20
204.4464860502
 40
3.0
100
AcDbArc
 50
270.0
 51
62.2236809966
  0
ARC
  5
2ED
100
AcDbEntity
  8
RUNDUNGEN
100
AcDbCircle
 62
7
  6
CONTINUOUS
 10
128.8450784795
 20
204.4464860502
 40
3.0
100
AcDbArc
 50
270.0
 51
62.2236809966
  0
ARC
  5
2EE
100
AcDbEntity
  8
0
100
AcDbCircle
 62
7
  6
CONTINUOUS
 10
123.369389313
 20
197.4464860502
 40
2.0
100
AcDbArc
 50
90.0
 51
180.0
  0
ARC
  5
2EF
100
AcDbEntity
  8
0
100
AcDbCircle
 62
7
  6
CONTINUOUS
 10
129.8970555548
 20
221.8233301827
 40
21.5081451665
100
AcDbArc
 50
270.0062169235
 51
272.6042019061
  0
ARC
  5
2F0
100
AcDbEntity
  8
0
100
AcDbCircle
 62
7
  6
CONTINUOUS
 10
129.895381323
 20
221.8126714756
 40
21.4975736463
100
AcDbArc
 50
272.6099502394
 51
273.3961268501
  0
ARC
  5
2F1
100
AcDbEntity
  8
RUNDUNGEN
100
AcDbCircle
 62
7
  6
CONTINUOUS
 10
140.169388613
 20
225.9464860502
 40
21.3
100
AcDbArc
 50
180.0
 51
242.2236809966
  0
ARC
  5
2F2
100
AcDbEntity
  8
0
100
AcDbCircle
 62
7
  6
CONTINUOUS
 10
129.8981534237
 20
221.4296497919
 40
21.0159154296
100
AcDbArc
 50
270.0033694102
 51
270.5474234779
  0
ARC
  5
2F3
100
AcDbEntity
  8
0
100
AcDbCircle
 62
7
  6
CONTINUOUS
 10
129.9324494216
 20
221.1984211329
 40
20.8822061647
100
AcDbArc
 50
273.3944380915
 51
275.7856358407
  0
ARC
  5
2F4
100
AcDbEntity
  8
BEZUGSACHSEN
100
AcDbCircle
 62
7
  6
CONTINUOUS
 10
108.922020413
 20
225.9464860502
 40
8.0526318
100
AcDbArc
 50
157.5
 51
180.0
  0
ARC
  5
2F5
100
AcDbEntity
  8
RUNDUNGEN
100
AcDbCircle
 62
7
  6
CONTINUOUS
 10
108.922020413
 20
225.9464860502
 40
8.0526318
100
AcDbArc
 50
157.5
 51
180.0
  0
ARC
  5
2F6
100
AcDbEntity
  8
RUNDUNGEN
100
AcDbCircle
 62
7
  6
CONTINUOUS
 10
119.3043143886
 20
251.0115609747
 40
8.0526318
100
AcDbArc
 50
112.5
 51
157.5
  0
ARC
  5
2F7
100
AcDbEntity
  8
BEZUGSACHSEN
100
AcDbCircle
 62
7
  6
CONTINUOUS
 10
161.869390013
 20
194.4464860502
 40
8.0
100
AcDbArc
 50
313.4350161119
 51
360.0
  0
ARC
  5
2F8
100
AcDbEntity
  8
BEZUGSACHSEN
100
AcDbCircle
 62
7
  6
CONTINUOUS
 10
182.869390013
 20
174.9464860502
 40
5.0
100
AcDbArc
 50
270.0
 51
360.0
  0
ARC
  5
2F9
100
AcDbEntity
  8
BEZUGSACHSEN
100
AcDbCircle
 62
7
  6
CONTINUOUS
 10
166.369390013
 20
197.9464860502
 40
3.5
100
AcDbArc
 50
1.3258896893
 51
90.0
  0
ARC
  5
2FA
100
AcDbEntity
  8
BEZUGSACHSEN
100
AcDbCircle
 62
7
  6
CONTINUOUS
 10
159.8937001465
 20
204.4464860502
 40
3.0
100
AcDbArc
 50
117.7763190034
 51
270.0
  0
ARC
  5
2FB
100
AcDbEntity
  8
0
100
AcDbCircle
 62
7
  6
CONTINUOUS
 10
180.405178853
 20
193.8612226602
 40
2.41578954
100
AcDbArc
 50
90.0
 51
270.0
  0
ARC
  5
2FC
100
AcDbEntity
  8
0
100
AcDbCircle
 62
7
  6
CONTINUOUS
 10
180.203863058
 20
187.5130645912
 40
2.214473745
100
AcDbArc
 50
180.0
 51
270.0
  0
ARC
  5
2FD
100
AcDbEntity
  8
0
100
AcDbCircle
 62
7
  6
CONTINUOUS
 10
181.814389418
 20
187.5130645912
 40
2.214473745
100
AcDbArc
 50
270.0
 51
360.0
  0
ARC
  5
2FE
100
AcDbEntity
  8
0
100
AcDbCircle
 62
7
  6
CONTINUOUS
 10
165.369389313
 20
197.4464860502
 40
2.0
100
AcDbArc
 50
0.0
 51
90.0
  0
ARC
  5
2FF
100
AcDbEntity
  8
0
100
AcDbCircle
 62
7
  6
CONTINUOUS
 10
182.27070522
 20
199.2430649132
 40
1.758157943
100
AcDbArc
 50
201.1872687082
 51
360.0
  0
ARC
  5
300
100
AcDbEntity
  8
0
100
AcDbCircle
 62
7
  6
CONTINUOUS
 10
181.760705206
 20
187.7701644487
 40
1.261578982
100
AcDbArc
 50
270.1673221427
 51
360.0
  0
ARC
  5
301
100
AcDbEntity
  8
0
100
AcDbCircle
 62
7
  6
CONTINUOUS
 10
180.25754727
 20
187.7701698282
 40
1.261578982
100
AcDbArc
 50
180.0
 51
270.0
  0
ARC
  5
302
100
AcDbEntity
  8
0
100
AcDbCircle
 62
7
  6
CONTINUOUS
 10
180.405178853
 20
193.8612226602
 40
1.20789477
100
AcDbArc
 50
90.0
 51
270.0
  0
ARC
  5
303
100
AcDbEntity
  8
0
100
AcDbCircle
 62
7
  6
CONTINUOUS
 10
179.505968302
 20
200.2824672365
 40
1.006578975
100
AcDbArc
 50
300.0
 51
360.0
  0
ARC
  5
304
100
AcDbEntity
  8
0
100
AcDbCircle
 62
7
  6
CONTINUOUS
 10
182.27070522
 20
199.6456965032
 40
0.751578968
100
AcDbArc
 50
180.0
 51
360.0
  0
ARC
  5
305
100
AcDbEntity
  8
BEZUGSACHSEN
100
AcDbCircle
 62
7
  6
CONTINUOUS
 10
144.369389313
 20
225.9464860502
 40
25.5000007
100
AcDbArc
 50
0.0
 51
180.0
  0
ARC
  5
306
100
AcDbEntity
  8
BEZUGSACHSEN
100
AcDbCircle
 62
7
  6
CONTINUOUS
 10
148.569390013
 20
225.9464860502
 40
21.3
100
AcDbArc
 50
297.7763190034
 51
360.0
  0
ARC
  5
307
100
AcDbEntity
  8
BEZUGSACHSEN
100
AcDbCircle
 62
7
  6
CONTINUOUS
 10
179.816758213
 20
225.9464860502
 40
8.0526318
100
AcDbArc
 50
0.0
 51
22.5
  0
ARC
  5
308
100
AcDbEntity
  8
BEZUGSACHSEN
100
AcDbCircle
 62
7
  6
CONTINUOUS
 10
169.4344642374
 20
251.0115609747
 40
8.0526318
100
AcDbArc
 50
22.5
 51
67.5
  0
ARC
  5
309
100
AcDbEntity
  8
BEZUGSACHSEN
100
AcDbCircle
 62
7
  6
CONTINUOUS
 10
144.369389313
 20
261.3938549502
 40
8.0526318
100
AcDbArc
 50
67.5
 51
112.5
  0
ARC
  5
30A
100
AcDbEntity
  8
BEZUGSACHSEN
100
AcDbCircle
 62
7
  6
CONTINUOUS
 10
259.4636862929
 20
264.4464867502
 40
5.0
100
AcDbArc
 50
90.0
 51
180.0
  0
ARC
  5
30B
100
AcDbEntity
  8
0
100
AcDbCircle
 62
7
  6
CONTINUOUS
 10
262.4636862929
 20
178.4464860502
 40
22.0
100
AcDbArc
 50
111.3293156053
 51
121.2789090924
  0
ARC
  5
30C
100
AcDbEntity
  8
0
100
AcDbCircle
 62
7
  6
CONTINUOUS
 10
262.4636862929
 20
178.4464860502
 40
22.0
100
AcDbArc
 50
56.5081625298
 51
68.6734157098
  0
ARC
  5
30D
100
AcDbEntity
  8
0
100
AcDbCircle
 62
7
  6
CONTINUOUS
 10
262.4636862929
 20
178.4464860502
 40
21.0
100
AcDbArc
 50
112.4066558619
 51
170.0
  0
ARC
  5
30E
100
AcDbEntity
  8
0
100
AcDbCircle
 62
7
  6
CONTINUOUS
 10
262.4636862929
 20
178.4464860502
 40
21.0
100
AcDbArc
 50
10.0
 51
67.5933441381
  0
ARC
  5
30F
100
AcDbEntity
  8
0
100
AcDbCircle
 62
7
  6
CONTINUOUS
 10
262.4636862929
 20
178.7964860502
 40
9.5
100
AcDbArc
 50
189.7847565028
 51
350.2152434972
  0
ARC
  5
310
100
AcDbEntity
  8
RUNDUNGEN
100
AcDbCircle
 62
7
  6
CONTINUOUS
 10
262.4636862929
 20
178.4464860502
 40
9.0
100
AcDbArc
 50
152.7444577699
 51
170.0
  0
ARC
  5
311
100
AcDbEntity
  8
RUNDUNGEN
100
AcDbCircle
 62
7
  6
CONTINUOUS
 10
262.4636862929
 20
178.4464860502
 40
9.0
100
AcDbArc
 50
10.0
 51
27.2555421415
  0
ARC
  5
312
100
AcDbEntity
  8
0
100
AcDbCircle
 62
7
  6
CONTINUOUS
 10
262.4636862929
 20
178.7964860502
 40
8.9
100
AcDbArc
 50
164.4751375388
 51
15.5248624612
  0
ARC
  5
313
100
AcDbEntity
  8
BEZUGSACHSEN
100
AcDbCircle
 62
7
  6
CONTINUOUS
 10
262.4636862929
 20
177.9464860502
 40
8.0
100
AcDbArc
 50
180.0
 51
360.0
  0
ARC
  5
314
100
AcDbEntity
  8
BEZUGSACHSEN
100
AcDbCircle
 62
7
  6
CONTINUOUS
 10
265.4636862929
 20
264.4464867502
 40
5.0
100
AcDbArc
 50
0.0
 51
90.0
  0
ARC
  5
315
100
AcDbEntity
  8
BEZUGSACHSEN
100
AcDbCircle
 62
7
  6
CONTINUOUS
 10
105.869388613
 20
108.03
 40
5.0
100
AcDbArc
 50
90.0
 51
180.0
  0
ARC
  5
316
100
AcDbEntity
  8
RUNDUNGEN
100
AcDbCircle
 62
7
  6
CONTINUOUS
 10
105.869388613
 20
102.03
 40
5.0
100
AcDbArc
 50
180.0
 51
270.0
  0
ARC
  5
317
100
AcDbEntity
  8
BEZUGSACHSEN
100
AcDbCircle
 62
7
  6
CONTINUOUS
 10
182.869390013
 20
102.03
 40
5.0
100
AcDbArc
 50
270.0
 51
360.0
  0
ARC
  5
318
100
AcDbEntity
  8
BEZUGSACHSEN
100
AcDbCircle
 62
7
  6
CONTINUOUS
 10
182.869390013
 20
108.03
 40
5.0
100
AcDbArc
 50
0.0
 51
90.0
  0
SPLINE
  5
319
100
AcDbEntity
  8
0
100
AcDbSpline
 62
7
  6
CONTINUOUS
 70
0
 71
3
 72
11
 73
7
 74
0
 42
0.0000001
 43
0.0000001
 44
0.0000000001
 40
0.0
 40
0.0
 40
0.0
 40
0.0
 40
0.2315196631
 40
0.5000011731
 40
0.7684820741
 40
1.0
 40
1.0
 40
1.0
 40
1.0
 10
162.653862471
 20
200.3808235697
 30
0.0
 10
162.3399887411
 20
200.4033209588
 30
0.0
 10
161.6603103992
 20
200.423423706
 30
0.0
 10
160.6158730503
 20
200.4305754481
 30
0.0
 10
159.571438064
 20
200.4234232103
 30
0.0
 10
158.8917629322
 20
200.4033194402
 30
0.0
 10
158.5778916032
 20
200.3808215815
 30
0.0
  0
SPLINE
  5
31A
100
AcDbEntity
  8
0
100
AcDbSpline
 62
7
  6
CONTINUOUS
 70
0
 71
3
 72
29
 73
25
 74
0
 42
0.0000001
 43
0.0000001
 44
0.0000000001
 40
0.0
 40
0.0
 40
0.0
 40
0.0
 40
0.0037414123
 40
0.0116047898
 40
0.0239733476
 40
0.0407948577
 40
0.0619504367
 40
0.0872425657
 40
0.1492417567
 40
0.2245091032
 40
0.3102576211
 40
0.4032613968
 40
0.4999914908
 40
0.5967219212
 40
0.6897267093
 40
0.7754768693
 40
0.8507464203
 40
0.9127482983
 40
0.938041908
 40
0.9591990558
 40
0.9760221733
 40
0.9883923469
 40
0.996257314
 40
1.0
 40
1.0
 40
1.0
 40
1.0
 10
158.5159777746
 20
200.4136905453
 30
0.0
 10
158.5160051192
 20
200.4083970285
 30
0.0
 10
158.5319495319
 20
200.3966593689
 30
0.0
 10
158.56149573
 20
200.3850923011
 30
0.0
 10
158.6127839936
 20
200.3694549774
 30
0.0
 10
158.6816955679
 20
200.3533114258
 30
0.0
 10
158.76965191
 20
200.3356755964
 30
0.0
 10
158.9208078441
 20
200.3096994643
 30
0.0
 10
159.1487607905
 20
200.278271957
 30
0.0
 10
159.4626037108
 20
200.2453838441
 30
0.0
 10
159.8210883471
 20
200.218841907
 30
0.0
 10
160.210529516
 20
200.2015675757
 30
0.0
 10
160.6158530608
 20
200.1955445583
 30
0.0
 10
161.02117807
 20
200.201565401
 30
0.0
 10
161.4106235631
 20
200.2188377762
 30
0.0
 10
161.7691151989
 20
200.2453782558
 30
0.0
 10
162.0829675084
 20
200.2782655535
 30
0.0
 10
162.3109295755
 20
200.3096927396
 30
0.0
 10
162.4620937466
 20
200.3356690693
 30
0.0
 10
162.5500567137
 20
200.353304943
 30
0.0
 10
162.6189752115
 20
200.369449638
 30
0.0
 10
162.6702702914
 20
200.3850859146
 30
0.0
 10
162.6998230249
 20
200.3966567546
 30
0.0
 10
162.7157722607
 20
200.4083909788
 30
0.0
 10
162.7158032251
 20
200.4136862778
 30
0.0
  0
SPLINE
  5
31B
100
AcDbEntity
  8
0
100
AcDbSpline
 62
7
  6
CONTINUOUS
 70
0
 71
3
 72
14
 73
10
 74
0
 42
0.0000001
 43
0.0000001
 44
0.0000000001
 40
0.0
 40
0.0
 40
0.0
 40
0.0
 40
0.0158555627
 40
0.063039058
 40
0.1415953093
 40
0.2515304946
 40
0.3927663725
 40
0.564906585
 40
1.0
 40
1.0
 40
1.0
 40
1.0
 10
131.0493391891
 20
200.4464187483
 30
0.0
 10
131.0493405667
 20
200.4460519936
 30
0.0
 10
131.0470210653
 20
200.4465574191
 30
0.0
 10
131.0445925266
 20
200.4456571831
 30
0.0
 10
131.0386787758
 20
200.4456336468
 30
0.0
 10
131.0312784338
 20
200.4449740452
 30
0.0
 10
131.0214244125
 20
200.4444246069
 30
0.0
 10
131.0041819914
 20
200.4433561799
 30
0.0
 10
130.9901407282
 20
200.4425728576
 30
0.0
 10
130.9800919352
 20
200.4420160382
 30
0.0
  0
SPLINE
  5
31C
100
AcDbEntity
  8
0
100
AcDbSpline
 62
7
  6
CONTINUOUS
 70
0
 71
3
 72
9
 73
5
 74
0
 42
0.0000001
 43
0.0000001
 44
0.0000000001
 40
0.0
 40
0.0
 40
0.0
 40
0.0
 40
0.1573724318
 40
1.0
 40
1.0
 40
1.0
 40
1.0
 10
130.9800919352
 20
200.4420160382
 30
0.0
 10
130.9339161342
 20
200.4394573643
 30
0.0
 10
130.640407525
 20
200.4249147048
 30
0.0
 10
130.3465532738
 20
200.4170448487
 30
0.0
 10
130.0989436142
 20
200.4146935787
 30
0.0
  0
SPLINE
  5
31D
100
AcDbEntity
  8
0
100
AcDbSpline
 62
7
  6
CONTINUOUS
 70
0
 71
3
 72
20
 73
16
 74
0
 42
0.0000001
 43
0.0000001
 44
0.0000000001
 40
0.0
 40
0.0
 40
0.0
 40
0.0
 40
0.0212605953
 40
0.0486451842
 40
0.0856752615
 40
0.1332857831
 40
0.1911419866
 40
0.2582047041
 40
0.3329442241
 40
0.4134462082
 40
0.5829831098
 40
0.7484283651
 40
0.8920325778
 40
0.951112155
 40
1.0
 40
1.0
 40
1.0
 40
1.0
 10
126.369389313
 20
199.7860619598
 30
0.0
 10
126.369389313
 20
199.8101517339
 30
0.0
 10
126.3906093767
 20
199.8653247951
 30
0.0
 10
126.4675354516
 20
199.9279092023
 30
0.0
 10
126.5826465923
 20
199.9824640789
 30
0.0
 10
126.737499369
 20
200.0296778068
 30
0.0
 10
126.9290228645
 20
200.0695360784
 30
0.0
 10
127.1530958133
 20
200.1015384822
 30
0.0
 10
127.4038948401
 20
200.1256180952
 30
0.0
 10
127.771298496
 20
200.1474680414
 30
0.0
 10
128.2423213203
 20
200.1542260257
 30
0.0
 10
128.7843407298
 20
200.133442634
 30
0.0
 10
129.1999842929
 20
200.0904400273
 30
0.0
 10
129.4797547929
 20
200.0349806864
 30
0.0
 10
129.5975469942
 20
200.0007450812
 30
0.0
 10
129.649389313
 20
199.9812308486
 30
0.0
  0
SPLINE
  5
31E
100
AcDbEntity
  8
0
100
AcDbSpline
 62
7
  6
CONTINUOUS
 70
0
 71
3
 72
9
 73
5
 74
0
 42
0.0000001
 43
0.0000001
 44
0.0000000001
 40
0.0
 40
0.0
 40
0.0
 40
0.0
 40
0.2127672606
 40
1.0
 40
1.0
 40
1.0
 40
1.0
 10
127.369389313
 20
198.6998191093
 30
0.0
 10
127.369389313
 20
198.7058325418
 30
0.0
 10
127.3742690422
 20
198.7342788566
 30
0.0
 10
127.3970442286
 20
198.7558670931
 30
0.0
 10
127.4151732596
 20
198.7687659185
 30
0.0
  0
SPLINE
  5
31F
100
AcDbEntity
  8
0
100
AcDbSpline
 62
7
  6
CONTINUOUS
 70
0
 71
3
 72
10
 73
6
 74
0
 42
0.0000001
 43
0.0000001
 44
0.0000000001
 40
0.0
 40
0.0
 40
0.0
 40
0.0
 40
0.1789489009
 40
0.4075973222
 40
1.0
 40
1.0
 40
1.0
 40
1.0
 10
127.4151732596
 20
198.7687659185
 30
0.0
 10
127.4331626945
 20
198.781565421
 30
0.0
 10
127.4784033822
 20
198.8045497844
 30
0.0
 10
127.5955760694
 20
198.8436215269
 30
0.0
 10
127.6960477983
 20
198.860726648
 30
0.0
 10
127.7685579475
 20
198.8699066328
 30
0.0
  0
SPLINE
  5
320
100
AcDbEntity
  8
0
100
AcDbSpline
 62
7
  6
CONTINUOUS
 70
0
 71
3
 72
19
 73
15
 74
0
 42
0.0000001
 43
0.0000001
 44
0.0000000001
 40
0.0
 40
0.0
 40
0.0
 40
0.0
 40
0.0566924951
 40
0.1035078263
 40
0.1635799284
 40
0.2358314508
 40
0.3179763524
 40
0.4999907207
 40
0.6820110142
 40
0.7641588281
 40
0.836412326
 40
0.8964873959
 40
0.9433060465
 40
1.0
 40
1.0
 40
1.0
 40
1.0
 10
128.869389313
 20
199.7349218782
 30
0.0
 10
128.869389313
 20
199.7651375193
 30
0.0
 10
128.8182505687
 20
199.8097498345
 30
0.0
 10
128.7406979078
 20
199.8416034627
 30
0.0
 10
128.6476747619
 20
199.8684701661
 30
0.0
 10
128.5355405281
 20
199.8891542767
 30
0.0
 10
128.3573068677
 20
199.9107823844
 30
0.0
 10
128.119401158
 20
199.9203801777
 30
0.0
 10
127.8814938747
 20
199.9107837669
 30
0.0
 10
127.7032542406
 20
199.8891570309
 30
0.0
 10
127.5911156979
 20
199.868473171
 30
0.0
 10
127.4980881392
 20
199.8416055326
 30
0.0
 10
127.4205314058
 20
199.8097520213
 30
0.0
 10
127.369389313
 20
199.7651382966
 30
0.0
 10
127.369389313
 20
199.7349218782
 30
0.0
  0
SPLINE
  5
321
100
AcDbEntity
  8
0
100
AcDbSpline
 62
7
  6
CONTINUOUS
 70
0
 71
3
 72
14
 73
10
 74
0
 42
0.0000001
 43
0.0000001
 44
0.0000000001
 40
0.0
 40
0.0
 40
0.0
 40
0.0
 40
0.0255363976
 40
0.0787759229
 40
0.1620204655
 40
0.2749811252
 40
0.4167150191
 40
0.5858703875
 40
1.0
 40
1.0
 40
1.0
 40
1.0
 10
163.6158451257
 20
200.4136803034
 30
0.0
 10
163.6157993354
 20
200.406040404
 30
0.0
 10
163.5934678157
 20
200.3888603578
 30
0.0
 10
163.5518754767
 20
200.370516256
 30
0.0
 10
163.4797700399
 20
200.3456451933
 30
0.0
 10
163.3828960237
 20
200.3189695108
 30
0.0
 10
163.2593130384
 20
200.2893946133
 30
0.0
 10
163.0470709951
 20
200.2450721378
 30
0.0
 10
162.8749536422
 20
200.2155602113
 30
0.0
 10
162.7525005942
 20
200.1966785617
 30
0.0
  0
SPLINE
  5
322
100
AcDbEntity
  8
0
100
AcDbSpline
 62
7
  6
CONTINUOUS
 70
0
 71
3
 72
11
 73
7
 74
0
 42
0.0000001
 43
0.0000001
 44
0.0000000001
 40
0.0
 40
0.0
 40
0.0
 40
0.0
 40
0.2292401031
 40
0.4999993302
 40
0.7707588481
 40
1.0
 40
1.0
 40
1.0
 40
1.0
 10
162.7525005942
 20
200.1966785617
 30
0.0
 10
162.4287128982
 20
200.1467521131
 30
0.0
 10
161.7176304157
 20
200.0686795584
 30
0.0
 10
160.6159010501
 20
200.0273511495
 30
0.0
 10
159.5141701097
 20
200.0686780069
 30
0.0
 10
158.8030856462
 20
200.1467500199
 30
0.0
 10
158.4792963855
 20
200.1966761569
 30
0.0
  0
SPLINE
  5
323
100
AcDbEntity
  8
0
100
AcDbSpline
 62
7
  6
CONTINUOUS
 70
0
 71
3
 72
14
 73
10
 74
0
 42
0.0000001
 43
0.0000001
 44
0.0000000001
 40
0.0
 40
0.0
 40
0.0
 40
0.0
 40
0.4141359041
 40
0.5832929564
 40
0.7250271697
 40
0.8379872433
 40
0.9212299447
 40
0.9744667284
 40
1.0
 40
1.0
 40
1.0
 40
1.0
 10
158.4792963855
 20
200.1966761569
 30
0.0
 10
158.3568389713
 20
200.2155582707
 30
0.0
 10
158.1847157405
 20
200.2450710471
 30
0.0
 10
157.9724669984
 20
200.289394829
 30
0.0
 10
157.8488810636
 20
200.3189706314
 30
0.0
 10
157.7520058995
 20
200.3456465567
 30
0.0
 10
157.6799003159
 20
200.370518925
 30
0.0
 10
157.6383099282
 20
200.3888613299
 30
0.0
 10
157.6159795921
 20
200.4060437328
 30
0.0
 10
157.6159360207
 20
200.4136828642
 30
0.0
  0
SPLINE
  5
324
100
AcDbEntity
  8
0
100
AcDbSpline
 62
7
  6
CONTINUOUS
 70
0
 71
3
 72
29
 73
25
 74
0
 42
0.0000001
 43
0.0000001
 44
0.0000000001
 40
0.0
 40
0.0
 40
0.0
 40
0.0
 40
0.0039412561
 40
0.0120126054
 40
0.0245667316
 40
0.0415616916
 40
0.062852366
 40
0.088233546
 40
0.1502836961
 40
0.2254243277
 40
0.3109158569
 40
0.4036163321
 40
0.5000243054
 40
0.5964311722
 40
0.6891286322
 40
0.7746155123
 40
0.8497498032
 40
0.9117924845
 40
0.9371694888
 40
0.9584556704
 40
0.9754460265
 40
0.9879954899
 40
0.9960623444
 40
1.0
 40
1.0
 40
1.0
 40
1.0
 10
157.6159369577
 20
199.4120127126
 30
0.0
 10
157.6160656325
 20
199.4040118515
 30
0.0
 10
157.6385589506
 20
199.3859068939
 30
0.0
 10
157.6813156207
 20
199.3662901499
 30
0.0
 10
157.754665912
 20
199.339968067
 30
0.0
 10
157.8533249474
 20
199.3116537444
 30
0.0
 10
157.9789892811
 20
199.2803265567
 30
0.0
 10
158.1946069312
 20
199.2334232883
 30
0.0
 10
158.5197162724
 20
199.1753814698
 30
0.0
 10
158.9676640952
 20
199.1135954368
 30
0.0
 10
159.4796530295
 20
199.0630282897
 30
0.0
 10
160.0363250595
 20
199.0298635158
 30
0.0
 10
160.6160444812
 20
199.0183110545
 30
0.0
 10
161.1957575452
 20
199.0298754052
 30
0.0
 10
161.7524110938
 20
199.0630507735
 30
0.0
 10
162.2643707101
 20
199.1136254948
 30
0.0
 10
162.712280106
 20
199.1754155194
 30
0.0
 10
163.0373523043
 20
199.2334581855
 30
0.0
 10
163.2529366035
 20
199.2803599395
 30
0.0
 10
163.3785738714
 20
199.3116857498
 30
0.0
 10
163.4772044159
 20
199.3399947228
 30
0.0
 10
163.5505269683
 20
199.3663185636
 30
0.0
 10
163.593256739
 20
199.3859206465
 30
0.0
 10
163.6157310973
 20
199.4040366194
 30
0.0
 10
163.6158452624
 20
199.4120303898
 30
0.0
  0
SPLINE
  5
325
100
AcDbEntity
  8
0
100
AcDbSpline
 62
7
  6
CONTINUOUS
 70
0
 71
3
 72
16
 73
12
 74
0
 42
0.0000001
 43
0.0000001
 44
0.0000000001
 40
0.0
 40
0.0
 40
0.0
 40
0.0
 40
0.4331028361
 40
0.605054185
 40
0.7465899579
 40
0.8571980797
 40
0.9363912032
 40
0.9641353169
 40
0.9839780351
 40
0.9959233835
 40
1.0
 40
1.0
 40
1.0
 40
1.0
 10
132.0375193797
 20
200.422588664
 30
0.0
 10
132.0681363518
 20
200.4257187219
 30
0.0
 10
132.1109048799
 20
200.4301909327
 30
0.0
 10
132.16362832
 20
200.4359800095
 30
0.0
 10
132.1936035032
 20
200.439343589
 30
0.0
 10
132.2169142408
 20
200.4421235569
 30
0.0
 10
132.2324170492
 20
200.4438880571
 30
0.0
 10
132.2411418567
 20
200.4451709688
 30
0.0
 10
132.2456793781
 20
200.4455317243
 30
0.0
 10
132.2475832227
 20
200.4463021106
 30
0.0
 10
132.2493465383
 20
200.4461207025
 30
0.0
 10
132.2493460078
 20
200.4464103889
 30
0.0
  0
SPLINE
  5
326
100
AcDbEntity
  8
0
100
AcDbSpline
 62
7
  6
CONTINUOUS
 70
0
 71
3
 72
11
 73
7
 74
0
 42
0.0000001
 43
0.0000001
 44
0.0000000001
 40
0.0
 40
0.0
 40
0.0
 40
0.0
 40
0.368534786
 40
0.5245483064
 40
0.6597890542
 40
1.0
 40
1.0
 40
1.0
 40
1.0
 10
130.199389313
 20
199.645317735
 30
0.0
 10
130.1498991286
 20
199.6373882606
 30
0.0
 10
130.0800877697
 20
199.6233151258
 30
0.0
 10
129.9938389025
 20
199.5952925874
 30
0.0
 10
129.917409666
 20
199.5632779269
 30
0.0
 10
129.849389313
 20
199.5139404393
 30
0.0
 10
129.849389313
 20
199.4676711314
 30
0.0
  0
SPLINE
  5
327
100
AcDbEntity
  8
0
100
AcDbSpline
 62
7
  6
CONTINUOUS
 70
0
 71
3
 72
11
 73
7
 74
0
 42
0.0000001
 43
0.0000001
 44
0.0000000001
 40
0.0
 40
0.0
 40
0.0
 40
0.0
 40
0.1445279717
 40
0.5000166121
 40
0.8555052525
 40
1.0
 40
1.0
 40
1.0
 40
1.0
 10
127.7668922529
 20
113.0324843801
 30
0.0
 10
127.9000741894
 20
113.088354937
 30
0.0
 10
128.3833605663
 20
113.2567629786
 30
0.0
 10
129.309389313
 20
113.3820681284
 30
0.0
 10
130.2353820966
 20
113.2567678449
 30
0.0
 10
130.7186402112
 20
113.0883773167
 30
0.0
 10
130.8517945241
 20
113.0325229097
 30
0.0
  0
ELLIPSE
  5
328
100
AcDbEntity
  8
0
100
AcDbEllipse
 62
7
  6
CONTINUOUS
 10
145.3429813856
 20
178.4464860502
 30
0.0
 11
25.1113895934
 21
0.0
 31
0.0
 40
0.8760964788
 41
1.3832403066
 42
1.4888865841
  0
ELLIPSE
  5
329
100
AcDbEntity
  8
0
100
AcDbEllipse
 62
7
  6
CONTINUOUS
 10
170.1086002057
 20
178.4464860502
 30
0.0
 11
65.7993943623
 21
-0.0
 31
0.0
 40
0.334349582
 41
2.0138630981
 42
2.1116714129
  0
ELLIPSE
  5
32A
100
AcDbEntity
  8
0
100
AcDbEllipse
 62
7
  6
CONTINUOUS
 10
116.0593877233
 20
178.4464860502
 30
0.0
 11
66.0000039339
 21
-0.0
 31
0.0
 40
0.3333333135
 41
1.154811562
 42
1.2602214437
  0
ELLIPSE
  5
32B
100
AcDbEntity
  8
RUNDUNGEN
100
AcDbEllipse
 62
7
  6
CONTINUOUS
 10
126.369389313
 20
174.3364895287
 30
0.0
 11
-0.0
 21
14.3969262079
 31
0.0
 40
0.3472963553
 41
-4.4603706651
 42
-4.290904629
  0
ELLIPSE
  5
32C
100
AcDbEntity
  8
0
100
AcDbEllipse
 62
7
  6
CONTINUOUS
 10
137.4445352009
 20
178.4464860502
 30
0.0
 11
38.1051177665
 21
0.0
 31
0.0
 40
0.5773502692
 41
1.70755949
 42
1.7768202397
  0
ELLIPSE
  5
32D
100
AcDbEntity
  8
RUNDUNGEN
100
AcDbEllipse
 62
7
  6
CONTINUOUS
 10
162.369389313
 20
174.3364895287
 30
0.0
 11
0.0
 21
14.3969262079
 31
0.0
 40
0.3472963553
 41
-1.9922806782
 42
-1.8228146421
  0
ELLIPSE
  5
32E
100
AcDbEntity
  8
0
100
AcDbEllipse
 62
7
  6
CONTINUOUS
 10
113.6906039563
 20
178.4464860502
 30
0.0
 11
62.8085128004
 21
-0.0
 31
0.0
 40
0.334349582
 41
1.1648820763
 42
1.2037616304
  0
ELLIPSE
  5
32F
100
AcDbEntity
  8
0
100
AcDbEllipse
 62
7
  6
CONTINUOUS
 10
172.6493882276
 20
178.4464860502
 30
0.0
 11
65.999998033
 21
0.0
 31
0.0
 40
0.3333333433
 41
2.0412978049
 42
2.1553391632
  0
ELLIPSE
  5
330
100
AcDbEntity
  8
0
100
AcDbEllipse
 62
7
  6
CONTINUOUS
 10
172.6493882276
 20
178.4464860502
 30
0.0
 11
62.9999981225
 21
-0.0
 31
0.0
 40
0.3333333433
 41
2.0656701682
 42
2.187188727
  0
ELLIPSE
  5
331
100
AcDbEntity
  8
0
100
AcDbEllipse
 62
7
  6
CONTINUOUS
 10
113.6906039563
 20
178.4464860502
 30
0.0
 11
65.7993943623
 21
-0.0
 31
0.0
 40
0.334349582
 41
1.1277295555
 42
1.2211794523
  0
ELLIPSE
  5
332
100
AcDbEntity
  8
0
100
AcDbEllipse
 62
7
  6
CONTINUOUS
 10
123.369389313
 20
177.4160050964
 30
0.0
 11
-0.0
 21
2.8677428879
 31
0.0
 40
0.6974125918
 41
0.0
 42
1.5707963268
  0
ELLIPSE
  5
333
100
AcDbEntity
  8
0
100
AcDbEllipse
 62
7
  6
CONTINUOUS
 10
165.369389313
 20
177.4160050964
 30
0.0
 11
-0.0
 21
2.8677428879
 31
0.0
 40
0.6974125918
 41
-1.5707963268
 42
0.0
  0
ELLIPSE
  5
334
100
AcDbEntity
  8
0
100
AcDbEllipse
 62
7
  6
CONTINUOUS
 10
140.3890215737
 20
178.4464860502
 30
0.0
 11
38.1051177665
 21
-0.0
 31
0.0
 40
0.5773502692
 41
1.7860650419
 42
1.8414989066
  0
ELLIPSE
  5
335
100
AcDbEntity
  8
0
100
AcDbEllipse
 62
7
  6
CONTINUOUS
 10
144.2230817038
 20
178.4464860502
 30
0.0
 11
25.2765953541
 21
-0.0
 31
0.0
 40
0.8703703838
 41
1.3391856854
 42
1.4888865841
  0
ELLIPSE
  5
336
100
AcDbEntity
  8
0
100
AcDbEllipse
 62
7
  6
CONTINUOUS
 10
144.2230817038
 20
178.4464860502
 30
0.0
 11
24.1276592016
 21
0.0
 31
0.0
 40
0.8703703838
 41
1.3279399188
 42
1.4849767363
  0
ELLIPSE
  5
337
100
AcDbEntity
  8
0
100
AcDbEllipse
 62
7
  6
CONTINUOUS
 10
123.369389313
 20
85.5551927789
 30
0.0
 11
2.0
 21
-0.0
 31
0.0
 40
0.7625963894
 41
3.1415926536
 42
4.7123889804
  0
ELLIPSE
  5
338
100
AcDbEntity
  8
KONSTRUKTIONSELEMENTE
100
AcDbEllipse
 62
7
  6
CONTINUOUS
 10
123.369389313
 20
124.5048072211
 30
0.0
 11
2.0
 21
-0.0
 31
0.0
 40
0.7625963894
 41
1.5707963268
 42
3.1415926536
  0
ELLIPSE
  5
339
100
AcDbEntity
  8
0
100
AcDbEllipse
 62
7
  6
CONTINUOUS
 10
165.369389313
 20
85.5551927789
 30
0.0
 11
2.0
 21
-0.0
 31
0.0
 40
0.7625963894
 41
-1.5707963268
 42
-0.0
  0
ELLIPSE
  5
33A
100
AcDbEntity
  8
KONSTRUKTIONSELEMENTE
100
AcDbEllipse
 62
7
  6
CONTINUOUS
 10
165.369389313
 20
124.5048072211
 30
0.0
 11
2.0
 21
-0.0
 31
0.0
 40
0.7625963894
 41
-0.0
 42
1.5707963268
  0
ENDSEC
  0
SECTION
  2
OBJECTS
  0
DICTIONARY
  5
C
100
AcDbDictionary
280
0
281
1
  3
ACAD_GROUP
350
D
  3
ACAD_MLINESTYLE
350
17
  3
ACAD_LAYOUT
350
1A
  3
ACAD_PLOTSETTINGS
350
19
  3
ACAD_PLOTSTYLENAME
350
E
  0
DICTIONARY
  5
D
102
{ACAD_REACTORS
330
C
102
}
100
AcDbDictionary
280
0
281
1
  0
ACDBDICTIONARYWDFLT
  5
E
102
{ACAD_REACTORS
330
C
102
}
100
AcDbDictionary
281
1
  3
Normal
350
F
100
AcDbDictionaryWithDefault
340
F
  0
DICTIONARY
  5
17
102
{ACAD_REACTORS
330
C
102
}
100
AcDbDictionary
280
0
281
1
  3
Standard
350
18
  0
DICTIONARY
  5
19
102
{ACAD_REACTORS
330
C
102
}
100
AcDbDictionary
281
1
  0
DICTIONARY
  5
1A
102
{ACAD_REACTORS
330
C
102
}
100
AcDbDictionary
281
1
  3
Model
350
33B
  3
Layout1
350
33C
  0
ACDBPLACEHOLDER
  5
F
102
{ACAD_REACTORS
330
E
102
}
  0
MLINESTYLE
  5
18
102
{ACAD_REACTORS
330
17
102
}
100
AcDbMlineStyle
  2
STANDARD
 70
0
  3

 62
256
 51
90.0
 52
90.0
 71
2
 49
0.5
 62
256
  6
BYLAYER
 49
-0.5
 62
256
  6
BYLAYER
  0
LAYOUT
  5
33B
102
{ACAD_REACTORS
330
1A
102
}
100
AcDbPlotSettings
  1

  2
none_device
  4
ISO_A3_(420.00_x_297.00_MM)
  6

 40
0.0
 41
0.0
 42
0.0
 43
0.0
 44
420.0
 45
297.0
 46
0.0
 47
0.0
 48
0.0
 49
0.0
140
0.0
141
0.0
142
1.0
143
1.0
 70
1024
 72
1
 73
0
 74
0
  7

 75
0
147
1.0
148
0.0
149
0.0
100
AcDbLayout
  1
Model
 70
0
 71
0
 10
0.0
 20
0.0
 11
420.0
 21
297.0
 12
0.0
 22
0.0
 32
0.0
 14
0.0
 24
0.0
 34
0.0
 15
0.0
 25
0.0
 35
0.0
146
0.0
 13
0.0
 23
0.0
 33
0.0
 16
1.0
 26
0.0
 36
0.0
 17
0.0
 27
1.0
 37
0.0
 76
0
330
20E
345
0
346
0
  0
LAYOUT
  5
33C
102
{ACAD_REACTORS
330
1A
102
}
100
AcDbPlotSettings
  1

  2
none_device
  4
ISO_A3_(420.00_x_297.00_MM)
  6

 40
0.0
 41
0.0
 42
0.0
 43
0.0
 44
420.0
 45
297.0
 46
0.0
 47
0.0
 48
0.0
 49
0.0
140
0.0
141
0.0
142
1.0
143
1.0
 70
0
 72
1
 73
0
 74
0
  7

 75
0
147
1.0
148
0.0
149
0.0
100
AcDbLayout
  1
Layout1
 70
0
 71
1
 10
0.0
 20
0.0
 11
420.0
 21
297.0
 12
0.0
 22
0.0
 32
0.0
 14
0.0
 24
0.0
 34
0.0
 15
0.0
 25
0.0
 35
0.0
146
0.0
 13
0.0
 23
0.0
 33
0.0
 16
1.0
 26
0.0
 36
0.0
 17
0.0
 27
1.0
 37
0.0
 76
0
330
20F
345
0
346
0
  0
ENDSEC
  0
EOF
