999
DXF file: 001-m34884-p3.dxf
999
Pro/ENGINEER 2011490 by Parametric Technology Corporation
  0
SECTION
  2
HEADER
  9
$ACADVER
  1
AC1015
  9
$DWGCODEPAGE
  3
ANSI_1252
  9
$EXTMAX
 10
297.0
 20
210.0
 30
0.0
  9
$EXTMIN
 10
0.0
 20
0.0
 30
0.0
  9
$LIMMIN
 10
0.0
 20
0.0
  9
$LIMMAX
 10
297.0
 20
210.0
  9
$VIEWCTR
 10
148.5
 20
105.0
  9
$VIEWSIZE
 40
210.0
  9
$CLAYER
  8
0
  9
$LTSCALE
 40
16.335
  9
$CELTYPE
  6
BYLAYER
  9
$DIMSCALE
 40
1.0
  9
$DIMASZ
 40
3.5
  9
$DIMEXO
 40
1.85625
  9
$DIMDLI
 40
11.286
  9
$DIMEXE
 40
5.346
  9
$DIMCEN
 40
2.673
  9
$DIMLFAC
 40
1.0
  9
$DIMBLK
  1
_FILLED
  9
$DIMTXT
 40
3.5
  9
$DIMTOL
 70
1
  9
$DIMLIM
 70
0
  9
$DIMTFAC
 40
1.0
  9
$DIMTP
 40
0.005
  9
$DIMTM
 40
0.005
  9
$PDMODE
 70
3
  9
$PDSIZE
 40
0.3125
  9
$HANDSEED
  5
392
  9
$TILEMODE
 70
1
  9
$MEASUREMENT
 70
1
  9
$INSUNITS
 70
4
  0
ENDSEC
  0
SECTION
  2
CLASSES
  0
CLASS
  1
ACDBDICTIONARYWDFLT
  2
AcDbDictionaryWithDefault
  3
AutoCAD 2000
 90
0
280
0
281
0
  0
CLASS
  1
ACDBPLACEHOLDER
  2
AcDbPlaceHolder
  3
AutoCAD 2000
 90
0
280
0
281
0
  0
CLASS
  1
LAYOUT
  2
AcDbLayout
  3
AutoCAD 2000
 90
0
280
0
281
0
  0
ENDSEC
  0
SECTION
  2
TABLES
  0
TABLE
  2
VPORT
  5
8
100
AcDbSymbolTable
 70
2
  0
VPORT
  5
1F4
100
AcDbSymbolTableRecord
100
AcDbViewportTableRecord
  2
*ACTIVE
 70
0
 10
0.0
 20
0.0
 11
1.0
 21
1.0
 12
148.5
 22
105.0
 13
0.0
 23
0.0
 14
1.0
 24
1.0
 15
0.0
 25
0.0
 16
0.0
 26
0.0
 36
1.0
 17
0.0
 27
0.0
 37
0.0
 40
210.0
 41
1.4142857143
 42
50.0
 43
0.0
 44
0.0
 50
0.0
 51
0.0
 71
0
 72
100
 73
1
 74
1
 75
0
 76
0
 77
0
 78
0
  0
ENDTAB
  0
TABLE
  2
LTYPE
  5
5
100
AcDbSymbolTable
 70
6
  0
LTYPE
  5
14
100
AcDbSymbolTableRecord
100
AcDbLinetypeTableRecord
  2
BYBLOCK
 70
0
  3

 72
65
 73
0
 40
0.0
  0
LTYPE
  5
15
100
AcDbSymbolTableRecord
100
AcDbLinetypeTableRecord
  2
BYLAYER
 70
0
  3

 72
65
 73
0
 40
0.0
  0
LTYPE
  5
16
100
AcDbSymbolTableRecord
100
AcDbLinetypeTableRecord
  2
CONTINUOUS
 70
64
  3
Solid line
 72
65
 73
0
 40
0.0
  0
LTYPE
  5
1F5
100
AcDbSymbolTableRecord
100
AcDbLinetypeTableRecord
  2
CENTER
 70
64
  3
____ _ ____ _ ____ _ ____ _ ____ _ ____ _ ____
 72
65
 73
4
 40
0.6
 49
0.375
 74
0
 49
-0.075
 74
0
 49
0.075
 74
0
 49
-0.075
 74
0
  0
LTYPE
  5
1F6
100
AcDbSymbolTableRecord
100
AcDbLinetypeTableRecord
  2
HIDDEN
 70
64
  3
- - - - - - - - - - - - - - - - - - - -
 72
65
 73
2
 40
0.2
 49
0.1
 74
0
 49
-0.1
 74
0
  0
LTYPE
  5
1F7
100
AcDbSymbolTableRecord
100
AcDbLinetypeTableRecord
  2
PHANTOM
 70
64
  3
_____ _ _ _____ _ _ _____ _ _ _____
 72
65
 73
6
 40
0.8
 49
0.45
 74
0
 49
-0.05
 74
0
 49
0.1
 74
0
 49
-0.05
 74
0
 49
0.1
 74
0
 49
-0.05
 74
0
  0
LTYPE
  5
1F8
100
AcDbSymbolTableRecord
100
AcDbLinetypeTableRecord
  2
DOT
 70
64
  3
. . . . . . . . . . . . . . . . . . . .
 72
65
 73
2
 40
0.2
 49
0.1
 74
0
 49
-0.1
 74
0
  0
LTYPE
  5
1F9
100
AcDbSymbolTableRecord
100
AcDbLinetypeTableRecord
  2
DASHED
 70
64
  3
- - - - - - - - - - - - - - - - - - - -
 72
65
 73
2
 40
0.2
 49
0.1
 74
0
 49
-0.1
 74
0
  0
ENDTAB
  0
TABLE
  2
LAYER
  5
2
100
AcDbSymbolTable
 70
36
  0
LAYER
  5
10
100
AcDbSymbolTableRecord
100
AcDbLayerTableRecord
  2
0
 70
0
 62
7
  6
CONTINUOUS
370
-3
390
F
  0
LAYER
  5
1FA
100
AcDbSymbolTableRecord
100
AcDbLayerTableRecord
  2
DEFAULT_1
 70
0
 62
7
  6
CENTER
370
-3
390
F
  0
LAYER
  5
1FB
100
AcDbSymbolTableRecord
100
AcDbLayerTableRecord
  2
DEFAULT_2
 70
0
 62
8
  6
HIDDEN
370
-3
390
F
  0
LAYER
  5
1FC
100
AcDbSymbolTableRecord
100
AcDbLayerTableRecord
  2
DEFAULT_3
 70
0
 62
7
  6
PHANTOM
370
-3
390
F
  0
LAYER
  5
1FD
100
AcDbSymbolTableRecord
100
AcDbLayerTableRecord
  2
AUSFORMSCHRAEGEN
 70
0
 62
7
  6
CONTINUOUS
370
-3
390
F
  0
LAYER
  5
1FE
100
AcDbSymbolTableRecord
100
AcDbLayerTableRecord
  2
BEZUGSACHSEN
 70
0
 62
7
  6
CONTINUOUS
370
-3
390
F
  0
LAYER
  5
1FF
100
AcDbSymbolTableRecord
100
AcDbLayerTableRecord
  2
BEZUGSEBENEN
 70
0
 62
7
  6
CONTINUOUS
370
-3
390
F
  0
LAYER
  5
200
100
AcDbSymbolTableRecord
100
AcDbLayerTableRecord
  2
BG_STARTBEZUEGE
 70
0
 62
7
  6
CONTINUOUS
370
-3
390
F
  0
LAYER
  5
201
100
AcDbSymbolTableRecord
100
AcDbLayerTableRecord
  2
FASEN
 70
0
 62
7
  6
CONTINUOUS
370
-3
390
F
  0
LAYER
  5
202
100
AcDbSymbolTableRecord
100
AcDbLayerTableRecord
  2
HILFEN
 70
0
 62
7
  6
CONTINUOUS
370
-3
390
F
  0
LAYER
  5
203
100
AcDbSymbolTableRecord
100
AcDbLayerTableRecord
  2
KONSTRUKTIONSELEMENTE
 70
0
 62
7
  6
CONTINUOUS
370
-3
390
F
  0
LAYER
  5
204
100
AcDbSymbolTableRecord
100
AcDbLayerTableRecord
  2
KURVEN
 70
0
 62
7
  6
CONTINUOUS
370
-3
390
F
  0
LAYER
  5
205
100
AcDbSymbolTableRecord
100
AcDbLayerTableRecord
  2
NORM
 70
0
 62
7
  6
CONTINUOUS
370
-3
390
F
  0
LAYER
  5
206
100
AcDbSymbolTableRecord
100
AcDbLayerTableRecord
  2
PLATZIERUNG
 70
0
 62
7
  6
CONTINUOUS
370
-3
390
F
  0
LAYER
  5
207
100
AcDbSymbolTableRecord
100
AcDbLayerTableRecord
  2
RUNDUNGEN
 70
0
 62
7
  6
CONTINUOUS
370
-3
390
F
  0
LAYER
  5
208
100
AcDbSymbolTableRecord
100
AcDbLayerTableRecord
  2
TEIL_STARTBEZUEGE
 70
0
 62
7
  6
CONTINUOUS
370
-3
390
F
  0
LAYER
  5
209
100
AcDbSymbolTableRecord
100
AcDbLayerTableRecord
  2
T_STARTBEZUEGE
 70
0
 62
7
  6
CONTINUOUS
370
-3
390
F
  0
LAYER
  5
20A
100
AcDbSymbolTableRecord
100
AcDbLayerTableRecord
  2
ZEICHNUNGSBEMASSUNGEN
 70
0
 62
7
  6
CONTINUOUS
370
-3
390
F
  0
ENDTAB
  0
TABLE
  2
STYLE
  5
3
100
AcDbSymbolTable
 70
1
  0
STYLE
  5
11
100
AcDbSymbolTableRecord
100
AcDbTextStyleTableRecord
  2
STANDARD
 70
0
 40
0.0
 41
0.7
 50
0.0
 71
0
 42
0.2
  3
txt
  4

  0
STYLE
  5
20B
100
AcDbSymbolTableRecord
100
AcDbTextStyleTableRecord
  2
TEXTSTYLE_1
 70
0
 40
0.0
 41
0.8
 50
0.0
 71
0
 42
0.2
  3
gdt
  4

  0
ENDTAB
  0
TABLE
  2
VIEW
  5
6
100
AcDbSymbolTable
 70
0
  0
ENDTAB
  0
TABLE
  2
UCS
  5
7
100
AcDbSymbolTable
 70
0
  0
ENDTAB
  0
TABLE
  2
APPID
  5
9
100
AcDbSymbolTable
 70
1
  0
APPID
  5
20C
100
AcDbSymbolTableRecord
100
AcDbRegAppTableRecord
  2
ACAD
 70
0
  0
ENDTAB
  0
TABLE
  2
BLOCK_RECORD
  5
1
100
AcDbSymbolTable
 70
0
  0
BLOCK_RECORD
  5
20D
100
AcDbSymbolTableRecord
100
AcDbBlockTableRecord
  2
*Model_Space
  0
BLOCK_RECORD
  5
20E
100
AcDbSymbolTableRecord
100
AcDbBlockTableRecord
  2
*Paper_Space
  0
ENDTAB
  0
TABLE
  2
DIMSTYLE
  5
A
100
AcDbSymbolTable
 70
1
100
AcDbDimStyleTable
 71
0
  0
DIMSTYLE
105
20F
100
AcDbSymbolTableRecord
100
AcDbDimStyleTableRecord
  2
STANDARD
 70
0
  3

  4

 40
1.0
 41
3.5
 42
0.0625
 43
0.38
 44
0.18
 45
0.0
 46
0.0
 47
0.005
 48
0.005
140
3.5
141
0.09
142
0.0
143
25.4
144
1.0
145
0.0
146
1.0
147
0.09
 71
1.0
 72
0.0
 73
0
 74
0
 75
0
 76
0
 77
1
 78
8
170
0
171
2
172
0
173
0
174
0
175
0
176
0
177
0
178
5
270
2
271
3
272
3
273
2
274
2
275
0
280
0
281
0
282
0
283
1
284
8
285
0
286
0
287
3
288
0
340
11
  0
ENDTAB
  0
ENDSEC
  0
SECTION
  2
BLOCKS
  0
BLOCK
  5
20
100
AcDbEntity
  8
0
100
AcDbBlockBegin
  2
*Model_Space
 70
0
 10
0.0
 20
0.0
 30
0.0
  3
*Model_Space
  1

  0
ENDBLK
  5
21
100
AcDbEntity
  8
0
100
AcDbBlockEnd
  0
BLOCK
  5
1C
100
AcDbEntity
  8
0
100
AcDbBlockBegin
  2
*Paper_Space
 70
0
 10
0.0
 20
0.0
 30
0.0
  3
*Paper_Space
  1

  0
ENDBLK
  5
1D
100
AcDbEntity
  8
0
100
AcDbBlockEnd
  0
ENDSEC
  0
SECTION
  2
ENTITIES
  0
MTEXT
  5
210
100
AcDbEntity
  8
0
100
AcDbMText
 62
5
  6
CONTINUOUS
  7
STANDARD
 71
2
 72
1
 10
226.0445361009
 20
154.0659725447
 30
0.0
 11
0.0
 21
1.0
 31
0.0
 44
0.9
  1
VLBS-U 2,5t\PRUD
 40
3.5
 41
28.5833333333
  0
MTEXT
  5
211
100
AcDbEntity
  8
0
100
AcDbMText
 62
5
  6
CONTINUOUS
  7
STANDARD
 71
2
 72
1
 10
107.1471111393
 20
33.2968165292
 30
0.0
 11
1.0
 21
0.0
 31
0.0
 44
0.9
  1
VLBS-U 2,5t\PRUD
 40
3.5
 41
28.5833333333
  0
MTEXT
  5
212
100
AcDbEntity
  8
0
100
AcDbMText
 62
5
  6
CONTINUOUS
  7
STANDARD
 71
2
 72
1
 10
105.7767902566
 20
127.0758238421
 30
0.0
 11
1.0
 21
0.0
 31
0.0
 44
0.9
  1
VLBS-U 2,5t\PRUD
 40
3.5
 41
28.5833333333
  0
LINE
  5
213
100
AcDbEntity
  8
0
100
AcDbLine
 62
7
  6
CONTINUOUS
 10
0.0
 20
0.0
 11
0.0
 21
210.0
  0
LINE
  5
214
100
AcDbEntity
  8
0
100
AcDbLine
 62
7
  6
CONTINUOUS
 10
0.0
 20
0.0
 11
297.0
 21
0.0
  0
LINE
  5
215
100
AcDbEntity
  8
0
100
AcDbLine
 62
7
  6
CONTINUOUS
 10
0.0
 20
210.0
 11
297.0
 21
210.0
  0
LINE
  5
216
100
AcDbEntity
  8
0
100
AcDbLine
 62
7
  6
CONTINUOUS
 10
297.0
 20
0.0
 11
297.0
 21
210.0
  0
LINE
  5
217
100
AcDbEntity
  8
RUNDUNGEN
100
AcDbLine
 62
7
  6
CONTINUOUS
 10
85.3628443334
 20
105.1171298004
 11
125.0249653116
 21
105.1171298004
  0
LINE
  5
218
100
AcDbEntity
  8
BEZUGSACHSEN
100
AcDbLine
 62
7
  6
CONTINUOUS
 10
70.6939053225
 20
106.3671298004
 11
85.2586732671
 21
106.3671298004
  0
LINE
  5
219
100
AcDbEntity
  8
BEZUGSACHSEN
100
AcDbLine
 62
7
  6
CONTINUOUS
 10
125.1291363779
 20
106.3671298004
 11
139.6939043225
 21
106.3671298004
  0
LINE
  5
21A
100
AcDbEntity
  8
RUNDUNGEN
100
AcDbLine
 62
7
  6
CONTINUOUS
 10
102.4748383898
 20
194.5762733592
 11
80.2754073171
 21
185.3809679319
  0
LINE
  5
21B
100
AcDbEntity
  8
RUNDUNGEN
100
AcDbLine
 62
7
  6
CONTINUOUS
 10
125.1926469965
 20
108.1171298004
 11
85.1951626485
 21
108.1171298004
  0
LINE
  5
21C
100
AcDbEntity
  8
RUNDUNGEN
100
AcDbLine
 62
7
  6
CONTINUOUS
 10
66.6939053225
 20
156.6171298004
 11
66.6939053225
 21
113.3671298004
  0
LINE
  5
21D
100
AcDbEntity
  8
BEZUGSACHSEN
100
AcDbLine
 62
7
  6
CONTINUOUS
 10
66.6939053225
 20
110.3671298004
 11
66.6939053225
 21
113.3671298004
  0
LINE
  5
21E
100
AcDbEntity
  8
RUNDUNGEN
100
AcDbLine
 62
7
  6
CONTINUOUS
 10
76.430066691
 20
181.5356273058
 11
67.2347612637
 21
159.3361962331
  0
LINE
  5
21F
100
AcDbEntity
  8
0
100
AcDbLine
 62
7
  6
CONTINUOUS
 10
86.6939048225
 20
114.8082076092
 11
123.6939048225
 21
114.8082076092
  0
LINE
  5
220
100
AcDbEntity
  8
0
100
AcDbLine
 62
7
  6
CONTINUOUS
 10
136.7278521475
 20
123.1913406604
 11
138.1489047475
 21
123.1913406604
  0
LINE
  5
221
100
AcDbEntity
  8
0
100
AcDbLine
 62
7
  6
CONTINUOUS
 10
138.1089047475
 20
124.2613406604
 11
136.7752205675
 21
124.2613406604
  0
LINE
  5
222
100
AcDbEntity
  8
0
100
AcDbLine
 62
7
  6
CONTINUOUS
 10
135.6620626975
 20
126.4834458504
 11
138.6817994725
 21
126.4834458504
  0
LINE
  5
223
100
AcDbEntity
  8
RUNDUNGEN
100
AcDbLine
 62
7
  6
CONTINUOUS
 10
82.6939053225
 20
128.3671298004
 11
82.6939053225
 21
132.7441478095
  0
LINE
  5
224
100
AcDbEntity
  8
RUNDUNGEN
100
AcDbLine
 62
7
  6
CONTINUOUS
 10
82.6939053225
 20
154.3595206103
 11
82.6939053225
 21
156.6171298004
  0
LINE
  5
225
100
AcDbEntity
  8
RUNDUNGEN
100
AcDbLine
 62
7
  6
CONTINUOUS
 10
85.1939048225
 20
113.1355175432
 11
85.1939048225
 21
108.2198646079
  0
LINE
  5
226
100
AcDbEntity
  8
0
100
AcDbLine
 62
7
  6
CONTINUOUS
 10
85.1939048225
 20
113.1355175432
 11
85.1939048225
 21
131.5718785371
  0
LINE
  5
227
100
AcDbEntity
  8
0
100
AcDbLine
 62
7
  6
CONTINUOUS
 10
140.1028520725
 20
127.5492353004
 11
139.2146941975
 21
127.5492353004
  0
LINE
  5
228
100
AcDbEntity
  8
0
100
AcDbLine
 62
7
  6
CONTINUOUS
 10
138.6817994725
 20
127.5492353004
 11
134.7739048225
 21
127.5492353004
  0
LINE
  5
229
100
AcDbEntity
  8
0
100
AcDbLine
 62
7
  6
CONTINUOUS
 10
136.9054837225
 20
128.6150247504
 11
140.1028520725
 21
128.6150247504
  0
LINE
  5
22A
100
AcDbEntity
  8
0
100
AcDbLine
 62
7
  6
CONTINUOUS
 10
140.1028520725
 20
129.6808142004
 11
136.9054837225
 21
129.6808142004
  0
LINE
  5
22B
100
AcDbEntity
  8
KONSTRUKTIONSELEMENTE
100
AcDbLine
 62
7
  6
CONTINUOUS
 10
89.6539048225
 20
133.5341449291
 11
89.6539048225
 21
132.9163899158
  0
LINE
  5
22C
100
AcDbEntity
  8
KONSTRUKTIONSELEMENTE
100
AcDbLine
 62
7
  6
CONTINUOUS
 10
89.6539048225
 20
132.8072950854
 11
89.6539048225
 21
131.1172983275
  0
LINE
  5
22D
100
AcDbEntity
  8
0
100
AcDbLine
 62
7
  6
CONTINUOUS
 10
112.3201745471
 20
133.0718785356
 11
112.195067292
 21
133.0717776883
  0
LINE
  5
22E
100
AcDbEntity
  8
KONSTRUKTIONSELEMENTE
100
AcDbLine
 62
7
  6
CONTINUOUS
 10
112.3201745086
 20
133.5718785357
 11
112.195067292
 21
133.5717803284
  0
LINE
  5
22F
100
AcDbEntity
  8
0
100
AcDbLine
 62
7
  6
CONTINUOUS
 10
89.6539048225
 20
131.1172983275
 11
90.6539048225
 21
131.1172983275
  0
LINE
  5
230
100
AcDbEntity
  8
0
100
AcDbLine
 62
7
  6
CONTINUOUS
 10
91.0539048225
 20
131.1172983275
 11
95.5339048225
 21
131.1172983275
  0
LINE
  5
231
100
AcDbEntity
  8
0
100
AcDbLine
 62
7
  6
CONTINUOUS
 10
113.0142162125
 20
131.587999593
 11
113.5993226077
 21
131.587999593
  0
LINE
  5
232
100
AcDbEntity
  8
KONSTRUKTIONSELEMENTE
100
AcDbLine
 62
7
  6
CONTINUOUS
 10
89.6539048225
 20
131.6742039613
 11
90.6539048225
 21
131.6742039613
  0
LINE
  5
233
100
AcDbEntity
  8
KONSTRUKTIONSELEMENTE
100
AcDbLine
 62
7
  6
CONTINUOUS
 10
91.0539048225
 20
131.6742039613
 11
95.5339048225
 21
131.6742039613
  0
LINE
  5
234
100
AcDbEntity
  8
0
100
AcDbLine
 62
7
  6
CONTINUOUS
 10
136.9054837225
 20
131.8123931004
 11
140.1028520725
 21
131.8123931004
  0
LINE
  5
235
100
AcDbEntity
  8
KONSTRUKTIONSELEMENTE
100
AcDbLine
 62
7
  6
CONTINUOUS
 10
113.0142162125
 20
132.1300664396
 11
113.5993226077
 21
132.1300664396
  0
LINE
  5
236
100
AcDbEntity
  8
KONSTRUKTIONSELEMENTE
100
AcDbLine
 62
7
  6
CONTINUOUS
 10
91.0539048225
 20
132.2032067445
 11
92.1539048225
 21
132.2032067445
  0
LINE
  5
237
100
AcDbEntity
  8
KONSTRUKTIONSELEMENTE
100
AcDbLine
 62
7
  6
CONTINUOUS
 10
93.1339048225
 20
132.2032067445
 11
95.5339048225
 21
132.2032067445
  0
LINE
  5
238
100
AcDbEntity
  8
0
100
AcDbLine
 62
7
  6
CONTINUOUS
 10
100.7290006706
 20
132.5341707504
 11
103.6739048225
 21
132.5341707504
  0
LINE
  5
239
100
AcDbEntity
  8
0
100
AcDbLine
 62
7
  6
CONTINUOUS
 10
109.3865564968
 20
132.6706475545
 11
109.6205993499
 21
132.6706475545
  0
LINE
  5
23A
100
AcDbEntity
  8
0
100
AcDbLine
 62
7
  6
CONTINUOUS
 10
140.1028520725
 20
132.8781825504
 11
136.9054837225
 21
132.8781825504
  0
LINE
  5
23B
100
AcDbEntity
  8
0
100
AcDbLine
 62
7
  6
CONTINUOUS
 10
89.6539048225
 20
132.9163899158
 11
89.7022603883
 21
132.9163899158
  0
LINE
  5
23C
100
AcDbEntity
  8
KONSTRUKTIONSELEMENTE
100
AcDbLine
 62
7
  6
CONTINUOUS
 10
98.1739048225
 20
133.0486489776
 11
103.6739048225
 21
133.0486489776
  0
LINE
  5
23D
100
AcDbEntity
  8
0
100
AcDbLine
 62
7
  6
CONTINUOUS
 10
108.0993226077
 20
133.0717776883
 11
108.1898723333
 21
133.0717776883
  0
LINE
  5
23E
100
AcDbEntity
  8
KONSTRUKTIONSELEMENTE
100
AcDbLine
 62
7
  6
CONTINUOUS
 10
86.6939048225
 20
133.0718785371
 11
89.6539048225
 21
133.0718785371
  0
LINE
  5
23F
100
AcDbEntity
  8
KONSTRUKTIONSELEMENTE
100
AcDbLine
 62
7
  6
CONTINUOUS
 10
95.5339048225
 20
133.0718785371
 11
98.1739048225
 21
133.0718785371
  0
LINE
  5
240
100
AcDbEntity
  8
KONSTRUKTIONSELEMENTE
100
AcDbLine
 62
7
  6
CONTINUOUS
 10
103.6739048225
 20
133.0718785371
 11
108.0993226077
 21
133.0718785371
  0
LINE
  5
241
100
AcDbEntity
  8
KONSTRUKTIONSELEMENTE
100
AcDbLine
 62
7
  6
CONTINUOUS
 10
111.1897953804
 20
133.0718785371
 11
112.195067292
 21
133.0718785371
  0
LINE
  5
242
100
AcDbEntity
  8
KONSTRUKTIONSELEMENTE
100
AcDbLine
 62
7
  6
CONTINUOUS
 10
112.3201738268
 20
133.0718785371
 11
113.0142162125
 21
133.0718785371
  0
LINE
  5
243
100
AcDbEntity
  8
KONSTRUKTIONSELEMENTE
100
AcDbLine
 62
7
  6
CONTINUOUS
 10
114.3014502655
 20
133.0718785371
 11
116.8893226077
 21
133.0718785371
  0
LINE
  5
244
100
AcDbEntity
  8
KONSTRUKTIONSELEMENTE
100
AcDbLine
 62
7
  6
CONTINUOUS
 10
121.8893226077
 20
133.0718785371
 11
123.6939048225
 21
133.0718785371
  0
LINE
  5
245
100
AcDbEntity
  8
KONSTRUKTIONSELEMENTE
100
AcDbLine
 62
7
  6
CONTINUOUS
 10
109.3865564968
 20
133.1813732857
 11
109.6205993499
 21
133.1813732857
  0
LINE
  5
246
100
AcDbEntity
  8
KONSTRUKTIONSELEMENTE
100
AcDbLine
 62
7
  6
CONTINUOUS
 10
98.1739048225
 20
133.1996318393
 11
102.9717771647
 21
133.1996318393
  0
LINE
  5
247
100
AcDbEntity
  8
KONSTRUKTIONSELEMENTE
100
AcDbLine
 62
7
  6
CONTINUOUS
 10
111.7269822415
 20
133.2501660286
 11
111.9610247668
 21
133.2501660286
  0
LINE
  5
248
100
AcDbEntity
  8
KONSTRUKTIONSELEMENTE
100
AcDbLine
 62
7
  6
CONTINUOUS
 10
109.3865564968
 20
133.3094998041
 11
109.6205993499
 21
133.3094998041
  0
LINE
  5
249
100
AcDbEntity
  8
KONSTRUKTIONSELEMENTE
100
AcDbLine
 62
7
  6
CONTINUOUS
 10
113.0142162125
 20
133.3094998041
 11
113.5993226077
 21
133.3094998041
  0
LINE
  5
24A
100
AcDbEntity
  8
KONSTRUKTIONSELEMENTE
100
AcDbLine
 62
7
  6
CONTINUOUS
 10
89.6539048225
 20
133.4204932622
 11
93.1839048225
 21
133.4204932622
  0
LINE
  5
24B
100
AcDbEntity
  8
KONSTRUKTIONSELEMENTE
100
AcDbLine
 62
7
  6
CONTINUOUS
 10
89.6539048225
 20
133.5341449291
 11
93.1839048225
 21
133.5341449291
  0
LINE
  5
24C
100
AcDbEntity
  8
KONSTRUKTIONSELEMENTE
100
AcDbLine
 62
7
  6
CONTINUOUS
 10
89.6539048225
 20
133.5401768356
 11
93.1839048225
 21
133.5401768356
  0
LINE
  5
24D
100
AcDbEntity
  8
KONSTRUKTIONSELEMENTE
100
AcDbLine
 62
7
  6
CONTINUOUS
 10
116.9018540149
 20
133.5571477256
 11
117.6393226083
 21
133.5571477256
  0
LINE
  5
24E
100
AcDbEntity
  8
KONSTRUKTIONSELEMENTE
100
AcDbLine
 62
7
  6
CONTINUOUS
 10
121.1393226075
 20
133.5571477256
 11
121.8767912005
 21
133.5571477256
  0
LINE
  5
24F
100
AcDbEntity
  8
KONSTRUKTIONSELEMENTE
100
AcDbLine
 62
7
  6
CONTINUOUS
 10
98.1739048225
 20
133.5623996794
 11
102.9717771647
 21
133.5623996794
  0
LINE
  5
250
100
AcDbEntity
  8
KONSTRUKTIONSELEMENTE
100
AcDbLine
 62
7
  6
CONTINUOUS
 10
102.9717771647
 20
133.5692808473
 11
103.6739048225
 21
133.5692808473
  0
LINE
  5
251
100
AcDbEntity
  8
KONSTRUKTIONSELEMENTE
100
AcDbLine
 62
7
  6
CONTINUOUS
 10
108.0993226077
 20
133.5717803284
 11
111.1418757643
 21
133.5717803284
  0
LINE
  5
252
100
AcDbEntity
  8
KONSTRUKTIONSELEMENTE
100
AcDbLine
 62
7
  6
CONTINUOUS
 10
94.3259733748
 20
133.5718785371
 11
95.5102348585
 21
133.5718785371
  0
LINE
  5
253
100
AcDbEntity
  8
KONSTRUKTIONSELEMENTE
100
AcDbLine
 62
7
  6
CONTINUOUS
 10
94.3339048225
 20
133.5718130911
 11
94.3327808311
 21
133.5718682288
  0
LINE
  5
254
100
AcDbEntity
  8
KONSTRUKTIONSELEMENTE
100
AcDbLine
 62
7
  6
CONTINUOUS
 10
95.533371561
 20
133.5717476854
 11
95.5339048225
 21
133.571678219
  0
LINE
  5
255
100
AcDbEntity
  8
KONSTRUKTIONSELEMENTE
100
AcDbLine
 62
7
  6
CONTINUOUS
 10
90.6539048225
 20
132.7477506093
 11
90.6539048225
 21
131.1172983275
  0
LINE
  5
256
100
AcDbEntity
  8
KONSTRUKTIONSELEMENTE
100
AcDbLine
 62
7
  6
CONTINUOUS
 10
91.0539048225
 20
132.2032067445
 11
91.0539048225
 21
131.1172983275
  0
LINE
  5
257
100
AcDbEntity
  8
KONSTRUKTIONSELEMENTE
100
AcDbLine
 62
7
  6
CONTINUOUS
 10
92.1539048225
 20
132.7477506093
 11
92.1539048225
 21
132.2032067445
  0
LINE
  5
258
100
AcDbEntity
  8
KONSTRUKTIONSELEMENTE
100
AcDbLine
 62
7
  6
CONTINUOUS
 10
93.1339048225
 20
132.4357373156
 11
93.1339048225
 21
132.2032067445
  0
LINE
  5
259
100
AcDbEntity
  8
BEZUGSACHSEN
100
AcDbLine
 62
7
  6
CONTINUOUS
 10
125.1939043225
 20
135.1171298004
 11
119.4939048225
 21
135.1171298004
  0
LINE
  5
25A
100
AcDbEntity
  8
RUNDUNGEN
100
AcDbLine
 62
7
  6
CONTINUOUS
 10
85.1939053225
 20
135.1171298004
 11
90.8939048225
 21
135.1171298004
  0
LINE
  5
25B
100
AcDbEntity
  8
0
100
AcDbLine
 62
7
  6
CONTINUOUS
 10
134.7739048225
 20
137.3189719254
 11
137.0002205625
 21
137.3189719254
  0
LINE
  5
25C
100
AcDbEntity
  8
0
100
AcDbLine
 62
7
  6
CONTINUOUS
 10
137.8883784375
 20
137.3189719254
 11
138.6817994725
 21
137.3189719254
  0
LINE
  5
25D
100
AcDbEntity
  8
0
100
AcDbLine
 62
7
  6
CONTINUOUS
 10
140.1028520725
 20
138.2071298004
 11
139.2146941975
 21
138.2071298004
  0
LINE
  5
25E
100
AcDbEntity
  8
0
100
AcDbLine
 62
7
  6
CONTINUOUS
 10
138.6817994725
 20
138.2071298004
 11
134.7739048225
 21
138.2071298004
  0
LINE
  5
25F
100
AcDbEntity
  8
KONSTRUKTIONSELEMENTE
100
AcDbLine
 62
7
  6
CONTINUOUS
 10
95.5339048225
 20
133.3348975532
 11
95.5339048225
 21
132.4684188218
  0
LINE
  5
260
100
AcDbEntity
  8
KONSTRUKTIONSELEMENTE
100
AcDbLine
 62
7
  6
CONTINUOUS
 10
95.5339048225
 20
132.2032067445
 11
95.5339048225
 21
131.1172983275
  0
LINE
  5
261
100
AcDbEntity
  8
0
100
AcDbLine
 62
7
  6
CONTINUOUS
 10
95.5339048225
 20
133.3348975532
 11
95.5339048225
 21
133.568914979
  0
LINE
  5
262
100
AcDbEntity
  8
KONSTRUKTIONSELEMENTE
100
AcDbLine
 62
7
  6
CONTINUOUS
 10
98.1739048225
 20
133.5623996794
 11
98.1739048225
 21
132.0624455542
  0
LINE
  5
263
100
AcDbEntity
  8
KONSTRUKTIONSELEMENTE
100
AcDbLine
 62
7
  6
CONTINUOUS
 10
98.1739048225
 20
131.1811946137
 11
98.1739048225
 21
130.193087142
  0
LINE
  5
264
100
AcDbEntity
  8
KONSTRUKTIONSELEMENTE
100
AcDbLine
 62
7
  6
CONTINUOUS
 10
121.1393226075
 20
133.5453632728
 11
121.1213734153
 21
133.5571477256
  0
LINE
  5
265
100
AcDbEntity
  8
KONSTRUKTIONSELEMENTE
100
AcDbLine
 62
7
  6
CONTINUOUS
 10
102.9717771647
 20
133.5692808473
 11
102.9717771647
 21
133.1996318393
  0
LINE
  5
266
100
AcDbEntity
  8
KONSTRUKTIONSELEMENTE
100
AcDbLine
 62
7
  6
CONTINUOUS
 10
103.6739048225
 20
133.5692808473
 11
103.6739048225
 21
132.5341707504
  0
LINE
  5
267
100
AcDbEntity
  8
KONSTRUKTIONSELEMENTE
100
AcDbLine
 62
7
  6
CONTINUOUS
 10
103.6739048225
 20
132.1669032615
 11
103.6739048225
 21
131.2123073381
  0
LINE
  5
268
100
AcDbEntity
  8
KONSTRUKTIONSELEMENTE
100
AcDbLine
 62
7
  6
CONTINUOUS
 10
121.8767912005
 20
133.5571477256
 11
121.889321673
 21
133.5449683865
  0
LINE
  5
269
100
AcDbEntity
  8
KONSTRUKTIONSELEMENTE
100
AcDbLine
 62
7
  6
CONTINUOUS
 10
108.0993226077
 20
133.5718634492
 11
108.0993226077
 21
133.0717776883
  0
LINE
  5
26A
100
AcDbEntity
  8
KONSTRUKTIONSELEMENTE
100
AcDbLine
 62
7
  6
CONTINUOUS
 10
108.0993226077
 20
132.9395952594
 11
108.0993226077
 21
132.2912187814
  0
LINE
  5
26B
100
AcDbEntity
  8
KONSTRUKTIONSELEMENTE
100
AcDbLine
 62
7
  6
CONTINUOUS
 10
108.2163438704
 20
132.5600514401
 11
108.2163438704
 21
132.0312634628
  0
LINE
  5
26C
100
AcDbEntity
  8
KONSTRUKTIONSELEMENTE
100
AcDbLine
 62
7
  6
CONTINUOUS
 10
108.4503863956
 20
132.3980868297
 11
108.4503863956
 21
131.8643753029
  0
LINE
  5
26D
100
AcDbEntity
  8
KONSTRUKTIONSELEMENTE
100
AcDbLine
 62
7
  6
CONTINUOUS
 10
108.6844289209
 20
132.9089751092
 11
108.6844289209
 21
132.7788122732
  0
LINE
  5
26E
100
AcDbEntity
  8
KONSTRUKTIONSELEMENTE
100
AcDbLine
 62
7
  6
CONTINUOUS
 10
108.8014501836
 20
133.0545073795
 11
108.8014501836
 21
132.5985058246
  0
LINE
  5
26F
100
AcDbEntity
  8
KONSTRUKTIONSELEMENTE
100
AcDbLine
 62
7
  6
CONTINUOUS
 10
108.9184714462
 20
132.2228151152
 11
108.9184714462
 21
131.6836695363
  0
LINE
  5
270
100
AcDbEntity
  8
KONSTRUKTIONSELEMENTE
100
AcDbLine
 62
7
  6
CONTINUOUS
 10
109.0354927089
 20
133.1328412578
 11
109.0354927089
 21
132.6207498426
  0
LINE
  5
271
100
AcDbEntity
  8
KONSTRUKTIONSELEMENTE
100
AcDbLine
 62
7
  6
CONTINUOUS
 10
109.3865564968
 20
133.1813732857
 11
109.3865564968
 21
132.6706475545
  0
LINE
  5
272
100
AcDbEntity
  8
KONSTRUKTIONSELEMENTE
100
AcDbLine
 62
7
  6
CONTINUOUS
 10
109.3865564968
 20
132.3980868297
 11
109.3865564968
 21
131.6362836838
  0
LINE
  5
273
100
AcDbEntity
  8
KONSTRUKTIONSELEMENTE
100
AcDbLine
 62
7
  6
CONTINUOUS
 10
109.6205993499
 20
133.1813732857
 11
109.6205993499
 21
132.6706475545
  0
LINE
  5
274
100
AcDbEntity
  8
KONSTRUKTIONSELEMENTE
100
AcDbLine
 62
7
  6
CONTINUOUS
 10
110.0886844005
 20
133.1328412578
 11
110.0886844005
 21
132.6207498426
  0
LINE
  5
275
100
AcDbEntity
  8
KONSTRUKTIONSELEMENTE
100
AcDbLine
 62
7
  6
CONTINUOUS
 10
111.1418757643
 20
133.5718784455
 11
111.1418757643
 21
133.0850694485
  0
LINE
  5
276
100
AcDbEntity
  8
KONSTRUKTIONSELEMENTE
100
AcDbLine
 62
7
  6
CONTINUOUS
 10
111.3759182896
 20
133.2711055408
 11
111.3759182896
 21
133.0718785371
  0
LINE
  5
277
100
AcDbEntity
  8
KONSTRUKTIONSELEMENTE
100
AcDbLine
 62
7
  6
CONTINUOUS
 10
111.7269822415
 20
133.2501660286
 11
111.7269822415
 21
133.0718785371
  0
LINE
  5
278
100
AcDbEntity
  8
KONSTRUKTIONSELEMENTE
100
AcDbLine
 62
7
  6
CONTINUOUS
 10
111.9610247668
 20
133.2501660286
 11
111.9610247668
 21
133.0718785371
  0
LINE
  5
279
100
AcDbEntity
  8
KONSTRUKTIONSELEMENTE
100
AcDbLine
 62
7
  6
CONTINUOUS
 10
112.195067292
 20
133.5718784835
 11
112.195067292
 21
133.0717776883
  0
LINE
  5
27A
100
AcDbEntity
  8
KONSTRUKTIONSELEMENTE
100
AcDbLine
 62
7
  6
CONTINUOUS
 10
112.6631524246
 20
133.5711404094
 11
112.6631524246
 21
133.0711205664
  0
LINE
  5
27B
100
AcDbEntity
  8
KONSTRUKTIONSELEMENTE
100
AcDbLine
 62
7
  6
CONTINUOUS
 10
113.0142162125
 20
133.5468275388
 11
113.0142162125
 21
132.4807094052
  0
LINE
  5
27C
100
AcDbEntity
  8
KONSTRUKTIONSELEMENTE
100
AcDbLine
 62
7
  6
CONTINUOUS
 10
113.0142162125
 20
132.1300664396
 11
113.0142162125
 21
131.587999593
  0
LINE
  5
27D
100
AcDbEntity
  8
KONSTRUKTIONSELEMENTE
100
AcDbLine
 62
7
  6
CONTINUOUS
 10
113.1312375161
 20
133.565023837
 11
113.1312375161
 21
133.5433403032
  0
LINE
  5
27E
100
AcDbEntity
  8
KONSTRUKTIONSELEMENTE
100
AcDbLine
 62
7
  6
CONTINUOUS
 10
113.5993226077
 20
133.3094998041
 11
113.5993226077
 21
131.587999593
  0
LINE
  5
27F
100
AcDbEntity
  8
KONSTRUKTIONSELEMENTE
100
AcDbLine
 62
7
  6
CONTINUOUS
 10
114.3014502655
 20
133.4991323603
 11
114.3014502655
 21
132.9367063017
  0
LINE
  5
280
100
AcDbEntity
  8
0
100
AcDbLine
 62
7
  6
CONTINUOUS
 10
116.8893226077
 20
133.0420127727
 11
116.8893226077
 21
133.5426547204
  0
LINE
  5
281
100
AcDbEntity
  8
KONSTRUKTIONSELEMENTE
100
AcDbLine
 62
7
  6
CONTINUOUS
 10
117.6572718001
 20
133.5571477256
 11
117.6572718001
 21
133.532798685
  0
LINE
  5
282
100
AcDbEntity
  8
KONSTRUKTIONSELEMENTE
100
AcDbLine
 62
7
  6
CONTINUOUS
 10
121.1213734153
 20
133.5571477256
 11
121.1213734153
 21
133.5327995149
  0
LINE
  5
283
100
AcDbEntity
  8
0
100
AcDbLine
 62
7
  6
CONTINUOUS
 10
121.8893226077
 20
133.0420284395
 11
121.8893226077
 21
133.5425251354
  0
LINE
  5
284
100
AcDbEntity
  8
0
100
AcDbLine
 62
7
  6
CONTINUOUS
 10
125.1939048225
 20
131.5718785371
 11
125.1939048225
 21
113.1355175432
  0
LINE
  5
285
100
AcDbEntity
  8
RUNDUNGEN
100
AcDbLine
 62
7
  6
CONTINUOUS
 10
125.1939048225
 20
113.1355175432
 11
125.1939048225
 21
108.2198646079
  0
LINE
  5
286
100
AcDbEntity
  8
KONSTRUKTIONSELEMENTE
100
AcDbLine
 62
7
  6
CONTINUOUS
 10
116.8893431481
 20
133.544227645
 11
116.9018540149
 21
133.5571477256
  0
LINE
  5
287
100
AcDbEntity
  8
BEZUGSACHSEN
100
AcDbLine
 62
7
  6
CONTINUOUS
 10
127.6939043225
 20
128.3671298004
 11
127.6939043225
 21
132.7441478095
  0
LINE
  5
288
100
AcDbEntity
  8
BEZUGSACHSEN
100
AcDbLine
 62
7
  6
CONTINUOUS
 10
127.6939043225
 20
154.3595206103
 11
127.6939043225
 21
156.6171298004
  0
LINE
  5
289
100
AcDbEntity
  8
KONSTRUKTIONSELEMENTE
100
AcDbLine
 62
7
  6
CONTINUOUS
 10
117.6572718001
 20
133.5571477256
 11
117.6393226083
 21
133.545364665
  0
LINE
  5
28A
100
AcDbEntity
  8
0
100
AcDbLine
 62
7
  6
CONTINUOUS
 10
134.7739048225
 20
138.2071298004
 11
134.7739048225
 21
137.3189719254
  0
LINE
  5
28B
100
AcDbEntity
  8
0
100
AcDbLine
 62
7
  6
CONTINUOUS
 10
134.7739048225
 20
134.6142652268
 11
134.7739048225
 21
133.5887088504
  0
LINE
  5
28C
100
AcDbEntity
  8
0
100
AcDbLine
 62
7
  6
CONTINUOUS
 10
134.7739048225
 20
127.5492353004
 11
134.7739048225
 21
125.1452879854
  0
LINE
  5
28D
100
AcDbEntity
  8
0
100
AcDbLine
 62
7
  6
CONTINUOUS
 10
135.6620626975
 20
125.3744985304
 11
135.6620626975
 21
126.4834458504
  0
LINE
  5
28E
100
AcDbEntity
  8
0
100
AcDbLine
 62
7
  6
CONTINUOUS
 10
137.0002205625
 20
137.3189719254
 11
137.0002205625
 21
136.4124074068
  0
LINE
  5
28F
100
AcDbEntity
  8
0
100
AcDbLine
 62
7
  6
CONTINUOUS
 10
136.556141625
 20
135.6432401245
 11
134.7739048225
 21
134.6142652268
  0
LINE
  5
290
100
AcDbEntity
  8
0
100
AcDbLine
 62
7
  6
CONTINUOUS
 10
134.7739048225
 20
133.5887088504
 11
137.1050830971
 21
134.9346152548
  0
LINE
  5
291
100
AcDbEntity
  8
0
100
AcDbLine
 62
7
  6
CONTINUOUS
 10
137.8883784375
 20
135.8505509054
 11
137.8883784375
 21
137.3189719254
  0
LINE
  5
292
100
AcDbEntity
  8
0
100
AcDbLine
 62
7
  6
CONTINUOUS
 10
138.6817994725
 20
126.4834458504
 11
138.6817994725
 21
127.5492353004
  0
LINE
  5
293
100
AcDbEntity
  8
0
100
AcDbLine
 62
7
  6
CONTINUOUS
 10
138.6817994725
 20
137.3189719254
 11
138.6817994725
 21
138.2071298004
  0
LINE
  5
294
100
AcDbEntity
  8
0
100
AcDbLine
 62
7
  6
CONTINUOUS
 10
139.2146941975
 20
138.2071298004
 11
139.2146941975
 21
135.8505509054
  0
LINE
  5
295
100
AcDbEntity
  8
0
100
AcDbLine
 62
7
  6
CONTINUOUS
 10
139.2146941975
 20
127.5492353004
 11
139.2146941975
 21
125.3744741429
  0
LINE
  5
296
100
AcDbEntity
  8
0
100
AcDbLine
 62
7
  6
CONTINUOUS
 10
140.1028520725
 20
125.1452879854
 11
140.1028520725
 21
127.5492353004
  0
LINE
  5
297
100
AcDbEntity
  8
0
100
AcDbLine
 62
7
  6
CONTINUOUS
 10
140.1028520725
 20
128.6150247504
 11
140.1028520725
 21
129.6808142004
  0
LINE
  5
298
100
AcDbEntity
  8
0
100
AcDbLine
 62
7
  6
CONTINUOUS
 10
140.1028520725
 20
131.8123931004
 11
140.1028520725
 21
132.8781825504
  0
LINE
  5
299
100
AcDbEntity
  8
0
100
AcDbLine
 62
7
  6
CONTINUOUS
 10
140.1028520725
 20
135.4952877554
 11
140.1028520725
 21
138.2071298004
  0
LINE
  5
29A
100
AcDbEntity
  8
BEZUGSACHSEN
100
AcDbLine
 62
7
  6
CONTINUOUS
 10
143.6939043225
 20
156.6171298004
 11
143.6939043225
 21
110.3671298004
  0
LINE
  5
29B
100
AcDbEntity
  8
BEZUGSACHSEN
100
AcDbLine
 62
7
  6
CONTINUOUS
 10
133.957742954
 20
181.5356273058
 11
143.1530483813
 21
159.3361962331
  0
LINE
  5
29C
100
AcDbEntity
  8
BEZUGSACHSEN
100
AcDbLine
 62
7
  6
CONTINUOUS
 10
107.9129712552
 20
194.5762733592
 11
130.1124023279
 21
185.3809679319
  0
LINE
  5
29D
100
AcDbEntity
  8
RUNDUNGEN
100
AcDbLine
 62
7
  6
CONTINUOUS
 10
244.7467756585
 20
105.1171298004
 11
242.2467756585
 21
105.1171298004
  0
LINE
  5
29E
100
AcDbEntity
  8
RUNDUNGEN
100
AcDbLine
 62
7
  6
CONTINUOUS
 10
219.030928691
 20
105.1171298004
 11
216.530928691
 21
105.1171298004
  0
LINE
  5
29F
100
AcDbEntity
  8
KONSTRUKTIONSELEMENTE
100
AcDbLine
 62
7
  6
CONTINUOUS
 10
212.7961998783
 20
113.1355175432
 11
211.6388521748
 21
114.8082076092
  0
LINE
  5
2A0
100
AcDbEntity
  8
RUNDUNGEN
100
AcDbLine
 62
7
  6
CONTINUOUS
 10
212.7961998783
 20
113.1355175432
 11
216.2684627004
 21
108.1171298004
  0
LINE
  5
2A1
100
AcDbEntity
  8
RUNDUNGEN
100
AcDbLine
 62
7
  6
CONTINUOUS
 10
216.530928691
 20
105.1171298004
 11
216.2684627004
 21
108.1171298004
  0
LINE
  5
2A2
100
AcDbEntity
  8
0
100
AcDbLine
 62
7
  6
CONTINUOUS
 10
237.6388521748
 20
132.8781825504
 11
238.1388521748
 21
132.8781825504
  0
LINE
  5
2A3
100
AcDbEntity
  8
0
100
AcDbLine
 62
7
  6
CONTINUOUS
 10
237.6388521748
 20
133.5887088504
 11
238.1388521748
 21
133.5887088504
  0
LINE
  5
2A4
100
AcDbEntity
  8
0
100
AcDbLine
 62
7
  6
CONTINUOUS
 10
237.6388521748
 20
134.6142652268
 11
238.1388521748
 21
134.6142652268
  0
LINE
  5
2A5
100
AcDbEntity
  8
0
100
AcDbLine
 62
7
  6
CONTINUOUS
 10
237.6388521748
 20
137.3189719254
 11
238.1388521748
 21
137.3189719254
  0
LINE
  5
2A6
100
AcDbEntity
  8
KONSTRUKTIONSELEMENTE
100
AcDbLine
 62
7
  6
CONTINUOUS
 10
220.6413521748
 20
130.7463983072
 11
220.6413521748
 21
130.1565842643
  0
LINE
  5
2A7
100
AcDbEntity
  8
KONSTRUKTIONSELEMENTE
100
AcDbLine
 62
7
  6
CONTINUOUS
 10
220.8705192785
 20
130.8849730786
 11
220.8705192785
 21
130.3003235785
  0
LINE
  5
2A8
100
AcDbEntity
  8
KONSTRUKTIONSELEMENTE
100
AcDbLine
 62
7
  6
CONTINUOUS
 10
220.9851021748
 20
130.9526282451
 11
220.9851021748
 21
130.3704668687
  0
LINE
  5
2A9
100
AcDbEntity
  8
KONSTRUKTIONSELEMENTE
100
AcDbLine
 62
7
  6
CONTINUOUS
 10
221.099685071
 20
131.019213397
 11
221.099685071
 21
130.4394798274
  0
LINE
  5
2AA
100
AcDbEntity
  8
KONSTRUKTIONSELEMENTE
100
AcDbLine
 62
7
  6
CONTINUOUS
 10
212.5035697938
 20
118.6036497026
 11
211.6388521748
 21
114.8082076092
  0
LINE
  5
2AB
100
AcDbEntity
  8
0
100
AcDbLine
 62
7
  6
CONTINUOUS
 10
237.6388521748
 20
138.2071298004
 11
238.1388521748
 21
138.2071298004
  0
LINE
  5
2AC
100
AcDbEntity
  8
KONSTRUKTIONSELEMENTE
100
AcDbLine
 62
7
  6
CONTINUOUS
 10
221.443435071
 20
131.2126761372
 11
221.443435071
 21
130.63988102
  0
LINE
  5
2AD
100
AcDbEntity
  8
KONSTRUKTIONSELEMENTE
100
AcDbLine
 62
7
  6
CONTINUOUS
 10
221.9017692785
 20
131.4563827237
 11
221.9017692785
 21
130.8920911564
  0
LINE
  5
2AE
100
AcDbEntity
  8
0
100
AcDbLine
 62
7
  6
CONTINUOUS
 10
222.3388521748
 20
131.6742039613
 11
222.3388521748
 21
131.1172983275
  0
LINE
  5
2AF
100
AcDbEntity
  8
BEZUGSACHSEN
100
AcDbLine
 62
7
  6
CONTINUOUS
 10
223.6388521748
 20
191.1171289689
 11
223.6388521748
 21
113.3671298004
  0
LINE
  5
2B0
100
AcDbEntity
  8
RUNDUNGEN
100
AcDbLine
 62
7
  6
CONTINUOUS
 10
219.030928691
 20
105.1171298004
 11
221.9061906383
 21
116.6491755975
  0
LINE
  5
2B1
100
AcDbEntity
  8
RUNDUNGEN
100
AcDbLine
 62
7
  6
CONTINUOUS
 10
239.3715137113
 20
116.6491755975
 11
242.2467756585
 21
105.1171298004
  0
LINE
  5
2B2
100
AcDbEntity
  8
BEZUGSACHSEN
100
AcDbLine
 62
7
  6
CONTINUOUS
 10
237.6388521748
 20
191.1171289689
 11
237.6388521748
 21
190.8807552292
  0
LINE
  5
2B3
100
AcDbEntity
  8
RUNDUNGEN
100
AcDbLine
 62
7
  6
CONTINUOUS
 10
237.6388521748
 20
190.8807552292
 11
237.6388521748
 21
113.3671298004
  0
LINE
  5
2B4
100
AcDbEntity
  8
0
100
AcDbLine
 62
7
  6
CONTINUOUS
 10
238.1388521748
 20
138.2071298004
 11
238.1388521748
 21
133.5887088504
  0
LINE
  5
2B5
100
AcDbEntity
  8
0
100
AcDbLine
 62
7
  6
CONTINUOUS
 10
238.1388521748
 20
132.8781825504
 11
238.1388521748
 21
132.0371994146
  0
LINE
  5
2B6
100
AcDbEntity
  8
KONSTRUKTIONSELEMENTE
100
AcDbLine
 62
7
  6
CONTINUOUS
 10
238.9388521748
 20
131.6742039613
 11
238.9388521748
 21
131.1172983275
  0
LINE
  5
2B7
100
AcDbEntity
  8
KONSTRUKTIONSELEMENTE
100
AcDbLine
 62
7
  6
CONTINUOUS
 10
239.8913521748
 20
131.1811946137
 11
239.8913521748
 21
130.607281964
  0
LINE
  5
2B8
100
AcDbEntity
  8
KONSTRUKTIONSELEMENTE
100
AcDbLine
 62
7
  6
CONTINUOUS
 10
240.5788521748
 20
130.7815811708
 11
240.5788521748
 21
130.193087142
  0
LINE
  5
2B9
100
AcDbEntity
  8
0
100
AcDbLine
 62
7
  6
CONTINUOUS
 10
248.7741345557
 20
118.6036497026
 11
249.6388521748
 21
114.8082076092
  0
LINE
  5
2BA
100
AcDbEntity
  8
RUNDUNGEN
100
AcDbLine
 62
7
  6
CONTINUOUS
 10
245.0092416491
 20
108.1171298004
 11
244.7467756585
 21
105.1171298004
  0
LINE
  5
2BB
100
AcDbEntity
  8
RUNDUNGEN
100
AcDbLine
 62
7
  6
CONTINUOUS
 10
248.4815044713
 20
113.1355175432
 11
245.0092416491
 21
108.1171298004
  0
LINE
  5
2BC
100
AcDbEntity
  8
0
100
AcDbLine
 62
7
  6
CONTINUOUS
 10
248.4815044713
 20
113.1355175432
 11
249.6388521748
 21
114.8082076092
  0
LINE
  5
2BD
100
AcDbEntity
  8
0
100
AcDbLine
 62
7
  6
CONTINUOUS
 10
227.6388521748
 20
195.1171293004
 11
233.6388521748
 21
195.1171293004
  0
LINE
  5
2BE
100
AcDbEntity
  8
BEZUGSACHSEN
100
AcDbLine
 62
7
  6
CONTINUOUS
 10
66.6939053225
 20
31.9364640411
 11
66.6939053225
 21
25.9364640411
  0
LINE
  5
2BF
100
AcDbEntity
  8
0
100
AcDbLine
 62
7
  6
CONTINUOUS
 10
85.1939048225
 20
11.0938117446
 11
85.1939048225
 21
21.9364640411
  0
LINE
  5
2C0
100
AcDbEntity
  8
0
100
AcDbLine
 62
7
  6
CONTINUOUS
 10
85.1939048225
 20
35.9364640411
 11
85.1939048225
 21
45.6092236494
  0
LINE
  5
2C1
100
AcDbEntity
  8
KONSTRUKTIONSELEMENTE
100
AcDbLine
 62
7
  6
CONTINUOUS
 10
85.1939048225
 20
45.6092236494
 11
85.1939048225
 21
46.7791163376
  0
LINE
  5
2C2
100
AcDbEntity
  8
0
100
AcDbLine
 62
7
  6
CONTINUOUS
 10
86.6939048225
 20
9.9364640411
 11
123.6939048225
 21
9.9364640411
  0
LINE
  5
2C3
100
AcDbEntity
  8
KONSTRUKTIONSELEMENTE
100
AcDbLine
 62
7
  6
CONTINUOUS
 10
89.6539048225
 20
21.9364640411
 11
89.6539048225
 21
20.6364640411
  0
LINE
  5
2C4
100
AcDbEntity
  8
KONSTRUKTIONSELEMENTE
100
AcDbLine
 62
7
  6
CONTINUOUS
 10
90.6539048225
 20
21.9364640411
 11
90.6539048225
 21
20.6364640411
  0
LINE
  5
2C5
100
AcDbEntity
  8
KONSTRUKTIONSELEMENTE
100
AcDbLine
 62
7
  6
CONTINUOUS
 10
91.0539048225
 20
21.8364640411
 11
91.0539048225
 21
20.6364640411
  0
LINE
  5
2C6
100
AcDbEntity
  8
KONSTRUKTIONSELEMENTE
100
AcDbLine
 62
7
  6
CONTINUOUS
 10
92.1539048225
 20
21.9364640411
 11
92.1539048225
 21
21.8364640411
  0
LINE
  5
2C7
100
AcDbEntity
  8
KONSTRUKTIONSELEMENTE
100
AcDbLine
 62
7
  6
CONTINUOUS
 10
93.1339048225
 20
21.9364640411
 11
93.1339048225
 21
21.8364640411
  0
LINE
  5
2C8
100
AcDbEntity
  8
KONSTRUKTIONSELEMENTE
100
AcDbLine
 62
7
  6
CONTINUOUS
 10
99.1100749237
 20
38.4756311449
 11
98.6419898731
 21
38.1318811449
  0
LINE
  5
2C9
100
AcDbEntity
  8
KONSTRUKTIONSELEMENTE
100
AcDbLine
 62
7
  6
CONTINUOUS
 10
95.5339048225
 20
21.8364640411
 11
95.5339048225
 21
20.6364640411
  0
LINE
  5
2CA
100
AcDbEntity
  8
KONSTRUKTIONSELEMENTE
100
AcDbLine
 62
7
  6
CONTINUOUS
 10
98.2909260852
 20
37.6735469373
 11
98.1739048225
 21
37.1006311449
  0
LINE
  5
2CB
100
AcDbEntity
  8
KONSTRUKTIONSELEMENTE
100
AcDbLine
 62
7
  6
CONTINUOUS
 10
98.993053661
 20
37.5589640411
 11
98.8760323984
 21
37.2152140411
  0
LINE
  5
2CC
100
AcDbEntity
  8
KONSTRUKTIONSELEMENTE
100
AcDbLine
 62
7
  6
CONTINUOUS
 10
98.6419898731
 20
38.1318811449
 11
98.2909260852
 21
37.6735469373
  0
LINE
  5
2CD
100
AcDbEntity
  8
KONSTRUKTIONSELEMENTE
100
AcDbLine
 62
7
  6
CONTINUOUS
 10
99.2270961863
 20
37.7881311449
 11
98.993053661
 21
37.5589640411
  0
LINE
  5
2CE
100
AcDbEntity
  8
KONSTRUKTIONSELEMENTE
100
AcDbLine
 62
7
  6
CONTINUOUS
 10
101.3334792418
 20
38.7047969373
 11
100.8653941912
 21
38.2464640411
  0
LINE
  5
2CF
100
AcDbEntity
  8
KONSTRUKTIONSELEMENTE
100
AcDbLine
 62
7
  6
CONTINUOUS
 10
101.9185857189
 20
38.2464640411
 11
101.5675217671
 21
38.0172969373
  0
LINE
  5
2D0
100
AcDbEntity
  8
KONSTRUKTIONSELEMENTE
100
AcDbLine
 62
7
  6
CONTINUOUS
 10
99.4611387116
 20
37.9027140411
 11
99.2270961863
 21
37.7881311449
  0
LINE
  5
2D1
100
AcDbEntity
  8
KONSTRUKTIONSELEMENTE
100
AcDbLine
 62
7
  6
CONTINUOUS
 10
101.8015644563
 20
38.9339640411
 11
101.3334792418
 21
38.7047969373
  0
LINE
  5
2D2
100
AcDbEntity
  8
KONSTRUKTIONSELEMENTE
100
AcDbLine
 62
7
  6
CONTINUOUS
 10
99.4611387116
 20
38.5902140411
 11
99.1100749237
 21
38.4756311449
  0
LINE
  5
2D3
100
AcDbEntity
  8
KONSTRUKTIONSELEMENTE
100
AcDbLine
 62
7
  6
CONTINUOUS
 10
89.6539048225
 20
20.6364640411
 11
90.6539048225
 21
20.6364640411
  0
LINE
  5
2D4
100
AcDbEntity
  8
KONSTRUKTIONSELEMENTE
100
AcDbLine
 62
7
  6
CONTINUOUS
 10
91.0539048225
 20
20.6364640411
 11
95.5339048225
 21
20.6364640411
  0
LINE
  5
2D5
100
AcDbEntity
  8
KONSTRUKTIONSELEMENTE
100
AcDbLine
 62
7
  6
CONTINUOUS
 10
98.1739048225
 20
37.1006311449
 11
98.1739048225
 21
36.5277140411
  0
LINE
  5
2D6
100
AcDbEntity
  8
KONSTRUKTIONSELEMENTE
100
AcDbLine
 62
7
  6
CONTINUOUS
 10
98.1739048225
 20
19.6839640411
 11
98.1739048225
 21
18.9964640411
  0
LINE
  5
2D7
100
AcDbEntity
  8
KONSTRUKTIONSELEMENTE
100
AcDbLine
 62
7
  6
CONTINUOUS
 10
98.8760323984
 20
37.2152140411
 11
98.8760323984
 21
36.5277140411
  0
LINE
  5
2D8
100
AcDbEntity
  8
KONSTRUKTIONSELEMENTE
100
AcDbLine
 62
7
  6
CONTINUOUS
 10
99.4611387116
 20
38.5902140411
 11
99.4611387116
 21
37.9027140411
  0
LINE
  5
2D9
100
AcDbEntity
  8
KONSTRUKTIONSELEMENTE
100
AcDbLine
 62
7
  6
CONTINUOUS
 10
100.6313516659
 20
37.7881311449
 11
100.5143304033
 21
37.2152140411
  0
LINE
  5
2DA
100
AcDbEntity
  8
KONSTRUKTIONSELEMENTE
100
AcDbLine
 62
7
  6
CONTINUOUS
 10
101.3334792418
 20
37.6735469373
 11
101.2164579791
 21
37.2152140411
  0
LINE
  5
2DB
100
AcDbEntity
  8
KONSTRUKTIONSELEMENTE
100
AcDbLine
 62
7
  6
CONTINUOUS
 10
101.2164579791
 20
36.5277140411
 11
101.0994367165
 21
36.0693811449
  0
LINE
  5
2DC
100
AcDbEntity
  8
KONSTRUKTIONSELEMENTE
100
AcDbLine
 62
7
  6
CONTINUOUS
 10
100.5143304033
 20
36.5277140411
 11
100.3973091406
 21
36.1839640411
  0
LINE
  5
2DD
100
AcDbEntity
  8
KONSTRUKTIONSELEMENTE
100
AcDbLine
 62
7
  6
CONTINUOUS
 10
100.8653941912
 20
38.2464640411
 11
100.6313516659
 21
37.7881311449
  0
LINE
  5
2DE
100
AcDbEntity
  8
KONSTRUKTIONSELEMENTE
100
AcDbLine
 62
7
  6
CONTINUOUS
 10
101.0994367165
 20
36.0693811449
 11
101.0315642904
 21
35.9364640411
  0
LINE
  5
2DF
100
AcDbEntity
  8
KONSTRUKTIONSELEMENTE
100
AcDbLine
 62
7
  6
CONTINUOUS
 10
101.5675217671
 20
38.0172969373
 11
101.3334792418
 21
37.6735469373
  0
LINE
  5
2E0
100
AcDbEntity
  8
KONSTRUKTIONSELEMENTE
100
AcDbLine
 62
7
  6
CONTINUOUS
 10
100.3973091406
 20
36.1839640411
 11
100.2287985224
 21
35.9364640411
  0
LINE
  5
2E1
100
AcDbEntity
  8
0
100
AcDbLine
 62
7
  6
CONTINUOUS
 10
140.1028520725
 20
21.4364640411
 11
134.7739048225
 21
21.4364640411
  0
LINE
  5
2E2
100
AcDbEntity
  8
KONSTRUKTIONSELEMENTE
100
AcDbLine
 62
7
  6
CONTINUOUS
 10
113.0142162125
 20
21.6564640411
 11
113.5993226077
 21
21.6564640411
  0
LINE
  5
2E3
100
AcDbEntity
  8
KONSTRUKTIONSELEMENTE
100
AcDbLine
 62
7
  6
CONTINUOUS
 10
91.0539048225
 20
21.8364640411
 11
92.1539048225
 21
21.8364640411
  0
LINE
  5
2E4
100
AcDbEntity
  8
KONSTRUKTIONSELEMENTE
100
AcDbLine
 62
7
  6
CONTINUOUS
 10
93.1339048225
 20
21.8364640411
 11
95.5339048225
 21
21.8364640411
  0
LINE
  5
2E5
100
AcDbEntity
  8
RUNDUNGEN
100
AcDbLine
 62
7
  6
CONTINUOUS
 10
104.0055721193
 20
21.9364640411
 11
70.6939053225
 21
21.9364640411
  0
LINE
  5
2E6
100
AcDbEntity
  8
BEZUGSACHSEN
100
AcDbLine
 62
7
  6
CONTINUOUS
 10
104.0055721193
 20
21.9364640411
 11
139.6939043225
 21
21.9364640411
  0
LINE
  5
2E7
100
AcDbEntity
  8
KONSTRUKTIONSELEMENTE
100
AcDbLine
 62
7
  6
CONTINUOUS
 10
108.9184714462
 20
21.8856307146
 11
109.3865564968
 21
21.7710473778
  0
LINE
  5
2E8
100
AcDbEntity
  8
KONSTRUKTIONSELEMENTE
100
AcDbLine
 62
7
  6
CONTINUOUS
 10
103.1039047885
 20
21.9364640411
 11
103.6739048225
 21
21.7464640411
  0
LINE
  5
2E9
100
AcDbEntity
  8
KONSTRUKTIONSELEMENTE
100
AcDbLine
 62
7
  6
CONTINUOUS
 10
101.0326887886
 20
21.9364640411
 11
102.9717771647
 21
21.2881306531
  0
LINE
  5
2EA
100
AcDbEntity
  8
KONSTRUKTIONSELEMENTE
100
AcDbLine
 62
7
  6
CONTINUOUS
 10
100.5143304033
 20
37.2152140411
 11
100.5143304033
 21
36.5277140411
  0
LINE
  5
2EB
100
AcDbEntity
  8
KONSTRUKTIONSELEMENTE
100
AcDbLine
 62
7
  6
CONTINUOUS
 10
101.2164579791
 20
37.2152140411
 11
101.2164579791
 21
36.5277140411
  0
LINE
  5
2EC
100
AcDbEntity
  8
KONSTRUKTIONSELEMENTE
100
AcDbLine
 62
7
  6
CONTINUOUS
 10
103.6739048225
 20
36.2985469373
 11
103.5999473545
 21
35.9364640411
  0
LINE
  5
2ED
100
AcDbEntity
  8
KONSTRUKTIONSELEMENTE
100
AcDbLine
 62
7
  6
CONTINUOUS
 10
102.9717771647
 20
36.2985469373
 11
102.8793303906
 21
35.9364640411
  0
LINE
  5
2EE
100
AcDbEntity
  8
KONSTRUKTIONSELEMENTE
100
AcDbLine
 62
7
  6
CONTINUOUS
 10
98.2909260852
 20
36.0693811449
 11
98.3587985112
 21
35.9364640411
  0
LINE
  5
2EF
100
AcDbEntity
  8
KONSTRUKTIONSELEMENTE
100
AcDbLine
 62
7
  6
CONTINUOUS
 10
98.8760323984
 20
36.5277140411
 11
98.993053661
 21
36.1839640411
  0
LINE
  5
2F0
100
AcDbEntity
  8
KONSTRUKTIONSELEMENTE
100
AcDbLine
 62
7
  6
CONTINUOUS
 10
98.1739048225
 20
36.5277140411
 11
98.2909260852
 21
36.0693811449
  0
LINE
  5
2F1
100
AcDbEntity
  8
KONSTRUKTIONSELEMENTE
100
AcDbLine
 62
7
  6
CONTINUOUS
 10
102.9717771647
 20
37.2152140411
 11
102.9717771647
 21
36.2985469373
  0
LINE
  5
2F2
100
AcDbEntity
  8
KONSTRUKTIONSELEMENTE
100
AcDbLine
 62
7
  6
CONTINUOUS
 10
103.6739048225
 20
37.2152140411
 11
103.6739048225
 21
36.2985469373
  0
LINE
  5
2F3
100
AcDbEntity
  8
KONSTRUKTIONSELEMENTE
100
AcDbLine
 62
7
  6
CONTINUOUS
 10
103.6739048225
 20
21.7464640411
 11
103.6739048225
 21
20.8297974291
  0
LINE
  5
2F4
100
AcDbEntity
  8
KONSTRUKTIONSELEMENTE
100
AcDbLine
 62
7
  6
CONTINUOUS
 10
108.866556565
 20
21.9364640411
 11
108.9184714462
 21
21.8856307146
  0
LINE
  5
2F5
100
AcDbEntity
  8
KONSTRUKTIONSELEMENTE
100
AcDbLine
 62
7
  6
CONTINUOUS
 10
98.993053661
 20
36.1839640411
 11
99.1615642792
 21
35.9364640411
  0
LINE
  5
2F6
100
AcDbEntity
  8
KONSTRUKTIONSELEMENTE
100
AcDbLine
 62
7
  6
CONTINUOUS
 10
102.854755902
 20
37.6735469373
 11
102.9717771647
 21
37.2152140411
  0
LINE
  5
2F7
100
AcDbEntity
  8
KONSTRUKTIONSELEMENTE
100
AcDbLine
 62
7
  6
CONTINUOUS
 10
103.5568835496
 20
37.7881311449
 11
103.6739048225
 21
37.2152140411
  0
LINE
  5
2F8
100
AcDbEntity
  8
KONSTRUKTIONSELEMENTE
100
AcDbLine
 62
7
  6
CONTINUOUS
 10
112.7588970639
 20
21.9364640411
 11
113.0142162125
 21
21.6564640411
  0
LINE
  5
2F9
100
AcDbEntity
  8
KONSTRUKTIONSELEMENTE
100
AcDbLine
 62
7
  6
CONTINUOUS
 10
102.6207132948
 20
38.0172969373
 11
102.854755902
 21
37.6735469373
  0
LINE
  5
2FA
100
AcDbEntity
  8
KONSTRUKTIONSELEMENTE
100
AcDbLine
 62
7
  6
CONTINUOUS
 10
103.3228409936
 20
38.2464640411
 11
103.5568835496
 21
37.7881311449
  0
LINE
  5
2FB
100
AcDbEntity
  8
KONSTRUKTIONSELEMENTE
100
AcDbLine
 62
7
  6
CONTINUOUS
 10
109.3865564968
 20
21.9364640411
 11
109.3865564968
 21
21.7710473778
  0
LINE
  5
2FC
100
AcDbEntity
  8
KONSTRUKTIONSELEMENTE
100
AcDbLine
 62
7
  6
CONTINUOUS
 10
109.8546418752
 20
36.6668811449
 11
109.8546418752
 21
35.9364640411
  0
LINE
  5
2FD
100
AcDbEntity
  8
KONSTRUKTIONSELEMENTE
100
AcDbLine
 62
7
  6
CONTINUOUS
 10
110.3227269258
 20
36.6668811449
 11
110.3227269258
 21
35.9364640411
  0
LINE
  5
2FE
100
AcDbEntity
  8
KONSTRUKTIONSELEMENTE
100
AcDbLine
 62
7
  6
CONTINUOUS
 10
102.854755902
 20
38.7047969373
 11
103.3228409936
 21
38.2464640411
  0
LINE
  5
2FF
100
AcDbEntity
  8
KONSTRUKTIONSELEMENTE
100
AcDbLine
 62
7
  6
CONTINUOUS
 10
113.5993226077
 20
21.9364640411
 11
113.5993226077
 21
21.6564640411
  0
LINE
  5
300
100
AcDbEntity
  8
KONSTRUKTIONSELEMENTE
100
AcDbLine
 62
7
  6
CONTINUOUS
 10
113.5993226077
 20
36.4377140411
 11
113.5140034615
 21
35.9364640411
  0
LINE
  5
301
100
AcDbEntity
  8
KONSTRUKTIONSELEMENTE
100
AcDbLine
 62
7
  6
CONTINUOUS
 10
113.1312375161
 20
36.4377140411
 11
113.0288545919
 21
35.9364640411
  0
LINE
  5
302
100
AcDbEntity
  8
KONSTRUKTIONSELEMENTE
100
AcDbLine
 62
7
  6
CONTINUOUS
 10
102.9717771647
 20
21.2881306531
 11
98.1739048225
 21
19.6839640411
  0
LINE
  5
303
100
AcDbEntity
  8
KONSTRUKTIONSELEMENTE
100
AcDbLine
 62
7
  6
CONTINUOUS
 10
103.6739048225
 20
20.8297974291
 11
98.1739048225
 21
18.9964640411
  0
LINE
  5
304
100
AcDbEntity
  8
BEZUGSACHSEN
100
AcDbLine
 62
7
  6
CONTINUOUS
 10
70.6939053225
 20
35.9364640411
 11
139.6939043225
 21
35.9364640411
  0
LINE
  5
305
100
AcDbEntity
  8
KONSTRUKTIONSELEMENTE
100
AcDbLine
 62
7
  6
CONTINUOUS
 10
91.8539048225
 20
36.0364640411
 11
93.3339048225
 21
36.0364640411
  0
LINE
  5
306
100
AcDbEntity
  8
KONSTRUKTIONSELEMENTE
100
AcDbLine
 62
7
  6
CONTINUOUS
 10
113.1312375161
 20
36.4377140411
 11
113.5993226077
 21
36.4377140411
  0
LINE
  5
307
100
AcDbEntity
  8
KONSTRUKTIONSELEMENTE
100
AcDbLine
 62
7
  6
CONTINUOUS
 10
109.8546418752
 20
36.6668811449
 11
110.3227269258
 21
36.6668811449
  0
LINE
  5
308
100
AcDbEntity
  8
KONSTRUKTIONSELEMENTE
100
AcDbLine
 62
7
  6
CONTINUOUS
 10
102.3866707695
 20
38.9339640411
 11
102.854755902
 21
38.7047969373
  0
LINE
  5
309
100
AcDbEntity
  8
KONSTRUKTIONSELEMENTE
100
AcDbLine
 62
7
  6
CONTINUOUS
 10
102.2696495069
 20
38.2464640411
 11
102.6207132948
 21
38.0172969373
  0
LINE
  5
30A
100
AcDbEntity
  8
KONSTRUKTIONSELEMENTE
100
AcDbLine
 62
7
  6
CONTINUOUS
 10
101.9185857189
 20
38.2464640411
 11
102.2696495069
 21
38.2464640411
  0
LINE
  5
30B
100
AcDbEntity
  8
KONSTRUKTIONSELEMENTE
100
AcDbLine
 62
7
  6
CONTINUOUS
 10
101.8015644563
 20
38.9339640411
 11
102.3866707695
 21
38.9339640411
  0
LINE
  5
30C
100
AcDbEntity
  8
KONSTRUKTIONSELEMENTE
100
AcDbLine
 62
7
  6
CONTINUOUS
 10
125.1939048225
 20
46.7791163376
 11
125.1939048225
 21
45.6092236494
  0
LINE
  5
30D
100
AcDbEntity
  8
0
100
AcDbLine
 62
7
  6
CONTINUOUS
 10
125.1939048225
 20
45.6092236494
 11
125.1939048225
 21
35.9364640411
  0
LINE
  5
30E
100
AcDbEntity
  8
0
100
AcDbLine
 62
7
  6
CONTINUOUS
 10
125.1939048225
 20
21.9364640411
 11
125.1939048225
 21
11.0938117446
  0
LINE
  5
30F
100
AcDbEntity
  8
KONSTRUKTIONSELEMENTE
100
AcDbLine
 62
7
  6
CONTINUOUS
 10
86.6939048225
 20
47.9364640411
 11
123.6939048225
 21
47.9364640411
  0
LINE
  5
310
100
AcDbEntity
  8
0
100
AcDbLine
 62
7
  6
CONTINUOUS
 10
134.7739048225
 20
21.9364640411
 11
134.7739048225
 21
21.4364640411
  0
LINE
  5
311
100
AcDbEntity
  8
0
100
AcDbLine
 62
7
  6
CONTINUOUS
 10
138.6817994725
 20
21.9364640411
 11
138.6817994725
 21
21.4364640411
  0
LINE
  5
312
100
AcDbEntity
  8
0
100
AcDbLine
 62
7
  6
CONTINUOUS
 10
139.2146941975
 20
21.9364640411
 11
139.2146941975
 21
21.4364640411
  0
LINE
  5
313
100
AcDbEntity
  8
0
100
AcDbLine
 62
7
  6
CONTINUOUS
 10
140.1028520725
 20
21.9574237375
 11
140.1028520725
 21
21.4364640411
  0
LINE
  5
314
100
AcDbEntity
  8
BEZUGSACHSEN
100
AcDbLine
 62
7
  6
CONTINUOUS
 10
143.6939043225
 20
25.9364640411
 11
143.6939043225
 21
31.9364640411
  0
ARC
  5
315
100
AcDbEntity
  8
RUNDUNGEN
100
AcDbCircle
 62
7
  6
CONTINUOUS
 10
88.6939053225
 20
128.3671298004
 40
6.0
100
AcDbArc
 50
180.0
 51
234.3141047657
  0
ARC
  5
316
100
AcDbEntity
  8
BEZUGSACHSEN
100
AcDbCircle
 62
7
  6
CONTINUOUS
 10
70.6939053225
 20
110.3671298004
 40
4.0
100
AcDbArc
 50
180.0
 51
270.0
  0
ARC
  5
317
100
AcDbEntity
  8
RUNDUNGEN
100
AcDbCircle
 62
7
  6
CONTINUOUS
 10
85.1939053225
 20
132.6171298004
 40
2.5
100
AcDbArc
 50
90.0
 51
180.0
  0
ARC
  5
318
100
AcDbEntity
  8
BEZUGSACHSEN
100
AcDbCircle
 62
7
  6
CONTINUOUS
 10
90.8939048225
 20
137.4171298004
 40
2.3
100
AcDbArc
 50
270.0
 51
60.2018032089
  0
ARC
  5
319
100
AcDbEntity
  8
RUNDUNGEN
100
AcDbCircle
 62
7
  6
CONTINUOUS
 10
90.8939048225
 20
137.4171298004
 40
2.3
100
AcDbArc
 50
270.0
 51
60.2018032089
  0
ARC
  5
31A
100
AcDbEntity
  8
0
100
AcDbCircle
 62
7
  6
CONTINUOUS
 10
86.6939048225
 20
131.5718785371
 40
1.5
100
AcDbArc
 50
90.0
 51
180.0
  0
ARC
  5
31B
100
AcDbEntity
  8
KONSTRUKTIONSELEMENTE
100
AcDbCircle
 62
7
  6
CONTINUOUS
 10
93.1828291747
 20
152.0158019395
 40
18.5953080866
100
AcDbArc
 50
273.0081950437
 51
273.9171601039
  0
ARC
  5
31C
100
AcDbEntity
  8
KONSTRUKTIONSELEMENTE
100
AcDbCircle
 62
7
  6
CONTINUOUS
 10
93.1843623771
 20
151.9570252955
 40
18.5365320389
100
AcDbArc
 50
269.9985857145
 51
273.0129966652
  0
ARC
  5
31D
100
AcDbEntity
  8
RUNDUNGEN
100
AcDbCircle
 62
7
  6
CONTINUOUS
 10
100.9819218282
 20
155.0330860019
 40
18.0
100
AcDbArc
 50
200.6102911233
 51
240.2018032089
  0
ARC
  5
31E
100
AcDbEntity
  8
KONSTRUKTIONSELEMENTE
100
AcDbCircle
 62
7
  6
CONTINUOUS
 10
93.2522973834
 20
151.1740744691
 40
17.7508052734
100
AcDbArc
 50
273.8790590982
 51
276.6929795187
  0
ARC
  5
31F
100
AcDbEntity
  8
BEZUGSACHSEN
100
AcDbCircle
 62
7
  6
CONTINUOUS
 10
73.7991683225
 20
156.6171298004
 40
7.105263
100
AcDbArc
 50
157.5
 51
180.0
  0
ARC
  5
320
100
AcDbEntity
  8
RUNDUNGEN
100
AcDbCircle
 62
7
  6
CONTINUOUS
 10
73.7991683225
 20
156.6171298004
 40
7.105263
100
AcDbArc
 50
157.5
 51
180.0
  0
ARC
  5
321
100
AcDbEntity
  8
RUNDUNGEN
100
AcDbCircle
 62
7
  6
CONTINUOUS
 10
82.9944737498
 20
178.8165608731
 40
7.105263
100
AcDbArc
 50
112.5
 51
157.5
  0
ARC
  5
322
100
AcDbEntity
  8
KONSTRUKTIONSELEMENTE
100
AcDbCircle
 62
7
  6
CONTINUOUS
 10
119.0549817957
 20
143.1710093989
 40
9.9049963562
100
AcDbArc
 50
261.5799659089
 51
262.723170588
  0
ARC
  5
323
100
AcDbEntity
  8
KONSTRUKTIONSELEMENTE
100
AcDbCircle
 62
7
  6
CONTINUOUS
 10
119.7711735626
 20
142.8276479773
 40
9.5583776283
100
AcDbArc
 50
277.257617484
 51
278.6459203022
  0
ARC
  5
324
100
AcDbEntity
  8
KONSTRUKTIONSELEMENTE
100
AcDbCircle
 62
7
  6
CONTINUOUS
 10
118.3326717314
 20
124.152410806
 40
9.3889037745
100
AcDbArc
 50
93.3403379613
 51
93.9163144812
  0
ARC
  5
325
100
AcDbEntity
  8
KONSTRUKTIONSELEMENTE
100
AcDbCircle
 62
7
  6
CONTINUOUS
 10
120.4651400806
 20
124.4546770302
 40
9.0860344424
100
AcDbArc
 50
86.074078148
 51
86.6693656308
  0
ARC
  5
326
100
AcDbEntity
  8
BEZUGSACHSEN
100
AcDbCircle
 62
7
  6
CONTINUOUS
 10
121.6939043225
 20
128.3671298004
 40
6.0
100
AcDbArc
 50
305.6858952343
 51
360.0
  0
ARC
  5
327
100
AcDbEntity
  8
BEZUGSACHSEN
100
AcDbCircle
 62
7
  6
CONTINUOUS
 10
139.6939043225
 20
110.3671298004
 40
4.0
100
AcDbArc
 50
270.0
 51
360.0
  0
ARC
  5
328
100
AcDbEntity
  8
BEZUGSACHSEN
100
AcDbCircle
 62
7
  6
CONTINUOUS
 10
125.1939043225
 20
132.6171298004
 40
2.5
100
AcDbArc
 50
1.4090868945
 51
90.0
  0
ARC
  5
329
100
AcDbEntity
  8
BEZUGSACHSEN
100
AcDbCircle
 62
7
  6
CONTINUOUS
 10
119.4939048225
 20
137.4171298004
 40
2.3
100
AcDbArc
 50
119.7981967911
 51
270.0
  0
ARC
  5
32A
100
AcDbEntity
  8
0
100
AcDbCircle
 62
7
  6
CONTINUOUS
 10
136.9054837225
 20
130.7466036504
 40
2.1315789
100
AcDbArc
 50
90.0
 51
270.0
  0
ARC
  5
32B
100
AcDbEntity
  8
0
100
AcDbCircle
 62
7
  6
CONTINUOUS
 10
136.7278521475
 20
125.1452879854
 40
1.953947325
100
AcDbArc
 50
180.0
 51
270.0
  0
ARC
  5
32C
100
AcDbEntity
  8
0
100
AcDbCircle
 62
7
  6
CONTINUOUS
 10
138.1489047475
 20
125.1452879854
 40
1.953947325
100
AcDbArc
 50
270.0
 51
360.0
  0
ARC
  5
32D
100
AcDbEntity
  8
0
100
AcDbCircle
 62
7
  6
CONTINUOUS
 10
138.5515363175
 20
135.4952877554
 40
1.551315755
100
AcDbArc
 50
201.1872687082
 51
360.0
  0
ARC
  5
32E
100
AcDbEntity
  8
0
100
AcDbCircle
 62
7
  6
CONTINUOUS
 10
123.6939048225
 20
131.5718785371
 40
1.5
100
AcDbArc
 50
0.0
 51
90.0
  0
ARC
  5
32F
100
AcDbEntity
  8
0
100
AcDbCircle
 62
7
  6
CONTINUOUS
 10
138.1015363275
 20
125.3744741429
 40
1.11315787
100
AcDbArc
 50
270.3792655671
 51
360.0
  0
ARC
  5
330
100
AcDbEntity
  8
0
100
AcDbCircle
 62
7
  6
CONTINUOUS
 10
136.7752205675
 20
125.3744985304
 40
1.11315787
100
AcDbArc
 50
180.0
 51
270.0
  0
ARC
  5
331
100
AcDbEntity
  8
0
100
AcDbCircle
 62
7
  6
CONTINUOUS
 10
136.9054837225
 20
130.7466036504
 40
1.06578945
100
AcDbArc
 50
90.0
 51
270.0
  0
ARC
  5
332
100
AcDbEntity
  8
0
100
AcDbCircle
 62
7
  6
CONTINUOUS
 10
136.1120626875
 20
136.4124074068
 40
0.888157875
100
AcDbArc
 50
300.0
 51
360.0
  0
ARC
  5
333
100
AcDbEntity
  8
0
100
AcDbCircle
 62
7
  6
CONTINUOUS
 10
138.5515363175
 20
135.8505509054
 40
0.66315788
100
AcDbArc
 50
180.0
 51
360.0
  0
ARC
  5
334
100
AcDbEntity
  8
RUNDUNGEN
100
AcDbCircle
 62
7
  6
CONTINUOUS
 10
105.1939048225
 20
156.6171298004
 40
22.4999995
100
AcDbArc
 50
180.0
 51
200.6102911233
  0
ARC
  5
335
100
AcDbEntity
  8
BEZUGSACHSEN
100
AcDbCircle
 62
7
  6
CONTINUOUS
 10
105.1939048225
 20
156.6171298004
 40
22.4999995
100
AcDbArc
 50
339.3897088767
 51
180.0
  0
ARC
  5
336
100
AcDbEntity
  8
BEZUGSACHSEN
100
AcDbCircle
 62
7
  6
CONTINUOUS
 10
109.4058878168
 20
155.0330860019
 40
18.0
100
AcDbArc
 50
299.7981967911
 51
339.3897088767
  0
ARC
  5
337
100
AcDbEntity
  8
BEZUGSACHSEN
100
AcDbCircle
 62
7
  6
CONTINUOUS
 10
136.5886413225
 20
156.6171298004
 40
7.105263
100
AcDbArc
 50
0.0
 51
22.5
  0
ARC
  5
338
100
AcDbEntity
  8
BEZUGSACHSEN
100
AcDbCircle
 62
7
  6
CONTINUOUS
 10
127.3933358952
 20
178.8165608731
 40
7.105263
100
AcDbArc
 50
22.5
 51
67.5
  0
ARC
  5
339
100
AcDbEntity
  8
BEZUGSACHSEN
100
AcDbCircle
 62
7
  6
CONTINUOUS
 10
105.1939048225
 20
188.0118663004
 40
7.105263
100
AcDbArc
 50
67.5
 51
112.5
  0
ARC
  5
33A
100
AcDbEntity
  8
KONSTRUKTIONSELEMENTE
100
AcDbCircle
 62
7
  6
CONTINUOUS
 10
230.6388521748
 20
114.4718785371
 40
19.1
100
AcDbArc
 50
111.5009801629
 51
121.5625658691
  0
ARC
  5
33B
100
AcDbEntity
  8
KONSTRUKTIONSELEMENTE
100
AcDbCircle
 62
7
  6
CONTINUOUS
 10
230.6388521748
 20
114.4718785371
 40
19.1
100
AcDbArc
 50
58.6396488017
 51
68.4974623866
  0
ARC
  5
33C
100
AcDbEntity
  8
0
100
AcDbCircle
 62
7
  6
CONTINUOUS
 10
230.6388521748
 20
114.4718785371
 40
18.6
100
AcDbArc
 50
12.8346529172
 51
67.8722473923
  0
ARC
  5
33D
100
AcDbEntity
  8
0
100
AcDbCircle
 62
7
  6
CONTINUOUS
 10
230.6388521748
 20
114.4718785371
 40
18.6
100
AcDbArc
 50
112.1277526077
 51
167.1653470828
  0
ARC
  5
33E
100
AcDbEntity
  8
0
100
AcDbCircle
 62
7
  6
CONTINUOUS
 10
230.6388521748
 20
114.8571298004
 40
9.5
100
AcDbArc
 50
186.3546127132
 51
353.6453872868
  0
ARC
  5
33F
100
AcDbEntity
  8
RUNDUNGEN
100
AcDbCircle
 62
7
  6
CONTINUOUS
 10
230.6388521748
 20
114.4718785371
 40
9.0
100
AcDbArc
 50
141.1267580783
 51
166.0
  0
ARC
  5
340
100
AcDbEntity
  8
RUNDUNGEN
100
AcDbCircle
 62
7
  6
CONTINUOUS
 10
230.6388521748
 20
114.4718785371
 40
9.0
100
AcDbArc
 50
14.0
 51
38.8732418909
  0
ARC
  5
341
100
AcDbEntity
  8
0
100
AcDbCircle
 62
7
  6
CONTINUOUS
 10
230.6388521748
 20
114.8071298004
 40
8.95
100
AcDbArc
 50
170.7782011528
 51
9.2217988472
  0
ARC
  5
342
100
AcDbEntity
  8
BEZUGSACHSEN
100
AcDbCircle
 62
7
  6
CONTINUOUS
 10
230.6388521748
 20
113.3671298004
 40
7.0
100
AcDbArc
 50
180.0
 51
360.0
  0
ARC
  5
343
100
AcDbEntity
  8
BEZUGSACHSEN
100
AcDbCircle
 62
7
  6
CONTINUOUS
 10
227.6388521748
 20
191.1171293004
 40
4.0
100
AcDbArc
 50
90.0
 51
180.0
  0
ARC
  5
344
100
AcDbEntity
  8
BEZUGSACHSEN
100
AcDbCircle
 62
7
  6
CONTINUOUS
 10
233.6388521748
 20
191.1171293004
 40
4.0
100
AcDbArc
 50
0.0
 51
90.0
  0
ARC
  5
345
100
AcDbEntity
  8
RUNDUNGEN
100
AcDbCircle
 62
7
  6
CONTINUOUS
 10
70.6939053225
 20
25.9364640411
 40
4.0
100
AcDbArc
 50
180.0
 51
270.0
  0
ARC
  5
346
100
AcDbEntity
  8
BEZUGSACHSEN
100
AcDbCircle
 62
7
  6
CONTINUOUS
 10
139.6939043225
 20
25.9364640411
 40
4.0
100
AcDbArc
 50
270.0
 51
360.0
  0
ARC
  5
347
100
AcDbEntity
  8
BEZUGSACHSEN
100
AcDbCircle
 62
7
  6
CONTINUOUS
 10
70.6939053225
 20
31.9364640411
 40
4.0
100
AcDbArc
 50
90.0
 51
180.0
  0
ARC
  5
348
100
AcDbEntity
  8
BEZUGSACHSEN
100
AcDbCircle
 62
7
  6
CONTINUOUS
 10
139.6939043225
 20
31.9364640411
 40
4.0
100
AcDbArc
 50
0.0
 51
90.0
  0
ARC
  5
349
100
AcDbEntity
  8
KONSTRUKTIONSELEMENTE
100
AcDbCircle
 62
7
  6
CONTINUOUS
 10
93.3339048225
 20
34.8364640411
 40
1.2
100
AcDbArc
 50
66.646642971
 51
90.0
  0
ARC
  5
34A
100
AcDbEntity
  8
KONSTRUKTIONSELEMENTE
100
AcDbCircle
 62
7
  6
CONTINUOUS
 10
91.8539048225
 20
34.8364640411
 40
1.2
100
AcDbArc
 50
90.0
 51
113.3494464225
  0
SPLINE
  5
34B
100
AcDbEntity
  8
KONSTRUKTIONSELEMENTE
100
AcDbSpline
 62
7
  6
CONTINUOUS
 70
0
 71
3
 72
11
 73
7
 74
0
 42
0.0000001
 43
0.0000001
 44
0.0000000001
 40
0.0
 40
0.0
 40
0.0
 40
0.0
 40
0.2340510154
 40
0.5000007984
 40
0.7659501601
 40
1.0
 40
1.0
 40
1.0
 40
1.0
 10
120.9930187173
 20
133.5253642167
 30
0.0
 10
120.7431423205
 20
133.539968353
 30
0.0
 10
120.2084165761
 20
133.5538819387
 30
0.0
 10
119.3893120559
 20
133.5588848666
 30
0.0
 10
118.5702087978
 20
133.5538816691
 30
0.0
 10
118.0354847619
 20
133.5399677085
 30
0.0
 10
117.7856096444
 20
133.525363231
 30
0.0
  0
SPLINE
  5
34C
100
AcDbEntity
  8
KONSTRUKTIONSELEMENTE
100
AcDbSpline
 62
7
  6
CONTINUOUS
 70
0
 71
3
 72
29
 73
25
 74
0
 42
0.0000001
 43
0.0000001
 44
0.0000000001
 40
0.0
 40
0.0
 40
0.0
 40
0.0
 40
0.0036499198
 40
0.0114498976
 40
0.0237824029
 40
0.0405806999
 40
0.061712479
 40
0.0870030212
 40
0.1490113494
 40
0.2243237833
 40
0.3101223635
 40
0.4032016858
 40
0.4999979016
 40
0.5967942318
 40
0.6898738532
 40
0.7756727934
 40
0.850985683
 40
0.9129947386
 40
0.9382857007
 40
0.9594178797
 40
0.9762165423
 40
0.9885494083
 40
0.9963497649
 40
1.0
 40
1.0
 40
1.0
 40
1.0
 10
117.6394202349
 20
133.5456630283
 30
0.0
 10
117.6394344597
 20
133.5413630237
 30
0.0
 10
117.6528892119
 20
133.5319869039
 30
0.0
 10
117.6772704555
 20
133.5227857468
 30
0.0
 10
117.7200557522
 20
133.5102732171
 30
0.0
 10
117.777422673
 20
133.4973687946
 30
0.0
 10
117.8507311006
 20
133.4832708036
 30
0.0
 10
117.9767128615
 20
133.4625044858
 30
0.0
 10
118.1667229414
 20
133.4373542222
 30
0.0
 10
118.4282848041
 20
133.4110867648
 30
0.0
 10
118.7270463076
 20
133.3898672438
 30
0.0
 10
119.0515696514
 20
133.3760351843
 30
0.0
 10
119.3893149435
 20
133.3712867118
 30
0.0
 10
119.7270605947
 20
133.3760347515
 30
0.0
 10
120.0515848647
 20
133.3898664727
 30
0.0
 10
120.3503477089
 20
133.411085645
 30
0.0
 10
120.6119114156
 20
133.4373529642
 30
0.0
 10
120.8019233996
 20
133.4625031854
 30
0.0
 10
120.9279070073
 20
133.483269561
 30
0.0
 10
121.0012168346
 20
133.4973675575
 30
0.0
 10
121.0585851219
 20
133.5102722096
 30
0.0
 10
121.1013716945
 20
133.5227844887
 30
0.0
 10
121.1257542558
 20
133.5319864528
 30
0.0
 10
121.1392099328
 20
133.5413618246
 30
0.0
 10
121.1392249078
 20
133.545662198
 30
0.0
  0
SPLINE
  5
34D
100
AcDbEntity
  8
KONSTRUKTIONSELEMENTE
100
AcDbSpline
 62
7
  6
CONTINUOUS
 70
0
 71
3
 72
20
 73
16
 74
0
 42
0.0000001
 43
0.0000001
 44
0.0000000001
 40
0.0
 40
0.0
 40
0.0
 40
0.0
 40
0.0240034715
 40
0.0530246312
 40
0.0907036981
 40
0.1383392087
 40
0.1958668939
 40
0.2624197713
 40
0.3365743577
 40
0.4164764005
 40
0.5848473475
 40
0.7492042426
 40
0.8919848657
 40
0.9509322422
 40
1.0
 40
1.0
 40
1.0
 40
1.0
 10
89.6539048225
 20
132.8072950854
 30
0.0
 10
89.6539048225
 20
132.8347560121
 30
0.0
 10
89.6731139953
 20
132.8959717033
 30
0.0
 10
89.748905693
 20
132.9702775589
 30
0.0
 10
89.8639608814
 20
133.0340550537
 30
0.0
 10
90.0183039808
 20
133.0892174896
 30
0.0
 10
90.2094206309
 20
133.1356257242
 30
0.0
 10
90.4332700682
 20
133.1729365467
 30
0.0
 10
90.6841817936
 20
133.2010271546
 30
0.0
 10
91.0522406586
 20
133.2265675426
 30
0.0
 10
91.5246410529
 20
133.2345611079
 30
0.0
 10
92.0683089905
 20
133.2105295742
 30
0.0
 10
92.4851434662
 20
133.160606778
 30
0.0
 10
92.7649748661
 20
133.0961997093
 30
0.0
 10
92.8824606903
 20
133.0565429369
 30
0.0
 10
92.9339048225
 20
133.0340775859
 30
0.0
  0
SPLINE
  5
34E
100
AcDbEntity
  8
KONSTRUKTIONSELEMENTE
100
AcDbSpline
 62
7
  6
CONTINUOUS
 70
0
 71
3
 72
23
 73
19
 74
0
 42
0.0000001
 43
0.0000001
 44
0.0000000001
 40
0.0
 40
0.0
 40
0.0
 40
0.0
 40
0.1948311421
 40
0.3825401997
 40
0.5553211452
 40
0.6340928485
 40
0.7067894777
 40
0.7727258445
 40
0.8312197311
 40
0.8816926045
 40
0.9237031948
 40
0.956819617
 40
0.9699227222
 40
0.9806887627
 40
0.9890983617
 40
0.995132231
 40
0.9987714185
 40
1.0
 40
1.0
 40
1.0
 40
1.0
 10
93.1839048225
 20
133.5341449291
 30
0.0
 10
93.2586454319
 20
133.5341449291
 30
0.0
 10
93.4053959907
 20
133.5350620394
 30
0.0
 10
93.6183965129
 20
133.5389196578
 30
0.0
 10
93.7868344548
 20
133.543922582
 30
0.0
 10
93.9111339465
 20
133.5486178883
 30
0.0
 10
93.994457998
 20
133.5521860386
 30
0.0
 10
94.0699950291
 20
133.5557705057
 30
0.0
 10
94.1369997641
 20
133.5592410073
 30
0.0
 10
94.1948320846
 20
133.5624668637
 30
0.0
 10
94.2429150547
 20
133.5653552075
 30
0.0
 10
94.2767244368
 20
133.5674842613
 30
0.0
 10
94.2984879403
 20
133.5689848236
 30
0.0
 10
94.3109420909
 20
133.5697721955
 30
0.0
 10
94.3203228664
 20
133.5706824143
 30
0.0
 10
94.3278383173
 20
133.57078102
 30
0.0
 10
94.3309432223
 20
133.5719575781
 30
0.0
 10
94.333904932
 20
133.5713417868
 30
0.0
 10
94.3339048225
 20
133.5718130919
 30
0.0
  0
SPLINE
  5
34F
100
AcDbEntity
  8
KONSTRUKTIONSELEMENTE
100
AcDbSpline
 62
7
  6
CONTINUOUS
 70
0
 71
3
 72
14
 73
10
 74
0
 42
0.0000001
 43
0.0000001
 44
0.0000000001
 40
0.0
 40
0.0
 40
0.0
 40
0.0
 40
0.025438899
 40
0.0784596129
 40
0.161577241
 40
0.2744032942
 40
0.4159862613
 40
0.5851989947
 40
1.0
 40
1.0
 40
1.0
 40
1.0
 10
121.8892292297
 20
133.5455388496
 30
0.0
 10
121.8890850001
 20
133.539544871
 30
0.0
 10
121.8714018742
 20
133.5263421781
 30
0.0
 10
121.8386289015
 20
133.5121355397
 30
0.0
 10
121.7817895731
 20
133.4930103975
 30
0.0
 10
121.7054478463
 20
133.472466845
 30
0.0
 10
121.6080165984
 20
133.4497190745
 30
0.0
 10
121.440535868
 20
133.4154940823
 30
0.0
 10
121.3047138635
 20
133.392605086
 30
0.0
 10
121.2080629124
 20
133.3778896798
 30
0.0
  0
SPLINE
  5
350
100
AcDbEntity
  8
KONSTRUKTIONSELEMENTE
100
AcDbSpline
 62
7
  6
CONTINUOUS
 70
0
 71
3
 72
11
 73
7
 74
0
 42
0.0000001
 43
0.0000001
 44
0.0000000001
 40
0.0
 40
0.0
 40
0.0
 40
0.0
 40
0.2345512325
 40
0.4999890865
 40
0.7654594056
 40
1.0
 40
1.0
 40
1.0
 40
1.0
 10
120.9786915832
 20
133.3458505151
 30
0.0
 10
120.7316226126
 20
133.3142609646
 30
0.0
 10
120.2025301771
 20
133.2651498663
 30
0.0
 10
119.3895385919
 20
133.2396126815
 30
0.0
 10
118.5765577733
 20
133.2651300919
 30
0.0
 10
118.0474403296
 20
133.3142179864
 30
0.0
 10
117.8003805564
 20
133.3457903913
 30
0.0
  0
SPLINE
  5
351
100
AcDbEntity
  8
KONSTRUKTIONSELEMENTE
100
AcDbSpline
 62
7
  6
CONTINUOUS
 70
0
 71
3
 72
15
 73
11
 74
0
 42
0.0000001
 43
0.0000001
 44
0.0000000001
 40
0.0
 40
0.0
 40
0.0
 40
0.0
 40
0.4128950108
 40
0.5817327044
 40
0.7233338006
 40
0.8364035103
 40
0.9199968056
 40
0.9736274527
 40
0.9897216387
 40
1.0
 40
1.0
 40
1.0
 40
1.0
 10
117.6046037832
 20
133.372777087
 30
0.0
 10
117.5036564799
 20
133.3877544919
 30
0.0
 10
117.3617358557
 20
133.411117838
 30
0.0
 10
117.1864216858
 20
133.4463020115
 30
0.0
 10
117.0843952678
 20
133.4696382055
 30
0.0
 10
117.0034874967
 20
133.4911161483
 30
0.0
 10
116.9447906137
 20
133.5102042113
 30
0.0
 10
116.909541054
 20
133.5252345093
 30
0.0
 10
116.8935252637
 20
133.5367027152
 30
0.0
 10
116.8896494918
 20
133.5425856484
 30
0.0
 10
116.889438003
 20
133.5451172599
 30
0.0
  0
SPLINE
  5
352
100
AcDbEntity
  8
0
100
AcDbSpline
 62
7
  6
CONTINUOUS
 70
0
 71
3
 72
31
 73
27
 74
0
 42
0.0000001
 43
0.0000001
 44
0.0000000001
 40
0.0
 40
0.0
 40
0.0
 40
0.0
 40
0.0038266772
 40
0.0118234431
 40
0.0243384024
 40
0.041299056
 40
0.0625663205
 40
0.087945956
 40
0.1171824745
 40
0.1500137381
 40
0.2252071666
 40
0.3107786226
 40
0.4035554343
 40
0.5000433846
 40
0.5965295297
 40
0.689301122
 40
0.774864139
 40
0.8500462903
 40
0.8828710525
 40
0.9121005171
 40
0.9374726566
 40
0.9587320952
 40
0.9756846577
 40
0.9881914856
 40
0.9961801218
 40
1.0
 40
1.0
 40
1.0
 40
1.0
 10
116.8894027424
 20
133.0447540411
 30
0.0
 10
116.8896140894
 20
133.0382940304
 30
0.0
 10
116.9088195745
 20
133.0242112932
 30
0.0
 10
116.9441625459
 20
133.0088480885
 30
0.0
 10
117.0054892186
 20
132.9882366796
 30
0.0
 10
117.0877184257
 20
132.966052343
 30
0.0
 10
117.1925522923
 20
132.9415316477
 30
0.0
 10
117.3180654097
 20
132.9158610324
 30
0.0
 10
117.4634423008
 20
132.8895479323
 30
0.0
 10
117.6923867555
 20
132.8529859122
 30
0.0
 10
118.0167661629
 20
132.8110086075
 30
0.0
 10
118.4432757776
 20
132.7715059466
 30
0.0
 10
118.9068736381
 20
132.7456059742
 30
0.0
 10
119.3895509056
 20
132.7365483493
 30
0.0
 10
119.872219025
 20
132.7456229403
 30
0.0
 10
120.3357899246
 20
132.7715371529
 30
0.0
 10
120.7622562219
 20
132.8110506468
 30
0.0
 10
121.08659029
 20
132.8530333501
 30
0.0
 10
121.3154919587
 20
132.8895971293
 30
0.0
 10
121.4608328645
 20
132.9159098475
 30
0.0
 10
121.5863076374
 20
132.9415781556
 30
0.0
 10
121.6911019628
 20
132.9660974047
 30
0.0
 10
121.7732892945
 20
132.9882737879
 30
0.0
 10
121.83457624
 20
133.0088891989
 30
0.0
 10
121.8698770031
 20
133.02422925
 30
0.0
 10
121.8890559952
 20
133.0383298284
 30
0.0
 10
121.8892446144
 20
133.0447790541
 30
0.0
  0
SPLINE
  5
353
100
AcDbEntity
  8
KONSTRUKTIONSELEMENTE
100
AcDbSpline
 62
7
  6
CONTINUOUS
 70
0
 71
3
 72
18
 73
14
 74
0
 42
0.0000001
 43
0.0000001
 44
0.0000000001
 40
0.0
 40
0.0
 40
0.0
 40
0.0
 40
0.0041169355
 40
0.0160923275
 40
0.0359632177
 40
0.0637348221
 40
0.0994086959
 40
0.1429816262
 40
0.2536318613
 40
0.3951840408
 40
0.5671126548
 40
0.7688927426
 40
1.0
 40
1.0
 40
1.0
 40
1.0
 10
95.5338653281
 20
133.5717924025
 30
0.0
 10
95.5338654027
 20
133.5714979983
 30
0.0
 10
95.5321053245
 20
133.5716108303
 30
0.0
 10
95.5301775817
 20
133.5708130959
 30
0.0
 10
95.525624246
 20
133.5703440705
 30
0.0
 10
95.5198818496
 20
133.5693813547
 30
0.0
 10
95.5122474112
 20
133.5683326584
 30
0.0
 10
95.4988250641
 20
133.5664456612
 30
0.0
 10
95.4778443763
 20
133.5636376737
 30
0.0
 10
95.4477757777
 20
133.5597205887
 30
0.0
 10
95.4112163594
 20
133.5551078636
 30
0.0
 10
95.3682883848
 20
133.5498409221
 30
0.0
 10
95.3375499782
 20
133.5461744419
 30
0.0
 10
95.3211367419
 20
133.5442420375
 30
0.0
  0
SPLINE
  5
354
100
AcDbEntity
  8
KONSTRUKTIONSELEMENTE
100
AcDbSpline
 62
7
  6
CONTINUOUS
 70
0
 71
3
 72
21
 73
17
 74
0
 42
0.0000001
 43
0.0000001
 44
0.0000000001
 40
0.0
 40
0.0
 40
0.0
 40
0.0
 40
0.0274896429
 40
0.0627366754
 40
0.1096957658
 40
0.1691015625
 40
0.2402082692
 40
0.3209635564
 40
0.4999674256
 40
0.6790110481
 40
0.7597846743
 40
0.83090347
 40
0.8903091721
 40
0.9372636645
 40
0.9725100232
 40
1.0
 40
1.0
 40
1.0
 40
1.0
 10
92.1539048225
 20
132.7477506093
 30
0.0
 10
92.1539048225
 20
132.7627195269
 30
0.0
 10
92.1411045526
 20
132.7968649305
 30
0.0
 10
92.0952153072
 20
132.8369150421
 30
0.0
 10
92.0261904152
 20
132.8720992111
 30
0.0
 10
91.9341357023
 20
132.9023911687
 30
0.0
 10
91.8216229713
 20
132.9269968285
 30
0.0
 10
91.6430881923
 20
132.9521557259
 30
0.0
 10
91.4039367605
 20
132.9635467848
 30
0.0
 10
91.1647744876
 20
132.9521627101
 30
0.0
 10
90.9862019474
 20
132.9269977307
 30
0.0
 10
90.8736726275
 20
132.9023910215
 30
0.0
 10
90.7816132972
 20
132.8720996092
 30
0.0
 10
90.7125924636
 20
132.836913299
 30
0.0
 10
90.6667067753
 20
132.7968643739
 30
0.0
 10
90.6539048225
 20
132.7627197087
 30
0.0
 10
90.6539048225
 20
132.7477506093
 30
0.0
  0
SPLINE
  5
355
100
AcDbEntity
  8
0
100
AcDbSpline
 62
7
  6
CONTINUOUS
 70
0
 71
3
 72
21
 73
17
 74
0
 42
0.0000001
 43
0.0000001
 44
0.0000000001
 40
0.0
 40
0.0
 40
0.0
 40
0.0
 40
0.0280751483
 40
0.0636411817
 40
0.1106727037
 40
0.1699936264
 40
0.2409345696
 40
0.3214787357
 40
0.5000008534
 40
0.6785280722
 40
0.7590717515
 40
0.8300110909
 40
0.8893303146
 40
0.9363601725
 40
0.9719251896
 40
1.0
 40
1.0
 40
1.0
 40
1.0
 10
90.6539048225
 20
132.2245543917
 30
0.0
 10
90.6539048225
 20
132.2399004906
 30
0.0
 10
90.6664655061
 20
132.2747364165
 30
0.0
 10
90.7122346432
 20
132.316125066
 30
0.0
 10
90.7812554985
 20
132.3523849054
 30
0.0
 10
90.8732929149
 20
132.3836137421
 30
0.0
 10
90.9858417598
 20
132.4089659108
 30
0.0
 10
91.1644927043
 20
132.4349027597
 30
0.0
 10
91.4039091873
 20
132.4466434561
 30
0.0
 10
91.6433253923
 20
132.4349021939
 30
0.0
 10
91.8219778962
 20
132.4089644167
 30
0.0
 10
91.9345244173
 20
132.3836114242
 30
0.0
 10
92.0265590391
 20
132.3523826865
 30
0.0
 10
92.0955773219
 20
132.3161234233
 30
0.0
 10
92.1413454233
 20
132.274735799
 30
0.0
 10
92.1539048225
 20
132.2399003059
 30
0.0
 10
92.1539048225
 20
132.2245543917
 30
0.0
  0
SPLINE
  5
356
100
AcDbEntity
  8
KONSTRUKTIONSELEMENTE
100
AcDbSpline
 62
7
  6
CONTINUOUS
 70
0
 71
3
 72
13
 73
9
 74
0
 42
0.0000001
 43
0.0000001
 44
0.0000000001
 40
0.0
 40
0.0
 40
0.0
 40
0.0
 40
0.3526321707
 40
0.6335982048
 40
0.7462395654
 40
0.8419666683
 40
0.9245019308
 40
1.0
 40
1.0
 40
1.0
 40
1.0
 10
93.4839048225
 20
132.6432974359
 30
0.0
 10
93.4340032658
 20
132.6339699949
 30
0.0
 10
93.345144554
 20
132.6126217045
 30
0.0
 10
93.2448546055
 20
132.5715274681
 30
0.0
 10
93.1865110171
 20
132.5315356678
 30
0.0
 10
93.156756282
 20
132.5015909285
 30
0.0
 10
93.1381861776
 20
132.4695269183
 30
0.0
 10
93.1339048225
 20
132.4466062046
 30
0.0
 10
93.1339048225
 20
132.4357373156
 30
0.0
  0
SPLINE
  5
357
100
AcDbEntity
  8
KONSTRUKTIONSELEMENTE
100
AcDbSpline
 62
7
  6
CONTINUOUS
 70
0
 71
3
 72
15
 73
11
 74
0
 42
0.0000001
 43
0.0000001
 44
0.0000000001
 40
0.0
 40
0.0
 40
0.0
 40
0.0
 40
0.014287227
 40
0.1761927803
 40
0.3380983335
 40
0.5000038868
 40
0.66190944
 40
0.8238149933
 40
0.9857205466
 40
1.0
 40
1.0
 40
1.0
 40
1.0
 10
89.8403720121
 20
35.9373565613
 30
0.0
 10
89.8522610195
 20
35.9589940429
 30
0.0
 10
90.0057186181
 20
36.224086923
 30
0.0
 10
90.4608888276
 20
36.6874953302
 30
0.0
 10
91.4395248845
 20
37.1323277843
 30
0.0
 10
92.5939048225
 20
37.2885321695
 30
0.0
 10
93.7482847605
 20
37.1323277843
 30
0.0
 10
94.7269208174
 20
36.6874953302
 30
0.0
 10
95.1820805617
 20
36.2240975777
 30
0.0
 10
95.3355350843
 20
35.9590174345
 30
0.0
 10
95.3474182263
 20
35.9373918795
 30
0.0
  0
ELLIPSE
  5
358
100
AcDbEntity
  8
RUNDUNGEN
100
AcDbEllipse
 62
7
  6
CONTINUOUS
 10
88.6939048225
 20
108.2198646079
 30
0.0
 11
0.0
 21
3.8323518674
 31
0.0
 40
0.9132773088
 41
1.5707963268
 42
1.5976067867
  0
ELLIPSE
  5
359
100
AcDbEntity
  8
KONSTRUKTIONSELEMENTE
100
AcDbEllipse
 62
7
  6
CONTINUOUS
 10
113.2607692978
 20
114.4718785371
 30
0.0
 11
0.0
 21
19.1
 31
0.0
 40
0.2042553906
 41
-0.0653696609
 42
-0.0568150402
  0
ELLIPSE
  5
35A
100
AcDbEntity
  8
KONSTRUKTIONSELEMENTE
100
AcDbEllipse
 62
7
  6
CONTINUOUS
 10
112.8177059843
 20
114.4718785371
 30
0.0
 11
0.0
 21
19.1
 31
0.0
 40
0.6127654705
 41
-0.0568150402
 42
-0.0267920244
  0
ELLIPSE
  5
35B
100
AcDbEntity
  8
KONSTRUKTIONSELEMENTE
100
AcDbEllipse
 62
7
  6
CONTINUOUS
 10
112.4345002472
 20
114.4718785371
 30
0.0
 11
26.0085098147
 21
0.0
 31
0.0
 40
0.7343750233
 41
7.8271896095
 42
7.8451900836
  0
ELLIPSE
  5
35C
100
AcDbEntity
  8
KONSTRUKTIONSELEMENTE
100
AcDbEllipse
 62
7
  6
CONTINUOUS
 10
112.3201738013
 20
114.4718785371
 30
0.0
 11
39.012805343
 21
0.0
 31
0.0
 40
0.4895828391
 41
1.5620047765
 42
1.5707963087
  0
ELLIPSE
  5
35D
100
AcDbEntity
  8
KONSTRUKTIONSELEMENTE
100
AcDbEllipse
 62
7
  6
CONTINUOUS
 10
122.6563229107
 20
114.4718785371
 30
0.0
 11
58.519030344
 21
-0.0
 31
0.0
 40
0.3263895503
 41
1.7505291768
 42
1.7545955911
  0
ELLIPSE
  5
35E
100
AcDbEntity
  8
KONSTRUKTIONSELEMENTE
100
AcDbEllipse
 62
7
  6
CONTINUOUS
 10
101.0316791039
 20
114.4718785371
 30
0.0
 11
58.5190576667
 21
0.0
 31
0.0
 40
0.3263893979
 41
1.3869970625
 42
1.3930955604
  0
ELLIPSE
  5
35F
100
AcDbEntity
  8
KONSTRUKTIONSELEMENTE
100
AcDbEllipse
 62
7
  6
CONTINUOUS
 10
106.2037863141
 20
114.4718785371
 30
0.0
 11
29.2595988842
 21
-0.0
 31
0.0
 40
0.6527772331
 41
1.3930955604
 42
1.4012164777
  0
ELLIPSE
  5
360
100
AcDbEntity
  8
KONSTRUKTIONSELEMENTE
100
AcDbEllipse
 62
7
  6
CONTINUOUS
 10
111.183223699
 20
114.4718785371
 30
0.0
 11
35.7617024183
 21
-0.0
 31
0.0
 40
0.5340909047
 41
1.4834908801
 42
1.519574117
  0
ELLIPSE
  5
361
100
AcDbEntity
  8
KONSTRUKTIONSELEMENTE
100
AcDbEllipse
 62
7
  6
CONTINUOUS
 10
107.5719184795
 20
114.4718785371
 30
0.0
 11
0.0
 21
19.1
 31
0.0
 40
0.2042552851
 41
-0.3206267474
 42
-0.2891793971
  0
ELLIPSE
  5
362
100
AcDbEntity
  8
KONSTRUKTIONSELEMENTE
100
AcDbEllipse
 62
7
  6
CONTINUOUS
 10
104.7030109744
 20
114.4718785371
 30
0.0
 11
-0.0
 21
19.1
 31
0.0
 40
0.6808509827
 41
-0.3396518075
 42
-0.3206267474
  0
ELLIPSE
  5
363
100
AcDbEntity
  8
KONSTRUKTIONSELEMENTE
100
AcDbEllipse
 62
7
  6
CONTINUOUS
 10
99.2874099685
 20
114.4718785371
 30
0.0
 11
29.2595674921
 21
0.0
 31
0.0
 40
0.6527779334
 41
1.2183901941
 42
1.2311445193
  0
ELLIPSE
  5
364
100
AcDbEntity
  8
KONSTRUKTIONSELEMENTE
100
AcDbEllipse
 62
7
  6
CONTINUOUS
 10
108.9288969769
 20
114.4718785371
 30
0.0
 11
0.0
 21
19.1
 31
0.0
 40
0.1702127457
 41
0.2209692332
 42
0.2580236819
  0
ELLIPSE
  5
365
100
AcDbEntity
  8
KONSTRUKTIONSELEMENTE
100
AcDbEllipse
 62
7
  6
CONTINUOUS
 10
110.3540036997
 20
114.4718785371
 30
0.0
 11
0.0
 21
19.1
 31
0.0
 40
0.5106383587
 41
0.1964398436
 42
0.2209692332
  0
ELLIPSE
  5
366
100
AcDbEntity
  8
KONSTRUKTIONSELEMENTE
100
AcDbEllipse
 62
7
  6
CONTINUOUS
 10
112.2576182805
 20
114.4718785371
 30
0.0
 11
19.506371352
 21
0.0
 31
0.0
 40
0.9791672503
 41
1.7428259528
 42
1.7672361704
  0
ELLIPSE
  5
367
100
AcDbEntity
  8
KONSTRUKTIONSELEMENTE
100
AcDbEllipse
 62
7
  6
CONTINUOUS
 10
122.2750778901
 20
114.4718785371
 30
0.0
 11
78.0255970245
 21
0.0
 31
0.0
 40
0.2447914624
 41
1.7367401336
 42
1.7428259528
  0
ELLIPSE
  5
368
100
AcDbEntity
  8
KONSTRUKTIONSELEMENTE
100
AcDbEllipse
 62
7
  6
CONTINUOUS
 10
96.7320779566
 20
114.4718785371
 30
0.0
 11
78.0255970245
 21
-0.0
 31
0.0
 40
0.2447914624
 41
1.3987667007
 42
1.40485252
  0
ELLIPSE
  5
369
100
AcDbEntity
  8
KONSTRUKTIONSELEMENTE
100
AcDbEllipse
 62
7
  6
CONTINUOUS
 10
105.0799641491
 20
114.4718785371
 30
0.0
 11
29.259557028
 21
-0.0
 31
0.0
 40
0.6527781669
 41
1.3865754714
 42
1.3987667007
  0
ELLIPSE
  5
36A
100
AcDbEntity
  8
KONSTRUKTIONSELEMENTE
100
AcDbEllipse
 62
7
  6
CONTINUOUS
 10
107.2953397224
 20
114.4718785371
 30
0.0
 11
-0.0
 21
19.1
 31
0.0
 40
0.8987233915
 41
-0.3396518075
 42
-0.1842208554
  0
ELLIPSE
  5
36B
100
AcDbEntity
  8
KONSTRUKTIONSELEMENTE
100
AcDbEllipse
 62
7
  6
CONTINUOUS
 10
125.8470364742
 20
114.4718785371
 30
0.0
 11
57.1258378327
 21
0.0
 31
0.0
 40
0.334349582
 41
1.982789268
 42
2.076501059
  0
ELLIPSE
  5
36C
100
AcDbEntity
  8
KONSTRUKTIONSELEMENTE
100
AcDbEllipse
 62
7
  6
CONTINUOUS
 10
82.1039035368
 20
114.4718785371
 30
0.0
 11
57.3000034153
 21
0.0
 31
0.0
 40
0.3333333135
 41
1.1848459329
 42
1.2865295205
  0
ELLIPSE
  5
36D
100
AcDbEntity
  8
RUNDUNGEN
100
AcDbEllipse
 62
7
  6
CONTINUOUS
 10
121.6939048225
 20
108.2198646079
 30
0.0
 11
0.0
 21
3.8323518674
 31
0.0
 40
0.9132773088
 41
-1.5976067867
 42
-1.5707963268
  0
ELLIPSE
  5
36E
100
AcDbEntity
  8
RUNDUNGEN
100
AcDbEllipse
 62
7
  6
CONTINUOUS
 10
121.6939048225
 20
108.4042227898
 30
0.0
 11
-0.0
 21
10.7095285444
 31
0.0
 40
0.3268117719
 41
-1.8827636829
 42
-1.5976067867
  0
ELLIPSE
  5
36F
100
AcDbEntity
  8
RUNDUNGEN
100
AcDbEllipse
 62
7
  6
CONTINUOUS
 10
88.6939048225
 20
108.4042227898
 30
0.0
 11
0.0
 21
10.7095285444
 31
0.0
 40
0.3268117719
 41
-4.6855785204
 42
-4.4004216243
  0
ELLIPSE
  5
370
100
AcDbEntity
  8
KONSTRUKTIONSELEMENTE
100
AcDbEllipse
 62
7
  6
CONTINUOUS
 10
100.7290507104
 20
114.4718785371
 30
0.0
 11
33.0821704246
 21
0.0
 31
0.0
 40
0.5773502692
 41
1.7284866802
 42
1.8086629125
  0
ELLIPSE
  5
371
100
AcDbEntity
  8
KONSTRUKTIONSELEMENTE
100
AcDbEllipse
 62
7
  6
CONTINUOUS
 10
110.1105264519
 20
114.4718785371
 30
0.0
 11
35.7617194708
 21
0.0
 31
0.0
 40
0.5340906501
 41
1.4533361946
 42
1.4895113709
  0
ELLIPSE
  5
372
100
AcDbEntity
  8
KONSTRUKTIONSELEMENTE
100
AcDbEllipse
 62
7
  6
CONTINUOUS
 10
106.3759183475
 20
114.4718785371
 30
0.0
 11
0.0
 21
19.1
 31
0.0
 40
0.9118541023
 41
-0.3910418579
 42
-0.2148248125
  0
ELLIPSE
  5
373
100
AcDbEntity
  8
KONSTRUKTIONSELEMENTE
100
AcDbEllipse
 62
7
  6
CONTINUOUS
 10
101.7720933897
 20
114.4718785371
 30
0.0
 11
39.012742704
 21
-0.0
 31
0.0
 40
0.4895836251
 41
1.3559715143
 42
1.3682359562
  0
ELLIPSE
  5
374
100
AcDbEntity
  8
KONSTRUKTIONSELEMENTE
100
AcDbEllipse
 62
7
  6
CONTINUOUS
 10
115.272935967
 20
114.4718785371
 30
0.0
 11
29.259557028
 21
0.0
 31
0.0
 40
0.6527781669
 41
1.7733566973
 42
1.7856211393
  0
ELLIPSE
  5
375
100
AcDbEntity
  8
KONSTRUKTIONSELEMENTE
100
AcDbEllipse
 62
7
  6
CONTINUOUS
 10
111.8076910344
 20
114.4718785371
 30
0.0
 11
-0.0
 21
19.1
 31
0.0
 40
0.6808509827
 41
0.2148248125
 42
0.23328384
  0
ELLIPSE
  5
376
100
AcDbEntity
  8
KONSTRUKTIONSELEMENTE
100
AcDbEllipse
 62
7
  6
CONTINUOUS
 10
109.7033225248
 20
114.4718785371
 30
0.0
 11
0.0
 21
19.1
 31
0.0
 40
0.2042553143
 41
0.23328384
 42
0.2642333337
  0
ELLIPSE
  5
377
100
AcDbEntity
  8
0
100
AcDbEllipse
 62
7
  6
CONTINUOUS
 10
103.6735370833
 20
114.4718785371
 30
0.0
 11
32.2161450208
 21
0.0
 31
0.0
 40
0.5773502692
 41
1.8262216225
 42
1.877584934
  0
ELLIPSE
  5
378
100
AcDbEntity
  8
KONSTRUKTIONSELEMENTE
100
AcDbEllipse
 62
7
  6
CONTINUOUS
 10
80.1150715109
 20
114.4718785371
 30
0.0
 11
78.0255202882
 21
-0.0
 31
0.0
 40
0.2447917031
 41
1.186234821
 42
1.1926982215
  0
ELLIPSE
  5
379
100
AcDbEntity
  8
KONSTRUKTIONSELEMENTE
100
AcDbEllipse
 62
7
  6
CONTINUOUS
 10
101.7176211405
 20
114.4718785371
 30
0.0
 11
19.506380944
 21
0.0
 31
0.0
 40
0.9791667688
 41
1.1926982215
 42
1.2183901941
  0
ELLIPSE
  5
37A
100
AcDbEntity
  8
KONSTRUKTIONSELEMENTE
100
AcDbEllipse
 62
7
  6
CONTINUOUS
 10
105.0840036176
 20
114.4718785371
 30
0.0
 11
0.0
 21
19.1
 31
0.0
 40
0.5106382674
 41
-0.3524061327
 42
-0.326954713
  0
ELLIPSE
  5
37B
100
AcDbEntity
  8
KONSTRUKTIONSELEMENTE
100
AcDbEllipse
 62
7
  6
CONTINUOUS
 10
107.3213895353
 20
114.4718785371
 30
0.0
 11
0.0
 21
19.1
 31
0.0
 40
0.1458966441
 41
-0.326954713
 42
-0.2829261664
  0
ELLIPSE
  5
37C
100
AcDbEntity
  8
KONSTRUKTIONSELEMENTE
100
AcDbEllipse
 62
7
  6
CONTINUOUS
 10
127.9939039338
 20
114.4718785371
 30
0.0
 11
57.2999982923
 21
-0.0
 31
0.0
 40
0.3333333433
 41
2.0091317057
 42
2.1181377098
  0
ELLIPSE
  5
37D
100
AcDbEntity
  8
KONSTRUKTIONSELEMENTE
100
AcDbEllipse
 62
7
  6
CONTINUOUS
 10
80.0965178552
 20
114.4718785371
 30
0.0
 11
57.1258378327
 21
-0.0
 31
0.0
 40
0.334349582
 41
1.1588033856
 42
1.2488130658
  0
ELLIPSE
  5
37E
100
AcDbEntity
  8
0
100
AcDbEllipse
 62
7
  6
CONTINUOUS
 10
123.6939048225
 20
113.1355175432
 30
0.0
 11
0.0
 21
1.6726900661
 31
0.0
 40
0.8967590771
 41
-1.5707963268
 42
0.0
  0
ELLIPSE
  5
37F
100
AcDbEntity
  8
0
100
AcDbEllipse
 62
7
  6
CONTINUOUS
 10
86.6939048225
 20
113.1355175432
 30
0.0
 11
0.0
 21
1.6726900661
 31
0.0
 40
0.8967590771
 41
-0.0
 42
1.5707963268
  0
ELLIPSE
  5
380
100
AcDbEntity
  8
0
100
AcDbEllipse
 62
7
  6
CONTINUOUS
 10
80.0965178552
 20
114.4718785371
 30
0.0
 11
55.6303970518
 21
-0.0
 31
0.0
 40
0.334349582
 41
1.1830822276
 42
1.2398319668
  0
ELLIPSE
  5
381
100
AcDbEntity
  8
0
100
AcDbEllipse
 62
7
  6
CONTINUOUS
 10
107.3213895353
 20
114.4718785371
 30
0.0
 11
-0.0
 21
18.6
 31
0.0
 40
0.1458966441
 41
-0.3360852616
 42
-0.2907503365
  0
ELLIPSE
  5
382
100
AcDbEntity
  8
0
100
AcDbEllipse
 62
7
  6
CONTINUOUS
 10
105.0840036176
 20
114.4718785371
 30
0.0
 11
0.0
 21
18.6
 31
0.0
 40
0.5106382674
 41
-0.3623102895
 42
-0.3360852616
  0
ELLIPSE
  5
383
100
AcDbEntity
  8
0
100
AcDbEllipse
 62
7
  6
CONTINUOUS
 10
101.7176211405
 20
114.4718785371
 30
0.0
 11
18.9957426994
 21
0.0
 31
0.0
 40
0.9791667688
 41
1.181997613
 42
1.2084860373
  0
ELLIPSE
  5
384
100
AcDbEntity
  8
0
100
AcDbEllipse
 62
7
  6
CONTINUOUS
 10
80.1150715109
 20
114.4718785371
 30
0.0
 11
75.9829674011
 21
-0.0
 31
0.0
 40
0.2447917031
 41
1.1753312028
 42
1.181997613
  0
ELLIPSE
  5
385
100
AcDbEntity
  8
0
100
AcDbEllipse
 62
7
  6
CONTINUOUS
 10
111.8076910344
 20
114.4718785371
 30
0.0
 11
-0.0
 21
18.6
 31
0.0
 40
0.6808509827
 41
6.5038792791
 42
6.5172686971
  0
ELLIPSE
  5
386
100
AcDbEntity
  8
0
100
AcDbEllipse
 62
7
  6
CONTINUOUS
 10
115.272935967
 20
114.4718785371
 30
0.0
 11
28.4936000378
 21
-0.0
 31
0.0
 40
0.6527781669
 41
1.7788807462
 42
1.7914902987
  0
ELLIPSE
  5
387
100
AcDbEntity
  8
0
100
AcDbEllipse
 62
7
  6
CONTINUOUS
 10
101.7720933897
 20
114.4718785371
 30
0.0
 11
37.991466717
 21
0.0
 31
0.0
 40
0.4895836251
 41
1.3501023549
 42
1.3627119074
  0
ELLIPSE
  5
388
100
AcDbEntity
  8
0
100
AcDbEllipse
 62
7
  6
CONTINUOUS
 10
106.3759183475
 20
114.4718785371
 30
0.0
 11
0.0
 21
18.6
 31
0.0
 40
0.9118541023
 41
-0.4021501386
 42
-0.2206939719
  0
ELLIPSE
  5
389
100
AcDbEntity
  8
0
100
AcDbEllipse
 62
7
  6
CONTINUOUS
 10
110.1105264519
 20
114.4718785371
 30
0.0
 11
34.8255488041
 21
-0.0
 31
0.0
 40
0.5340906501
 41
1.450163463
 42
1.4704486394
  0
ELLIPSE
  5
38A
100
AcDbEntity
  8
KONSTRUKTIONSELEMENTE
100
AcDbEllipse
 62
7
  6
CONTINUOUS
 10
103.6735370833
 20
114.4718785371
 30
0.0
 11
33.0821704246
 21
-0.0
 31
0.0
 40
0.5773502692
 41
1.8193918216
 42
1.8838967334
  0
ELLIPSE
  5
38B
100
AcDbEntity
  8
0
100
AcDbEllipse
 62
7
  6
CONTINUOUS
 10
127.9939039338
 20
114.4718785371
 30
0.0
 11
55.799998337
 21
0.0
 31
0.0
 40
0.3333333433
 41
2.0217702466
 42
2.1346042273
  0
ELLIPSE
  5
38C
100
AcDbEntity
  8
0
100
AcDbEllipse
 62
7
  6
CONTINUOUS
 10
86.6939048225
 20
11.0938117446
 30
0.0
 11
1.5
 21
-0.0
 31
0.0
 40
0.7715651357
 41
-3.1415926536
 42
-1.5707963268
  0
ELLIPSE
  5
38D
100
AcDbEntity
  8
0
100
AcDbEllipse
 62
7
  6
CONTINUOUS
 10
123.6939048225
 20
11.0938117446
 30
0.0
 11
1.5
 21
-0.0
 31
0.0
 40
0.7715651357
 41
-1.5707963268
 42
0.0
  0
ELLIPSE
  5
38E
100
AcDbEntity
  8
KONSTRUKTIONSELEMENTE
100
AcDbEllipse
 62
7
  6
CONTINUOUS
 10
86.6939048225
 20
46.7791163376
 30
0.0
 11
1.5
 21
0.0
 31
0.0
 40
0.7715651357
 41
1.5707963268
 42
3.1415926536
  0
ELLIPSE
  5
38F
100
AcDbEntity
  8
KONSTRUKTIONSELEMENTE
100
AcDbEllipse
 62
7
  6
CONTINUOUS
 10
123.6939048225
 20
46.7791163376
 30
0.0
 11
1.5
 21
-0.0
 31
0.0
 40
0.7715651357
 41
-0.0
 42
1.5707963268
  0
ENDSEC
  0
SECTION
  2
OBJECTS
  0
DICTIONARY
  5
C
100
AcDbDictionary
280
0
281
1
  3
ACAD_GROUP
350
D
  3
ACAD_MLINESTYLE
350
17
  3
ACAD_LAYOUT
350
1A
  3
ACAD_PLOTSETTINGS
350
19
  3
ACAD_PLOTSTYLENAME
350
E
  0
DICTIONARY
  5
D
102
{ACAD_REACTORS
330
C
102
}
100
AcDbDictionary
280
0
281
1
  0
ACDBDICTIONARYWDFLT
  5
E
102
{ACAD_REACTORS
330
C
102
}
100
AcDbDictionary
281
1
  3
Normal
350
F
100
AcDbDictionaryWithDefault
340
F
  0
DICTIONARY
  5
17
102
{ACAD_REACTORS
330
C
102
}
100
AcDbDictionary
280
0
281
1
  3
Standard
350
18
  0
DICTIONARY
  5
19
102
{ACAD_REACTORS
330
C
102
}
100
AcDbDictionary
281
1
  0
DICTIONARY
  5
1A
102
{ACAD_REACTORS
330
C
102
}
100
AcDbDictionary
281
1
  3
Model
350
390
  3
Layout1
350
391
  0
ACDBPLACEHOLDER
  5
F
102
{ACAD_REACTORS
330
E
102
}
  0
MLINESTYLE
  5
18
102
{ACAD_REACTORS
330
17
102
}
100
AcDbMlineStyle
  2
STANDARD
 70
0
  3

 62
256
 51
90.0
 52
90.0
 71
2
 49
0.5
 62
256
  6
BYLAYER
 49
-0.5
 62
256
  6
BYLAYER
  0
LAYOUT
  5
390
102
{ACAD_REACTORS
330
1A
102
}
100
AcDbPlotSettings
  1

  2
none_device
  4
ISO_A4_(297.00_x_210.00_MM)
  6

 40
0.0
 41
0.0
 42
0.0
 43
0.0
 44
297.0
 45
210.0
 46
0.0
 47
0.0
 48
0.0
 49
0.0
140
0.0
141
0.0
142
1.0
143
1.0
 70
1024
 72
1
 73
0
 74
0
  7

 75
0
147
1.0
148
0.0
149
0.0
100
AcDbLayout
  1
Model
 70
0
 71
0
 10
0.0
 20
0.0
 11
297.0
 21
210.0
 12
0.0
 22
0.0
 32
0.0
 14
0.0
 24
0.0
 34
0.0
 15
0.0
 25
0.0
 35
0.0
146
0.0
 13
0.0
 23
0.0
 33
0.0
 16
1.0
 26
0.0
 36
0.0
 17
0.0
 27
1.0
 37
0.0
 76
0
330
20D
345
0
346
0
  0
LAYOUT
  5
391
102
{ACAD_REACTORS
330
1A
102
}
100
AcDbPlotSettings
  1

  2
none_device
  4
ISO_A4_(297.00_x_210.00_MM)
  6

 40
0.0
 41
0.0
 42
0.0
 43
0.0
 44
297.0
 45
210.0
 46
0.0
 47
0.0
 48
0.0
 49
0.0
140
0.0
141
0.0
142
1.0
143
1.0
 70
0
 72
1
 73
0
 74
0
  7

 75
0
147
1.0
148
0.0
149
0.0
100
AcDbLayout
  1
Layout1
 70
0
 71
1
 10
0.0
 20
0.0
 11
297.0
 21
210.0
 12
0.0
 22
0.0
 32
0.0
 14
0.0
 24
0.0
 34
0.0
 15
0.0
 25
0.0
 35
0.0
146
0.0
 13
0.0
 23
0.0
 33
0.0
 16
1.0
 26
0.0
 36
0.0
 17
0.0
 27
1.0
 37
0.0
 76
0
330
20E
345
0
346
0
  0
ENDSEC
  0
EOF
