999
DXF file: 001-m32118-p3.dxf
999
Pro/ENGINEER 2011490 by Parametric Technology Corporation
  0
SECTION
  2
HEADER
  9
$ACADVER
  1
AC1015
  9
$DWGCODEPAGE
  3
ANSI_1252
  9
$EXTMAX
 10
297.0
 20
210.0
 30
0.0
  9
$EXTMIN
 10
0.0
 20
0.0
 30
0.0
  9
$LIMMIN
 10
0.0
 20
0.0
  9
$LIMMAX
 10
297.0
 20
210.0
  9
$VIEWCTR
 10
148.5
 20
105.0
  9
$VIEWSIZE
 40
210.0
  9
$CLAYER
  8
0
  9
$LTSCALE
 40
16.335
  9
$CELTYPE
  6
BYLAYER
  9
$DIMSCALE
 40
1.0
  9
$DIMASZ
 40
3.5
  9
$DIMEXO
 40
1.85625
  9
$DIMDLI
 40
11.286
  9
$DIMEXE
 40
5.346
  9
$DIMCEN
 40
2.673
  9
$DIMLFAC
 40
1.0
  9
$DIMBLK
  1
_FILLED
  9
$DIMTXT
 40
3.5
  9
$DIMTOL
 70
1
  9
$DIMLIM
 70
0
  9
$DIMTFAC
 40
1.0
  9
$DIMTP
 40
0.005
  9
$DIMTM
 40
0.005
  9
$PDMODE
 70
3
  9
$PDSIZE
 40
0.3125
  9
$HANDSEED
  5
31C
  9
$TILEMODE
 70
1
  9
$MEASUREMENT
 70
1
  9
$INSUNITS
 70
4
  0
ENDSEC
  0
SECTION
  2
CLASSES
  0
CLASS
  1
ACDBDICTIONARYWDFLT
  2
AcDbDictionaryWithDefault
  3
AutoCAD 2000
 90
0
280
0
281
0
  0
CLASS
  1
ACDBPLACEHOLDER
  2
AcDbPlaceHolder
  3
AutoCAD 2000
 90
0
280
0
281
0
  0
CLASS
  1
LAYOUT
  2
AcDbLayout
  3
AutoCAD 2000
 90
0
280
0
281
0
  0
ENDSEC
  0
SECTION
  2
TABLES
  0
TABLE
  2
VPORT
  5
8
100
AcDbSymbolTable
 70
2
  0
VPORT
  5
1F4
100
AcDbSymbolTableRecord
100
AcDbViewportTableRecord
  2
*ACTIVE
 70
0
 10
0.0
 20
0.0
 11
1.0
 21
1.0
 12
148.5
 22
105.0
 13
0.0
 23
0.0
 14
1.0
 24
1.0
 15
0.0
 25
0.0
 16
0.0
 26
0.0
 36
1.0
 17
0.0
 27
0.0
 37
0.0
 40
210.0
 41
1.4142857143
 42
50.0
 43
0.0
 44
0.0
 50
0.0
 51
0.0
 71
0
 72
100
 73
1
 74
1
 75
0
 76
0
 77
0
 78
0
  0
ENDTAB
  0
TABLE
  2
LTYPE
  5
5
100
AcDbSymbolTable
 70
6
  0
LTYPE
  5
14
100
AcDbSymbolTableRecord
100
AcDbLinetypeTableRecord
  2
BYBLOCK
 70
0
  3

 72
65
 73
0
 40
0.0
  0
LTYPE
  5
15
100
AcDbSymbolTableRecord
100
AcDbLinetypeTableRecord
  2
BYLAYER
 70
0
  3

 72
65
 73
0
 40
0.0
  0
LTYPE
  5
16
100
AcDbSymbolTableRecord
100
AcDbLinetypeTableRecord
  2
CONTINUOUS
 70
64
  3
Solid line
 72
65
 73
0
 40
0.0
  0
LTYPE
  5
1F5
100
AcDbSymbolTableRecord
100
AcDbLinetypeTableRecord
  2
CENTER
 70
64
  3
____ _ ____ _ ____ _ ____ _ ____ _ ____ _ ____
 72
65
 73
4
 40
0.6
 49
0.375
 74
0
 49
-0.075
 74
0
 49
0.075
 74
0
 49
-0.075
 74
0
  0
LTYPE
  5
1F6
100
AcDbSymbolTableRecord
100
AcDbLinetypeTableRecord
  2
HIDDEN
 70
64
  3
- - - - - - - - - - - - - - - - - - - -
 72
65
 73
2
 40
0.2
 49
0.1
 74
0
 49
-0.1
 74
0
  0
LTYPE
  5
1F7
100
AcDbSymbolTableRecord
100
AcDbLinetypeTableRecord
  2
PHANTOM
 70
64
  3
_____ _ _ _____ _ _ _____ _ _ _____
 72
65
 73
6
 40
0.8
 49
0.45
 74
0
 49
-0.05
 74
0
 49
0.1
 74
0
 49
-0.05
 74
0
 49
0.1
 74
0
 49
-0.05
 74
0
  0
LTYPE
  5
1F8
100
AcDbSymbolTableRecord
100
AcDbLinetypeTableRecord
  2
DOT
 70
64
  3
. . . . . . . . . . . . . . . . . . . .
 72
65
 73
2
 40
0.2
 49
0.1
 74
0
 49
-0.1
 74
0
  0
LTYPE
  5
1F9
100
AcDbSymbolTableRecord
100
AcDbLinetypeTableRecord
  2
DASHED
 70
64
  3
- - - - - - - - - - - - - - - - - - - -
 72
65
 73
2
 40
0.2
 49
0.1
 74
0
 49
-0.1
 74
0
  0
ENDTAB
  0
TABLE
  2
LAYER
  5
2
100
AcDbSymbolTable
 70
36
  0
LAYER
  5
10
100
AcDbSymbolTableRecord
100
AcDbLayerTableRecord
  2
0
 70
0
 62
7
  6
CONTINUOUS
370
-3
390
F
  0
LAYER
  5
1FA
100
AcDbSymbolTableRecord
100
AcDbLayerTableRecord
  2
DEFAULT_1
 70
0
 62
7
  6
CENTER
370
-3
390
F
  0
LAYER
  5
1FB
100
AcDbSymbolTableRecord
100
AcDbLayerTableRecord
  2
DEFAULT_2
 70
0
 62
8
  6
HIDDEN
370
-3
390
F
  0
LAYER
  5
1FC
100
AcDbSymbolTableRecord
100
AcDbLayerTableRecord
  2
DEFAULT_3
 70
0
 62
7
  6
PHANTOM
370
-3
390
F
  0
LAYER
  5
1FD
100
AcDbSymbolTableRecord
100
AcDbLayerTableRecord
  2
AUSFORMSCHRAEGEN
 70
0
 62
7
  6
CONTINUOUS
370
-3
390
F
  0
LAYER
  5
1FE
100
AcDbSymbolTableRecord
100
AcDbLayerTableRecord
  2
BEZUGSACHSEN
 70
0
 62
7
  6
CONTINUOUS
370
-3
390
F
  0
LAYER
  5
1FF
100
AcDbSymbolTableRecord
100
AcDbLayerTableRecord
  2
BEZUGSEBENEN
 70
0
 62
7
  6
CONTINUOUS
370
-3
390
F
  0
LAYER
  5
200
100
AcDbSymbolTableRecord
100
AcDbLayerTableRecord
  2
BG_STARTBEZUEGE
 70
0
 62
7
  6
CONTINUOUS
370
-3
390
F
  0
LAYER
  5
201
100
AcDbSymbolTableRecord
100
AcDbLayerTableRecord
  2
FASEN
 70
0
 62
7
  6
CONTINUOUS
370
-3
390
F
  0
LAYER
  5
202
100
AcDbSymbolTableRecord
100
AcDbLayerTableRecord
  2
HILFEN
 70
0
 62
7
  6
CONTINUOUS
370
-3
390
F
  0
LAYER
  5
203
100
AcDbSymbolTableRecord
100
AcDbLayerTableRecord
  2
KONSTRUKTIONSELEMENTE
 70
0
 62
7
  6
CONTINUOUS
370
-3
390
F
  0
LAYER
  5
204
100
AcDbSymbolTableRecord
100
AcDbLayerTableRecord
  2
KURVEN
 70
0
 62
7
  6
CONTINUOUS
370
-3
390
F
  0
LAYER
  5
205
100
AcDbSymbolTableRecord
100
AcDbLayerTableRecord
  2
NORM
 70
0
 62
7
  6
CONTINUOUS
370
-3
390
F
  0
LAYER
  5
206
100
AcDbSymbolTableRecord
100
AcDbLayerTableRecord
  2
PLATZIERUNG
 70
0
 62
7
  6
CONTINUOUS
370
-3
390
F
  0
LAYER
  5
207
100
AcDbSymbolTableRecord
100
AcDbLayerTableRecord
  2
RUNDUNGEN
 70
0
 62
7
  6
CONTINUOUS
370
-3
390
F
  0
LAYER
  5
208
100
AcDbSymbolTableRecord
100
AcDbLayerTableRecord
  2
TEIL_STARTBEZUEGE
 70
0
 62
7
  6
CONTINUOUS
370
-3
390
F
  0
LAYER
  5
209
100
AcDbSymbolTableRecord
100
AcDbLayerTableRecord
  2
T_STARTBEZUEGE
 70
0
 62
7
  6
CONTINUOUS
370
-3
390
F
  0
LAYER
  5
20A
100
AcDbSymbolTableRecord
100
AcDbLayerTableRecord
  2
ZEICHNUNGSBEMASSUNGEN
 70
0
 62
7
  6
CONTINUOUS
370
-3
390
F
  0
ENDTAB
  0
TABLE
  2
STYLE
  5
3
100
AcDbSymbolTable
 70
1
  0
STYLE
  5
11
100
AcDbSymbolTableRecord
100
AcDbTextStyleTableRecord
  2
STANDARD
 70
0
 40
0.0
 41
0.7
 50
0.0
 71
0
 42
0.2
  3
txt
  4

  0
STYLE
  5
20B
100
AcDbSymbolTableRecord
100
AcDbTextStyleTableRecord
  2
TEXTSTYLE_1
 70
0
 40
0.0
 41
0.8
 50
0.0
 71
0
 42
0.2
  3
gdt
  4

  0
ENDTAB
  0
TABLE
  2
VIEW
  5
6
100
AcDbSymbolTable
 70
0
  0
ENDTAB
  0
TABLE
  2
UCS
  5
7
100
AcDbSymbolTable
 70
0
  0
ENDTAB
  0
TABLE
  2
APPID
  5
9
100
AcDbSymbolTable
 70
1
  0
APPID
  5
20C
100
AcDbSymbolTableRecord
100
AcDbRegAppTableRecord
  2
ACAD
 70
0
  0
ENDTAB
  0
TABLE
  2
BLOCK_RECORD
  5
1
100
AcDbSymbolTable
 70
0
  0
BLOCK_RECORD
  5
20D
100
AcDbSymbolTableRecord
100
AcDbBlockTableRecord
  2
*Model_Space
  0
BLOCK_RECORD
  5
20E
100
AcDbSymbolTableRecord
100
AcDbBlockTableRecord
  2
*Paper_Space
  0
ENDTAB
  0
TABLE
  2
DIMSTYLE
  5
A
100
AcDbSymbolTable
 70
1
100
AcDbDimStyleTable
 71
0
  0
DIMSTYLE
105
20F
100
AcDbSymbolTableRecord
100
AcDbDimStyleTableRecord
  2
STANDARD
 70
0
  3

  4

 40
1.0
 41
3.5
 42
0.0625
 43
0.38
 44
0.18
 45
0.0
 46
0.0
 47
0.005
 48
0.005
140
3.5
141
0.09
142
0.0
143
25.4
144
1.0
145
0.0
146
1.0
147
0.09
 71
1.0
 72
0.0
 73
0
 74
0
 75
0
 76
0
 77
1
 78
8
170
0
171
2
172
0
173
0
174
0
175
0
176
0
177
0
178
5
270
2
271
3
272
3
273
2
274
2
275
0
280
0
281
0
282
0
283
1
284
8
285
0
286
0
287
3
288
0
340
11
  0
ENDTAB
  0
ENDSEC
  0
SECTION
  2
BLOCKS
  0
BLOCK
  5
20
100
AcDbEntity
  8
0
100
AcDbBlockBegin
  2
*Model_Space
 70
0
 10
0.0
 20
0.0
 30
0.0
  3
*Model_Space
  1

  0
ENDBLK
  5
21
100
AcDbEntity
  8
0
100
AcDbBlockEnd
  0
BLOCK
  5
1C
100
AcDbEntity
  8
0
100
AcDbBlockBegin
  2
*Paper_Space
 70
0
 10
0.0
 20
0.0
 30
0.0
  3
*Paper_Space
  1

  0
ENDBLK
  5
1D
100
AcDbEntity
  8
0
100
AcDbBlockEnd
  0
ENDSEC
  0
SECTION
  2
ENTITIES
  0
MTEXT
  5
210
100
AcDbEntity
  8
0
100
AcDbMText
 62
5
  6
CONTINUOUS
  7
STANDARD
 71
2
 72
1
 10
214.0418404111
 20
151.6168370406
 30
0.0
 11
0.0
 21
1.0
 31
0.0
 44
0.9
  1
VLBS-U 1,5t\PRUD
 40
3.5
 41
27.8333333333
  0
MTEXT
  5
211
100
AcDbEntity
  8
0
100
AcDbMText
 62
5
  6
CONTINUOUS
  7
STANDARD
 71
2
 72
1
 10
105.4065329651
 20
59.3968993964
 30
0.0
 11
1.0
 21
0.0
 31
0.0
 44
0.9
  1
VLBS-U 1,5t\PRUD
 40
3.5
 41
27.8333333333
  0
MTEXT
  5
212
100
AcDbEntity
  8
0
100
AcDbMText
 62
5
  6
CONTINUOUS
  7
STANDARD
 71
2
 72
1
 10
105.3178137452
 20
135.5312921292
 30
0.0
 11
1.0
 21
0.0
 31
0.0
 44
0.9
  1
VLBS-U 1,5t\PRUD
 40
3.5
 41
27.8333333333
  0
LINE
  5
213
100
AcDbEntity
  8
0
100
AcDbLine
 62
7
  6
CONTINUOUS
 10
0.0
 20
0.0
 11
0.0
 21
210.0
  0
LINE
  5
214
100
AcDbEntity
  8
0
100
AcDbLine
 62
7
  6
CONTINUOUS
 10
0.0
 20
0.0
 11
297.0
 21
0.0
  0
LINE
  5
215
100
AcDbEntity
  8
0
100
AcDbLine
 62
7
  6
CONTINUOUS
 10
0.0
 20
210.0
 11
297.0
 21
210.0
  0
LINE
  5
216
100
AcDbEntity
  8
0
100
AcDbLine
 62
7
  6
CONTINUOUS
 10
297.0
 20
0.0
 11
297.0
 21
210.0
  0
LINE
  5
217
100
AcDbEntity
  8
RUNDUNGEN
100
AcDbLine
 62
7
  6
CONTINUOUS
 10
88.2995509036
 20
114.2848596456
 11
121.2139839302
 21
114.2848596456
  0
LINE
  5
218
100
AcDbEntity
  8
BEZUGSACHSEN
100
AcDbLine
 62
7
  6
CONTINUOUS
 10
74.7567674169
 20
116.0348596456
 11
88.2567674169
 21
116.0348596456
  0
LINE
  5
219
100
AcDbEntity
  8
BEZUGSACHSEN
100
AcDbLine
 62
7
  6
CONTINUOUS
 10
121.2567674169
 20
116.0348596456
 11
134.7567674169
 21
116.0348596456
  0
LINE
  5
21A
100
AcDbEntity
  8
RUNDUNGEN
100
AcDbLine
 62
7
  6
CONTINUOUS
 10
83.3687837307
 20
184.9200199327
 11
102.4606668227
 21
192.8281368407
  0
LINE
  5
21B
100
AcDbEntity
  8
BEZUGSACHSEN
100
AcDbLine
 62
7
  6
CONTINUOUS
 10
71.7567674169
 20
119.0348599054
 11
71.7567674169
 21
123.0348596456
  0
LINE
  5
21C
100
AcDbEntity
  8
RUNDUNGEN
100
AcDbLine
 62
7
  6
CONTINUOUS
 10
71.7567674169
 20
123.0348596456
 11
71.7567674169
 21
160.2848596456
  0
LINE
  5
21D
100
AcDbEntity
  8
RUNDUNGEN
100
AcDbLine
 62
7
  6
CONTINUOUS
 10
72.2134902218
 20
162.5809602398
 11
80.1216071298
 21
181.6728433318
  0
LINE
  5
21E
100
AcDbEntity
  8
RUNDUNGEN
100
AcDbLine
 62
7
  6
CONTINUOUS
 10
91.2567674169
 20
124.2284225938
 11
118.2567674169
 21
124.2284225938
  0
LINE
  5
21F
100
AcDbEntity
  8
0
100
AcDbLine
 62
7
  6
CONTINUOUS
 10
131.7077889457
 20
132.371370941
 11
132.9077889457
 21
132.371370941
  0
LINE
  5
220
100
AcDbEntity
  8
0
100
AcDbLine
 62
7
  6
CONTINUOUS
 10
132.8702889457
 20
133.271370941
 11
131.7477889457
 21
133.271370941
  0
LINE
  5
221
100
AcDbEntity
  8
RUNDUNGEN
100
AcDbLine
 62
7
  6
CONTINUOUS
 10
85.7567674169
 20
135.0348596456
 11
85.7567674169
 21
139.3267613443
  0
LINE
  5
222
100
AcDbEntity
  8
RUNDUNGEN
100
AcDbLine
 62
7
  6
CONTINUOUS
 10
85.7567674169
 20
157.1675000233
 11
85.7567674169
 21
160.2848596456
  0
LINE
  5
223
100
AcDbEntity
  8
0
100
AcDbLine
 62
7
  6
CONTINUOUS
 10
130.8077889457
 20
135.151370941
 11
133.3577889457
 21
135.151370941
  0
LINE
  5
224
100
AcDbEntity
  8
0
100
AcDbLine
 62
7
  6
CONTINUOUS
 10
134.5577889457
 20
136.051370941
 11
133.8077889457
 21
136.051370941
  0
LINE
  5
225
100
AcDbEntity
  8
0
100
AcDbLine
 62
7
  6
CONTINUOUS
 10
133.3577889457
 20
136.051370941
 11
130.0577889457
 21
136.051370941
  0
LINE
  5
226
100
AcDbEntity
  8
0
100
AcDbLine
 62
7
  6
CONTINUOUS
 10
131.8577889457
 20
136.951370941
 11
134.5577889457
 21
136.951370941
  0
LINE
  5
227
100
AcDbEntity
  8
0
100
AcDbLine
 62
7
  6
CONTINUOUS
 10
88.2567674169
 20
117.431531366
 11
88.2567674169
 21
117.1196323272
  0
LINE
  5
228
100
AcDbEntity
  8
RUNDUNGEN
100
AcDbLine
 62
7
  6
CONTINUOUS
 10
88.2567674169
 20
117.1196323272
 11
88.2567674169
 21
115.8557852617
  0
LINE
  5
229
100
AcDbEntity
  8
RUNDUNGEN
100
AcDbLine
 62
7
  6
CONTINUOUS
 10
88.2567674169
 20
117.431531366
 11
88.2567674169
 21
136.2848596456
  0
LINE
  5
22A
100
AcDbEntity
  8
0
100
AcDbLine
 62
7
  6
CONTINUOUS
 10
134.5577889457
 20
137.851370941
 11
131.8577889457
 21
137.851370941
  0
LINE
  5
22B
100
AcDbEntity
  8
0
100
AcDbLine
 62
7
  6
CONTINUOUS
 10
94.3467674169
 20
138.0635081461
 11
95.0967674169
 21
138.0635081461
  0
LINE
  5
22C
100
AcDbEntity
  8
0
100
AcDbLine
 62
7
  6
CONTINUOUS
 10
95.3967674169
 20
138.0635081461
 11
98.7567674169
 21
138.0635081461
  0
LINE
  5
22D
100
AcDbEntity
  8
0
100
AcDbLine
 62
7
  6
CONTINUOUS
 10
94.3467674169
 20
138.6021634614
 11
95.0967674169
 21
138.6021634614
  0
LINE
  5
22E
100
AcDbEntity
  8
0
100
AcDbLine
 62
7
  6
CONTINUOUS
 10
95.3967674169
 20
138.6021634614
 11
98.7567674169
 21
138.6021634614
  0
LINE
  5
22F
100
AcDbEntity
  8
0
100
AcDbLine
 62
7
  6
CONTINUOUS
 10
108.1425120267
 20
138.7092937015
 11
108.8233632478
 21
138.7092937015
  0
LINE
  5
230
100
AcDbEntity
  8
0
100
AcDbLine
 62
7
  6
CONTINUOUS
 10
104.1554336448
 20
138.8148908371
 11
104.9067674169
 21
138.8148908371
  0
LINE
  5
231
100
AcDbEntity
  8
0
100
AcDbLine
 62
7
  6
CONTINUOUS
 10
108.8233632478
 20
138.8365760647
 11
111.5467674169
 21
138.8365760647
  0
LINE
  5
232
100
AcDbEntity
  8
0
100
AcDbLine
 62
7
  6
CONTINUOUS
 10
95.3967674169
 20
138.9276939692
 11
96.2267674169
 21
138.9276939692
  0
LINE
  5
233
100
AcDbEntity
  8
0
100
AcDbLine
 62
7
  6
CONTINUOUS
 10
96.9567674169
 20
138.9276939692
 11
98.7567674169
 21
138.9276939692
  0
LINE
  5
234
100
AcDbEntity
  8
0
100
AcDbLine
 62
7
  6
CONTINUOUS
 10
108.1425120267
 20
139.2268060024
 11
108.8233632478
 21
139.2268060024
  0
LINE
  5
235
100
AcDbEntity
  8
KONSTRUKTIONSELEMENTE
100
AcDbLine
 62
7
  6
CONTINUOUS
 10
91.2567674169
 20
139.2848596456
 11
94.3467674169
 21
139.2848596456
  0
LINE
  5
236
100
AcDbEntity
  8
KONSTRUKTIONSELEMENTE
100
AcDbLine
 62
7
  6
CONTINUOUS
 10
98.7567674169
 20
139.2848596456
 11
100.9067674169
 21
139.2848596456
  0
LINE
  5
237
100
AcDbEntity
  8
KONSTRUKTIONSELEMENTE
100
AcDbLine
 62
7
  6
CONTINUOUS
 10
104.9067674169
 20
139.2848596456
 11
107.5467674169
 21
139.2848596456
  0
LINE
  5
238
100
AcDbEntity
  8
KONSTRUKTIONSELEMENTE
100
AcDbLine
 62
7
  6
CONTINUOUS
 10
112.0574057135
 20
139.2848596456
 11
113.790018088
 21
139.2848596456
  0
LINE
  5
239
100
AcDbEntity
  8
KONSTRUKTIONSELEMENTE
100
AcDbLine
 62
7
  6
CONTINUOUS
 10
116.790018088
 20
139.2848596456
 11
118.2567674169
 21
139.2848596456
  0
LINE
  5
23A
100
AcDbEntity
  8
0
100
AcDbLine
 62
7
  6
CONTINUOUS
 10
100.9067674169
 20
139.3291003354
 11
104.9067674169
 21
139.3291003354
  0
LINE
  5
23B
100
AcDbEntity
  8
0
100
AcDbLine
 62
7
  6
CONTINUOUS
 10
108.2276183996
 20
139.3501124357
 11
111.5467674169
 21
139.3501124357
  0
LINE
  5
23C
100
AcDbEntity
  8
0
100
AcDbLine
 62
7
  6
CONTINUOUS
 10
100.9067674169
 20
139.4393455278
 11
104.3961291203
 21
139.4393455278
  0
LINE
  5
23D
100
AcDbEntity
  8
0
100
AcDbLine
 62
7
  6
CONTINUOUS
 10
107.5467674169
 20
139.4575199013
 11
111.5467674169
 21
139.4575199013
  0
LINE
  5
23E
100
AcDbEntity
  8
0
100
AcDbLine
 62
7
  6
CONTINUOUS
 10
131.8577889457
 20
139.651370941
 11
134.5577889457
 21
139.651370941
  0
LINE
  5
23F
100
AcDbEntity
  8
0
100
AcDbLine
 62
7
  6
CONTINUOUS
 10
94.3467674169
 20
139.6892969329
 11
96.9917674169
 21
139.6892969329
  0
LINE
  5
240
100
AcDbEntity
  8
0
100
AcDbLine
 62
7
  6
CONTINUOUS
 10
110.1850653324
 20
139.7173674853
 11
110.355278078
 21
139.7173674853
  0
LINE
  5
241
100
AcDbEntity
  8
0
100
AcDbLine
 62
7
  6
CONTINUOUS
 10
107.5467674169
 20
139.7511526998
 11
109.759533349
 21
139.7511526998
  0
LINE
  5
242
100
AcDbEntity
  8
0
100
AcDbLine
 62
7
  6
CONTINUOUS
 10
104.3961291203
 20
139.7604862909
 11
104.9067674169
 21
139.7604862909
  0
LINE
  5
243
100
AcDbEntity
  8
0
100
AcDbLine
 62
7
  6
CONTINUOUS
 10
94.3467674169
 20
139.7610193998
 11
96.9917674169
 21
139.7610193998
  0
LINE
  5
244
100
AcDbEntity
  8
0
100
AcDbLine
 62
7
  6
CONTINUOUS
 10
94.3467674169
 20
139.7645857918
 11
96.9917674169
 21
139.7645857918
  0
LINE
  5
245
100
AcDbEntity
  8
0
100
AcDbLine
 62
7
  6
CONTINUOUS
 10
107.9722992811
 20
139.7723007613
 11
109.3340014848
 21
139.7723007613
  0
LINE
  5
246
100
AcDbEntity
  8
0
100
AcDbLine
 62
7
  6
CONTINUOUS
 10
113.7975369324
 20
139.7780818239
 11
114.2507876035
 21
139.7780818239
  0
LINE
  5
247
100
AcDbEntity
  8
0
100
AcDbLine
 62
7
  6
CONTINUOUS
 10
116.3292485726
 20
139.7780818239
 11
116.7824992437
 21
139.7780818239
  0
LINE
  5
248
100
AcDbEntity
  8
0
100
AcDbLine
 62
7
  6
CONTINUOUS
 10
100.9067674169
 20
139.7831180509
 11
104.9067674169
 21
139.7831180509
  0
LINE
  5
249
100
AcDbEntity
  8
0
100
AcDbLine
 62
7
  6
CONTINUOUS
 10
97.8567674169
 20
139.7848596456
 11
98.7563390293
 21
139.7848596456
  0
LINE
  5
24A
100
AcDbEntity
  8
0
100
AcDbLine
 62
7
  6
CONTINUOUS
 10
100.9067674169
 20
139.7848596456
 11
104.9067674169
 21
139.7848596456
  0
LINE
  5
24B
100
AcDbEntity
  8
0
100
AcDbLine
 62
7
  6
CONTINUOUS
 10
107.5467674169
 20
139.7848596456
 11
107.9722992811
 21
139.7848596456
  0
LINE
  5
24C
100
AcDbEntity
  8
0
100
AcDbLine
 62
7
  6
CONTINUOUS
 10
109.0303419337
 20
139.7848596456
 11
109.4650652885
 21
139.7848596456
  0
LINE
  5
24D
100
AcDbEntity
  8
0
100
AcDbLine
 62
7
  6
CONTINUOUS
 10
111.0752780623
 20
139.7848596456
 11
111.5100014734
 21
139.7848596456
  0
LINE
  5
24E
100
AcDbEntity
  8
0
100
AcDbLine
 62
7
  6
CONTINUOUS
 10
94.3467674169
 20
139.7645857918
 11
94.3467674169
 21
138.0635081461
  0
LINE
  5
24F
100
AcDbEntity
  8
0
100
AcDbLine
 62
7
  6
CONTINUOUS
 10
134.5577889457
 20
140.551370941
 11
131.8577889457
 21
140.551370941
  0
LINE
  5
250
100
AcDbEntity
  8
BEZUGSACHSEN
100
AcDbLine
 62
7
  6
CONTINUOUS
 10
121.7567674169
 20
141.0348596456
 11
116.3332063753
 21
141.0348596456
  0
LINE
  5
251
100
AcDbEntity
  8
RUNDUNGEN
100
AcDbLine
 62
7
  6
CONTINUOUS
 10
87.7567674169
 20
141.0348596456
 11
93.1803284585
 21
141.0348596456
  0
LINE
  5
252
100
AcDbEntity
  8
0
100
AcDbLine
 62
7
  6
CONTINUOUS
 10
95.0967674169
 20
139.2667519824
 11
95.0967674169
 21
138.0635081461
  0
LINE
  5
253
100
AcDbEntity
  8
0
100
AcDbLine
 62
7
  6
CONTINUOUS
 10
95.3967674169
 20
138.9276939692
 11
95.3967674169
 21
138.0635081461
  0
LINE
  5
254
100
AcDbEntity
  8
0
100
AcDbLine
 62
7
  6
CONTINUOUS
 10
96.2267674169
 20
139.2667519824
 11
96.2267674169
 21
138.9276939692
  0
LINE
  5
255
100
AcDbEntity
  8
0
100
AcDbLine
 62
7
  6
CONTINUOUS
 10
96.9567674169
 20
139.0730580304
 11
96.9567674169
 21
138.9276939692
  0
LINE
  5
256
100
AcDbEntity
  8
0
100
AcDbLine
 62
7
  6
CONTINUOUS
 10
130.0577889457
 20
144.301370941
 11
131.9377889457
 21
144.301370941
  0
LINE
  5
257
100
AcDbEntity
  8
0
100
AcDbLine
 62
7
  6
CONTINUOUS
 10
132.6877889457
 20
144.301370941
 11
133.3577889457
 21
144.301370941
  0
LINE
  5
258
100
AcDbEntity
  8
0
100
AcDbLine
 62
7
  6
CONTINUOUS
 10
134.5577889457
 20
145.051370941
 11
133.8077889457
 21
145.051370941
  0
LINE
  5
259
100
AcDbEntity
  8
0
100
AcDbLine
 62
7
  6
CONTINUOUS
 10
133.3577889457
 20
145.051370941
 11
130.0577889457
 21
145.051370941
  0
LINE
  5
25A
100
AcDbEntity
  8
0
100
AcDbLine
 62
7
  6
CONTINUOUS
 10
98.7567674169
 20
138.0635081461
 11
98.7567674169
 21
139.7847976012
  0
LINE
  5
25B
100
AcDbEntity
  8
0
100
AcDbLine
 62
7
  6
CONTINUOUS
 10
100.9067674169
 20
139.7848596443
 11
100.9067674169
 21
138.4844601102
  0
LINE
  5
25C
100
AcDbEntity
  8
0
100
AcDbLine
 62
7
  6
CONTINUOUS
 10
100.9067674169
 20
138.084921737
 11
100.9067674169
 21
137.2652567396
  0
LINE
  5
25D
100
AcDbEntity
  8
0
100
AcDbLine
 62
7
  6
CONTINUOUS
 10
104.3961291203
 20
139.7604862909
 11
104.3961291203
 21
139.4393455278
  0
LINE
  5
25E
100
AcDbEntity
  8
0
100
AcDbLine
 62
7
  6
CONTINUOUS
 10
104.9067674169
 20
138.7244926401
 11
104.9067674169
 21
137.9175215423
  0
LINE
  5
25F
100
AcDbEntity
  8
0
100
AcDbLine
 62
7
  6
CONTINUOUS
 10
104.9067674169
 20
138.8148908371
 11
104.9067674169
 21
139.7848596443
  0
LINE
  5
260
100
AcDbEntity
  8
0
100
AcDbLine
 62
7
  6
CONTINUOUS
 10
107.5467674169
 20
139.7848596019
 11
107.5467674169
 21
138.8365760647
  0
LINE
  5
261
100
AcDbEntity
  8
0
100
AcDbLine
 62
7
  6
CONTINUOUS
 10
107.9722992811
 20
139.7848596324
 11
107.9722992811
 21
139.7723007613
  0
LINE
  5
262
100
AcDbEntity
  8
0
100
AcDbLine
 62
7
  6
CONTINUOUS
 10
108.1425120267
 20
139.2268060024
 11
108.1425120267
 21
138.7092937015
  0
LINE
  5
263
100
AcDbEntity
  8
0
100
AcDbLine
 62
7
  6
CONTINUOUS
 10
108.8233632478
 20
139.2268060024
 11
108.8233632478
 21
138.7092937015
  0
LINE
  5
264
100
AcDbEntity
  8
0
100
AcDbLine
 62
7
  6
CONTINUOUS
 10
108.9935759935
 20
139.7839066777
 11
108.9935759935
 21
139.7723007613
  0
LINE
  5
265
100
AcDbEntity
  8
0
100
AcDbLine
 62
7
  6
CONTINUOUS
 10
109.0786823663
 20
139.7832121824
 11
109.0786823663
 21
139.7723007613
  0
LINE
  5
266
100
AcDbEntity
  8
0
100
AcDbLine
 62
7
  6
CONTINUOUS
 10
109.759533349
 20
139.4575199013
 11
109.759533349
 21
139.7778922025
  0
LINE
  5
267
100
AcDbEntity
  8
0
100
AcDbLine
 62
7
  6
CONTINUOUS
 10
109.9297460947
 20
139.7246087583
 11
109.9297460947
 21
139.4575199013
  0
LINE
  5
268
100
AcDbEntity
  8
0
100
AcDbLine
 62
7
  6
CONTINUOUS
 10
110.1850653324
 20
139.7173674853
 11
110.1850653324
 21
139.4575199013
  0
LINE
  5
269
100
AcDbEntity
  8
0
100
AcDbLine
 62
7
  6
CONTINUOUS
 10
110.355278078
 20
139.7173674853
 11
110.355278078
 21
139.4575199013
  0
LINE
  5
26A
100
AcDbEntity
  8
0
100
AcDbLine
 62
7
  6
CONTINUOUS
 10
110.5254908237
 20
139.775301076
 11
110.5254908237
 21
139.4575199013
  0
LINE
  5
26B
100
AcDbEntity
  8
0
100
AcDbLine
 62
7
  6
CONTINUOUS
 10
110.8659163746
 20
139.7608423574
 11
110.8659163746
 21
139.4575199013
  0
LINE
  5
26C
100
AcDbEntity
  8
0
100
AcDbLine
 62
7
  6
CONTINUOUS
 10
111.1212354931
 20
139.6959207777
 11
111.1212354931
 21
139.4575199013
  0
LINE
  5
26D
100
AcDbEntity
  8
0
100
AcDbLine
 62
7
  6
CONTINUOUS
 10
111.2063418958
 20
139.7723007613
 11
111.2063418958
 21
139.6911393294
  0
LINE
  5
26E
100
AcDbEntity
  8
0
100
AcDbLine
 62
7
  6
CONTINUOUS
 10
111.4616610366
 20
139.7832121824
 11
111.4616610366
 21
139.6762297048
  0
LINE
  5
26F
100
AcDbEntity
  8
0
100
AcDbLine
 62
7
  6
CONTINUOUS
 10
111.5467674169
 20
139.7839066777
 11
111.5467674169
 21
139.6709939993
  0
LINE
  5
270
100
AcDbEntity
  8
0
100
AcDbLine
 62
7
  6
CONTINUOUS
 10
111.5467674169
 20
139.4575199013
 11
111.5467674169
 21
138.8365760647
  0
LINE
  5
271
100
AcDbEntity
  8
0
100
AcDbLine
 62
7
  6
CONTINUOUS
 10
112.0574057135
 20
139.6370797328
 11
112.0574057135
 21
139.0701235984
  0
LINE
  5
272
100
AcDbEntity
  8
0
100
AcDbLine
 62
7
  6
CONTINUOUS
 10
113.790018088
 20
139.2728172543
 11
113.790018088
 21
139.7731716777
  0
LINE
  5
273
100
AcDbEntity
  8
0
100
AcDbLine
 62
7
  6
CONTINUOUS
 10
114.2507876035
 20
139.7780818239
 11
114.2507876035
 21
139.7669614007
  0
LINE
  5
274
100
AcDbEntity
  8
0
100
AcDbLine
 62
7
  6
CONTINUOUS
 10
116.3292485726
 20
139.7780818239
 11
116.3292485726
 21
139.7669614006
  0
LINE
  5
275
100
AcDbEntity
  8
0
100
AcDbLine
 62
7
  6
CONTINUOUS
 10
116.790018088
 20
139.2728172546
 11
116.790018088
 21
139.7731716778
  0
LINE
  5
276
100
AcDbEntity
  8
RUNDUNGEN
100
AcDbLine
 62
7
  6
CONTINUOUS
 10
121.2567674169
 20
136.2848596456
 11
121.2567674169
 21
117.431531366
  0
LINE
  5
277
100
AcDbEntity
  8
0
100
AcDbLine
 62
7
  6
CONTINUOUS
 10
121.2567674169
 20
117.431531366
 11
121.2567674169
 21
117.1196323272
  0
LINE
  5
278
100
AcDbEntity
  8
RUNDUNGEN
100
AcDbLine
 62
7
  6
CONTINUOUS
 10
121.2567674169
 20
117.1196323272
 11
121.2567674169
 21
115.8557852617
  0
LINE
  5
279
100
AcDbEntity
  8
BEZUGSACHSEN
100
AcDbLine
 62
7
  6
CONTINUOUS
 10
123.7567674169
 20
135.0348596456
 11
123.7567674169
 21
139.3267613443
  0
LINE
  5
27A
100
AcDbEntity
  8
BEZUGSACHSEN
100
AcDbLine
 62
7
  6
CONTINUOUS
 10
123.7567674169
 20
157.1675000233
 11
123.7567674169
 21
160.2848596456
  0
LINE
  5
27B
100
AcDbEntity
  8
0
100
AcDbLine
 62
7
  6
CONTINUOUS
 10
131.5627889457
 20
142.8863085
 11
130.0577889457
 21
142.0173963448
  0
LINE
  5
27C
100
AcDbEntity
  8
0
100
AcDbLine
 62
7
  6
CONTINUOUS
 10
130.0577889457
 20
141.151370941
 11
132.0263395324
 21
142.2879141522
  0
LINE
  5
27D
100
AcDbEntity
  8
0
100
AcDbLine
 62
7
  6
CONTINUOUS
 10
130.0577889457
 20
145.051370941
 11
130.0577889457
 21
144.301370941
  0
LINE
  5
27E
100
AcDbEntity
  8
0
100
AcDbLine
 62
7
  6
CONTINUOUS
 10
130.0577889457
 20
142.0173963448
 11
130.0577889457
 21
141.151370941
  0
LINE
  5
27F
100
AcDbEntity
  8
0
100
AcDbLine
 62
7
  6
CONTINUOUS
 10
130.0577889457
 20
136.051370941
 11
130.0577889457
 21
134.021370941
  0
LINE
  5
280
100
AcDbEntity
  8
0
100
AcDbLine
 62
7
  6
CONTINUOUS
 10
130.8077889457
 20
134.211370941
 11
130.8077889457
 21
135.151370941
  0
LINE
  5
281
100
AcDbEntity
  8
0
100
AcDbLine
 62
7
  6
CONTINUOUS
 10
131.9377889457
 20
144.301370941
 11
131.9377889457
 21
143.5358275528
  0
LINE
  5
282
100
AcDbEntity
  8
0
100
AcDbLine
 62
7
  6
CONTINUOUS
 10
132.6877889457
 20
143.061370941
 11
132.6877889457
 21
144.301370941
  0
LINE
  5
283
100
AcDbEntity
  8
0
100
AcDbLine
 62
7
  6
CONTINUOUS
 10
133.3577889457
 20
135.151370941
 11
133.3577889457
 21
136.051370941
  0
LINE
  5
284
100
AcDbEntity
  8
0
100
AcDbLine
 62
7
  6
CONTINUOUS
 10
133.3577889457
 20
144.301370941
 11
133.3577889457
 21
145.051370941
  0
LINE
  5
285
100
AcDbEntity
  8
0
100
AcDbLine
 62
7
  6
CONTINUOUS
 10
133.8077889457
 20
145.051370941
 11
133.8077889457
 21
143.061370941
  0
LINE
  5
286
100
AcDbEntity
  8
0
100
AcDbLine
 62
7
  6
CONTINUOUS
 10
133.8077889457
 20
136.051370941
 11
133.8077889457
 21
134.2113676166
  0
LINE
  5
287
100
AcDbEntity
  8
0
100
AcDbLine
 62
7
  6
CONTINUOUS
 10
134.5577889457
 20
134.021370941
 11
134.5577889457
 21
136.051370941
  0
LINE
  5
288
100
AcDbEntity
  8
0
100
AcDbLine
 62
7
  6
CONTINUOUS
 10
134.5577889457
 20
136.951370941
 11
134.5577889457
 21
137.851370941
  0
LINE
  5
289
100
AcDbEntity
  8
0
100
AcDbLine
 62
7
  6
CONTINUOUS
 10
134.5577889457
 20
139.651370941
 11
134.5577889457
 21
140.551370941
  0
LINE
  5
28A
100
AcDbEntity
  8
0
100
AcDbLine
 62
7
  6
CONTINUOUS
 10
134.5577889457
 20
142.761370941
 11
134.5577889457
 21
145.051370941
  0
LINE
  5
28B
100
AcDbEntity
  8
BEZUGSACHSEN
100
AcDbLine
 62
7
  6
CONTINUOUS
 10
137.7567674169
 20
160.2848596456
 11
137.7567674169
 21
119.0348599054
  0
LINE
  5
28C
100
AcDbEntity
  8
BEZUGSACHSEN
100
AcDbLine
 62
7
  6
CONTINUOUS
 10
129.391927704
 20
181.6728433318
 11
137.300044612
 21
162.5809602398
  0
LINE
  5
28D
100
AcDbEntity
  8
BEZUGSACHSEN
100
AcDbLine
 62
7
  6
CONTINUOUS
 10
126.1447511031
 20
184.9200199327
 11
107.0528680111
 21
192.8281368407
  0
LINE
  5
28E
100
AcDbEntity
  8
RUNDUNGEN
100
AcDbLine
 62
7
  6
CONTINUOUS
 10
230.0320813573
 20
114.2848596456
 11
227.0320813573
 21
114.2848596456
  0
LINE
  5
28F
100
AcDbEntity
  8
RUNDUNGEN
100
AcDbLine
 62
7
  6
CONTINUOUS
 10
208.803123507
 20
114.2848596456
 11
205.803123507
 21
114.2848596456
  0
LINE
  5
290
100
AcDbEntity
  8
RUNDUNGEN
100
AcDbLine
 62
7
  6
CONTINUOUS
 10
205.1926792901
 20
117.431531366
 11
201.4176024322
 21
124.2284225938
  0
LINE
  5
291
100
AcDbEntity
  8
RUNDUNGEN
100
AcDbLine
 62
7
  6
CONTINUOUS
 10
205.803123507
 20
114.2848596456
 11
205.3032765991
 21
117.1196323272
  0
LINE
  5
292
100
AcDbEntity
  8
RUNDUNGEN
100
AcDbLine
 62
7
  6
CONTINUOUS
 10
201.6682745075
 20
125.6500545771
 11
201.4176024322
 21
124.2284225938
  0
LINE
  5
293
100
AcDbEntity
  8
0
100
AcDbLine
 62
7
  6
CONTINUOUS
 10
224.9176024322
 20
140.551370941
 11
225.4176024322
 21
140.551370941
  0
LINE
  5
294
100
AcDbEntity
  8
0
100
AcDbLine
 62
7
  6
CONTINUOUS
 10
224.9176024322
 20
141.151370941
 11
225.4176024322
 21
141.151370941
  0
LINE
  5
295
100
AcDbEntity
  8
0
100
AcDbLine
 62
7
  6
CONTINUOUS
 10
224.9176024322
 20
142.0173963448
 11
225.4176024322
 21
142.0173963448
  0
LINE
  5
296
100
AcDbEntity
  8
0
100
AcDbLine
 62
7
  6
CONTINUOUS
 10
224.9176024322
 20
144.301370941
 11
225.4176024322
 21
144.301370941
  0
LINE
  5
297
100
AcDbEntity
  8
0
100
AcDbLine
 62
7
  6
CONTINUOUS
 10
224.9176024322
 20
145.051370941
 11
225.4176024322
 21
145.051370941
  0
LINE
  5
298
100
AcDbEntity
  8
BEZUGSACHSEN
100
AcDbLine
 62
7
  6
CONTINUOUS
 10
210.9176024322
 20
123.0348596456
 11
210.9176024322
 21
190.2848596456
  0
LINE
  5
299
100
AcDbEntity
  8
RUNDUNGEN
100
AcDbLine
 62
7
  6
CONTINUOUS
 10
208.803123507
 20
114.2848596456
 11
210.5315442846
 21
124.0872209781
  0
LINE
  5
29A
100
AcDbEntity
  8
RUNDUNGEN
100
AcDbLine
 62
7
  6
CONTINUOUS
 10
225.3036605798
 20
124.0872209781
 11
227.0320813573
 21
114.2848596456
  0
LINE
  5
29B
100
AcDbEntity
  8
BEZUGSACHSEN
100
AcDbLine
 62
7
  6
CONTINUOUS
 10
224.9176024322
 20
190.2848596456
 11
224.9176024322
 21
190.0564982431
  0
LINE
  5
29C
100
AcDbEntity
  8
RUNDUNGEN
100
AcDbLine
 62
7
  6
CONTINUOUS
 10
224.9176024322
 20
123.0348596456
 11
224.9176024322
 21
190.0564982431
  0
LINE
  5
29D
100
AcDbEntity
  8
0
100
AcDbLine
 62
7
  6
CONTINUOUS
 10
225.3276024322
 20
138.084921737
 11
225.3276024322
 21
137.527379783
  0
LINE
  5
29E
100
AcDbEntity
  8
0
100
AcDbLine
 62
7
  6
CONTINUOUS
 10
225.4176024322
 20
145.051370941
 11
225.4176024322
 21
141.151370941
  0
LINE
  5
29F
100
AcDbEntity
  8
0
100
AcDbLine
 62
7
  6
CONTINUOUS
 10
225.4176024322
 20
140.551370941
 11
225.4176024322
 21
138.0409866637
  0
LINE
  5
2A0
100
AcDbEntity
  8
0
100
AcDbLine
 62
7
  6
CONTINUOUS
 10
225.8276024322
 20
137.8325139479
 11
225.8276024322
 21
137.2652567396
  0
LINE
  5
2A1
100
AcDbEntity
  8
RUNDUNGEN
100
AcDbLine
 62
7
  6
CONTINUOUS
 10
234.4176024322
 20
124.2284225938
 11
234.1669303569
 21
125.6500545771
  0
LINE
  5
2A2
100
AcDbEntity
  8
RUNDUNGEN
100
AcDbLine
 62
7
  6
CONTINUOUS
 10
230.5319282653
 20
117.1196323272
 11
230.0320813573
 21
114.2848596456
  0
LINE
  5
2A3
100
AcDbEntity
  8
RUNDUNGEN
100
AcDbLine
 62
7
  6
CONTINUOUS
 10
234.4176024322
 20
124.2284225938
 11
230.6425255742
 21
117.431531366
  0
LINE
  5
2A4
100
AcDbEntity
  8
0
100
AcDbLine
 62
7
  6
CONTINUOUS
 10
213.9176024322
 20
193.2848596456
 11
221.9176024322
 21
193.2848596456
  0
LINE
  5
2A5
100
AcDbEntity
  8
BEZUGSACHSEN
100
AcDbLine
 62
7
  6
CONTINUOUS
 10
71.7567674169
 20
59.685937349
 11
71.7567674169
 21
51.685937349
  0
LINE
  5
2A6
100
AcDbEntity
  8
RUNDUNGEN
100
AcDbLine
 62
7
  6
CONTINUOUS
 10
88.2567674169
 20
41.4981560864
 11
88.2567674169
 21
48.685937349
  0
LINE
  5
2A7
100
AcDbEntity
  8
RUNDUNGEN
100
AcDbLine
 62
7
  6
CONTINUOUS
 10
88.2567674169
 20
62.685937349
 11
88.2567674169
 21
69.8737186116
  0
LINE
  5
2A8
100
AcDbEntity
  8
RUNDUNGEN
100
AcDbLine
 62
7
  6
CONTINUOUS
 10
91.2567674169
 20
39.185937349
 11
118.2567674169
 21
39.185937349
  0
LINE
  5
2A9
100
AcDbEntity
  8
0
100
AcDbLine
 62
7
  6
CONTINUOUS
 10
134.5577889457
 20
48.185937349
 11
130.0577889457
 21
48.185937349
  0
LINE
  5
2AA
100
AcDbEntity
  8
BEZUGSACHSEN
100
AcDbLine
 62
7
  6
CONTINUOUS
 10
134.7567674169
 20
48.685937349
 11
103.6087171198
 21
48.685937349
  0
LINE
  5
2AB
100
AcDbEntity
  8
RUNDUNGEN
100
AcDbLine
 62
7
  6
CONTINUOUS
 10
74.7567674169
 20
48.685937349
 11
103.6087171198
 21
48.685937349
  0
LINE
  5
2AC
100
AcDbEntity
  8
0
100
AcDbLine
 62
7
  6
CONTINUOUS
 10
100.9067674169
 20
48.275937349
 11
100.9067674169
 21
47.775937349
  0
LINE
  5
2AD
100
AcDbEntity
  8
0
100
AcDbLine
 62
7
  6
CONTINUOUS
 10
102.1330288573
 20
48.685937349
 11
100.9067674169
 21
48.275937349
  0
LINE
  5
2AE
100
AcDbEntity
  8
0
100
AcDbLine
 62
7
  6
CONTINUOUS
 10
103.6367673355
 20
48.685937349
 11
100.9067674169
 21
47.775937349
  0
LINE
  5
2AF
100
AcDbEntity
  8
BEZUGSACHSEN
100
AcDbLine
 62
7
  6
CONTINUOUS
 10
74.7567674169
 20
62.685937349
 11
134.7567674169
 21
62.685937349
  0
LINE
  5
2B0
100
AcDbEntity
  8
RUNDUNGEN
100
AcDbLine
 62
7
  6
CONTINUOUS
 10
121.2567674169
 20
69.8737186116
 11
121.2567674169
 21
62.685937349
  0
LINE
  5
2B1
100
AcDbEntity
  8
RUNDUNGEN
100
AcDbLine
 62
7
  6
CONTINUOUS
 10
121.2567674169
 20
48.685937349
 11
121.2567674169
 21
41.4981560864
  0
LINE
  5
2B2
100
AcDbEntity
  8
RUNDUNGEN
100
AcDbLine
 62
7
  6
CONTINUOUS
 10
91.2567674169
 20
72.185937349
 11
118.2567674169
 21
72.185937349
  0
LINE
  5
2B3
100
AcDbEntity
  8
0
100
AcDbLine
 62
7
  6
CONTINUOUS
 10
130.0577889457
 20
48.685937349
 11
130.0577889457
 21
48.185937349
  0
LINE
  5
2B4
100
AcDbEntity
  8
0
100
AcDbLine
 62
7
  6
CONTINUOUS
 10
133.3577889457
 20
48.685937349
 11
133.3577889457
 21
48.185937349
  0
LINE
  5
2B5
100
AcDbEntity
  8
0
100
AcDbLine
 62
7
  6
CONTINUOUS
 10
133.8077889457
 20
48.685937349
 11
133.8077889457
 21
48.185937349
  0
LINE
  5
2B6
100
AcDbEntity
  8
0
100
AcDbLine
 62
7
  6
CONTINUOUS
 10
134.5577889457
 20
48.685937349
 11
134.5577889457
 21
48.185937349
  0
LINE
  5
2B7
100
AcDbEntity
  8
BEZUGSACHSEN
100
AcDbLine
 62
7
  6
CONTINUOUS
 10
137.7567674169
 20
51.685937349
 11
137.7567674169
 21
59.685937349
  0
ARC
  5
2B8
100
AcDbEntity
  8
RUNDUNGEN
100
AcDbCircle
 62
7
  6
CONTINUOUS
 10
91.7567674169
 20
135.0348596456
 40
6.0
100
AcDbArc
 50
180.0
 51
234.3127799269
  0
ARC
  5
2B9
100
AcDbEntity
  8
RUNDUNGEN
100
AcDbCircle
 62
7
  6
CONTINUOUS
 10
91.2567674169
 20
136.2848596456
 40
3.0
100
AcDbArc
 50
90.0
 51
180.0
  0
ARC
  5
2BA
100
AcDbEntity
  8
BEZUGSACHSEN
100
AcDbCircle
 62
7
  6
CONTINUOUS
 10
74.7567674169
 20
119.0348596456
 40
3.0
100
AcDbArc
 50
180.0
 51
270.0
  0
ARC
  5
2BB
100
AcDbEntity
  8
BEZUGSACHSEN
100
AcDbCircle
 62
7
  6
CONTINUOUS
 10
93.1803284585
 20
143.0348596456
 40
2.0
100
AcDbArc
 50
270.0
 51
55.9054014985
  0
ARC
  5
2BC
100
AcDbEntity
  8
RUNDUNGEN
100
AcDbCircle
 62
7
  6
CONTINUOUS
 10
93.1803284585
 20
143.0348596456
 40
2.0
100
AcDbArc
 50
270.0
 51
57.2949767509
  0
ARC
  5
2BD
100
AcDbEntity
  8
RUNDUNGEN
100
AcDbCircle
 62
7
  6
CONTINUOUS
 10
87.7567674169
 20
139.0348596456
 40
2.0
100
AcDbArc
 50
90.0
 51
180.0
  0
ARC
  5
2BE
100
AcDbEntity
  8
RUNDUNGEN
100
AcDbCircle
 62
7
  6
CONTINUOUS
 10
104.2567674169
 20
160.2848596456
 40
18.5
100
AcDbArc
 50
180.0
 51
237.2949767509
  0
ARC
  5
2BF
100
AcDbEntity
  8
BEZUGSACHSEN
100
AcDbCircle
 62
7
  6
CONTINUOUS
 10
85.6648843249
 20
179.3767427377
 40
6.0
100
AcDbArc
 50
156.4523294213
 51
157.5
  0
ARC
  5
2C0
100
AcDbEntity
  8
RUNDUNGEN
100
AcDbCircle
 62
7
  6
CONTINUOUS
 10
77.7567674169
 20
160.2848596456
 40
6.0
100
AcDbArc
 50
157.5
 51
180.0
  0
ARC
  5
2C1
100
AcDbEntity
  8
RUNDUNGEN
100
AcDbCircle
 62
7
  6
CONTINUOUS
 10
85.6648843249
 20
179.3767427377
 40
6.0
100
AcDbArc
 50
112.5
 51
157.5
  0
ARC
  5
2C2
100
AcDbEntity
  8
BEZUGSACHSEN
100
AcDbCircle
 62
7
  6
CONTINUOUS
 10
117.7567674169
 20
135.0348596456
 40
6.0
100
AcDbArc
 50
305.6859561771
 51
360.0
  0
ARC
  5
2C3
100
AcDbEntity
  8
RUNDUNGEN
100
AcDbCircle
 62
7
  6
CONTINUOUS
 10
118.2567674169
 20
136.2848596456
 40
3.0
100
AcDbArc
 50
0.0
 51
90.0
  0
ARC
  5
2C4
100
AcDbEntity
  8
BEZUGSACHSEN
100
AcDbCircle
 62
7
  6
CONTINUOUS
 10
134.7567674169
 20
119.0348596456
 40
3.0
100
AcDbArc
 50
270.0
 51
360.0
  0
ARC
  5
2C5
100
AcDbEntity
  8
BEZUGSACHSEN
100
AcDbCircle
 62
7
  6
CONTINUOUS
 10
116.3332063753
 20
143.0348596456
 40
2.0
100
AcDbArc
 50
122.7050232491
 51
270.0
  0
ARC
  5
2C6
100
AcDbEntity
  8
BEZUGSACHSEN
100
AcDbCircle
 62
7
  6
CONTINUOUS
 10
121.7567674169
 20
139.0348596456
 40
2.0
100
AcDbArc
 50
1.4090868945
 51
90.0
  0
ARC
  5
2C7
100
AcDbEntity
  8
0
100
AcDbCircle
 62
7
  6
CONTINUOUS
 10
131.8577889457
 20
138.751370941
 40
1.8
100
AcDbArc
 50
90.0
 51
270.0
  0
ARC
  5
2C8
100
AcDbEntity
  8
0
100
AcDbCircle
 62
7
  6
CONTINUOUS
 10
131.7077889457
 20
134.021370941
 40
1.65
100
AcDbArc
 50
180.0
 51
270.0
  0
ARC
  5
2C9
100
AcDbEntity
  8
0
100
AcDbCircle
 62
7
  6
CONTINUOUS
 10
132.9077889457
 20
134.021370941
 40
1.65
100
AcDbArc
 50
270.0
 51
360.0
  0
ARC
  5
2CA
100
AcDbEntity
  8
0
100
AcDbCircle
 62
7
  6
CONTINUOUS
 10
133.2477889457
 20
142.761370941
 40
1.31
100
AcDbArc
 50
201.1872687082
 51
360.0
  0
ARC
  5
2CB
100
AcDbEntity
  8
0
100
AcDbCircle
 62
7
  6
CONTINUOUS
 10
132.8677889457
 20
134.2113676166
 40
0.94
100
AcDbArc
 50
270.152382572
 51
360.0
  0
ARC
  5
2CC
100
AcDbEntity
  8
0
100
AcDbCircle
 62
7
  6
CONTINUOUS
 10
131.7477889457
 20
134.211370941
 40
0.94
100
AcDbArc
 50
180.0
 51
270.0
  0
ARC
  5
2CD
100
AcDbEntity
  8
0
100
AcDbCircle
 62
7
  6
CONTINUOUS
 10
131.8577889457
 20
138.751370941
 40
0.9
100
AcDbArc
 50
90.0
 51
270.0
  0
ARC
  5
2CE
100
AcDbEntity
  8
0
100
AcDbCircle
 62
7
  6
CONTINUOUS
 10
131.1877889457
 20
143.5358275528
 40
0.75
100
AcDbArc
 50
300.0
 51
360.0
  0
ARC
  5
2CF
100
AcDbEntity
  8
0
100
AcDbCircle
 62
7
  6
CONTINUOUS
 10
133.2477889457
 20
143.061370941
 40
0.56
100
AcDbArc
 50
180.0
 51
360.0
  0
ARC
  5
2D0
100
AcDbEntity
  8
BEZUGSACHSEN
100
AcDbCircle
 62
7
  6
CONTINUOUS
 10
104.7567674169
 20
160.2848596456
 40
19.0
100
AcDbArc
 50
0.0
 51
180.0
  0
ARC
  5
2D1
100
AcDbEntity
  8
BEZUGSACHSEN
100
AcDbCircle
 62
7
  6
CONTINUOUS
 10
105.2567674169
 20
160.2848596456
 40
18.5
100
AcDbArc
 50
302.7050232491
 51
360.0
  0
ARC
  5
2D2
100
AcDbEntity
  8
BEZUGSACHSEN
100
AcDbCircle
 62
7
  6
CONTINUOUS
 10
131.7567674169
 20
160.2848596456
 40
6.0
100
AcDbArc
 50
0.0
 51
22.5
  0
ARC
  5
2D3
100
AcDbEntity
  8
BEZUGSACHSEN
100
AcDbCircle
 62
7
  6
CONTINUOUS
 10
123.8486505089
 20
179.3767427377
 40
6.0
100
AcDbArc
 50
22.5
 51
67.5
  0
ARC
  5
2D4
100
AcDbEntity
  8
BEZUGSACHSEN
100
AcDbCircle
 62
7
  6
CONTINUOUS
 10
104.7567674169
 20
187.2848596456
 40
6.0
100
AcDbArc
 50
67.5
 51
112.5
  0
ARC
  5
2D5
100
AcDbEntity
  8
0
100
AcDbCircle
 62
7
  6
CONTINUOUS
 10
217.9176024322
 20
122.7848596456
 40
17.0
100
AcDbArc
 50
62.2707415028
 51
65.6840543445
  0
ARC
  5
2D6
100
AcDbEntity
  8
RUNDUNGEN
100
AcDbCircle
 62
7
  6
CONTINUOUS
 10
217.9176024322
 20
122.7848596456
 40
16.5
100
AcDbArc
 50
10.0
 51
64.8971365649
  0
ARC
  5
2D7
100
AcDbEntity
  8
RUNDUNGEN
100
AcDbCircle
 62
7
  6
CONTINUOUS
 10
217.9176024322
 20
122.7848596456
 40
16.5
100
AcDbArc
 50
115.1028634351
 51
170.0
  0
ARC
  5
2D8
100
AcDbEntity
  8
0
100
AcDbCircle
 62
7
  6
CONTINUOUS
 10
217.9176024322
 20
123.1848596456
 40
7.9
100
AcDbArc
 50
189.8516924054
 51
350.1483075946
  0
ARC
  5
2D9
100
AcDbEntity
  8
RUNDUNGEN
100
AcDbCircle
 62
7
  6
CONTINUOUS
 10
217.9176024322
 20
122.7848596456
 40
7.5
100
AcDbArc
 50
158.9626317211
 51
170.0
  0
ARC
  5
2DA
100
AcDbEntity
  8
RUNDUNGEN
100
AcDbCircle
 62
7
  6
CONTINUOUS
 10
217.9176024322
 20
122.7848596456
 40
7.5
100
AcDbArc
 50
10.0
 51
21.0373682789
  0
ARC
  5
2DB
100
AcDbEntity
  8
0
100
AcDbCircle
 62
7
  6
CONTINUOUS
 10
217.9176024322
 20
123.1848596456
 40
7.4
100
AcDbArc
 50
167.0169871152
 51
12.9830128848
  0
ARC
  5
2DC
100
AcDbEntity
  8
BEZUGSACHSEN
100
AcDbCircle
 62
7
  6
CONTINUOUS
 10
217.9176024322
 20
123.0348596456
 40
7.0
100
AcDbArc
 50
180.0
 51
360.0
  0
ARC
  5
2DD
100
AcDbEntity
  8
BEZUGSACHSEN
100
AcDbCircle
 62
7
  6
CONTINUOUS
 10
213.9176024322
 20
190.2848596456
 40
3.0
100
AcDbArc
 50
90.0
 51
180.0
  0
ARC
  5
2DE
100
AcDbEntity
  8
BEZUGSACHSEN
100
AcDbCircle
 62
7
  6
CONTINUOUS
 10
221.9176024322
 20
190.2848596456
 40
3.0
100
AcDbArc
 50
0.0
 51
90.0
  0
ARC
  5
2DF
100
AcDbEntity
  8
KONSTRUKTIONSELEMENTE
100
AcDbCircle
 62
7
  6
CONTINUOUS
 10
204.318468846
 20
116.9459841495
 40
1.0
100
AcDbArc
 50
10.0
 51
29.0483307651
  0
ARC
  5
2E0
100
AcDbEntity
  8
0
100
AcDbCircle
 62
7
  6
CONTINUOUS
 10
231.5167360183
 20
116.9459841495
 40
1.0
100
AcDbArc
 50
150.9516692349
 51
170.0
  0
ARC
  5
2E1
100
AcDbEntity
  8
RUNDUNGEN
100
AcDbCircle
 62
7
  6
CONTINUOUS
 10
74.7567674169
 20
51.685937349
 40
3.0
100
AcDbArc
 50
180.0
 51
270.0
  0
ARC
  5
2E2
100
AcDbEntity
  8
BEZUGSACHSEN
100
AcDbCircle
 62
7
  6
CONTINUOUS
 10
134.7567674169
 20
51.685937349
 40
3.0
100
AcDbArc
 50
270.0
 51
360.0
  0
ARC
  5
2E3
100
AcDbEntity
  8
BEZUGSACHSEN
100
AcDbCircle
 62
7
  6
CONTINUOUS
 10
74.7567674169
 20
59.685937349
 40
3.0
100
AcDbArc
 50
90.0
 51
180.0
  0
ARC
  5
2E4
100
AcDbEntity
  8
BEZUGSACHSEN
100
AcDbCircle
 62
7
  6
CONTINUOUS
 10
134.7567674169
 20
59.685937349
 40
3.0
100
AcDbArc
 50
0.0
 51
90.0
  0
SPLINE
  5
2E5
100
AcDbEntity
  8
0
100
AcDbSpline
 62
7
  6
CONTINUOUS
 70
0
 71
3
 72
21
 73
17
 74
0
 42
0.0000001
 43
0.0000001
 44
0.0000000001
 40
0.0
 40
0.0
 40
0.0
 40
0.0
 40
0.0522400634
 40
0.1084815883
 40
0.1682263829
 40
0.2309420932
 40
0.2960681581
 40
0.3630215758
 40
0.5000000001
 40
0.6369784243
 40
0.703931842
 40
0.7690579069
 40
0.8317736172
 40
0.8915184118
 40
0.9477599366
 40
1.0
 40
1.0
 40
1.0
 40
1.0
 10
116.320721576
 20
139.7645757065
 30
0.0
 10
116.2848574284
 20
139.7662341693
 30
0.0
 10
116.2103566334
 20
139.7691354987
 30
0.0
 10
116.0947869804
 20
139.7724265156
 30
0.0
 10
115.9719972841
 20
139.774951866
 30
0.0
 10
115.8430897839
 20
139.7768302829
 30
0.0
 10
115.7092212935
 20
139.7781691486
 30
0.0
 10
115.5243122751
 20
139.779360355
 30
0.0
 10
115.2900180876
 20
139.7798790208
 30
0.0
 10
115.0557239
 20
139.779360355
 30
0.0
 10
114.8708148816
 20
139.7781691486
 30
0.0
 10
114.7369463913
 20
139.7768302829
 30
0.0
 10
114.6080388911
 20
139.774951866
 30
0.0
 10
114.4852491949
 20
139.7724265156
 30
0.0
 10
114.3696795419
 20
139.7691354986
 30
0.0
 10
114.295178747
 20
139.7662341692
 30
0.0
 10
114.2593145994
 20
139.7645757064
 30
0.0
  0
SPLINE
  5
2E6
100
AcDbEntity
  8
0
100
AcDbSpline
 62
7
  6
CONTINUOUS
 70
0
 71
3
 72
53
 73
49
 74
0
 42
0.0000001
 43
0.0000001
 44
0.0000000001
 40
0.0
 40
0.0
 40
0.0
 40
0.0
 40
0.001117093
 40
0.0015349851
 40
0.0020175468
 40
0.0031855643
 40
0.0046333696
 40
0.0063663195
 40
0.0083869175
 40
0.0106961488
 40
0.0161798306
 40
0.0228114586
 40
0.0305786221
 40
0.0394646477
 40
0.0605093191
 40
0.0857494744
 40
0.1149463827
 40
0.1478233413
 40
0.1840688927
 40
0.2233396392
 40
0.2652630822
 40
0.3094405857
 40
0.3554506872
 40
0.4028528244
 40
0.4999999999
 40
0.5971471755
 40
0.6445493127
 40
0.6905594142
 40
0.7347369177
 40
0.7766603607
 40
0.8159311072
 40
0.8521766586
 40
0.8850536172
 40
0.9142505255
 40
0.9394906809
 40
0.9605353523
 40
0.9694213779
 40
0.9771885413
 40
0.9838201694
 40
0.9893038511
 40
0.9916130824
 40
0.9936336805
 40
0.9953666304
 40
0.9968144357
 40
0.9979824532
 40
0.9984650149
 40
0.998882907
 40
1.0
 40
1.0
 40
1.0
 40
1.0
 10
114.2400180913
 20
139.7731821024
 30
0.0
 10
114.2400180845
 20
139.7723961135
 30
0.0
 10
114.2408938435
 20
139.7714488948
 30
0.0
 10
114.2420224106
 20
139.7706385282
 30
0.0
 10
114.2432762881
 20
139.7698806307
 30
0.0
 10
114.2452432215
 20
139.7689427558
 30
0.0
 10
114.2480977132
 20
139.7678312983
 30
0.0
 10
114.2515734825
 20
139.7666837443
 30
0.0
 10
114.2556722862
 20
139.7654986218
 30
0.0
 10
114.2623584064
 20
139.7637720592
 30
0.0
 10
114.2722698999
 20
139.7615761807
 30
0.0
 10
114.2860102723
 20
139.7589430722
 30
0.0
 10
114.3021634118
 20
139.7562007071
 30
0.0
 10
114.3283832711
 20
139.752187986
 30
0.0
 10
114.3668695962
 20
139.7470938749
 30
0.0
 10
114.4196387826
 20
139.7410779445
 30
0.0
 10
114.4807752818
 20
139.7350158506
 30
0.0
 10
114.5496973691
 20
139.7290555246
 30
0.0
 10
114.6257508955
 20
139.7233496501
 30
0.0
 10
114.7082128615
 20
139.7180461437
 30
0.0
 10
114.7962976111
 20
139.7132857408
 30
0.0
 10
114.8891627595
 20
139.7091969935
 30
0.0
 10
114.9859163757
 20
139.7058919153
 30
0.0
 10
115.119956412
 20
139.7026265074
 30
0.0
 10
115.2900180879
 20
139.700984041
 30
0.0
 10
115.4600797638
 20
139.7026265074
 30
0.0
 10
115.5941198001
 20
139.7058919153
 30
0.0
 10
115.6908734163
 20
139.7091969935
 30
0.0
 10
115.7837385647
 20
139.7132857408
 30
0.0
 10
115.8718233144
 20
139.7180461437
 30
0.0
 10
115.9542852804
 20
139.7233496501
 30
0.0
 10
116.0303388068
 20
139.7290555246
 30
0.0
 10
116.0992608941
 20
139.7350158506
 30
0.0
 10
116.1603973933
 20
139.7410779445
 30
0.0
 10
116.2131665798
 20
139.7470938748
 30
0.0
 10
116.2516529048
 20
139.752187986
 30
0.0
 10
116.2778727641
 20
139.7562007071
 30
0.0
 10
116.2940259037
 20
139.7589430722
 30
0.0
 10
116.3077662761
 20
139.7615761807
 30
0.0
 10
116.3176777696
 20
139.7637720592
 30
0.0
 10
116.3243638898
 20
139.7654986218
 30
0.0
 10
116.3284626935
 20
139.7666837443
 30
0.0
 10
116.3319384628
 20
139.7678312983
 30
0.0
 10
116.3347929545
 20
139.7689427558
 30
0.0
 10
116.3367598879
 20
139.7698806307
 30
0.0
 10
116.3380137654
 20
139.7706385281
 30
0.0
 10
116.3391423325
 20
139.7714488948
 30
0.0
 10
116.3400180915
 20
139.7723961135
 30
0.0
 10
116.3400180847
 20
139.7731821024
 30
0.0
  0
SPLINE
  5
2E7
100
AcDbEntity
  8
0
100
AcDbSpline
 62
7
  6
CONTINUOUS
 70
0
 71
3
 72
13
 73
9
 74
0
 42
0.0000001
 43
0.0000001
 44
0.0000000001
 40
0.0
 40
0.0
 40
0.0
 40
0.0
 40
0.0736446756
 40
0.1533042317
 40
0.2455722397
 40
0.3547788447
 40
0.6331705903
 40
1.0
 40
1.0
 40
1.0
 40
1.0
 10
113.7900180905
 20
139.773182144
 30
0.0
 10
113.7900180978
 20
139.7734141396
 30
0.0
 10
113.7901040414
 20
139.773900735
 30
0.0
 10
113.7904845715
 20
139.7745863858
 30
0.0
 10
113.7910974402
 20
139.7752347943
 30
0.0
 10
113.7923195403
 20
139.7761337951
 30
0.0
 10
113.7944874177
 20
139.7771485503
 30
0.0
 10
113.7964244477
 20
139.7777691604
 30
0.0
 10
113.7975369324
 20
139.7780818239
 30
0.0
  0
SPLINE
  5
2E8
100
AcDbEntity
  8
0
100
AcDbSpline
 62
7
  6
CONTINUOUS
 70
0
 71
3
 72
44
 73
40
 74
0
 42
0.0000001
 43
0.0000001
 44
0.0000000001
 40
0.0
 40
0.0
 40
0.0
 40
0.0
 40
0.0000232146
 40
0.0000817711
 40
0.0001774754
 40
0.0003106264
 40
0.0004813232
 40
0.0006896086
 40
0.0012190113
 40
0.0018988596
 40
0.0027290877
 40
0.0037096058
 40
0.0048402807
 40
0.0061209345
 40
0.007551384
 40
0.0108608018
 40
0.0147665097
 40
0.0192661309
 40
0.0243569255
 40
0.0300357604
 40
0.0362991839
 40
0.0431433537
 40
0.0585568647
 40
0.0762386665
 40
0.0961456648
 40
0.1182294239
 40
0.1424362913
 40
0.1687075563
 40
0.1969796105
 40
0.2271841112
 40
0.2930943641
 40
0.3658033856
 40
0.4446119859
 40
0.5287630237
 40
0.617448248
 40
0.7098155632
 40
0.8049768781
 40
0.9020165303
 40
1.0
 40
1.0
 40
1.0
 40
1.0
 10
97.8567674169
 20
139.7848236162
 30
0.0
 10
97.8567674169
 20
139.7848169191
 30
0.0
 10
97.8567372256
 20
139.7848074313
 30
0.0
 10
97.8566946284
 20
139.7847956104
 30
0.0
 10
97.8566089823
 20
139.7847810858
 30
0.0
 10
97.8564966066
 20
139.7847648044
 30
0.0
 10
97.856349306
 20
139.7847466449
 30
0.0
 10
97.8560891576
 20
139.7847178002
 30
0.0
 10
97.8556818977
 20
139.7846783985
 30
0.0
 10
97.8550958517
 20
139.784627271
 30
0.0
 10
97.8543796439
 20
139.7845694618
 30
0.0
 10
97.8535335484
 20
139.7845050051
 30
0.0
 10
97.8525576261
 20
139.7844339828
 30
0.0
 10
97.8514520457
 20
139.7843564413
 30
0.0
 10
97.8497192153
 20
139.7842385892
 30
0.0
 10
97.8472303943
 20
139.7840760159
 30
0.0
 10
97.843857522
 20
139.7838639163
 30
0.0
 10
97.8399713058
 20
139.7836269329
 30
0.0
 10
97.8355741102
 20
139.7833655773
 30
0.0
 10
97.8306686036
 20
139.7830804391
 30
0.0
 10
97.8252577706
 20
139.7827721334
 30
0.0
 10
97.8170426945
 20
139.7823125686
 30
0.0
 10
97.8055377841
 20
139.7816859823
 30
0.0
 10
97.7902686251
 20
139.7808804161
 30
0.0
 10
97.7730764159
 20
139.7800014479
 30
0.0
 10
97.7540027347
 20
139.7790569929
 30
0.0
 10
97.7330936515
 20
139.778055618
 30
0.0
 10
97.7103996098
 20
139.7770064318
 30
0.0
 10
97.6859752922
 20
139.7759190075
 30
0.0
 10
97.6501242614
 20
139.7743862476
 30
0.0
 10
97.6014597369
 20
139.7724430882
 30
0.0
 10
97.53877545
 20
139.7701858861
 30
0.0
 10
97.4708226887
 20
139.7680235719
 30
0.0
 10
97.3982537995
 20
139.7660363237
 30
0.0
 10
97.3217659259
 20
139.7642980747
 30
0.0
 10
97.2420947002
 20
139.7628736509
 30
0.0
 10
97.1600073881
 20
139.7618162923
 30
0.0
 10
97.076295621
 20
139.761165597
 30
0.0
 10
97.0200342074
 20
139.7610193998
 30
0.0
 10
96.9917674169
 20
139.7610193998
 30
0.0
  0
LINE
  5
2E9
100
AcDbEntity
  8
0
100
AcDbLine
 62
7
  6
CONTINUOUS
 10
98.7567674107
 20
139.7848236138
 11
98.7564203108
 21
139.7848596454
  0
SPLINE
  5
2EA
100
AcDbEntity
  8
0
100
AcDbSpline
 62
7
  6
CONTINUOUS
 70
0
 71
3
 72
13
 73
9
 74
0
 42
0.0000001
 43
0.0000001
 44
0.0000000001
 40
0.0
 40
0.0
 40
0.0
 40
0.0
 40
0.3668294094
 40
0.6452211551
 40
0.7544277602
 40
0.8466957682
 40
0.9263553245
 40
1.0
 40
1.0
 40
1.0
 40
1.0
 10
116.7824992437
 20
139.7780818239
 30
0.0
 10
116.7836117283
 20
139.7777691604
 30
0.0
 10
116.7855487583
 20
139.7771485503
 30
0.0
 10
116.7877166358
 20
139.7761337951
 30
0.0
 10
116.7889387358
 20
139.7752347943
 30
0.0
 10
116.7895516045
 20
139.7745863858
 30
0.0
 10
116.7899321346
 20
139.773900735
 30
0.0
 10
116.7900180782
 20
139.7734141396
 30
0.0
 10
116.7900180855
 20
139.773182144
 30
0.0
  0
SPLINE
  5
2EB
100
AcDbEntity
  8
0
100
AcDbSpline
 62
7
  6
CONTINUOUS
 70
0
 71
3
 72
21
 73
17
 74
0
 42
0.0000001
 43
0.0000001
 44
0.0000000001
 40
0.0
 40
0.0
 40
0.0
 40
0.0
 40
0.1879852799
 40
0.3692895437
 40
0.5374752513
 40
0.6865759538
 40
0.7522843344
 40
0.8112996522
 40
0.8630950943
 40
0.9072071256
 40
0.9432399075
 40
0.9708692901
 40
0.9814518659
 40
0.9898462427
 40
0.9960335372
 40
1.0
 40
1.0
 40
1.0
 40
1.0
 10
96.9917674169
 20
139.7645857918
 30
0.0
 10
97.04589042
 20
139.7645857918
 30
0.0
 10
97.1522135422
 20
139.7650737796
 30
0.0
 10
97.3069461298
 20
139.7671757486
 30
0.0
 10
97.4504625546
 20
139.7703368831
 30
0.0
 10
97.5606837142
 20
139.7735949659
 30
0.0
 10
97.6394740649
 20
139.7763097039
 30
0.0
 10
97.6902608091
 20
139.7781979479
 30
0.0
 10
97.734830145
 20
139.7799556321
 30
0.0
 10
97.7727850775
 20
139.7815172919
 30
0.0
 10
97.8037869302
 20
139.7828234362
 30
0.0
 10
97.825143774
 20
139.7837254137
 30
0.0
 10
97.8385510807
 20
139.7842723319
 30
0.0
 10
97.8457906476
 20
139.784555373
 30
0.0
 10
97.8511274546
 20
139.7847444726
 30
0.0
 10
97.8540496641
 20
139.784831851
 30
0.0
 10
97.8551914921
 20
139.7848509528
 30
0.0
  0
LINE
  5
2EC
100
AcDbEntity
  8
0
100
AcDbLine
 62
7
  6
CONTINUOUS
 10
97.8551914921
 20
139.7848509528
 11
97.8560590258
 21
139.7848596456
  0
SPLINE
  5
2ED
100
AcDbEntity
  8
0
100
AcDbSpline
 62
7
  6
CONTINUOUS
 70
0
 71
3
 72
46
 73
42
 74
0
 42
0.0000001
 43
0.0000001
 44
0.0000000001
 40
0.0
 40
0.0
 40
0.0
 40
0.0
 40
0.0050321398
 40
0.010129742
 40
0.0154205107
 40
0.0210190509
 40
0.0270218406
 40
0.0335061824
 40
0.0405318156
 40
0.0481435939
 40
0.0563742433
 40
0.0652467536
 40
0.0747762888
 40
0.0849716592
 40
0.0958364322
 40
0.1073697702
 40
0.1324182386
 40
0.1600457292
 40
0.1901356697
 40
0.2225366757
 40
0.257067827
 40
0.2935228786
 40
0.3316739074
 40
0.371274668
 40
0.4120637586
 40
0.4537676686
 40
0.4961037559
 40
0.53878316
 40
0.5815136722
 40
0.6240025887
 40
0.6659595556
 40
0.7070994314
 40
0.747145188
 40
0.7858308555
 40
0.8229045439
 40
0.8581315728
 40
0.8912977383
 40
0.9222128367
 40
0.9507146489
 40
0.9766737698
 40
1.0
 40
1.0
 40
1.0
 40
1.0
 10
94.3467674169
 20
139.3039327128
 30
0.0
 10
94.3467674169
 20
139.3082044302
 30
0.0
 10
94.3474848679
 20
139.3168212334
 30
0.0
 10
94.3507493506
 20
139.3295560745
 30
0.0
 10
94.3561835804
 20
139.3420497971
 30
0.0
 10
94.3637625542
 20
139.3542743482
 30
0.0
 10
94.3734630001
 20
139.3662200565
 30
0.0
 10
94.3852664346
 20
139.3778810714
 30
0.0
 10
94.3991574568
 20
139.3892526818
 30
0.0
 10
94.4151209241
 20
139.4003287767
 30
0.0
 10
94.433139799
 20
139.4111019315
 30
0.0
 10
94.4531939107
 20
139.4215638465
 30
0.0
 10
94.4752593495
 20
139.4317059822
 30
0.0
 10
94.4993082415
 20
139.4415198103
 30
0.0
 10
94.5253086147
 20
139.4509978801
 30
0.0
 10
94.5635946925
 20
139.463523503
 30
0.0
 10
94.616138676
 20
139.4781249318
 30
0.0
 10
94.6846511524
 20
139.4937768146
 30
0.0
 10
94.7598386103
 20
139.507973258
 30
0.0
 10
94.8412223908
 20
139.5206948228
 30
0.0
 10
94.9282732568
 20
139.5319305626
 30
0.0
 10
95.0204112725
 20
139.5416782366
 30
0.0
 10
95.1170129239
 20
139.5499415928
 30
0.0
 10
95.2174163982
 20
139.5567283994
 30
0.0
 10
95.3209276933
 20
139.5620483595
 30
0.0
 10
95.4268266961
 20
139.565911296
 30
0.0
 10
95.534373403
 20
139.568325609
 30
0.0
 10
95.6428141716
 20
139.5692971095
 30
0.0
 10
95.7513879922
 20
139.5688282591
 30
0.0
 10
95.8593327595
 20
139.5669178598
 30
0.0
 10
95.9658915475
 20
139.5635612073
 30
0.0
 10
96.0703188826
 20
139.5587506914
 30
0.0
 10
96.1718870058
 20
139.5524768287
 30
0.0
 10
96.2698920953
 20
139.54472968
 30
0.0
 10
96.363660445
 20
139.5355005789
 30
0.0
 10
96.4525544265
 20
139.5247841266
 30
0.0
 10
96.5359785592
 20
139.5125802697
 30
0.0
 10
96.6133843023
 20
139.4988965569
 30
0.0
 10
96.6842780813
 20
139.4837496868
 30
0.0
 10
96.7482176774
 20
139.4671684629
 30
0.0
 10
96.7881242094
 20
139.4544985503
 30
0.0
 10
96.8067674169
 20
139.4478259573
 30
0.0
  0
SPLINE
  5
2EE
100
AcDbEntity
  8
0
100
AcDbSpline
 62
7
  6
CONTINUOUS
 70
0
 71
3
 72
61
 73
57
 74
0
 42
0.0000001
 43
0.0000001
 44
0.0000000001
 40
0.0
 40
0.0
 40
0.0
 40
0.0
 40
0.0002325824
 40
0.0004940854
 40
0.0008006032
 40
0.0011622465
 40
0.0020723466
 40
0.0032519725
 40
0.0047120881
 40
0.0064578054
 40
0.0084914861
 40
0.0108139895
 40
0.0134252617
 40
0.0163246357
 40
0.0229826831
 40
0.0307753277
 40
0.0396853086
 40
0.049691942
 40
0.0607715337
 40
0.086041139
 40
0.1152534605
 40
0.148131028
 40
0.1843630731
 40
0.2236081092
 40
0.2654963072
 40
0.3096319478
 40
0.3555962219
 40
0.402950593
 40
0.4999999999
 40
0.5970494068
 40
0.644403778
 40
0.690368052
 40
0.7345036927
 40
0.7763918907
 40
0.8156369268
 40
0.8518689719
 40
0.8847465394
 40
0.913958861
 40
0.9392284663
 40
0.9503080579
 40
0.9603146914
 40
0.9692246722
 40
0.9770173169
 40
0.9836753643
 40
0.9865747383
 40
0.9891860105
 40
0.9915085139
 40
0.9935421946
 40
0.9952879119
 40
0.9967480275
 40
0.9979276534
 40
0.9988377535
 40
0.9991993967
 40
0.9995059146
 40
0.9997674176
 40
1.0
 40
1.0
 40
1.0
 40
1.0
 10
116.7900180855
 20
139.773182144
 30
0.0
 10
116.7900180928
 20
139.7729480244
 30
0.0
 10
116.7899300496
 20
139.7724485455
 30
0.0
 10
116.7895662702
 20
139.7717209036
 30
0.0
 10
116.7889807818
 20
139.7709846867
 30
0.0
 10
116.7878140342
 20
139.7699004053
 30
0.0
 10
116.7857412843
 20
139.7685374479
 30
0.0
 10
116.7825498997
 20
139.7669245701
 30
0.0
 10
116.7784694385
 20
139.765231059
 30
0.0
 10
116.7735004675
 20
139.7634591838
 30
0.0
 10
116.7676412748
 20
139.7616123031
 30
0.0
 10
116.7608946709
 20
139.7596934086
 30
0.0
 10
116.7532639638
 20
139.7577052736
 30
0.0
 10
116.7413561756
 20
139.7548315587
 30
0.0
 10
116.7242868004
 20
139.7511262489
 30
0.0
 10
116.7012055244
 20
139.7466243666
 30
0.0
 10
116.6747343818
 20
139.7419148205
 30
0.0
 10
116.6449376845
 20
139.7370253408
 30
0.0
 10
116.5988073905
 20
139.7299943935
 30
0.0
 10
116.5334175849
 20
139.7210494421
 30
0.0
 10
116.4461107879
 20
139.7105167129
 30
0.0
 10
116.3476904311
 20
139.7000542867
 30
0.0
 10
116.2390856571
 20
139.689950469
 30
0.0
 10
116.1213208203
 20
139.6804922195
 30
0.0
 10
115.9955102992
 20
139.6719527406
 30
0.0
 10
115.8628510695
 20
139.664583534
 30
0.0
 10
115.7246139112
 20
139.658604844
 30
0.0
 10
115.533075152
 20
139.6526816074
 30
0.0
 10
115.2900180882
 20
139.6496918714
 30
0.0
 10
115.0469610244
 20
139.6526816074
 30
0.0
 10
114.8554222652
 20
139.658604844
 30
0.0
 10
114.7171851068
 20
139.664583534
 30
0.0
 10
114.5845258771
 20
139.6719527406
 30
0.0
 10
114.4587153561
 20
139.6804922194
 30
0.0
 10
114.3409505193
 20
139.689950469
 30
0.0
 10
114.2323457452
 20
139.7000542867
 30
0.0
 10
114.1339253884
 20
139.7105167129
 30
0.0
 10
114.0466185913
 20
139.7210494421
 30
0.0
 10
113.9812287857
 20
139.7299943935
 30
0.0
 10
113.9350984917
 20
139.7370253408
 30
0.0
 10
113.9053017944
 20
139.7419148205
 30
0.0
 10
113.8788306518
 20
139.7466243666
 30
0.0
 10
113.8557493757
 20
139.7511262489
 30
0.0
 10
113.8386800005
 20
139.7548315587
 30
0.0
 10
113.8267722123
 20
139.7577052736
 30
0.0
 10
113.8191415052
 20
139.7596934086
 30
0.0
 10
113.8123949013
 20
139.761612303
 30
0.0
 10
113.8065357086
 20
139.7634591838
 30
0.0
 10
113.8015667376
 20
139.765231059
 30
0.0
 10
113.7974862763
 20
139.7669245701
 30
0.0
 10
113.7942948917
 20
139.7685374479
 30
0.0
 10
113.7922221419
 20
139.7699004053
 30
0.0
 10
113.7910553942
 20
139.7709846867
 30
0.0
 10
113.7904699059
 20
139.7717209036
 30
0.0
 10
113.7901061265
 20
139.7724485455
 30
0.0
 10
113.7900180832
 20
139.7729480244
 30
0.0
 10
113.7900180905
 20
139.773182144
 30
0.0
  0
SPLINE
  5
2EF
100
AcDbEntity
  8
0
100
AcDbSpline
 62
7
  6
CONTINUOUS
 70
0
 71
3
 72
21
 73
17
 74
0
 42
0.0000001
 43
0.0000001
 44
0.0000000001
 40
0.0
 40
0.0
 40
0.0
 40
0.0
 40
0.0290669361
 40
0.0596156569
 40
0.0931517035
 40
0.1307983454
 40
0.1733134978
 40
0.2211708305
 40
0.2746386466
 40
0.3338371847
 40
0.3987766098
 40
0.4693812787
 40
0.5455056029
 40
0.6269444618
 40
0.804673962
 40
1.0
 40
1.0
 40
1.0
 40
1.0
 10
95.0967674169
 20
138.7505345452
 30
0.0
 10
95.0967674169
 20
138.7538275599
 30
0.0
 10
95.0976594921
 20
138.7606113192
 30
0.0
 10
95.1016303406
 20
138.7704878615
 30
0.0
 10
95.1081400221
 20
138.7800851992
 30
0.0
 10
95.1171144981
 20
138.7893923434
 30
0.0
 10
95.1285134346
 20
138.7984140562
 30
0.0
 10
95.1423046134
 20
138.8071390532
 30
0.0
 10
95.1584494304
 20
138.8155468112
 30
0.0
 10
95.1768974917
 20
138.8236112474
 30
0.0
 10
95.1975854448
 20
138.8313045936
 30
0.0
 10
95.2204369821
 20
138.8385989754
 30
0.0
 10
95.2453630807
 20
138.8454682517
 30
0.0
 10
95.2823180932
 20
138.8542834328
 30
0.0
 10
95.3329316114
 20
138.863894584
 30
0.0
 10
95.3747969197
 20
138.8697872182
 30
0.0
 10
95.3967652662
 20
138.8724458001
 30
0.0
  0
SPLINE
  5
2F0
100
AcDbEntity
  8
0
100
AcDbSpline
 62
7
  6
CONTINUOUS
 70
0
 71
3
 72
61
 73
57
 74
0
 42
0.0000001
 43
0.0000001
 44
0.0000000001
 40
0.0
 40
0.0
 40
0.0
 40
0.0
 40
0.000239383
 40
0.0005072907
 40
0.0008195766
 40
0.0011863609
 40
0.0021052124
 40
0.0032921548
 40
0.0047586052
 40
0.006509945
 40
0.0085487
 40
0.0108758338
 40
0.0134913611
 40
0.0163946609
 40
0.0230596796
 40
0.030858247
 40
0.0397731707
 40
0.0497837973
 40
0.060866445
 40
0.0861393656
 40
0.1153513868
 40
0.1482252666
 40
0.1844506205
 40
0.2236864765
 40
0.265563587
 40
0.3096868104
 40
0.3556378417
 40
0.4029785287
 40
0.4999999996
 40
0.5970214705
 40
0.6443621576
 40
0.6903131889
 40
0.7344364123
 40
0.7763135229
 40
0.8155493789
 40
0.8517747328
 40
0.8846486127
 40
0.913860634
 40
0.9391335546
 40
0.9502162023
 40
0.960226829
 40
0.9691417528
 40
0.9769403202
 40
0.983605339
 40
0.9865086387
 40
0.989124166
 40
0.9914512999
 40
0.9934900549
 40
0.9952413947
 40
0.9967078452
 40
0.9978947876
 40
0.998813639
 40
0.9991804234
 40
0.9994927093
 40
0.999760617
 40
1.0
 40
1.0
 40
1.0
 40
1.0
 10
113.7900180905
 20
139.2728279904
 30
0.0
 10
113.7900180871
 20
139.2725869337
 30
0.0
 10
113.7901056125
 20
139.2720739676
 30
0.0
 10
113.7904686201
 20
139.271324412
 30
0.0
 10
113.7910539585
 20
139.270565421
 30
0.0
 10
113.7922189203
 20
139.2694494084
 30
0.0
 10
113.7942908963
 20
139.2680444803
 30
0.0
 10
113.79748377
 20
139.2663816551
 30
0.0
 10
113.801565308
 20
139.2646360688
 30
0.0
 10
113.8065351309
 20
139.2628100264
 30
0.0
 10
113.8123950042
 20
139.2609067933
 30
0.0
 10
113.8191421712
 20
139.2589294264
 30
0.0
 10
113.8267733378
 20
139.2568807476
 30
0.0
 10
113.8386803064
 20
139.2539198829
 30
0.0
 10
113.8557491291
 20
139.2501019566
 30
0.0
 10
113.8788307476
 20
139.2454629868
 30
0.0
 10
113.9053016398
 20
139.240610059
 30
0.0
 10
113.9350974574
 20
139.2355717269
 30
0.0
 10
113.9812232352
 20
139.228327076
 30
0.0
 10
114.0466069467
 20
139.2191098089
 30
0.0
 10
114.1339075439
 20
139.2082557269
 30
0.0
 10
114.2323205961
 20
139.1974736223
 30
0.0
 10
114.3409181812
 20
139.1870605096
 30
0.0
 10
114.4586773468
 20
139.1773120951
 30
0.0
 10
114.5844850037
 20
139.1685100226
 30
0.0
 10
114.7171451276
 20
139.1609136756
 30
0.0
 10
114.8553873707
 20
139.1547503052
 30
0.0
 10
115.0469382061
 20
139.1486437637
 30
0.0
 10
115.2900180868
 20
139.1455612665
 30
0.0
 10
115.5330979676
 20
139.1486437637
 30
0.0
 10
115.7246488031
 20
139.1547503051
 30
0.0
 10
115.8628910462
 20
139.1609136755
 30
0.0
 10
115.9955511702
 20
139.1685100224
 30
0.0
 10
116.1213588272
 20
139.1773120949
 30
0.0
 10
116.239117993
 20
139.1870605094
 30
0.0
 10
116.3477155782
 20
139.1974736221
 30
0.0
 10
116.4461286306
 20
139.2082557267
 30
0.0
 10
116.533429228
 20
139.2191098087
 30
0.0
 10
116.5988129397
 20
139.2283270758
 30
0.0
 10
116.6449387176
 20
139.2355717268
 30
0.0
 10
116.6747345353
 20
139.2406100588
 30
0.0
 10
116.7012054276
 20
139.2454629866
 30
0.0
 10
116.7242870463
 20
139.2501019565
 30
0.0
 10
116.7413558691
 20
139.2539198828
 30
0.0
 10
116.7532628377
 20
139.2568807475
 30
0.0
 10
116.7608940044
 20
139.2589294263
 30
0.0
 10
116.7676411714
 20
139.2609067932
 30
0.0
 10
116.7735010448
 20
139.2628100262
 30
0.0
 10
116.7784708678
 20
139.2646360687
 30
0.0
 10
116.7825524058
 20
139.266381655
 30
0.0
 10
116.7857452795
 20
139.2680444802
 30
0.0
 10
116.7878172556
 20
139.2694494083
 30
0.0
 10
116.7889822174
 20
139.2705654209
 30
0.0
 10
116.7895675559
 20
139.2713244119
 30
0.0
 10
116.7899305635
 20
139.2720739675
 30
0.0
 10
116.7900180889
 20
139.2725869336
 30
0.0
 10
116.7900180855
 20
139.2728279903
 30
0.0
  0
SPLINE
  5
2F1
100
AcDbEntity
  8
0
100
AcDbSpline
 62
7
  6
CONTINUOUS
 70
0
 71
3
 72
15
 73
11
 74
0
 42
0.0000001
 43
0.0000001
 44
0.0000000001
 40
0.0
 40
0.0
 40
0.0
 40
0.0
 40
0.2088235553
 40
0.3916579512
 40
0.5488323767
 40
0.6809302691
 40
0.7889837078
 40
0.874933297
 40
0.9426799148
 40
1.0
 40
1.0
 40
1.0
 40
1.0
 10
114.2507876035
 20
139.7780818239
 30
0.0
 10
114.2499444072
 20
139.7779168122
 30
0.0
 10
114.2483672126
 20
139.7775844957
 30
0.0
 10
114.246176904
 20
139.7770322676
 30
0.0
 10
114.2443194384
 20
139.7764599311
 30
0.0
 10
114.2427937357
 20
139.7758678053
 30
0.0
 10
114.2415959056
 20
139.7752553541
 30
0.0
 10
114.2407205248
 20
139.7746177879
 30
0.0
 10
114.24015735
 20
139.7739366712
 30
0.0
 10
114.2400180933
 20
139.7734179421
 30
0.0
 10
114.2400180913
 20
139.7731821024
 30
0.0
  0
SPLINE
  5
2F2
100
AcDbEntity
  8
0
100
AcDbSpline
 62
7
  6
CONTINUOUS
 70
0
 71
3
 72
47
 73
43
 74
0
 42
0.0000001
 43
0.0000001
 44
0.0000000001
 40
0.0
 40
0.0
 40
0.0
 40
0.0
 40
0.0057134141
 40
0.0115834436
 40
0.0177891078
 40
0.0244811477
 40
0.0317778051
 40
0.0397671696
 40
0.0485123124
 40
0.0580565831
 40
0.0684280278
 40
0.0796427554
 40
0.1046157232
 40
0.1329498273
 40
0.1645215048
 40
0.1991369511
 40
0.2365439322
 40
0.2764400219
 40
0.3184794208
 40
0.3622794369
 40
0.4074271459
 40
0.5
 40
0.5925728541
 40
0.6377205631
 40
0.6815205792
 40
0.7235599781
 40
0.7634560678
 40
0.8008630489
 40
0.8354784952
 40
0.8670501727
 40
0.8953842768
 40
0.9203572446
 40
0.9315719722
 40
0.9419434169
 40
0.9514876876
 40
0.9602328304
 40
0.9682221949
 40
0.9755188523
 40
0.9822108922
 40
0.9884165564
 40
0.9942865859
 40
1.0
 40
1.0
 40
1.0
 40
1.0
 10
96.2267674169
 20
139.2667519824
 30
0.0
 10
96.2267674169
 20
139.2690506901
 30
0.0
 10
96.2263152188
 20
139.2737231464
 30
0.0
 10
96.2242830647
 20
139.2806252868
 30
0.0
 10
96.2209164494
 20
139.287421891
 30
0.0
 10
96.2162383625
 20
139.2940967595
 30
0.0
 10
96.2102665393
 20
139.3006453649
 30
0.0
 10
96.2030143372
 20
139.3070627039
 30
0.0
 10
96.1944939229
 20
139.3133424333
 30
0.0
 10
96.1847186433
 20
139.3194760241
 30
0.0
 10
96.1737045216
 20
139.3254542743
 30
0.0
 10
96.1567767925
 20
139.333493563
 30
0.0
 10
96.1325654643
 20
139.3429475567
 30
0.0
 10
96.0999540191
 20
139.3531452286
 30
0.0
 10
96.0630735302
 20
139.3624873275
 30
0.0
 10
96.0222407457
 20
139.3709025027
 30
0.0
 10
95.9778188526
 20
139.3783259263
 30
0.0
 10
95.9302209478
 20
139.3847016718
 30
0.0
 10
95.8799033133
 20
139.3899822351
 30
0.0
 10
95.8273604844
 20
139.3941295669
 30
0.0
 10
95.7544328115
 20
139.3981390078
 30
0.0
 10
95.6617674169
 20
139.4000991
 30
0.0
 10
95.5691020223
 20
139.3981390078
 30
0.0
 10
95.4961743494
 20
139.3941295669
 30
0.0
 10
95.4436315205
 20
139.3899822351
 30
0.0
 10
95.393313886
 20
139.3847016718
 30
0.0
 10
95.3457159812
 20
139.3783259263
 30
0.0
 10
95.3012940881
 20
139.3709025027
 30
0.0
 10
95.2604613036
 20
139.3624873275
 30
0.0
 10
95.2235808147
 20
139.3531452286
 30
0.0
 10
95.1909693695
 20
139.3429475567
 30
0.0
 10
95.1667580413
 20
139.333493563
 30
0.0
 10
95.1498303122
 20
139.3254542743
 30
0.0
 10
95.1388161905
 20
139.3194760241
 30
0.0
 10
95.1290409109
 20
139.3133424333
 30
0.0
 10
95.1205204966
 20
139.3070627039
 30
0.0
 10
95.1132682945
 20
139.3006453649
 30
0.0
 10
95.1072964713
 20
139.2940967595
 30
0.0
 10
95.1026183844
 20
139.287421891
 30
0.0
 10
95.0992517691
 20
139.2806252868
 30
0.0
 10
95.097219615
 20
139.2737231464
 30
0.0
 10
95.0967674169
 20
139.2690506901
 30
0.0
 10
95.0967674169
 20
139.2667519824
 30
0.0
  0
SPLINE
  5
2F3
100
AcDbEntity
  8
0
100
AcDbSpline
 62
7
  6
CONTINUOUS
 70
0
 71
3
 72
15
 73
11
 74
0
 42
0.0000001
 43
0.0000001
 44
0.0000000001
 40
0.0
 40
0.0
 40
0.0
 40
0.0
 40
0.0573200852
 40
0.1250667028
 40
0.211016292
 40
0.3190697306
 40
0.451167623
 40
0.6083420486
 40
0.7911764446
 40
1.0
 40
1.0
 40
1.0
 40
1.0
 10
116.3400180847
 20
139.7731821024
 30
0.0
 10
116.3400180827
 20
139.7734179421
 30
0.0
 10
116.339878826
 20
139.7739366712
 30
0.0
 10
116.3393156512
 20
139.7746177879
 30
0.0
 10
116.3384402704
 20
139.7752553541
 30
0.0
 10
116.3372424404
 20
139.7758678053
 30
0.0
 10
116.3357167377
 20
139.7764599311
 30
0.0
 10
116.3338592721
 20
139.7770322676
 30
0.0
 10
116.3316689634
 20
139.7775844957
 30
0.0
 10
116.3300917689
 20
139.7779168122
 30
0.0
 10
116.3292485726
 20
139.7780818239
 30
0.0
  0
SPLINE
  5
2F4
100
AcDbEntity
  8
0
100
AcDbSpline
 62
7
  6
CONTINUOUS
 70
0
 71
3
 72
21
 73
17
 74
0
 42
0.0000001
 43
0.0000001
 44
0.0000000001
 40
0.0
 40
0.0
 40
0.0
 40
0.0
 40
0.1909378034
 40
0.3645108596
 40
0.4441206685
 40
0.518669009
 40
0.5880194331
 40
0.6520966884
 40
0.7108971809
 40
0.7645041472
 40
0.8131098926
 40
0.857047211
 40
0.8968313105
 40
0.9332067611
 40
0.9671801312
 40
1.0
 40
1.0
 40
1.0
 40
1.0
 10
97.2217674169
 20
139.203240354
 30
0.0
 10
97.2021620345
 20
139.2002008937
 30
0.0
 10
97.1648587619
 20
139.1935441687
 30
0.0
 10
97.1199216787
 20
139.1828989087
 30
0.0
 10
97.0872494201
 20
139.1732729472
 30
0.0
 10
97.0652457401
 20
139.1658219628
 30
0.0
 10
97.0451076742
 20
139.1579592101
 30
0.0
 10
97.0269038439
 20
139.1497126824
 30
0.0
 10
97.0106924742
 20
139.1411113574
 30
0.0
 10
96.9965217907
 20
139.1321833626
 30
0.0
 10
96.9844308451
 20
139.122954892
 30
0.0
 10
96.9744518273
 20
139.1134478373
 30
0.0
 10
96.9666151018
 20
139.1036796014
 30
0.0
 10
96.9609580036
 20
139.0936629311
 30
0.0
 10
96.9575319637
 20
139.0834309719
 30
0.0
 10
96.9567674169
 20
139.0764682128
 30
0.0
 10
96.9567674169
 20
139.0730580304
 30
0.0
  0
SPLINE
  5
2F5
100
AcDbEntity
  8
0
100
AcDbSpline
 62
7
  6
CONTINUOUS
 70
0
 71
3
 72
46
 73
42
 74
0
 42
0.0000001
 43
0.0000001
 44
0.0000000001
 40
0.0
 40
0.0
 40
0.0
 40
0.0
 40
0.0978935853
 40
0.1948434516
 40
0.2899164539
 40
0.3822000709
 40
0.4708114035
 40
0.5549049771
 40
0.6336793678
 40
0.7063829344
 40
0.7402382343
 40
0.7723191743
 40
0.8025481273
 40
0.8308515836
 40
0.8571603073
 40
0.8814095642
 40
0.9035392798
 40
0.9234942849
 40
0.941224483
 40
0.9492410751
 40
0.9566850894
 40
0.9635517906
 40
0.9698367982
 40
0.9755360854
 40
0.980645992
 40
0.9851632396
 40
0.989084922
 40
0.9924085103
 40
0.9938453384
 40
0.9951318753
 40
0.9962679239
 40
0.9972532984
 40
0.9980878615
 40
0.9987715024
 40
0.9993041477
 40
0.9995138535
 40
0.9996858325
 40
0.9998201225
 40
0.9999168165
 40
0.9999762044
 40
1.0
 40
1.0
 40
1.0
 40
1.0
 10
96.9917674169
 20
139.6892969329
 30
0.0
 10
97.0494755242
 20
139.6892969329
 30
0.0
 10
97.1643363257
 20
139.6898967723
 30
0.0
 10
97.3352236561
 20
139.6925655776
 30
0.0
 10
97.5027687451
 20
139.6968990005
 30
0.0
 10
97.6653494755
 20
139.7027303382
 30
0.0
 10
97.8214004043
 20
139.7098361884
 30
0.0
 10
97.9694270794
 20
139.7179456098
 30
0.0
 10
98.1080182894
 20
139.7267509541
 30
0.0
 10
98.2169932382
 20
139.7345667577
 30
0.0
 10
98.2984767411
 20
139.7408849147
 30
0.0
 10
98.3549802593
 20
139.7454712475
 30
0.0
 10
98.4082064904
 20
139.7499760047
 30
0.0
 10
98.4580280336
 20
139.7543570292
 30
0.0
 10
98.5043251953
 20
139.7585733635
 30
0.0
 10
98.5469862681
 20
139.7625856555
 30
0.0
 10
98.585907851
 20
139.7663564805
 30
0.0
 10
98.6209951211
 20
139.7698507594
 30
0.0
 10
98.6477966924
 20
139.7725897701
 30
0.0
 10
98.6672572708
 20
139.774617446
 30
0.0
 10
98.680346549
 20
139.7759983155
 30
0.0
 10
98.6924190129
 20
139.7772879282
 30
0.0
 10
98.7034671657
 20
139.7784833227
 30
0.0
 10
98.7134841285
 20
139.7795817458
 30
0.0
 10
98.7224636525
 20
139.780580673
 30
0.0
 10
98.7304001313
 20
139.7814777921
 30
0.0
 10
98.7372885968
 20
139.782271057
 30
0.0
 10
98.7423715539
 20
139.782869731
 30
0.0
 10
98.7459105855
 20
139.7832965125
 30
0.0
 10
98.7481687444
 20
139.7835737831
 30
0.0
 10
98.7501621085
 20
139.7838239226
 30
0.0
 10
98.751890331
 20
139.7840467678
 30
0.0
 10
98.7533532756
 20
139.7842421043
 30
0.0
 10
98.754550387
 20
139.7844098141
 30
0.0
 10
98.7553821863
 20
139.7845342444
 30
0.0
 10
98.7559134915
 20
139.7846212859
 30
0.0
 10
98.7562143461
 20
139.7846742191
 30
0.0
 10
98.7564440681
 20
139.7847198324
 30
0.0
 10
98.7566187657
 20
139.7847582991
 30
0.0
 10
98.7567063062
 20
139.7847879299
 30
0.0
 10
98.7567674109
 20
139.7848095863
 30
0.0
 10
98.7567674107
 20
139.7848236138
 30
0.0
  0
ELLIPSE
  5
2F6
100
AcDbEntity
  8
0
100
AcDbEllipse
 62
7
  6
CONTINUOUS
 10
111.0752780737
 20
122.7848596456
 30
0.0
 11
0.0
 21
17.0
 31
0.0
 40
0.2553189968
 41
0.0000000027
 42
0.0090197395
  0
ELLIPSE
  5
2F7
100
AcDbEntity
  8
0
100
AcDbEllipse
 62
7
  6
CONTINUOUS
 10
109.4650652771
 20
122.7848596456
 30
0.0
 11
0.0
 21
17.0
 31
0.0
 40
0.2553189968
 41
-0.0090197395
 42
-0.0000000027
  0
ELLIPSE
  5
2F8
100
AcDbEntity
  8
RUNDUNGEN
100
AcDbEllipse
 62
7
  6
CONTINUOUS
 10
91.7567674169
 20
115.8557852617
 30
0.0
 11
-0.0
 21
10.0778483455
 31
0.0
 40
0.3472963553
 41
1.5707963268
 42
1.7273136652
  0
ELLIPSE
  5
2F9
100
AcDbEntity
  8
0
100
AcDbEllipse
 62
7
  6
CONTINUOUS
 10
111.6897456527
 20
122.7848596456
 30
0.0
 11
34.7233896382
 21
-0.0
 31
0.0
 40
0.4895835394
 41
1.5945240387
 42
1.6043320242
  0
ELLIPSE
  5
2FA
100
AcDbEntity
  8
0
100
AcDbEllipse
 62
7
  6
CONTINUOUS
 10
111.1405264788
 20
122.7848596456
 30
0.0
 11
-0.0
 21
17.0
 31
0.0
 40
0.680851632
 41
0.0090197395
 42
0.0237277119
  0
ELLIPSE
  5
2FB
100
AcDbEntity
  8
0
100
AcDbEllipse
 62
7
  6
CONTINUOUS
 10
114.9918649134
 20
122.7848596456
 30
0.0
 11
52.0850008297
 21
0.0
 31
0.0
 40
0.3263895503
 41
1.6566534067
 42
1.6599339378
  0
ELLIPSE
  5
2FC
100
AcDbEntity
  8
0
100
AcDbEllipse
 62
7
  6
CONTINUOUS
 10
105.5484763322
 20
122.7848596456
 30
0.0
 11
52.0850251483
 21
0.0
 31
0.0
 40
0.3263893979
 41
1.4816587158
 42
1.4865791629
  0
ELLIPSE
  5
2FD
100
AcDbEntity
  8
0
100
AcDbEllipse
 62
7
  6
CONTINUOUS
 10
107.7391059688
 20
122.7848596456
 30
0.0
 11
26.0425749231
 21
0.0
 31
0.0
 40
0.6527772331
 41
1.4865791629
 42
1.4931365833
  0
ELLIPSE
  5
2FE
100
AcDbEntity
  8
0
100
AcDbEllipse
 62
7
  6
CONTINUOUS
 10
109.3867672862
 20
122.7848596456
 30
0.0
 11
-0.0
 21
17.0
 31
0.0
 40
0.7659575381
 41
-0.0286313673
 42
-0.0090197395
  0
ELLIPSE
  5
2FF
100
AcDbEntity
  8
0
100
AcDbEllipse
 62
7
  6
CONTINUOUS
 10
107.8696041122
 20
122.7848596456
 30
0.0
 11
31.8297874928
 21
-0.0
 31
0.0
 40
0.5340909047
 41
1.4388451248
 42
1.4684609344
  0
ELLIPSE
  5
300
100
AcDbEntity
  8
0
100
AcDbEllipse
 62
7
  6
CONTINUOUS
 10
103.6761277589
 20
122.7848596456
 30
0.0
 11
20.2553248405
 21
-0.0
 31
0.0
 40
0.8392854785
 41
1.3138610338
 42
1.3441551378
  0
ELLIPSE
  5
301
100
AcDbEntity
  8
0
100
AcDbEllipse
 62
7
  6
CONTINUOUS
 10
123.0691997907
 20
122.7848596456
 30
0.0
 11
50.8449865527
 21
0.0
 31
0.0
 40
0.334349582
 41
1.9468522876
 42
2.0218147593
  0
ELLIPSE
  5
302
100
AcDbEntity
  8
0
100
AcDbEllipse
 62
7
  6
CONTINUOUS
 10
87.1767663601
 20
122.7848596456
 30
0.0
 11
51.0000030398
 21
-0.0
 31
0.0
 40
0.3333333135
 41
1.2157358624
 42
1.298217764
  0
ELLIPSE
  5
303
100
AcDbEntity
  8
RUNDUNGEN
100
AcDbEllipse
 62
7
  6
CONTINUOUS
 10
117.7567674169
 20
115.8557852617
 30
0.0
 11
-0.0
 21
10.0778483455
 31
0.0
 40
0.3472963553
 41
-1.7273136652
 42
-1.5707963268
  0
ELLIPSE
  5
304
100
AcDbEntity
  8
0
100
AcDbEllipse
 62
7
  6
CONTINUOUS
 10
102.6408621271
 20
122.7848596456
 30
0.0
 11
29.4448637287
 21
0.0
 31
0.0
 40
0.5773502692
 41
1.703092677
 42
1.7702524278
  0
ELLIPSE
  5
305
100
AcDbEntity
  8
0
100
AcDbEllipse
 62
7
  6
CONTINUOUS
 10
107.0894635208
 20
122.7848596456
 30
0.0
 11
31.8297799039
 21
-0.0
 31
0.0
 40
0.5340910321
 41
1.4140771531
 42
1.4437884796
  0
ELLIPSE
  5
306
100
AcDbEntity
  8
0
100
AcDbEllipse
 62
7
  6
CONTINUOUS
 10
109.0303419606
 20
122.7848596456
 30
0.0
 11
0.0
 21
17.0
 31
0.0
 40
0.2042553727
 41
-0.013922009
 42
0.0105884331
  0
ELLIPSE
  5
307
100
AcDbEntity
  8
0
100
AcDbEllipse
 62
7
  6
CONTINUOUS
 10
124.6367667097
 20
122.7848596456
 30
0.0
 11
50.9999984801
 21
0.0
 31
0.0
 40
0.3333333433
 41
1.968023323
 42
2.0547631867
  0
ELLIPSE
  5
308
100
AcDbEntity
  8
0
100
AcDbEllipse
 62
7
  6
CONTINUOUS
 10
85.7230584498
 20
122.7848596456
 30
0.0
 11
50.8449865527
 21
-0.0
 31
0.0
 40
0.334349582
 41
1.194740366
 42
1.2675421653
  0
ELLIPSE
  5
309
100
AcDbEntity
  8
0
100
AcDbEllipse
 62
7
  6
CONTINUOUS
 10
102.9952785978
 20
122.7848596456
 30
0.0
 11
20.2553167343
 21
-0.0
 31
0.0
 40
0.8392858143
 41
1.3138610338
 42
1.3441551378
  0
ELLIPSE
  5
30A
100
AcDbEntity
  8
0
100
AcDbEllipse
 62
7
  6
CONTINUOUS
 10
111.5100014466
 20
122.7848596456
 30
0.0
 11
0.0
 21
17.0
 31
0.0
 40
0.2042553906
 41
6.272596874
 42
6.2971073162
  0
ELLIPSE
  5
30B
100
AcDbEntity
  8
RUNDUNGEN
100
AcDbEllipse
 62
7
  6
CONTINUOUS
 10
91.2567674169
 20
120.0653552327
 30
0.0
 11
-0.0
 21
4.1630673611
 31
0.0
 40
0.7206224977
 41
-0.0
 42
1.5707963268
  0
ELLIPSE
  5
30C
100
AcDbEntity
  8
0
100
AcDbEllipse
 62
7
  6
CONTINUOUS
 10
102.9952785978
 20
122.7848596456
 30
0.0
 11
19.6595721245
 21
0.0
 31
0.0
 40
0.8392858143
 41
1.3058907065
 42
1.337161466
  0
ELLIPSE
  5
30D
100
AcDbEntity
  8
0
100
AcDbEllipse
 62
7
  6
CONTINUOUS
 10
108.9336612321
 20
122.7848596456
 30
0.0
 11
0.0
 21
17.0
 31
0.0
 40
0.6127657675
 41
-0.0384408345
 42
-0.013922009
  0
ELLIPSE
  5
30E
100
AcDbEntity
  8
0
100
AcDbEllipse
 62
7
  6
CONTINUOUS
 10
85.7230584498
 20
122.7848596456
 30
0.0
 11
49.3495457717
 21
-0.0
 31
0.0
 40
0.334349582
 41
1.2262853309
 42
1.2580459321
  0
ELLIPSE
  5
30F
100
AcDbEntity
  8
0
100
AcDbEllipse
 62
7
  6
CONTINUOUS
 10
107.0894635208
 20
122.7848596456
 30
0.0
 11
30.8936099068
 21
0.0
 31
0.0
 40
0.5340910321
 41
1.4092869898
 42
1.4260117752
  0
ELLIPSE
  5
310
100
AcDbEntity
  8
RUNDUNGEN
100
AcDbEllipse
 62
7
  6
CONTINUOUS
 10
118.2567674169
 20
120.0653552327
 30
0.0
 11
0.0
 21
4.1630673611
 31
0.0
 40
0.7206224977
 41
-1.5707963268
 42
0.0
  0
ELLIPSE
  5
311
100
AcDbEntity
  8
0
100
AcDbEllipse
 62
7
  6
CONTINUOUS
 10
124.6367667097
 20
122.7848596456
 30
0.0
 11
49.4999985248
 21
0.0
 31
0.0
 40
0.3333333433
 41
1.980770734
 42
2.07076032
  0
ELLIPSE
  5
312
100
AcDbEntity
  8
0
100
AcDbEllipse
 62
7
  6
CONTINUOUS
 10
111.6066821836
 20
122.7848596456
 30
0.0
 11
0.0
 21
17.0
 31
0.0
 40
0.6127658212
 41
0.013922009
 42
0.0384408345
  0
ELLIPSE
  5
313
100
AcDbEntity
  8
0
100
AcDbEllipse
 62
7
  6
CONTINUOUS
 10
112.0959871494
 20
122.7848596456
 30
0.0
 11
23.1489354372
 21
-0.0
 31
0.0
 40
0.7343750233
 41
1.6092371613
 42
1.6239586149
  0
ELLIPSE
  5
314
100
AcDbEntity
  8
0
100
AcDbEllipse
 62
7
  6
CONTINUOUS
 10
112.7110218186
 20
122.7848596456
 30
0.0
 11
34.7233896382
 21
-0.0
 31
0.0
 40
0.4895835394
 41
1.6239586149
 42
1.6337791354
  0
ELLIPSE
  5
315
100
AcDbEntity
  8
0
100
AcDbEllipse
 62
7
  6
CONTINUOUS
 10
104.8578871608
 20
122.7848596456
 30
0.0
 11
29.4448637287
 21
-0.0
 31
0.0
 40
0.5773502692
 41
1.7795133011
 42
1.8331311749
  0
ELLIPSE
  5
316
100
AcDbEntity
  8
RUNDUNGEN
100
AcDbEllipse
 62
7
  6
CONTINUOUS
 10
91.2567674169
 20
69.8737186116
 30
0.0
 11
3.0
 21
-0.0
 31
0.0
 40
0.7707395791
 41
1.5707963268
 42
3.1415926536
  0
ELLIPSE
  5
317
100
AcDbEntity
  8
RUNDUNGEN
100
AcDbEllipse
 62
7
  6
CONTINUOUS
 10
118.2567674169
 20
41.4981560864
 30
0.0
 11
3.0
 21
0.0
 31
0.0
 40
0.7707395791
 41
-1.5707963268
 42
-0.0
  0
ELLIPSE
  5
318
100
AcDbEntity
  8
RUNDUNGEN
100
AcDbEllipse
 62
7
  6
CONTINUOUS
 10
91.2567674169
 20
41.4981560864
 30
0.0
 11
3.0
 21
0.0
 31
0.0
 40
0.7707395791
 41
3.1415926536
 42
4.7123889804
  0
ELLIPSE
  5
319
100
AcDbEntity
  8
RUNDUNGEN
100
AcDbEllipse
 62
7
  6
CONTINUOUS
 10
118.2567674169
 20
69.8737186116
 30
0.0
 11
3.0
 21
-0.0
 31
0.0
 40
0.7707395791
 41
0.0
 42
1.5707963268
  0
ENDSEC
  0
SECTION
  2
OBJECTS
  0
DICTIONARY
  5
C
100
AcDbDictionary
280
0
281
1
  3
ACAD_GROUP
350
D
  3
ACAD_MLINESTYLE
350
17
  3
ACAD_LAYOUT
350
1A
  3
ACAD_PLOTSETTINGS
350
19
  3
ACAD_PLOTSTYLENAME
350
E
  0
DICTIONARY
  5
D
102
{ACAD_REACTORS
330
C
102
}
100
AcDbDictionary
280
0
281
1
  0
ACDBDICTIONARYWDFLT
  5
E
102
{ACAD_REACTORS
330
C
102
}
100
AcDbDictionary
281
1
  3
Normal
350
F
100
AcDbDictionaryWithDefault
340
F
  0
DICTIONARY
  5
17
102
{ACAD_REACTORS
330
C
102
}
100
AcDbDictionary
280
0
281
1
  3
Standard
350
18
  0
DICTIONARY
  5
19
102
{ACAD_REACTORS
330
C
102
}
100
AcDbDictionary
281
1
  0
DICTIONARY
  5
1A
102
{ACAD_REACTORS
330
C
102
}
100
AcDbDictionary
281
1
  3
Model
350
31A
  3
Layout1
350
31B
  0
ACDBPLACEHOLDER
  5
F
102
{ACAD_REACTORS
330
E
102
}
  0
MLINESTYLE
  5
18
102
{ACAD_REACTORS
330
17
102
}
100
AcDbMlineStyle
  2
STANDARD
 70
0
  3

 62
256
 51
90.0
 52
90.0
 71
2
 49
0.5
 62
256
  6
BYLAYER
 49
-0.5
 62
256
  6
BYLAYER
  0
LAYOUT
  5
31A
102
{ACAD_REACTORS
330
1A
102
}
100
AcDbPlotSettings
  1

  2
none_device
  4
ISO_A4_(297.00_x_210.00_MM)
  6

 40
0.0
 41
0.0
 42
0.0
 43
0.0
 44
297.0
 45
210.0
 46
0.0
 47
0.0
 48
0.0
 49
0.0
140
0.0
141
0.0
142
1.0
143
1.0
 70
1024
 72
1
 73
0
 74
0
  7

 75
0
147
1.0
148
0.0
149
0.0
100
AcDbLayout
  1
Model
 70
0
 71
0
 10
0.0
 20
0.0
 11
297.0
 21
210.0
 12
0.0
 22
0.0
 32
0.0
 14
0.0
 24
0.0
 34
0.0
 15
0.0
 25
0.0
 35
0.0
146
0.0
 13
0.0
 23
0.0
 33
0.0
 16
1.0
 26
0.0
 36
0.0
 17
0.0
 27
1.0
 37
0.0
 76
0
330
20D
345
0
346
0
  0
LAYOUT
  5
31B
102
{ACAD_REACTORS
330
1A
102
}
100
AcDbPlotSettings
  1

  2
none_device
  4
ISO_A4_(297.00_x_210.00_MM)
  6

 40
0.0
 41
0.0
 42
0.0
 43
0.0
 44
297.0
 45
210.0
 46
0.0
 47
0.0
 48
0.0
 49
0.0
140
0.0
141
0.0
142
1.0
143
1.0
 70
0
 72
1
 73
0
 74
0
  7

 75
0
147
1.0
148
0.0
149
0.0
100
AcDbLayout
  1
Layout1
 70
0
 71
1
 10
0.0
 20
0.0
 11
297.0
 21
210.0
 12
0.0
 22
0.0
 32
0.0
 14
0.0
 24
0.0
 34
0.0
 15
0.0
 25
0.0
 35
0.0
146
0.0
 13
0.0
 23
0.0
 33
0.0
 16
1.0
 26
0.0
 36
0.0
 17
0.0
 27
1.0
 37
0.0
 76
0
330
20E
345
0
346
0
  0
ENDSEC
  0
EOF
