999
DXF file: 001-m35499-p3.dxf
999
Pro/ENGINEER 2011490 by Parametric Technology Corporation
  0
SECTION
  2
HEADER
  9
$ACADVER
  1
AC1015
  9
$DWGCODEPAGE
  3
ANSI_1252
  9
$EXTMAX
 10
594.0
 20
420.0
 30
0.0
  9
$EXTMIN
 10
0.0
 20
0.0
 30
0.0
  9
$LIMMIN
 10
0.0
 20
0.0
  9
$LIMMAX
 10
594.0
 20
420.0
  9
$VIEWCTR
 10
297.0
 20
210.0
  9
$VIEWSIZE
 40
420.0
  9
$CLAYER
  8
0
  9
$LTSCALE
 40
32.67
  9
$CELTYPE
  6
BYLAYER
  9
$DIMSCALE
 40
1.0
  9
$DIMASZ
 40
3.5
  9
$DIMEXO
 40
3.7125
  9
$DIMDLI
 40
22.572
  9
$DIMEXE
 40
10.692
  9
$DIMCEN
 40
5.346
  9
$DIMLFAC
 40
1.0
  9
$DIMBLK
  1
_FILLED
  9
$DIMTXT
 40
3.5
  9
$DIMTOL
 70
1
  9
$DIMLIM
 70
0
  9
$DIMTFAC
 40
1.0
  9
$DIMTP
 40
0.005
  9
$DIMTM
 40
0.005
  9
$PDMODE
 70
3
  9
$PDSIZE
 40
0.3125
  9
$HANDSEED
  5
3F2
  9
$TILEMODE
 70
1
  9
$MEASUREMENT
 70
1
  9
$INSUNITS
 70
4
  0
ENDSEC
  0
SECTION
  2
CLASSES
  0
CLASS
  1
ACDBDICTIONARYWDFLT
  2
AcDbDictionaryWithDefault
  3
AutoCAD 2000
 90
0
280
0
281
0
  0
CLASS
  1
ACDBPLACEHOLDER
  2
AcDbPlaceHolder
  3
AutoCAD 2000
 90
0
280
0
281
0
  0
CLASS
  1
LAYOUT
  2
AcDbLayout
  3
AutoCAD 2000
 90
0
280
0
281
0
  0
ENDSEC
  0
SECTION
  2
TABLES
  0
TABLE
  2
VPORT
  5
8
100
AcDbSymbolTable
 70
2
  0
VPORT
  5
1F4
100
AcDbSymbolTableRecord
100
AcDbViewportTableRecord
  2
*ACTIVE
 70
0
 10
0.0
 20
0.0
 11
1.0
 21
1.0
 12
297.0
 22
210.0
 13
0.0
 23
0.0
 14
1.0
 24
1.0
 15
0.0
 25
0.0
 16
0.0
 26
0.0
 36
1.0
 17
0.0
 27
0.0
 37
0.0
 40
420.0
 41
1.4142857143
 42
50.0
 43
0.0
 44
0.0
 50
0.0
 51
0.0
 71
0
 72
100
 73
1
 74
1
 75
0
 76
0
 77
0
 78
0
  0
ENDTAB
  0
TABLE
  2
LTYPE
  5
5
100
AcDbSymbolTable
 70
6
  0
LTYPE
  5
14
100
AcDbSymbolTableRecord
100
AcDbLinetypeTableRecord
  2
BYBLOCK
 70
0
  3

 72
65
 73
0
 40
0.0
  0
LTYPE
  5
15
100
AcDbSymbolTableRecord
100
AcDbLinetypeTableRecord
  2
BYLAYER
 70
0
  3

 72
65
 73
0
 40
0.0
  0
LTYPE
  5
16
100
AcDbSymbolTableRecord
100
AcDbLinetypeTableRecord
  2
CONTINUOUS
 70
64
  3
Solid line
 72
65
 73
0
 40
0.0
  0
LTYPE
  5
1F5
100
AcDbSymbolTableRecord
100
AcDbLinetypeTableRecord
  2
CENTER
 70
64
  3
____ _ ____ _ ____ _ ____ _ ____ _ ____ _ ____
 72
65
 73
4
 40
0.6
 49
0.375
 74
0
 49
-0.075
 74
0
 49
0.075
 74
0
 49
-0.075
 74
0
  0
LTYPE
  5
1F6
100
AcDbSymbolTableRecord
100
AcDbLinetypeTableRecord
  2
HIDDEN
 70
64
  3
- - - - - - - - - - - - - - - - - - - -
 72
65
 73
2
 40
0.2
 49
0.1
 74
0
 49
-0.1
 74
0
  0
LTYPE
  5
1F7
100
AcDbSymbolTableRecord
100
AcDbLinetypeTableRecord
  2
PHANTOM
 70
64
  3
_____ _ _ _____ _ _ _____ _ _ _____
 72
65
 73
6
 40
0.8
 49
0.45
 74
0
 49
-0.05
 74
0
 49
0.1
 74
0
 49
-0.05
 74
0
 49
0.1
 74
0
 49
-0.05
 74
0
  0
LTYPE
  5
1F8
100
AcDbSymbolTableRecord
100
AcDbLinetypeTableRecord
  2
DOT
 70
64
  3
. . . . . . . . . . . . . . . . . . . .
 72
65
 73
2
 40
0.2
 49
0.1
 74
0
 49
-0.1
 74
0
  0
LTYPE
  5
1F9
100
AcDbSymbolTableRecord
100
AcDbLinetypeTableRecord
  2
DASHED
 70
64
  3
- - - - - - - - - - - - - - - - - - - -
 72
65
 73
2
 40
0.2
 49
0.1
 74
0
 49
-0.1
 74
0
  0
ENDTAB
  0
TABLE
  2
LAYER
  5
2
100
AcDbSymbolTable
 70
36
  0
LAYER
  5
10
100
AcDbSymbolTableRecord
100
AcDbLayerTableRecord
  2
0
 70
0
 62
7
  6
CONTINUOUS
370
-3
390
F
  0
LAYER
  5
1FA
100
AcDbSymbolTableRecord
100
AcDbLayerTableRecord
  2
DEFAULT_1
 70
0
 62
7
  6
CENTER
370
-3
390
F
  0
LAYER
  5
1FB
100
AcDbSymbolTableRecord
100
AcDbLayerTableRecord
  2
DEFAULT_2
 70
0
 62
8
  6
HIDDEN
370
-3
390
F
  0
LAYER
  5
1FC
100
AcDbSymbolTableRecord
100
AcDbLayerTableRecord
  2
DEFAULT_3
 70
0
 62
7
  6
PHANTOM
370
-3
390
F
  0
LAYER
  5
1FD
100
AcDbSymbolTableRecord
100
AcDbLayerTableRecord
  2
AUSFORMSCHRAEGEN
 70
0
 62
7
  6
CONTINUOUS
370
-3
390
F
  0
LAYER
  5
1FE
100
AcDbSymbolTableRecord
100
AcDbLayerTableRecord
  2
BEZUGSACHSEN
 70
0
 62
7
  6
CONTINUOUS
370
-3
390
F
  0
LAYER
  5
1FF
100
AcDbSymbolTableRecord
100
AcDbLayerTableRecord
  2
BEZUGSEBENEN
 70
0
 62
7
  6
CONTINUOUS
370
-3
390
F
  0
LAYER
  5
200
100
AcDbSymbolTableRecord
100
AcDbLayerTableRecord
  2
BG_STARTBEZUEGE
 70
0
 62
7
  6
CONTINUOUS
370
-3
390
F
  0
LAYER
  5
201
100
AcDbSymbolTableRecord
100
AcDbLayerTableRecord
  2
FASEN
 70
0
 62
7
  6
CONTINUOUS
370
-3
390
F
  0
LAYER
  5
202
100
AcDbSymbolTableRecord
100
AcDbLayerTableRecord
  2
FLAECHEN
 70
0
 62
7
  6
CONTINUOUS
370
-3
390
F
  0
LAYER
  5
203
100
AcDbSymbolTableRecord
100
AcDbLayerTableRecord
  2
HILFEN
 70
0
 62
7
  6
CONTINUOUS
370
-3
390
F
  0
LAYER
  5
204
100
AcDbSymbolTableRecord
100
AcDbLayerTableRecord
  2
KONSTRUKTIONSELEMENTE
 70
0
 62
7
  6
CONTINUOUS
370
-3
390
F
  0
LAYER
  5
205
100
AcDbSymbolTableRecord
100
AcDbLayerTableRecord
  2
KURVEN
 70
0
 62
7
  6
CONTINUOUS
370
-3
390
F
  0
LAYER
  5
206
100
AcDbSymbolTableRecord
100
AcDbLayerTableRecord
  2
NORM
 70
0
 62
7
  6
CONTINUOUS
370
-3
390
F
  0
LAYER
  5
207
100
AcDbSymbolTableRecord
100
AcDbLayerTableRecord
  2
PLATZIERUNG
 70
0
 62
7
  6
CONTINUOUS
370
-3
390
F
  0
LAYER
  5
208
100
AcDbSymbolTableRecord
100
AcDbLayerTableRecord
  2
RUNDUNGEN
 70
0
 62
7
  6
CONTINUOUS
370
-3
390
F
  0
LAYER
  5
209
100
AcDbSymbolTableRecord
100
AcDbLayerTableRecord
  2
TEIL_STARTBEZUEGE
 70
0
 62
7
  6
CONTINUOUS
370
-3
390
F
  0
LAYER
  5
20A
100
AcDbSymbolTableRecord
100
AcDbLayerTableRecord
  2
T_STARTBEZUEGE
 70
0
 62
7
  6
CONTINUOUS
370
-3
390
F
  0
LAYER
  5
20B
100
AcDbSymbolTableRecord
100
AcDbLayerTableRecord
  2
ZEICHNUNGSBEMASSUNGEN
 70
0
 62
7
  6
CONTINUOUS
370
-3
390
F
  0
ENDTAB
  0
TABLE
  2
STYLE
  5
3
100
AcDbSymbolTable
 70
1
  0
STYLE
  5
11
100
AcDbSymbolTableRecord
100
AcDbTextStyleTableRecord
  2
STANDARD
 70
0
 40
0.0
 41
0.7
 50
0.0
 71
0
 42
0.2
  3
txt
  4

  0
STYLE
  5
20C
100
AcDbSymbolTableRecord
100
AcDbTextStyleTableRecord
  2
TEXTSTYLE_1
 70
0
 40
0.0
 41
0.8
 50
0.0
 71
0
 42
0.2
  3
gdt
  4

  0
ENDTAB
  0
TABLE
  2
VIEW
  5
6
100
AcDbSymbolTable
 70
0
  0
ENDTAB
  0
TABLE
  2
UCS
  5
7
100
AcDbSymbolTable
 70
0
  0
ENDTAB
  0
TABLE
  2
APPID
  5
9
100
AcDbSymbolTable
 70
1
  0
APPID
  5
20D
100
AcDbSymbolTableRecord
100
AcDbRegAppTableRecord
  2
ACAD
 70
0
  0
ENDTAB
  0
TABLE
  2
BLOCK_RECORD
  5
1
100
AcDbSymbolTable
 70
0
  0
BLOCK_RECORD
  5
20E
100
AcDbSymbolTableRecord
100
AcDbBlockTableRecord
  2
*Model_Space
  0
BLOCK_RECORD
  5
20F
100
AcDbSymbolTableRecord
100
AcDbBlockTableRecord
  2
*Paper_Space
  0
ENDTAB
  0
TABLE
  2
DIMSTYLE
  5
A
100
AcDbSymbolTable
 70
1
100
AcDbDimStyleTable
 71
0
  0
DIMSTYLE
105
210
100
AcDbSymbolTableRecord
100
AcDbDimStyleTableRecord
  2
STANDARD
 70
0
  3

  4

 40
1.0
 41
3.5
 42
0.0625
 43
0.38
 44
0.18
 45
0.0
 46
0.0
 47
0.005
 48
0.005
140
3.5
141
0.09
142
0.0
143
25.4
144
1.0
145
0.0
146
1.0
147
0.09
 71
1.0
 72
0.0
 73
0
 74
0
 75
0
 76
0
 77
1
 78
8
170
0
171
2
172
0
173
0
174
0
175
0
176
0
177
0
178
5
270
2
271
3
272
3
273
2
274
2
275
0
280
0
281
0
282
0
283
1
284
8
285
0
286
0
287
3
288
0
340
11
  0
ENDTAB
  0
ENDSEC
  0
SECTION
  2
BLOCKS
  0
BLOCK
  5
20
100
AcDbEntity
  8
0
100
AcDbBlockBegin
  2
*Model_Space
 70
0
 10
0.0
 20
0.0
 30
0.0
  3
*Model_Space
  1

  0
ENDBLK
  5
21
100
AcDbEntity
  8
0
100
AcDbBlockEnd
  0
BLOCK
  5
1C
100
AcDbEntity
  8
0
100
AcDbBlockBegin
  2
*Paper_Space
 70
0
 10
0.0
 20
0.0
 30
0.0
  3
*Paper_Space
  1

  0
ENDBLK
  5
1D
100
AcDbEntity
  8
0
100
AcDbBlockEnd
  0
ENDSEC
  0
SECTION
  2
ENTITIES
  0
MTEXT
  5
211
100
AcDbEntity
  8
0
100
AcDbMText
 62
5
  6
CONTINUOUS
  7
STANDARD
 71
2
 72
1
 10
209.7550162039
 20
82.7763843644
 30
0.0
 11
1.0
 21
0.0
 31
0.0
 44
0.9
  1
VLBS-U-16t\PRUD
 40
8.0
 41
59.0476190476
  0
MTEXT
  5
212
100
AcDbEntity
  8
0
100
AcDbMText
 62
5
  6
CONTINUOUS
  7
STANDARD
 71
2
 72
1
 10
208.8218924342
 20
233.964774519
 30
0.0
 11
1.0
 21
0.0
 31
0.0
 44
0.9
  1
VLBS-U-16t\PRUD
 40
8.0
 41
59.0476190476
  0
MTEXT
  5
213
100
AcDbEntity
  8
0
100
AcDbMText
 62
5
  6
CONTINUOUS
  7
STANDARD
 71
2
 72
1
 10
372.4920886076
 20
272.1044303797
 30
0.0
 11
0.0
 21
1.0
 31
0.0
 44
0.9
  1
VLBS-U-16t\PRUD
 40
8.0
 41
59.0476190476
  0
LINE
  5
214
100
AcDbEntity
  8
0
100
AcDbLine
 62
7
  6
CONTINUOUS
 10
0.0
 20
0.0
 11
0.0
 21
420.0
  0
LINE
  5
215
100
AcDbEntity
  8
0
100
AcDbLine
 62
7
  6
CONTINUOUS
 10
0.0
 20
0.0
 11
594.0
 21
0.0
  0
LINE
  5
216
100
AcDbEntity
  8
0
100
AcDbLine
 62
7
  6
CONTINUOUS
 10
0.0
 20
420.0
 11
594.0
 21
420.0
  0
LINE
  5
217
100
AcDbEntity
  8
0
100
AcDbLine
 62
7
  6
CONTINUOUS
 10
594.0
 20
0.0
 11
594.0
 21
420.0
  0
LINE
  5
218
100
AcDbEntity
  8
RUNDUNGEN
100
AcDbLine
 62
7
  6
CONTINUOUS
 10
202.1535842907
 20
394.428588509
 11
149.6788178732
 21
372.6928285765
  0
LINE
  5
219
100
AcDbEntity
  8
BEZUGSACHSEN
100
AcDbLine
 62
7
  6
CONTINUOUS
 10
112.102849564
 20
192.1095737381
 11
112.1029299876
 21
192.111080049
  0
LINE
  5
21A
100
AcDbEntity
  8
BEZUGSACHSEN
100
AcDbLine
 62
7
  6
CONTINUOUS
 10
112.102930059
 20
192.1110800452
 11
112.102849579
 21
192.1095740196
  0
LINE
  5
21B
100
AcDbEntity
  8
BEZUGSACHSEN
100
AcDbLine
 62
7
  6
CONTINUOUS
 10
112.1033657134
 20
192.1192282466
 11
112.102930059
 21
192.1110800452
  0
LINE
  5
21C
100
AcDbEntity
  8
BEZUGSACHSEN
100
AcDbLine
 62
7
  6
CONTINUOUS
 10
112.7264867348
 20
203.7717680475
 11
112.6970985241
 21
203.2222001739
  0
LINE
  5
21D
100
AcDbEntity
  8
RUNDUNGEN
100
AcDbLine
 62
7
  6
CONTINUOUS
 10
118.2184816311
 20
306.4736300013
 11
112.6911563616
 21
203.111080049
  0
LINE
  5
21E
100
AcDbEntity
  8
BEZUGSACHSEN
100
AcDbLine
 62
7
  6
CONTINUOUS
 10
112.6911563616
 20
203.111080049
 11
112.1029299876
 21
192.111080049
  0
LINE
  5
21F
100
AcDbEntity
  8
RUNDUNGEN
100
AcDbLine
 62
7
  6
CONTINUOUS
 10
141.1336162834
 20
364.1476269867
 11
119.3978569354
 21
311.6728619805
  0
LINE
  5
220
100
AcDbEntity
  8
0
100
AcDbLine
 62
7
  6
CONTINUOUS
 10
165.8252388011
 20
179.6304905784
 11
250.5666697617
 21
179.6304905784
  0
LINE
  5
221
100
AcDbEntity
  8
BEZUGSACHSEN
100
AcDbLine
 62
7
  6
CONTINUOUS
 10
121.0900893697
 20
182.6304905784
 11
165.1482846172
 21
182.6304905784
  0
LINE
  5
222
100
AcDbEntity
  8
BEZUGSACHSEN
100
AcDbLine
 62
7
  6
CONTINUOUS
 10
251.243697036
 20
182.6304905784
 11
295.3018191931
 21
182.6304905784
  0
LINE
  5
223
100
AcDbEntity
  8
0
100
AcDbLine
 62
7
  6
CONTINUOUS
 10
251.6315069659
 20
184.6304905784
 11
164.7604015969
 21
184.6304905784
  0
LINE
  5
224
100
AcDbEntity
  8
0
100
AcDbLine
 62
7
  6
CONTINUOUS
 10
168.4065467253
 20
203.0593804512
 11
247.9853618376
 21
203.0593804512
  0
LINE
  5
225
100
AcDbEntity
  8
RUNDUNGEN
100
AcDbLine
 62
7
  6
CONTINUOUS
 10
158.1959542314
 20
305.630490643
 11
158.1959542314
 21
301.4567024031
  0
LINE
  5
226
100
AcDbEntity
  8
RUNDUNGEN
100
AcDbLine
 62
7
  6
CONTINUOUS
 10
158.1959542314
 20
249.0779570927
 11
158.1959542314
 21
234.6304929185
  0
LINE
  5
227
100
AcDbEntity
  8
0
100
AcDbLine
 62
7
  6
CONTINUOUS
 10
163.1959542814
 20
191.0614336998
 11
163.1959542814
 21
241.6302718436
  0
LINE
  5
228
100
AcDbEntity
  8
0
100
AcDbLine
 62
7
  6
CONTINUOUS
 10
174.3559542814
 20
250.0710727384
 11
174.3559542814
 21
249.3898875596
  0
LINE
  5
229
100
AcDbEntity
  8
0
100
AcDbLine
 62
7
  6
CONTINUOUS
 10
174.3559542814
 20
248.9354586051
 11
174.3559542814
 21
246.6686965818
  0
LINE
  5
22A
100
AcDbEntity
  8
0
100
AcDbLine
 62
7
  6
CONTINUOUS
 10
176.3559542814
 20
248.8432007315
 11
176.3559542814
 21
246.6686965818
  0
LINE
  5
22B
100
AcDbEntity
  8
0
100
AcDbLine
 62
7
  6
CONTINUOUS
 10
177.1559542814
 20
248.0051603886
 11
177.1559542814
 21
246.6686965818
  0
LINE
  5
22C
100
AcDbEntity
  8
0
100
AcDbLine
 62
7
  6
CONTINUOUS
 10
281.1480595489
 20
243.3674329748
 11
284.3059542889
 21
243.3674329748
  0
LINE
  5
22D
100
AcDbEntity
  8
0
100
AcDbLine
 62
7
  6
CONTINUOUS
 10
281.1480595489
 20
243.3979645233
 11
284.3059542889
 21
243.3979645233
  0
LINE
  5
22E
100
AcDbEntity
  8
0
100
AcDbLine
 62
7
  6
CONTINUOUS
 10
284.2059542889
 20
245.7635418851
 11
281.2533227069
 21
245.7635418851
  0
LINE
  5
22F
100
AcDbEntity
  8
0
100
AcDbLine
 62
7
  6
CONTINUOUS
 10
174.3559542814
 20
246.6686965818
 11
176.3559542814
 21
246.6686965818
  0
LINE
  5
230
100
AcDbEntity
  8
0
100
AcDbLine
 62
7
  6
CONTINUOUS
 10
177.1559542814
 20
246.6686965818
 11
186.1159542814
 21
246.6686965818
  0
LINE
  5
231
100
AcDbEntity
  8
0
100
AcDbLine
 62
7
  6
CONTINUOUS
 10
174.3559542814
 20
247.2012048586
 11
176.3559542814
 21
247.2012048586
  0
LINE
  5
232
100
AcDbEntity
  8
0
100
AcDbLine
 62
7
  6
CONTINUOUS
 10
177.1559542814
 20
247.2012048586
 11
186.1159542814
 21
247.2012048586
  0
LINE
  5
233
100
AcDbEntity
  8
0
100
AcDbLine
 62
7
  6
CONTINUOUS
 10
177.1559542814
 20
248.0051603886
 11
179.3559542814
 21
248.0051603886
  0
LINE
  5
234
100
AcDbEntity
  8
0
100
AcDbLine
 62
7
  6
CONTINUOUS
 10
181.3159542814
 20
248.0051603886
 11
186.1159542814
 21
248.0051603886
  0
LINE
  5
235
100
AcDbEntity
  8
0
100
AcDbLine
 62
7
  6
CONTINUOUS
 10
214.9384523385
 20
248.7734550588
 11
216.7256867939
 21
248.7734550588
  0
LINE
  5
236
100
AcDbEntity
  8
0
100
AcDbLine
 62
7
  6
CONTINUOUS
 10
216.7256867939
 20
249.0060137286
 11
223.8746227377
 21
249.0060137286
  0
LINE
  5
237
100
AcDbEntity
  8
0
100
AcDbLine
 62
7
  6
CONTINUOUS
 10
196.1457195017
 20
249.0628677063
 11
203.6259542814
 21
249.0628677063
  0
LINE
  5
238
100
AcDbEntity
  8
0
100
AcDbLine
 62
7
  6
CONTINUOUS
 10
214.9384523385
 20
249.2824485655
 11
216.7256867939
 21
249.2824485655
  0
LINE
  5
239
100
AcDbEntity
  8
0
100
AcDbLine
 62
7
  6
CONTINUOUS
 10
174.3559542814
 20
249.3898875596
 11
175.183713147
 21
249.3898875596
  0
LINE
  5
23A
100
AcDbEntity
  8
0
100
AcDbLine
 62
7
  6
CONTINUOUS
 10
180.5286045233
 20
249.3898875596
 11
181.4159542814
 21
249.3898875596
  0
LINE
  5
23B
100
AcDbEntity
  8
0
100
AcDbLine
 62
7
  6
CONTINUOUS
 10
215.1618565672
 20
249.5125351646
 11
223.8746227377
 21
249.5125351646
  0
LINE
  5
23C
100
AcDbEntity
  8
0
100
AcDbLine
 62
7
  6
CONTINUOUS
 10
193.1259542814
 20
249.5687884206
 11
203.6259542814
 21
249.5687884206
  0
LINE
  5
23D
100
AcDbEntity
  8
KONSTRUKTIONSELEMENTE
100
AcDbLine
 62
7
  6
CONTINUOUS
 10
171.1959542814
 20
249.6304905784
 11
174.3559542814
 21
249.6304905784
  0
LINE
  5
23E
100
AcDbEntity
  8
KONSTRUKTIONSELEMENTE
100
AcDbLine
 62
7
  6
CONTINUOUS
 10
186.1159542814
 20
249.6304905784
 11
193.1259542814
 21
249.6304905784
  0
LINE
  5
23F
100
AcDbEntity
  8
KONSTRUKTIONSELEMENTE
100
AcDbLine
 62
7
  6
CONTINUOUS
 10
203.6259542814
 20
249.6304905784
 11
213.3746227377
 21
249.6304905784
  0
LINE
  5
240
100
AcDbEntity
  8
KONSTRUKTIONSELEMENTE
100
AcDbLine
 62
7
  6
CONTINUOUS
 10
223.8746227377
 20
249.6304905784
 11
232.3446227377
 21
249.6304905784
  0
LINE
  5
241
100
AcDbEntity
  8
KONSTRUKTIONSELEMENTE
100
AcDbLine
 62
7
  6
CONTINUOUS
 10
240.3446227377
 20
249.6304905784
 11
245.1959542814
 21
249.6304905784
  0
LINE
  5
242
100
AcDbEntity
  8
0
100
AcDbLine
 62
7
  6
CONTINUOUS
 10
213.3746227377
 20
249.7057022264
 11
223.8746227377
 21
249.7057022264
  0
LINE
  5
243
100
AcDbEntity
  8
0
100
AcDbLine
 62
7
  6
CONTINUOUS
 10
193.1259542814
 20
249.7519799959
 11
202.2855287528
 21
249.7519799959
  0
LINE
  5
244
100
AcDbEntity
  8
0
100
AcDbLine
 62
7
  6
CONTINUOUS
 10
174.3559542814
 20
249.8923803052
 11
181.4159542814
 21
249.8923803052
  0
LINE
  5
245
100
AcDbEntity
  8
0
100
AcDbLine
 62
7
  6
CONTINUOUS
 10
217.6193037086
 20
249.9065817005
 11
219.6299417668
 21
249.9065817005
  0
LINE
  5
246
100
AcDbEntity
  8
0
100
AcDbLine
 62
7
  6
CONTINUOUS
 10
217.8427079373
 20
249.9995664116
 11
219.4065375381
 21
249.9995664116
  0
LINE
  5
247
100
AcDbEntity
  8
0
100
AcDbLine
 62
7
  6
CONTINUOUS
 10
174.3559542814
 20
250.0710727384
 11
181.4159542814
 21
250.0710727384
  0
LINE
  5
248
100
AcDbEntity
  8
0
100
AcDbLine
 62
7
  6
CONTINUOUS
 10
193.1259542814
 20
250.0775728114
 11
202.2855287528
 21
250.0775728114
  0
LINE
  5
249
100
AcDbEntity
  8
0
100
AcDbLine
 62
7
  6
CONTINUOUS
 10
174.3559542814
 20
250.0805679778
 11
181.4159542814
 21
250.0805679778
  0
LINE
  5
24A
100
AcDbEntity
  8
0
100
AcDbLine
 62
7
  6
CONTINUOUS
 10
217.8427079373
 20
250.0838605432
 11
219.4065375381
 21
250.0838605432
  0
LINE
  5
24B
100
AcDbEntity
  8
0
100
AcDbLine
 62
7
  6
CONTINUOUS
 10
232.3646729893
 20
250.1156429449
 11
233.5446227406
 21
250.1156429449
  0
LINE
  5
24C
100
AcDbEntity
  8
0
100
AcDbLine
 62
7
  6
CONTINUOUS
 10
239.1446227333
 20
250.1156429449
 11
240.3245724862
 21
250.1156429449
  0
LINE
  5
24D
100
AcDbEntity
  8
0
100
AcDbLine
 62
7
  6
CONTINUOUS
 10
183.7159542814
 20
250.1304905784
 11
186.1061497716
 21
250.1304905784
  0
LINE
  5
24E
100
AcDbEntity
  8
0
100
AcDbLine
 62
7
  6
CONTINUOUS
 10
202.2855287528
 20
250.1304905784
 11
203.6259542814
 21
250.1304905784
  0
LINE
  5
24F
100
AcDbEntity
  8
0
100
AcDbLine
 62
7
  6
CONTINUOUS
 10
213.4967501127
 20
250.1304905784
 11
214.4916438812
 21
250.1304905784
  0
LINE
  5
250
100
AcDbEntity
  8
0
100
AcDbLine
 62
7
  6
CONTINUOUS
 10
222.7576014378
 20
250.1304905784
 11
223.7524953521
 21
250.1304905784
  0
LINE
  5
251
100
AcDbEntity
  8
0
100
AcDbLine
 62
7
  6
CONTINUOUS
 10
278.7796384939
 20
250.6695705191
 11
285.4901648164
 21
250.6695705191
  0
LINE
  5
252
100
AcDbEntity
  8
0
100
AcDbLine
 62
7
  6
CONTINUOUS
 10
278.7796384939
 20
250.7001020676
 11
285.4901648164
 21
250.7001020676
  0
LINE
  5
253
100
AcDbEntity
  8
0
100
AcDbLine
 62
7
  6
CONTINUOUS
 10
183.7137710078
 20
250.1304625412
 11
183.7159542814
 21
250.1303535947
  0
LINE
  5
254
100
AcDbEntity
  8
0
100
AcDbLine
 62
7
  6
CONTINUOUS
 10
186.1159542814
 20
250.1303874894
 11
186.1148768511
 21
250.1304843886
  0
LINE
  5
255
100
AcDbEntity
  8
0
100
AcDbLine
 62
7
  6
CONTINUOUS
 10
179.3559542814
 20
248.8432007315
 11
179.3559542814
 21
248.0051603886
  0
LINE
  5
256
100
AcDbEntity
  8
0
100
AcDbLine
 62
7
  6
CONTINUOUS
 10
181.3159542814
 20
248.3617530144
 11
181.3159542814
 21
248.0051603886
  0
LINE
  5
257
100
AcDbEntity
  8
0
100
AcDbLine
 62
7
  6
CONTINUOUS
 10
186.1159542814
 20
248.0051603886
 11
186.1159542814
 21
246.6686965818
  0
LINE
  5
258
100
AcDbEntity
  8
0
100
AcDbLine
 62
7
  6
CONTINUOUS
 10
186.1159542814
 20
248.7013079591
 11
186.1159542814
 21
250.1303842417
  0
LINE
  5
259
100
AcDbEntity
  8
0
100
AcDbLine
 62
7
  6
CONTINUOUS
 10
288.6480595564
 20
253.0641034309
 11
286.6743753439
 21
253.0641034309
  0
LINE
  5
25A
100
AcDbEntity
  8
0
100
AcDbLine
 62
7
  6
CONTINUOUS
 10
285.4901648164
 20
253.0641034309
 11
276.8059542814
 21
253.0641034309
  0
LINE
  5
25B
100
AcDbEntity
  8
BEZUGSACHSEN
100
AcDbLine
 62
7
  6
CONTINUOUS
 10
252.1959543314
 20
253.6304905784
 11
240.2245315204
 21
253.6304905784
  0
LINE
  5
25C
100
AcDbEntity
  8
RUNDUNGEN
100
AcDbLine
 62
7
  6
CONTINUOUS
 10
164.1959542314
 20
253.6304905784
 11
176.1673770424
 21
253.6304905784
  0
LINE
  5
25D
100
AcDbEntity
  8
0
100
AcDbLine
 62
7
  6
CONTINUOUS
 10
281.5427963914
 20
255.3975732457
 11
288.6480595564
 21
255.3975732457
  0
LINE
  5
25E
100
AcDbEntity
  8
0
100
AcDbLine
 62
7
  6
CONTINUOUS
 10
281.5427963914
 20
255.4281047942
 11
288.6480595564
 21
255.4281047942
  0
LINE
  5
25F
100
AcDbEntity
  8
0
100
AcDbLine
 62
7
  6
CONTINUOUS
 10
288.6480595564
 20
257.7921061575
 11
281.5427963914
 21
257.7921061575
  0
LINE
  5
260
100
AcDbEntity
  8
0
100
AcDbLine
 62
7
  6
CONTINUOUS
 10
193.1259542814
 20
250.0775728114
 11
193.1259542814
 21
248.4852821093
  0
LINE
  5
261
100
AcDbEntity
  8
0
100
AcDbLine
 62
7
  6
CONTINUOUS
 10
193.1259542814
 20
247.2202947429
 11
193.1259542814
 21
246.1840583368
  0
LINE
  5
262
100
AcDbEntity
  8
0
100
AcDbLine
 62
7
  6
CONTINUOUS
 10
281.5427963914
 20
262.4895773355
 11
288.6480595564
 21
262.4895773355
  0
LINE
  5
263
100
AcDbEntity
  8
0
100
AcDbLine
 62
7
  6
CONTINUOUS
 10
281.5427963914
 20
262.520108884
 11
288.6480595564
 21
262.520108884
  0
LINE
  5
264
100
AcDbEntity
  8
0
100
AcDbLine
 62
7
  6
CONTINUOUS
 10
288.6480595564
 20
264.8841102473
 11
281.5427963914
 21
264.8841102473
  0
LINE
  5
265
100
AcDbEntity
  8
0
100
AcDbLine
 62
7
  6
CONTINUOUS
 10
240.3245724862
 20
250.1156429449
 11
240.3446226945
 21
250.1039528024
  0
LINE
  5
266
100
AcDbEntity
  8
0
100
AcDbLine
 62
7
  6
CONTINUOUS
 10
202.2855287528
 20
250.1304845686
 11
202.2855287528
 21
249.7519799959
  0
LINE
  5
267
100
AcDbEntity
  8
0
100
AcDbLine
 62
7
  6
CONTINUOUS
 10
203.6259542814
 20
248.4625084722
 11
203.6259542814
 21
247.4321325031
  0
LINE
  5
268
100
AcDbEntity
  8
0
100
AcDbLine
 62
7
  6
CONTINUOUS
 10
203.6259542814
 20
249.0628677063
 11
203.6259542814
 21
250.1304787178
  0
LINE
  5
269
100
AcDbEntity
  8
0
100
AcDbLine
 62
7
  6
CONTINUOUS
 10
276.8059542814
 20
274.703584379
 11
281.7533227074
 21
274.703584379
  0
LINE
  5
26A
100
AcDbEntity
  8
0
100
AcDbLine
 62
7
  6
CONTINUOUS
 10
283.7270069199
 20
274.703584379
 11
285.4901648164
 21
274.703584379
  0
LINE
  5
26B
100
AcDbEntity
  8
0
100
AcDbLine
 62
7
  6
CONTINUOUS
 10
276.8059542814
 20
274.7341159276
 11
281.7533227074
 21
274.7341159276
  0
LINE
  5
26C
100
AcDbEntity
  8
0
100
AcDbLine
 62
7
  6
CONTINUOUS
 10
283.7270069199
 20
274.7341159276
 11
285.4901648164
 21
274.7341159276
  0
LINE
  5
26D
100
AcDbEntity
  8
0
100
AcDbLine
 62
7
  6
CONTINUOUS
 10
288.6480595564
 20
276.7041170636
 11
286.6743753439
 21
276.7041170636
  0
LINE
  5
26E
100
AcDbEntity
  8
0
100
AcDbLine
 62
7
  6
CONTINUOUS
 10
285.4901648164
 20
276.7041170636
 11
276.8059542814
 21
276.7041170636
  0
LINE
  5
26F
100
AcDbEntity
  8
0
100
AcDbLine
 62
7
  6
CONTINUOUS
 10
213.3746227377
 20
250.1251830102
 11
213.3746227377
 21
249.0060137286
  0
LINE
  5
270
100
AcDbEntity
  8
0
100
AcDbLine
 62
7
  6
CONTINUOUS
 10
213.5980269664
 20
250.087988459
 11
213.5980269664
 21
249.7057022264
  0
LINE
  5
271
100
AcDbEntity
  8
0
100
AcDbLine
 62
7
  6
CONTINUOUS
 10
214.2682396525
 20
250.0297900149
 11
214.2682396525
 21
249.7057022264
  0
LINE
  5
272
100
AcDbEntity
  8
0
100
AcDbLine
 62
7
  6
CONTINUOUS
 10
214.7150481099
 20
250.1290311348
 11
214.7150481099
 21
250.0966578855
  0
LINE
  5
273
100
AcDbEntity
  8
0
100
AcDbLine
 62
7
  6
CONTINUOUS
 10
214.9384523385
 20
249.9829631109
 11
214.9384523385
 21
249.7057022264
  0
LINE
  5
274
100
AcDbEntity
  8
0
100
AcDbLine
 62
7
  6
CONTINUOUS
 10
214.9384523385
 20
249.2824485655
 11
214.9384523385
 21
248.7734550588
  0
LINE
  5
275
100
AcDbEntity
  8
0
100
AcDbLine
 62
7
  6
CONTINUOUS
 10
215.1618565672
 20
250.1194990668
 11
215.1618565672
 21
250.0676812871
  0
LINE
  5
276
100
AcDbEntity
  8
0
100
AcDbLine
 62
7
  6
CONTINUOUS
 10
215.8320692533
 20
249.9467683182
 11
215.8320692533
 21
249.7057022264
  0
LINE
  5
277
100
AcDbEntity
  8
0
100
AcDbLine
 62
7
  6
CONTINUOUS
 10
216.5022825652
 20
250.0929651886
 11
216.5022825652
 21
250.0151750886
  0
LINE
  5
278
100
AcDbEntity
  8
0
100
AcDbLine
 62
7
  6
CONTINUOUS
 10
216.5022825652
 20
249.927174584
 11
216.5022825652
 21
249.7057022264
  0
LINE
  5
279
100
AcDbEntity
  8
0
100
AcDbLine
 62
7
  6
CONTINUOUS
 10
216.7256867939
 20
249.2824485655
 11
216.7256867939
 21
248.7734550588
  0
LINE
  5
27A
100
AcDbEntity
  8
0
100
AcDbLine
 62
7
  6
CONTINUOUS
 10
217.6193037086
 20
249.9065817005
 11
217.6193037086
 21
249.7057022264
  0
LINE
  5
27B
100
AcDbEntity
  8
0
100
AcDbLine
 62
7
  6
CONTINUOUS
 10
217.8427079373
 20
250.0838605432
 11
217.8427079373
 21
249.9995664116
  0
LINE
  5
27C
100
AcDbEntity
  8
0
100
AcDbLine
 62
7
  6
CONTINUOUS
 10
219.4065375381
 20
250.0838605432
 11
219.4065375381
 21
249.9995664116
  0
LINE
  5
27D
100
AcDbEntity
  8
0
100
AcDbLine
 62
7
  6
CONTINUOUS
 10
219.6299417668
 20
249.9065817005
 11
219.6299417668
 21
249.7057022264
  0
LINE
  5
27E
100
AcDbEntity
  8
0
100
AcDbLine
 62
7
  6
CONTINUOUS
 10
220.7469632232
 20
249.927174584
 11
220.7469632232
 21
249.7057022264
  0
LINE
  5
27F
100
AcDbEntity
  8
0
100
AcDbLine
 62
7
  6
CONTINUOUS
 10
220.7469632232
 20
250.0929651886
 11
220.7469632232
 21
250.0151750886
  0
LINE
  5
280
100
AcDbEntity
  8
0
100
AcDbLine
 62
7
  6
CONTINUOUS
 10
221.4171759092
 20
249.9467683182
 11
221.4171759092
 21
249.7057022264
  0
LINE
  5
281
100
AcDbEntity
  8
0
100
AcDbLine
 62
7
  6
CONTINUOUS
 10
222.0873887518
 20
250.1194990668
 11
222.0873887518
 21
250.0676812871
  0
LINE
  5
282
100
AcDbEntity
  8
0
100
AcDbLine
 62
7
  6
CONTINUOUS
 10
222.3107929805
 20
249.9829631109
 11
222.3107929805
 21
249.7057022264
  0
LINE
  5
283
100
AcDbEntity
  8
0
100
AcDbLine
 62
7
  6
CONTINUOUS
 10
222.5341972091
 20
250.129031196
 11
222.5341972091
 21
250.0966578855
  0
LINE
  5
284
100
AcDbEntity
  8
0
100
AcDbLine
 62
7
  6
CONTINUOUS
 10
222.9810057448
 20
250.0297900149
 11
222.9810057448
 21
249.7057022264
  0
LINE
  5
285
100
AcDbEntity
  8
0
100
AcDbLine
 62
7
  6
CONTINUOUS
 10
223.6512184895
 20
250.087988459
 11
223.6512184895
 21
249.7057022264
  0
LINE
  5
286
100
AcDbEntity
  8
0
100
AcDbLine
 62
7
  6
CONTINUOUS
 10
223.8746227377
 20
250.1251835264
 11
223.8746227377
 21
249.0060137286
  0
LINE
  5
287
100
AcDbEntity
  8
0
100
AcDbLine
 62
7
  6
CONTINUOUS
 10
232.3446227377
 20
249.602202756
 11
232.3446227377
 21
250.1024886831
  0
LINE
  5
288
100
AcDbEntity
  8
0
100
AcDbLine
 62
7
  6
CONTINUOUS
 10
233.5733414456
 20
250.1156429449
 11
233.5733414456
 21
250.1040247207
  0
LINE
  5
289
100
AcDbEntity
  8
0
100
AcDbLine
 62
7
  6
CONTINUOUS
 10
239.1159040298
 20
250.1156429449
 11
239.1159040298
 21
250.1040232288
  0
LINE
  5
28A
100
AcDbEntity
  8
0
100
AcDbLine
 62
7
  6
CONTINUOUS
 10
240.3446227377
 20
249.6022082403
 11
240.3446227377
 21
250.1024878965
  0
LINE
  5
28B
100
AcDbEntity
  8
0
100
AcDbLine
 62
7
  6
CONTINUOUS
 10
232.3446227754
 20
250.1039550366
 11
232.3646729893
 21
250.1156429449
  0
LINE
  5
28C
100
AcDbEntity
  8
0
100
AcDbLine
 62
7
  6
CONTINUOUS
 10
253.1959542814
 20
191.0614336998
 11
253.1959542814
 21
241.6302718436
  0
LINE
  5
28D
100
AcDbEntity
  8
BEZUGSACHSEN
100
AcDbLine
 62
7
  6
CONTINUOUS
 10
258.1959543314
 20
305.630490643
 11
258.1959543314
 21
301.4567024031
  0
LINE
  5
28E
100
AcDbEntity
  8
BEZUGSACHSEN
100
AcDbLine
 62
7
  6
CONTINUOUS
 10
258.1959543314
 20
249.0779570927
 11
258.1959543314
 21
234.6304929185
  0
LINE
  5
28F
100
AcDbEntity
  8
0
100
AcDbLine
 62
7
  6
CONTINUOUS
 10
280.7664806012
 20
271.0172164389
 11
276.8059542814
 21
268.7348725285
  0
LINE
  5
290
100
AcDbEntity
  8
0
100
AcDbLine
 62
7
  6
CONTINUOUS
 10
276.8059542814
 20
266.4601111561
 11
281.9863505675
 21
269.4454330457
  0
LINE
  5
291
100
AcDbEntity
  8
0
100
AcDbLine
 62
7
  6
CONTINUOUS
 10
276.8059542814
 20
266.4295796076
 11
281.9863505675
 21
269.4149014972
  0
LINE
  5
292
100
AcDbEntity
  8
0
100
AcDbLine
 62
7
  6
CONTINUOUS
 10
276.8059542814
 20
253.0641034309
 11
276.8059542814
 21
247.7319670227
  0
LINE
  5
293
100
AcDbEntity
  8
0
100
AcDbLine
 62
7
  6
CONTINUOUS
 10
276.8059542814
 20
266.4295796076
 11
276.8059542814
 21
268.7348725285
  0
LINE
  5
294
100
AcDbEntity
  8
0
100
AcDbLine
 62
7
  6
CONTINUOUS
 10
276.8059542814
 20
274.703584379
 11
276.8059542814
 21
276.7041170636
  0
LINE
  5
295
100
AcDbEntity
  8
0
100
AcDbLine
 62
7
  6
CONTINUOUS
 10
278.7796384939
 20
248.2326099757
 11
278.7796384939
 21
250.7001020676
  0
LINE
  5
296
100
AcDbEntity
  8
0
100
AcDbLine
 62
7
  6
CONTINUOUS
 10
281.7533227074
 20
274.7341159276
 11
281.7533227074
 21
272.7232874682
  0
LINE
  5
297
100
AcDbEntity
  8
0
100
AcDbLine
 62
7
  6
CONTINUOUS
 10
281.9863505675
 20
269.4149014972
 11
281.9863505675
 21
269.4454330457
  0
LINE
  5
298
100
AcDbEntity
  8
0
100
AcDbLine
 62
7
  6
CONTINUOUS
 10
283.7270069199
 20
271.4770473826
 11
283.7270069199
 21
274.7341159276
  0
LINE
  5
299
100
AcDbEntity
  8
0
100
AcDbLine
 62
7
  6
CONTINUOUS
 10
285.4901648164
 20
250.6695705191
 11
285.4901648164
 21
253.0641034309
  0
LINE
  5
29A
100
AcDbEntity
  8
0
100
AcDbLine
 62
7
  6
CONTINUOUS
 10
285.4901648164
 20
274.703584379
 11
285.4901648164
 21
276.7041170636
  0
LINE
  5
29B
100
AcDbEntity
  8
0
100
AcDbLine
 62
7
  6
CONTINUOUS
 10
286.6743753439
 20
276.7041170636
 11
286.6743753439
 21
271.4770473826
  0
LINE
  5
29C
100
AcDbEntity
  8
0
100
AcDbLine
 62
7
  6
CONTINUOUS
 10
286.6743753439
 20
253.0641034309
 11
286.6743753439
 21
248.232604387
  0
LINE
  5
29D
100
AcDbEntity
  8
0
100
AcDbLine
 62
7
  6
CONTINUOUS
 10
288.6480595564
 20
247.7319670227
 11
288.6480595564
 21
253.0641034309
  0
LINE
  5
29E
100
AcDbEntity
  8
0
100
AcDbLine
 62
7
  6
CONTINUOUS
 10
288.6480595564
 20
255.3975732457
 11
288.6480595564
 21
257.7921061575
  0
LINE
  5
29F
100
AcDbEntity
  8
0
100
AcDbLine
 62
7
  6
CONTINUOUS
 10
288.6480595564
 20
262.4895773355
 11
288.6480595564
 21
264.8841102473
  0
LINE
  5
2A0
100
AcDbEntity
  8
0
100
AcDbLine
 62
7
  6
CONTINUOUS
 10
288.6480595564
 20
270.6890469282
 11
288.6480595564
 21
276.7041170636
  0
LINE
  5
2A1
100
AcDbEntity
  8
BEZUGSACHSEN
100
AcDbLine
 62
7
  6
CONTINUOUS
 10
298.1734269317
 20
306.4736300013
 11
304.2890589989
 21
192.1095737363
  0
LINE
  5
2A2
100
AcDbEntity
  8
BEZUGSACHSEN
100
AcDbLine
 62
7
  6
CONTINUOUS
 10
275.2582922795
 20
364.1476269867
 11
296.9940516274
 21
311.6728619805
  0
LINE
  5
2A3
100
AcDbEntity
  8
BEZUGSACHSEN
100
AcDbLine
 62
7
  6
CONTINUOUS
 10
266.7130906897
 20
372.6928285765
 11
214.2383242722
 21
394.428588509
  0
LINE
  5
2A4
100
AcDbEntity
  8
KONSTRUKTIONSELEMENTE
100
AcDbLine
 62
7
  6
CONTINUOUS
 10
356.6055187215
 20
179.6304905784
 11
350.6829667471
 21
179.6304905784
  0
LINE
  5
2A5
100
AcDbEntity
  8
0
100
AcDbLine
 62
7
  6
CONTINUOUS
 10
408.0272501837
 20
179.6304905784
 11
413.949802158
 21
179.6304905784
  0
LINE
  5
2A6
100
AcDbEntity
  8
0
100
AcDbLine
 62
7
  6
CONTINUOUS
 10
340.629181502
 20
195.5614336998
 11
334.3376571484
 21
203.0593804512
  0
LINE
  5
2A7
100
AcDbEntity
  8
KONSTRUKTIONSELEMENTE
100
AcDbLine
 62
7
  6
CONTINUOUS
 10
340.629181502
 20
195.5614336998
 11
349.8013318436
 21
184.6304905784
  0
LINE
  5
2A8
100
AcDbEntity
  8
KONSTRUKTIONSELEMENTE
100
AcDbLine
 62
7
  6
CONTINUOUS
 10
350.6829667471
 20
179.6304905784
 11
349.8013318436
 21
184.6304905784
  0
LINE
  5
2A9
100
AcDbEntity
  8
0
100
AcDbLine
 62
7
  6
CONTINUOUS
 10
399.2733125502
 20
253.0335718824
 11
399.7723795042
 21
253.0641034309
  0
LINE
  5
2AA
100
AcDbEntity
  8
0
100
AcDbLine
 62
7
  6
CONTINUOUS
 10
399.1286894254
 20
255.3975732457
 11
399.6277563794
 21
255.4281047942
  0
LINE
  5
2AB
100
AcDbEntity
  8
0
100
AcDbLine
 62
7
  6
CONTINUOUS
 10
362.1138844526
 20
245.7225419454
 11
362.1138844526
 21
245.1719535046
  0
LINE
  5
2AC
100
AcDbEntity
  8
BEZUGSACHSEN
100
AcDbLine
 62
7
  6
CONTINUOUS
 10
362.3163844526
 20
202.7416104061
 11
362.3163844526
 21
202.630492632
  0
LINE
  5
2AD
100
AcDbEntity
  8
0
100
AcDbLine
 62
7
  6
CONTINUOUS
 10
362.551385287
 20
245.9203856786
 11
362.551385287
 21
245.372287615
  0
LINE
  5
2AE
100
AcDbEntity
  8
0
100
AcDbLine
 62
7
  6
CONTINUOUS
 10
362.7701344526
 20
246.0173592553
 11
362.7701344526
 21
245.4704735955
  0
LINE
  5
2AF
100
AcDbEntity
  8
0
100
AcDbLine
 62
7
  6
CONTINUOUS
 10
362.9888836181
 20
246.1130457152
 11
362.9888836181
 21
245.5673510887
  0
LINE
  5
2B0
100
AcDbEntity
  8
0
100
AcDbLine
 62
7
  6
CONTINUOUS
 10
363.6451336181
 20
246.3924654263
 11
363.6451336181
 21
245.8502191199
  0
LINE
  5
2B1
100
AcDbEntity
  8
0
100
AcDbLine
 62
7
  6
CONTINUOUS
 10
364.520135287
 20
246.7474886572
 11
364.520135287
 21
246.209560955
  0
LINE
  5
2B2
100
AcDbEntity
  8
0
100
AcDbLine
 62
7
  6
CONTINUOUS
 10
398.5501969263
 20
264.8535786987
 11
399.0492638803
 21
264.8841102473
  0
LINE
  5
2B3
100
AcDbEntity
  8
BEZUGSACHSEN
100
AcDbLine
 62
7
  6
CONTINUOUS
 10
369.3163844526
 20
386.6304906284
 11
369.3163844526
 21
326.2701107667
  0
LINE
  5
2B4
100
AcDbEntity
  8
BEZUGSACHSEN
100
AcDbLine
 62
7
  6
CONTINUOUS
 10
368.7938786754
 20
309.1724435879
 11
362.3499741297
 21
203.8407467779
  0
LINE
  5
2B5
100
AcDbEntity
  8
KONSTRUKTIONSELEMENTE
100
AcDbLine
 62
7
  6
CONTINUOUS
 10
356.6055187215
 20
179.6304905784
 11
361.1430177628
 21
205.3639263983
  0
LINE
  5
2B6
100
AcDbEntity
  8
0
100
AcDbLine
 62
7
  6
CONTINUOUS
 10
398.4537815098
 20
266.4295796076
 11
398.9528484638
 21
266.4601111561
  0
LINE
  5
2B7
100
AcDbEntity
  8
0
100
AcDbLine
 62
7
  6
CONTINUOUS
 10
398.3146178431
 20
268.70434098
 11
398.8136847971
 21
268.7348725285
  0
LINE
  5
2B8
100
AcDbEntity
  8
0
100
AcDbLine
 62
7
  6
CONTINUOUS
 10
397.9476005731
 20
274.703584379
 11
398.4466675271
 21
274.7341159276
  0
LINE
  5
2B9
100
AcDbEntity
  8
0
100
AcDbLine
 62
7
  6
CONTINUOUS
 10
397.8270813024
 20
276.6735855151
 11
398.3261482564
 21
276.7041170636
  0
LINE
  5
2BA
100
AcDbEntity
  8
0
100
AcDbLine
 62
7
  6
CONTINUOUS
 10
408.0272501837
 20
179.6304905784
 11
403.4897511423
 21
205.3639263983
  0
LINE
  5
2BB
100
AcDbEntity
  8
RUNDUNGEN
100
AcDbLine
 62
7
  6
CONTINUOUS
 10
395.8388902298
 20
309.1724435879
 11
402.2827947755
 21
203.8407467779
  0
LINE
  5
2BC
100
AcDbEntity
  8
0
100
AcDbLine
 62
7
  6
CONTINUOUS
 10
398.3261482564
 20
276.7041170636
 11
398.9528484638
 21
266.4601111561
  0
LINE
  5
2BD
100
AcDbEntity
  8
0
100
AcDbLine
 62
7
  6
CONTINUOUS
 10
399.0492638803
 20
264.8841102473
 11
399.6277563794
 21
255.4281047942
  0
LINE
  5
2BE
100
AcDbEntity
  8
0
100
AcDbLine
 62
7
  6
CONTINUOUS
 10
399.7723795042
 20
253.0641034309
 11
400.1599604815
 21
246.7287268425
  0
LINE
  5
2BF
100
AcDbEntity
  8
0
100
AcDbLine
 62
7
  6
CONTINUOUS
 10
400.1906703434
 20
246.2267451888
 11
400.1944036673
 21
246.1657204891
  0
LINE
  5
2C0
100
AcDbEntity
  8
BEZUGSACHSEN
100
AcDbLine
 62
7
  6
CONTINUOUS
 10
395.3163844526
 20
386.6304906284
 11
395.3163844526
 21
386.1136727164
  0
LINE
  5
2C1
100
AcDbEntity
  8
RUNDUNGEN
100
AcDbLine
 62
7
  6
CONTINUOUS
 10
395.3163844526
 20
386.1136727164
 11
395.3163844526
 21
326.2701107667
  0
LINE
  5
2C2
100
AcDbEntity
  8
0
100
AcDbLine
 62
7
  6
CONTINUOUS
 10
400.1763844526
 20
246.7222902764
 11
400.1763844526
 21
246.1840583368
  0
LINE
  5
2C3
100
AcDbEntity
  8
RUNDUNGEN
100
AcDbLine
 62
7
  6
CONTINUOUS
 10
402.3163844526
 20
202.7416107034
 11
402.3163844526
 21
202.6304905784
  0
LINE
  5
2C4
100
AcDbEntity
  8
0
100
AcDbLine
 62
7
  6
CONTINUOUS
 10
413.949802158
 20
179.6304905784
 11
414.8314370616
 21
184.6304905784
  0
LINE
  5
2C5
100
AcDbEntity
  8
0
100
AcDbLine
 62
7
  6
CONTINUOUS
 10
414.8314370616
 20
184.6304905784
 11
430.2951117568
 21
203.0593804512
  0
LINE
  5
2C6
100
AcDbEntity
  8
0
100
AcDbLine
 62
7
  6
CONTINUOUS
 10
378.3163844526
 20
395.6304906284
 11
386.3163844526
 21
395.6304906284
  0
LWPOLYLINE
  5
2C7
100
AcDbEntity
  8
RUNDUNGEN
100
AcDbPolyline
 62
7
  6
CONTINUOUS
 90
146
 70
0
 10
112.1331824217
 20
69.0484325215
 10
112.137860726
 20
68.8331516608
 10
112.1427840148
 20
68.6190057195
 10
112.1479526208
 20
68.4060756295
 10
112.1533669586
 20
68.1944372457
 10
112.1590275098
 20
67.9841644793
 10
112.1649344128
 20
67.7753427904
 10
112.171089229
 20
67.5680093865
 10
112.1774910056
 20
67.3622874667
 10
112.1841483483
 20
67.1580051853
 10
112.1910674928
 20
66.9551027532
 10
112.1982597114
 20
66.7534071682
 10
112.2057363963
 20
66.5527886322
 10
112.2135104256
 20
66.3531202372
 10
112.221598792
 20
66.1542181658
 10
112.2300080596
 20
65.9561933581
 10
112.2387601192
 20
65.758825822
 10
112.24783006
 20
65.5629496055
 10
112.2572053651
 20
65.3690378992
 10
112.2668598583
 20
65.1777729587
 10
112.2767696625
 20
64.989700042
 10
112.2869017225
 20
64.8054499366
 10
112.2972241753
 20
64.6255369249
 10
112.307695077
 20
64.4505573812
 10
112.3182686463
 20
64.2810671283
 10
112.3289091228
 20
64.1173724186
 10
112.3395583931
 20
63.9600394635
 10
112.3502265739
 20
63.8085791727
 10
112.3609021489
 20
63.6628441702
 10
112.371598209
 20
63.522371868
 10
112.3823236232
 20
63.386800115
 10
112.3930911064
 20
63.2557553033
 10
112.4039152057
 20
63.1288795004
 10
112.4148114157
 20
63.0058398867
 10
112.4258083994
 20
62.8861958246
 10
112.4368937354
 20
62.7699793788
 10
112.4480745835
 20
62.6570112745
 10
112.4593245785
 20
62.5474455821
 10
112.4706200145
 20
62.4413764619
 10
112.4819552996
 20
62.3387093078
 10
112.4933045802
 20
62.2395208886
 10
112.5047020829
 20
62.1433640565
 10
112.516165592
 20
62.049968668
 10
112.527727966
 20
61.9589703836
 10
112.5394259173
 20
61.8700124169
 10
112.5512788454
 20
61.7828995367
 10
112.5633188899
 20
61.6973636573
 10
112.5755542643
 20
61.6133250486
 10
112.5880002981
 20
61.5306603036
 10
112.600671542
 20
61.4492594055
 10
112.6135842892
 20
61.3690090501
 10
112.6267513097
 20
61.2898248705
 10
112.6401869468
 20
61.2116180144
 10
112.653903306
 20
61.134317529
 10
112.6679132631
 20
61.0578519523
 10
112.6822277397
 20
60.9821638947
 10
112.6968557093
 20
60.9072080975
 10
112.7118129121
 20
60.8329073892
 10
112.727111189
 20
60.759208392
 10
112.7427693805
 20
60.6860282528
 10
112.7588035165
 20
60.613303063
 10
112.7752334107
 20
60.5409569513
 10
112.7920728725
 20
60.468945497
 10
112.809356493
 20
60.3971420026
 10
112.8271042231
 20
60.3254902888
 10
112.8453804089
 20
60.2537671021
 10
112.8642382506
 20
60.1818144261
 10
112.8837509333
 20
60.1094179107
 10
112.9039901019
 20
60.0363921842
 10
112.9250408359
 20
59.9625264954
 10
112.9469977926
 20
59.8876025455
 10
112.9699372957
 20
59.8114885663
 10
112.9939521402
 20
59.7340184859
 10
113.019118258
 20
59.655101064
 10
113.0455029318
 20
59.5746863991
 10
113.0732526844
 20
59.4925045579
 10
113.1024811464
 20
59.408415781
 10
113.1334076384
 20
59.3220132509
 10
113.1662786253
 20
59.2328742846
 10
113.201217053
 20
59.1409588628
 10
113.2384423706
 20
59.0460049931
 10
113.2779716766
 20
58.9482920185
 10
113.319880545
 20
58.8479453225
 10
113.3642092152
 20
58.7451722864
 10
113.4110024033
 20
58.6401607075
 10
113.4603006046
 20
58.5330990812
 10
113.512098086
 20
58.4242621523
 10
113.5665489295
 20
58.3135837691
 10
113.6237480527
 20
58.2011341876
 10
113.6838847908
 20
58.0868124572
 10
113.7471332195
 20
57.9705736343
 10
113.8136799885
 20
57.8523736669
 10
113.8836668978
 20
57.732268503
 10
113.9574516586
 20
57.6099748286
 10
114.0352882533
 20
57.4854329709
 10
114.1177450925
 20
57.3581406448
 10
114.2054678104
 20
57.2275838971
 10
114.2986939029
 20
57.0939364834
 10
114.3982347955
 20
56.9566171282
 10
114.5031077689
 20
56.8175189356
 10
114.6127118381
 20
56.6778223883
 10
114.7262449712
 20
56.538804643
 10
114.8424578038
 20
56.4020879258
 10
114.9615687492
 20
56.2674332126
 10
115.0832962426
 20
56.1351769892
 10
115.2078051901
 20
56.0051546351
 10
115.3351754432
 20
55.8773166441
 10
115.4654140218
 20
55.7516979574
 10
115.598605884
 20
55.6282662785
 10
115.7346094303
 20
55.5072015717
 10
115.8733410922
 20
55.3886172605
 10
116.0146737199
 20
55.2726532341
 10
116.1584674073
 20
55.1594457203
 10
116.304634209
 20
55.0490785132
 10
116.4530441641
 20
54.9416586498
 10
116.6036552896
 20
54.83722242
 10
116.7563992326
 20
54.7358232376
 10
116.9112151535
 20
54.6375068839
 10
117.0680384984
 20
54.5423194229
 10
117.2268042412
 20
54.4503050051
 10
117.387446464
 20
54.3615061818
 10
117.5498961779
 20
54.2759650453
 10
117.7140849673
 20
54.1937211865
 10
117.8799384185
 20
54.1148149416
 10
118.0473812372
 20
54.0392845258
 10
118.2163409505
 20
53.9671645206
 10
118.3867413606
 20
53.8984888865
 10
118.5585127897
 20
53.833286855
 10
118.7315828164
 20
53.7715869715
 10
118.9058792362
 20
53.7134158976
 10
119.0813290002
 20
53.6587988233
 10
119.2578585413
 20
53.6077593456
 10
119.435393598
 20
53.5603195144
 10
119.6138600022
 20
53.5164996263
 10
119.7931826932
 20
53.4763184939
 10
119.9732873888
 20
53.4397930744
 10
120.1540990628
 20
53.4069388517
 10
120.3355427019
 20
53.3777696797
 10
120.5175428347
 20
53.3522978764
 10
120.7000240683
 20
53.3305341448
 10
120.8829106797
 20
53.3124876412
 10
121.0661268779
 20
53.2981659435
 10
121.2495966746
 20
53.2875750668
 10
121.433244046
 20
53.2807194522
 10
121.6169928006
 20
53.2776019735
 10
163.1959542814
 20
53.2773937782
  0
LINE
  5
2C8
100
AcDbEntity
  8
RUNDUNGEN
100
AcDbLine
 62
7
  6
CONTINUOUS
 10
112.1245581878
 20
69.4821345143
 11
112.1331824217
 21
69.0484325215
  0
LINE
  5
2C9
100
AcDbEntity
  8
RUNDUNGEN
100
AcDbLine
 62
7
  6
CONTINUOUS
 10
112.1169046717
 20
69.9196909889
 11
112.1245581878
 21
69.4821345143
  0
LINE
  5
2CA
100
AcDbEntity
  8
RUNDUNGEN
100
AcDbLine
 62
7
  6
CONTINUOUS
 10
112.1102145967
 20
70.3608254198
 11
112.1169046717
 21
69.9196909889
  0
LINE
  5
2CB
100
AcDbEntity
  8
RUNDUNGEN
100
AcDbLine
 62
7
  6
CONTINUOUS
 10
112.104483935
 20
70.8051975028
 11
112.1102145967
 21
70.3608254198
  0
LINE
  5
2CC
100
AcDbEntity
  8
RUNDUNGEN
100
AcDbLine
 62
7
  6
CONTINUOUS
 10
112.0997116458
 20
71.2523354996
 11
112.104483935
 21
70.8051975028
  0
LINE
  5
2CD
100
AcDbEntity
  8
RUNDUNGEN
100
AcDbLine
 62
7
  6
CONTINUOUS
 10
112.0958974915
 20
71.701721103
 11
112.0997116458
 21
71.2523354996
  0
LINE
  5
2CE
100
AcDbEntity
  8
RUNDUNGEN
100
AcDbLine
 62
7
  6
CONTINUOUS
 10
112.093041164
 20
72.152849651
 11
112.0958974915
 21
71.701721103
  0
LINE
  5
2CF
100
AcDbEntity
  8
RUNDUNGEN
100
AcDbLine
 62
7
  6
CONTINUOUS
 10
112.0911424145
 20
72.6052243676
 11
112.093041164
 21
72.152849651
  0
LWPOLYLINE
  5
2D0
100
AcDbEntity
  8
RUNDUNGEN
100
AcDbPolyline
 62
7
  6
CONTINUOUS
 90
3
 70
0
 10
112.0900893698
 20
73.2773937782
 10
112.090201111
 20
73.0583568086
 10
112.0911424145
 20
72.6052243676
  0
LINE
  5
2D1
100
AcDbEntity
  8
BEZUGSACHSEN
100
AcDbLine
 62
7
  6
CONTINUOUS
 10
112.0905520618
 20
73.7230516525
 11
112.0900893698
 21
73.2773937782
  0
LINE
  5
2D2
100
AcDbEntity
  8
BEZUGSACHSEN
100
AcDbLine
 62
7
  6
CONTINUOUS
 10
112.0919720027
 20
74.1758514849
 11
112.0905520618
 21
73.7230516525
  0
LINE
  5
2D3
100
AcDbEntity
  8
BEZUGSACHSEN
100
AcDbLine
 62
7
  6
CONTINUOUS
 10
112.0943493941
 20
74.627653331
 11
112.0919720027
 21
74.1758514849
  0
LINE
  5
2D4
100
AcDbEntity
  8
BEZUGSACHSEN
100
AcDbLine
 62
7
  6
CONTINUOUS
 10
112.0976844186
 20
75.0779606908
 11
112.0943493941
 21
74.627653331
  0
LINE
  5
2D5
100
AcDbEntity
  8
BEZUGSACHSEN
100
AcDbLine
 62
7
  6
CONTINUOUS
 10
112.1019773773
 20
75.5262750731
 11
112.0976844186
 21
75.0779606908
  0
LINE
  5
2D6
100
AcDbEntity
  8
BEZUGSACHSEN
100
AcDbLine
 62
7
  6
CONTINUOUS
 10
112.1072285715
 20
75.9720858958
 11
112.1019773773
 21
75.5262750731
  0
LINE
  5
2D7
100
AcDbEntity
  8
BEZUGSACHSEN
100
AcDbLine
 62
7
  6
CONTINUOUS
 10
112.1134383724
 20
76.4148812386
 11
112.1072285715
 21
75.9720858958
  0
LINE
  5
2D8
100
AcDbEntity
  8
BEZUGSACHSEN
100
AcDbLine
 62
7
  6
CONTINUOUS
 10
112.1206089762
 20
76.8542462626
 11
112.1134383724
 21
76.4148812386
  0
LINE
  5
2D9
100
AcDbEntity
  8
0
100
AcDbLine
 62
7
  6
CONTINUOUS
 10
163.1959542814
 20
31.5901908276
 11
163.1959542814
 21
60.2773937782
  0
LINE
  5
2DA
100
AcDbEntity
  8
0
100
AcDbLine
 62
7
  6
CONTINUOUS
 10
163.1959542814
 20
86.2773937782
 11
163.1959542814
 21
112.6697038987
  0
LINE
  5
2DB
100
AcDbEntity
  8
KONSTRUKTIONSELEMENTE
100
AcDbLine
 62
7
  6
CONTINUOUS
 10
163.1959542814
 20
112.6697038987
 11
163.1959542814
 21
114.9645967288
  0
LINE
  5
2DC
100
AcDbEntity
  8
0
100
AcDbLine
 62
7
  6
CONTINUOUS
 10
168.4065467253
 20
25.298666474
 11
247.9853618376
 21
25.298666474
  0
LINE
  5
2DD
100
AcDbEntity
  8
0
100
AcDbLine
 62
7
  6
CONTINUOUS
 10
174.3559542814
 20
60.2773937782
 11
174.3559542814
 21
56.6773937782
  0
LINE
  5
2DE
100
AcDbEntity
  8
0
100
AcDbLine
 62
7
  6
CONTINUOUS
 10
176.3559542814
 20
60.2773937782
 11
176.3559542814
 21
56.6773937782
  0
LINE
  5
2DF
100
AcDbEntity
  8
0
100
AcDbLine
 62
7
  6
CONTINUOUS
 10
177.1559542814
 20
59.0773937782
 11
177.1559542814
 21
56.6773937782
  0
LINE
  5
2E0
100
AcDbEntity
  8
0
100
AcDbLine
 62
7
  6
CONTINUOUS
 10
179.3559542814
 20
60.2773937782
 11
179.3559542814
 21
59.0773937782
  0
LINE
  5
2E1
100
AcDbEntity
  8
0
100
AcDbLine
 62
7
  6
CONTINUOUS
 10
181.3159542814
 20
60.2773937782
 11
181.3159542814
 21
59.0773937782
  0
LINE
  5
2E2
100
AcDbEntity
  8
0
100
AcDbLine
 62
7
  6
CONTINUOUS
 10
186.1159542814
 20
59.0773937782
 11
186.1159542814
 21
56.6773937782
  0
LINE
  5
2E3
100
AcDbEntity
  8
0
100
AcDbLine
 62
7
  6
CONTINUOUS
 10
194.0195711962
 20
91.9486446127
 11
193.3493585101
 21
91.0736429437
  0
LINE
  5
2E4
100
AcDbEntity
  8
0
100
AcDbLine
 62
7
  6
CONTINUOUS
 10
195.1365923396
 20
91.2923946127
 11
194.6897838822
 21
90.8548937782
  0
LINE
  5
2E5
100
AcDbEntity
  8
0
100
AcDbLine
 62
7
  6
CONTINUOUS
 10
194.9131881109
 20
92.6048946127
 11
194.0195711962
 21
91.9486446127
  0
LINE
  5
2E6
100
AcDbEntity
  8
0
100
AcDbLine
 62
7
  6
CONTINUOUS
 10
195.583400797
 20
91.5111437782
 11
195.1365923396
 21
91.2923946127
  0
LINE
  5
2E7
100
AcDbEntity
  8
0
100
AcDbLine
 62
7
  6
CONTINUOUS
 10
200.0514863095
 20
93.4798937782
 11
199.1578690818
 21
93.0423929437
  0
LINE
  5
2E8
100
AcDbEntity
  8
0
100
AcDbLine
 62
7
  6
CONTINUOUS
 10
195.583400797
 20
92.8236437782
 11
194.9131881109
 21
92.6048946127
  0
LWPOLYLINE
  5
2E9
100
AcDbEntity
  8
BEZUGSACHSEN
100
AcDbPolyline
 62
7
  6
CONTINUOUS
 90
146
 70
0
 10
294.7749109235
 20
53.2776019406
 10
294.9586548424
 20
53.2807191896
 10
295.1422973872
 20
53.2875743777
 10
295.3257623726
 20
53.2981646314
 10
295.5089737808
 20
53.3124855103
 10
295.6918556296
 20
53.3305309997
 10
295.8743321342
 20
53.3522935228
 10
296.0563275776
 20
53.3777639242
 10
296.2377665731
 20
53.406931502
 10
296.4185736549
 20
53.4397839399
 10
296.5986738157
 20
53.4763073851
 10
296.7779920353
 20
53.5164863555
 10
296.9564540379
 20
53.5603038962
 10
297.1339847682
 20
53.6077411964
 10
297.3105100643
 20
53.6587779617
 10
297.4859556683
 20
53.7133921441
 10
297.6602480172
 20
53.7715601486
 10
297.8333140671
 20
53.8332567875
 10
298.0050816159
 20
53.8984554005
 10
298.1754782538
 20
53.9671274475
 10
298.3444343104
 20
54.0392437009
 10
298.5118736023
 20
54.1147702082
 10
298.6777236781
 20
54.1936724002
 10
298.8419092271
 20
54.2759120565
 10
299.0043558293
 20
54.3614488395
 10
299.1649950617
 20
54.4502431548
 10
299.3237579228
 20
54.542252903
 10
299.4805785062
 20
54.6374355386
 10
299.6353917906
 20
54.7357469133
 10
299.7881332285
 20
54.8371409668
 10
299.9387419598
 20
54.9415719026
 10
300.0871497163
 20
55.0489863668
 10
300.2333145278
 20
55.1593480836
 10
300.3771066079
 20
55.272550164
 10
300.5184382275
 20
55.3885090199
 10
300.6571693121
 20
55.507088327
 10
300.7931727569
 20
55.6281482726
 10
300.9263645859
 20
55.7515750895
 10
301.0566029534
 20
55.8771885712
 10
301.1839724998
 20
56.0050206502
 10
301.3084797835
 20
56.1350358159
 10
301.4302049982
 20
56.2672838055
 10
301.5493121027
 20
56.4019280266
 10
301.6655229098
 20
56.5386358049
 10
301.7790583866
 20
56.6776495599
 10
301.8886694539
 20
56.8173481471
 10
301.9935568738
 20
56.9564589787
 10
302.0931140227
 20
57.0937949135
 10
302.1863545463
 20
57.227457945
 10
302.2740885956
 20
57.3580271228
 10
302.3565505252
 20
57.4853232714
 10
302.4343890469
 20
57.6098643051
 10
302.5081739545
 20
57.7321542899
 10
302.5781603847
 20
57.8522545996
 10
302.6447076994
 20
57.9704514037
 10
302.7079569268
 20
58.086687498
 10
302.7680945958
 20
58.2010067471
 10
302.8252945668
 20
58.3134536877
 10
302.8797457588
 20
58.4241283902
 10
302.9315436837
 20
58.5329617669
 10
302.9808427925
 20
58.6400207998
 10
303.0276374091
 20
58.7450309868
 10
303.0719682263
 20
58.847804427
 10
303.1138798134
 20
58.9481531466
 10
303.1534124325
 20
59.0458699769
 10
303.1906413711
 20
59.1408289535
 10
303.2255837529
 20
59.2327509041
 10
303.2584582341
 20
59.3218957249
 10
303.289386899
 20
59.4083008937
 10
303.3186167795
 20
59.492390417
 10
303.3463672681
 20
59.5745711308
 10
303.3727525108
 20
59.6549842133
 10
303.3979195797
 20
59.7339012944
 10
303.4219355126
 20
59.8113715806
 10
303.4448762568
 20
59.8874864057
 10
303.4668343986
 20
59.9624111631
 10
303.4878860608
 20
60.036276894
 10
303.5081259728
 20
60.1093020818
 10
303.5276392044
 20
60.1816973819
 10
303.546497444
 20
60.2536482691
 10
303.5647738877
 20
60.3253690802
 10
303.5825218103
 20
60.397018083
 10
303.5998055964
 20
60.4688186592
 10
303.6166452864
 20
60.5408273609
 10
303.6330755791
 20
60.6131713822
 10
303.6491102265
 20
60.6858949455
 10
303.6647690285
 20
60.7590739027
 10
303.6800679984
 20
60.8327721251
 10
303.6950259547
 20
60.9070723963
 10
303.7096547479
 20
60.9820281777
 10
303.7239701243
 20
61.0577167176
 10
303.737981044
 20
61.1341832514
 10
303.7516984224
 20
61.2114851816
 10
303.7651351254
 20
61.2896939589
 10
303.7783032552
 20
61.3688805619
 10
303.7912171352
 20
61.4491337639
 10
303.803889522
 20
61.530537882
 10
303.8163366962
 20
61.6132061649
 10
303.8285731982
 20
61.6972485813
 10
303.8406143452
 20
61.782788465
 10
303.8524683411
 20
61.8699054846
 10
303.8641673133
 20
61.9588676269
 10
303.8757306361
 20
62.0498699068
 10
303.8871950578
 20
62.14326937
 10
303.8985934517
 20
62.2394304721
 10
303.9099436316
 20
62.3386236266
 10
303.9212798561
 20
62.4412963082
 10
303.9325762681
 20
62.5473717982
 10
303.943827294
 20
62.6569449635
 10
303.9550091929
 20
62.7699213916
 10
303.9660955738
 20
62.8861468114
 10
303.977093596
 20
63.0058005274
 10
303.9879908185
 20
63.1288502962
 10
303.9988159358
 20
63.2557371434
 10
304.0095844581
 20
63.3867941437
 10
304.0203109503
 20
63.5223795516
 10
304.0310081426
 20
63.6628673128
 10
304.0416849158
 20
63.8086199141
 10
304.0523543958
 20
63.9601006609
 10
304.063005002
 20
64.1174562565
 10
304.0736468545
 20
64.2811760659
 10
304.0842216838
 20
64.4506915421
 10
304.0946936229
 20
64.6256945273
 10
304.1050168032
 20
64.8056272999
 10
304.1151491495
 20
64.9898904417
 10
304.1250588838
 20
65.1779703404
 10
304.1347129348
 20
65.3692350048
 10
304.1440875961
 20
65.5631417987
 10
304.1531568098
 20
65.7590104602
 10
304.161908139
 20
65.9563693341
 10
304.1703167862
 20
66.1543869971
 10
304.1784046075
 20
66.3532828537
 10
304.186178177
 20
66.5529464248
 10
304.1936544611
 20
66.7535610488
 10
304.2008463221
 20
66.9552533652
 10
304.2077651387
 20
67.1581528894
 10
304.2144221697
 20
67.3624322959
 10
304.2208236428
 20
67.568151145
 10
304.2269781518
 20
67.7754808708
 10
304.2328847498
 20
67.9842984263
 10
304.2385449989
 20
68.1945665822
 10
304.2439590418
 20
68.4061999966
 10
304.2491273628
 20
68.6191248468
 10
304.254050379
 20
68.8332653694
 10
304.2587284256
 20
69.0485407411
 10
304.2673521927
 20
69.4822318319
  0
LINE
  5
2EA
100
AcDbEntity
  8
0
100
AcDbLine
 62
7
  6
CONTINUOUS
 10
193.1259542814
 20
89.9798946127
 11
193.1259542814
 21
88.8861437782
  0
LINE
  5
2EB
100
AcDbEntity
  8
0
100
AcDbLine
 62
7
  6
CONTINUOUS
 10
193.1259542814
 20
56.7298937782
 11
193.1259542814
 21
55.4173937782
  0
LINE
  5
2EC
100
AcDbEntity
  8
0
100
AcDbLine
 62
7
  6
CONTINUOUS
 10
194.4663796535
 20
90.1986437782
 11
194.4663796535
 21
88.8861437782
  0
LINE
  5
2ED
100
AcDbEntity
  8
0
100
AcDbLine
 62
7
  6
CONTINUOUS
 10
193.3493585101
 20
91.0736429437
 11
193.1259542814
 21
89.9798946127
  0
LINE
  5
2EE
100
AcDbEntity
  8
0
100
AcDbLine
 62
7
  6
CONTINUOUS
 10
197.8174437097
 20
91.2923946127
 11
197.594039481
 21
90.1986437782
  0
LINE
  5
2EF
100
AcDbEntity
  8
0
100
AcDbLine
 62
7
  6
CONTINUOUS
 10
194.6897838822
 20
90.8548937782
 11
194.4663796535
 21
90.1986437782
  0
LINE
  5
2F0
100
AcDbEntity
  8
0
100
AcDbLine
 62
7
  6
CONTINUOUS
 10
197.594039481
 20
88.8861437782
 11
197.3706352523
 21
88.2298937782
  0
LINE
  5
2F1
100
AcDbEntity
  8
0
100
AcDbLine
 62
7
  6
CONTINUOUS
 10
198.2642521671
 20
92.1673937782
 11
197.8174437097
 21
91.2923946127
  0
LINE
  5
2F2
100
AcDbEntity
  8
0
100
AcDbLine
 62
7
  6
CONTINUOUS
 10
198.7110606244
 20
88.0111446127
 11
198.2642521671
 21
87.1361429437
  0
LINE
  5
2F3
100
AcDbEntity
  8
0
100
AcDbLine
 62
7
  6
CONTINUOUS
 10
199.6046775392
 20
91.7298929437
 11
199.1578690818
 21
91.0736429437
  0
LINE
  5
2F4
100
AcDbEntity
  8
0
100
AcDbLine
 62
7
  6
CONTINUOUS
 10
197.3706352523
 20
88.2298937782
 11
196.9238267949
 21
87.5736437782
  0
LINE
  5
2F5
100
AcDbEntity
  8
0
100
AcDbLine
 62
7
  6
CONTINUOUS
 10
199.1578690818
 20
93.0423929437
 11
198.2642521671
 21
92.1673937782
  0
LINE
  5
2F6
100
AcDbEntity
  8
0
100
AcDbLine
 62
7
  6
CONTINUOUS
 10
198.2642521671
 20
87.1361429437
 11
197.3872310109
 21
86.2773937782
  0
LINE
  5
2F7
100
AcDbEntity
  8
0
100
AcDbLine
 62
7
  6
CONTINUOUS
 10
202.0621245241
 20
87.5736437782
 11
201.3919116816
 21
86.9173937782
  0
LINE
  5
2F8
100
AcDbEntity
  8
0
100
AcDbLine
 62
7
  6
CONTINUOUS
 10
200.2748905382
 20
92.1673937782
 11
199.6046775392
 21
91.7298929437
  0
LINE
  5
2F9
100
AcDbEntity
  8
0
100
AcDbLine
 62
7
  6
CONTINUOUS
 10
196.9238267949
 20
87.5736437782
 11
196.2536141089
 21
87.3548946127
  0
LINE
  5
2FA
100
AcDbEntity
  8
0
100
AcDbLine
 62
7
  6
CONTINUOUS
 10
201.3919116816
 20
86.9173937782
 11
200.7216989956
 21
86.6986446127
  0
LINE
  5
2FB
100
AcDbEntity
  8
0
100
AcDbLine
 62
7
  6
CONTINUOUS
 10
276.8059542814
 20
56.640929767
 11
281.9863505675
 21
56.8235635788
  0
LINE
  5
2FC
100
AcDbEntity
  8
0
100
AcDbLine
 62
7
  6
CONTINUOUS
 10
280.7664806012
 20
56.9197209793
 11
276.8059542814
 21
56.7800934337
  0
LINE
  5
2FD
100
AcDbEntity
  8
BEZUGSACHSEN
100
AcDbLine
 62
7
  6
CONTINUOUS
 10
163.1959542814
 20
53.2773937782
 11
121.6842578904
 21
53.2773937782
  0
LINE
  5
2FE
100
AcDbEntity
  8
RUNDUNGEN
100
AcDbLine
 62
7
  6
CONTINUOUS
 10
253.1959542814
 20
53.2773937782
 11
294.7076506565
 21
53.2773937782
  0
LINE
  5
2FF
100
AcDbEntity
  8
BEZUGSACHSEN
100
AcDbLine
 62
7
  6
CONTINUOUS
 10
253.1959542814
 20
53.2773937782
 11
294.7749109235
 21
53.2776019406
  0
LINE
  5
300
100
AcDbEntity
  8
0
100
AcDbLine
 62
7
  6
CONTINUOUS
 10
281.1480595489
 20
55.2300508386
 11
284.3059542889
 21
55.2300508386
  0
LINE
  5
301
100
AcDbEntity
  8
0
100
AcDbLine
 62
7
  6
CONTINUOUS
 10
284.2059542889
 20
55.3747703787
 11
281.2533227069
 21
55.3747703787
  0
LINE
  5
302
100
AcDbEntity
  8
0
100
AcDbLine
 62
7
  6
CONTINUOUS
 10
278.7796384939
 20
55.6767756018
 11
285.4901648164
 21
55.6767756018
  0
LINE
  5
303
100
AcDbEntity
  8
0
100
AcDbLine
 62
7
  6
CONTINUOUS
 10
288.6480595564
 20
55.8213987266
 11
286.6743753439
 21
55.8213987266
  0
LINE
  5
304
100
AcDbEntity
  8
0
100
AcDbLine
 62
7
  6
CONTINUOUS
 10
285.4901648164
 20
55.8213987266
 11
276.8059542814
 21
55.8213987266
  0
LINE
  5
305
100
AcDbEntity
  8
0
100
AcDbLine
 62
7
  6
CONTINUOUS
 10
281.5427963914
 20
55.9660218514
 11
288.6480595564
 21
55.9660218514
  0
LINE
  5
306
100
AcDbEntity
  8
0
100
AcDbLine
 62
7
  6
CONTINUOUS
 10
288.6480595564
 20
56.1106449762
 11
281.5427963914
 21
56.1106449762
  0
LINE
  5
307
100
AcDbEntity
  8
0
100
AcDbLine
 62
7
  6
CONTINUOUS
 10
281.5427963914
 20
56.3998912257
 11
288.6480595564
 21
56.3998912257
  0
LINE
  5
308
100
AcDbEntity
  8
0
100
AcDbLine
 62
7
  6
CONTINUOUS
 10
288.6480595564
 20
56.5445143505
 11
281.5427963914
 21
56.5445143505
  0
LINE
  5
309
100
AcDbEntity
  8
0
100
AcDbLine
 62
7
  6
CONTINUOUS
 10
174.3559542814
 20
56.6773937782
 11
176.3559542814
 21
56.6773937782
  0
LINE
  5
30A
100
AcDbEntity
  8
0
100
AcDbLine
 62
7
  6
CONTINUOUS
 10
177.1559542814
 20
56.6773937782
 11
186.1159542814
 21
56.6773937782
  0
LINE
  5
30B
100
AcDbEntity
  8
0
100
AcDbLine
 62
7
  6
CONTINUOUS
 10
276.8059542814
 20
57.1471107037
 11
281.7533227074
 21
57.1471107037
  0
LINE
  5
30C
100
AcDbEntity
  8
0
100
AcDbLine
 62
7
  6
CONTINUOUS
 10
283.7270069199
 20
57.1471107037
 11
285.4901648164
 21
57.1471107037
  0
LINE
  5
30D
100
AcDbEntity
  8
0
100
AcDbLine
 62
7
  6
CONTINUOUS
 10
288.6480595564
 20
57.2676299744
 11
286.6743753439
 21
57.2676299744
  0
LINE
  5
30E
100
AcDbEntity
  8
0
100
AcDbLine
 62
7
  6
CONTINUOUS
 10
285.4901648164
 20
57.2676299744
 11
276.8059542814
 21
57.2676299744
  0
LINE
  5
30F
100
AcDbEntity
  8
0
100
AcDbLine
 62
7
  6
CONTINUOUS
 10
288.6480595564
 20
57.7666969284
 11
286.6743753439
 21
57.7666969284
  0
LINE
  5
310
100
AcDbEntity
  8
0
100
AcDbLine
 62
7
  6
CONTINUOUS
 10
285.4901648164
 20
57.7666969284
 11
276.8059542814
 21
57.7666969284
  0
LINE
  5
311
100
AcDbEntity
  8
0
100
AcDbLine
 62
7
  6
CONTINUOUS
 10
177.1559542814
 20
59.0773937782
 11
179.3559542814
 21
59.0773937782
  0
LINE
  5
312
100
AcDbEntity
  8
0
100
AcDbLine
 62
7
  6
CONTINUOUS
 10
181.3159542814
 20
59.0773937782
 11
186.1159542814
 21
59.0773937782
  0
LINE
  5
313
100
AcDbEntity
  8
0
100
AcDbLine
 62
7
  6
CONTINUOUS
 10
200.8349508833
 20
60.2773937782
 11
202.2855287528
 21
59.7923936739
  0
LINE
  5
314
100
AcDbEntity
  8
0
100
AcDbLine
 62
7
  6
CONTINUOUS
 10
195.583400797
 20
92.8236437782
 11
195.583400797
 21
91.5111437782
  0
LINE
  5
315
100
AcDbEntity
  8
0
100
AcDbLine
 62
7
  6
CONTINUOUS
 10
197.594039481
 20
90.1986437782
 11
197.594039481
 21
88.8861437782
  0
LINE
  5
316
100
AcDbEntity
  8
0
100
AcDbLine
 62
7
  6
CONTINUOUS
 10
198.9344648531
 20
90.1986437782
 11
198.9344648531
 21
88.8861437782
  0
LINE
  5
317
100
AcDbEntity
  8
0
100
AcDbLine
 62
7
  6
CONTINUOUS
 10
200.7216989956
 20
86.6986446127
 11
200.7216989956
 21
86.2773937782
  0
LINE
  5
318
100
AcDbEntity
  8
0
100
AcDbLine
 62
7
  6
CONTINUOUS
 10
203.6259542814
 20
88.4486429437
 11
203.4025500332
 21
87.3548946127
  0
LINE
  5
319
100
AcDbEntity
  8
0
100
AcDbLine
 62
7
  6
CONTINUOUS
 10
199.1578690818
 20
91.0736429437
 11
198.9344648531
 21
90.1986437782
  0
LINE
  5
31A
100
AcDbEntity
  8
0
100
AcDbLine
 62
7
  6
CONTINUOUS
 10
198.9344648531
 20
88.8861437782
 11
198.7110606244
 21
88.0111446127
  0
LINE
  5
31B
100
AcDbEntity
  8
0
100
AcDbLine
 62
7
  6
CONTINUOUS
 10
202.2855287528
 20
88.4486429437
 11
202.0621245241
 21
87.5736437782
  0
LINE
  5
31C
100
AcDbEntity
  8
0
100
AcDbLine
 62
7
  6
CONTINUOUS
 10
203.4025500332
 20
87.3548946127
 11
202.7422947273
 21
86.2773937782
  0
LINE
  5
31D
100
AcDbEntity
  8
RUNDUNGEN
100
AcDbLine
 62
7
  6
CONTINUOUS
 10
205.5977351819
 20
60.2773937782
 11
135.1857651586
 21
60.2773937782
  0
LINE
  5
31E
100
AcDbEntity
  8
BEZUGSACHSEN
100
AcDbLine
 62
7
  6
CONTINUOUS
 10
205.5977351819
 20
60.2773937782
 11
281.2061434042
 21
60.2773937782
  0
LWPOLYLINE
  5
31F
100
AcDbEntity
  8
BEZUGSACHSEN
100
AcDbPolyline
 62
7
  6
CONTINUOUS
 90
20
 70
0
 10
263.5936770206
 20
60.2771335947
 10
263.715210725
 20
60.2763533576
 10
263.8288838659
 20
60.2751034753
 10
263.9348297749
 20
60.2734362725
 10
264.0331955276
 20
60.2714054832
 10
264.124127081
 20
60.269066226
 10
264.2077668384
 20
60.2664750304
 10
264.2842630631
 20
60.2636895898
 10
264.3537590098
 20
60.2607690408
 10
264.4164036774
 20
60.2577734212
 10
264.4723386693
 20
60.2547641975
 10
264.5217211639
 20
60.2518030486
 10
264.5647017351
 20
60.2489527782
 10
264.6014328316
 20
60.2462767517
 10
264.6320666458
 20
60.2438389345
 10
264.6567585077
 20
60.2417035535
 10
264.6756472949
 20
60.2399367111
 10
264.6889882825
 20
60.2385929277
 10
264.696990884
 20
60.2377288618
 10
264.6991124636
 20
60.2374873488
  0
LINE
  5
320
100
AcDbEntity
  8
0
100
AcDbLine
 62
7
  6
CONTINUOUS
 10
193.3493585101
 20
88.0111446127
 11
193.7961669675
 21
87.1361429437
  0
LINE
  5
321
100
AcDbEntity
  8
0
100
AcDbLine
 62
7
  6
CONTINUOUS
 10
194.4663796535
 20
88.8861437782
 11
194.6897838822
 21
88.2298937782
  0
LINE
  5
322
100
AcDbEntity
  8
0
100
AcDbLine
 62
7
  6
CONTINUOUS
 10
193.1259542814
 20
88.8861437782
 11
193.3493585101
 21
88.0111446127
  0
LINE
  5
323
100
AcDbEntity
  8
0
100
AcDbLine
 62
7
  6
CONTINUOUS
 10
202.2855287528
 20
90.1986437782
 11
202.2855287528
 21
88.4486429437
  0
LINE
  5
324
100
AcDbEntity
  8
0
100
AcDbLine
 62
7
  6
CONTINUOUS
 10
203.6259542814
 20
90.1986437782
 11
203.6259542814
 21
88.4486429437
  0
LINE
  5
325
100
AcDbEntity
  8
0
100
AcDbLine
 62
7
  6
CONTINUOUS
 10
203.6259542814
 20
60.2773937782
 11
203.6259542814
 21
58.9173938825
  0
LWPOLYLINE
  5
326
100
AcDbEntity
  8
RUNDUNGEN
100
AcDbPolyline
 62
7
  6
CONTINUOUS
 90
21
 70
0
 10
151.6960777078
 20
60.2379146707
 10
151.6919418812
 20
60.2373870703
 10
151.69492185
 20
60.2377293294
 10
151.7029279772
 20
60.2385937332
 10
151.7162722733
 20
60.2399377821
 10
151.7351640838
 20
60.2417048181
 10
151.7598586073
 20
60.2438403218
 10
151.7904947038
 20
60.2462781991
 10
151.827227672
 20
60.2489542297
 10
151.8702096898
 20
60.2518044569
 10
151.9195931922
 20
60.2547655235
 10
151.9755287335
 20
60.2577746335
 10
152.0381734737
 20
60.2607701158
 10
152.1076689968
 20
60.2636905117
 10
152.1841642807
 20
60.2664757907
 10
152.2678025638
 20
60.2690668239
 10
152.3587320914
 20
60.2714059251
 10
152.4570952484
 20
60.273436572
 10
152.5630379729
 20
60.2751036528
 10
152.6767073216
 20
60.2763534402
 10
152.7982366082
 20
60.2771336161
  0
LINE
  5
327
100
AcDbEntity
  8
0
100
AcDbLine
 62
7
  6
CONTINUOUS
 10
193.7961669675
 20
87.1361429437
 11
194.6731881237
 21
86.2773937782
  0
LINE
  5
328
100
AcDbEntity
  8
0
100
AcDbLine
 62
7
  6
CONTINUOUS
 10
194.6897838822
 20
88.2298937782
 11
195.1365923396
 21
87.5736437782
  0
LINE
  5
329
100
AcDbEntity
  8
0
100
AcDbLine
 62
7
  6
CONTINUOUS
 10
202.0621245241
 20
91.0736429437
 11
202.2855287528
 21
90.1986437782
  0
LINE
  5
32A
100
AcDbEntity
  8
0
100
AcDbLine
 62
7
  6
CONTINUOUS
 10
203.4025500332
 20
91.2923946127
 11
203.6259542814
 21
90.1986437782
  0
LWPOLYLINE
  5
32B
100
AcDbEntity
  8
BEZUGSACHSEN
100
AcDbPolyline
 62
7
  6
CONTINUOUS
 90
21
 70
0
 10
264.6958308551
 20
86.3168728857
 10
264.6999666816
 20
86.3174004861
 10
264.6969867128
 20
86.317058227
 10
264.6889805856
 20
86.3161938232
 10
264.6756362895
 20
86.3148497743
 10
264.656744479
 20
86.3130827383
 10
264.6320499555
 20
86.3109472346
 10
264.601413859
 20
86.3085093574
 10
264.5646808909
 20
86.3058333267
 10
264.521698873
 20
86.3029830995
 10
264.4723153706
 20
86.3000220329
 10
264.4163798294
 20
86.2970129229
 10
264.3537350891
 20
86.2940174407
 10
264.284239566
 20
86.2910970447
 10
264.2077442821
 20
86.2883117657
 10
264.124105999
 20
86.2857207325
 10
264.0331764714
 20
86.2833816314
 10
263.9348133144
 20
86.2813509844
 10
263.82887059
 20
86.2796839037
 10
263.7152012413
 20
86.2784341163
 10
263.5936719547
 20
86.2776539404
  0
LINE
  5
32C
100
AcDbEntity
  8
0
100
AcDbLine
 62
7
  6
CONTINUOUS
 10
201.6153159103
 20
91.7298929437
 11
202.0621245241
 21
91.0736429437
  0
LINE
  5
32D
100
AcDbEntity
  8
0
100
AcDbLine
 62
7
  6
CONTINUOUS
 10
202.9557415171
 20
92.1673937782
 11
203.4025500332
 21
91.2923946127
  0
LINE
  5
32E
100
AcDbEntity
  8
0
100
AcDbLine
 62
7
  6
CONTINUOUS
 10
202.2855287528
 20
59.7923936739
 11
193.1259542814
 21
56.7298937782
  0
LINE
  5
32F
100
AcDbEntity
  8
0
100
AcDbLine
 62
7
  6
CONTINUOUS
 10
203.6259542814
 20
58.9173938825
 11
193.1259542814
 21
55.4173937782
  0
LINE
  5
330
100
AcDbEntity
  8
BEZUGSACHSEN
100
AcDbLine
 62
7
  6
CONTINUOUS
 10
135.1857651586
 20
86.2773937782
 11
281.2061434042
 21
86.2773937782
  0
LINE
  5
331
100
AcDbEntity
  8
0
100
AcDbLine
 62
7
  6
CONTINUOUS
 10
195.8068056515
 20
87.3548946127
 11
196.2536141089
 21
87.3548946127
  0
LINE
  5
332
100
AcDbEntity
  8
0
100
AcDbLine
 62
7
  6
CONTINUOUS
 10
178.7559542814
 20
87.4773937782
 11
181.7159542814
 21
87.4773937782
  0
LWPOLYLINE
  5
333
100
AcDbEntity
  8
BEZUGSACHSEN
100
AcDbPolyline
 62
7
  6
CONTINUOUS
 90
20
 70
0
 10
152.7982315422
 20
86.2776539617
 10
152.6766978379
 20
86.2784341988
 10
152.5630246969
 20
86.2796840811
 10
152.4570787879
 20
86.2813512839
 10
152.3587130352
 20
86.2833820733
 10
152.2677814819
 20
86.2857213304
 10
152.1841417245
 20
86.288312526
 10
152.1076454997
 20
86.2910979666
 10
152.038149553
 20
86.2940185157
 10
151.9755048854
 20
86.2970141352
 10
151.9195698936
 20
86.3000233589
 10
151.8701873989
 20
86.3029845078
 10
151.8272068277
 20
86.3058347782
 10
151.7904757312
 20
86.3085108047
 10
151.759841917
 20
86.3109486219
 10
151.7351500551
 20
86.3130840029
 10
151.7162612679
 20
86.3148508454
 10
151.7029202803
 20
86.3161946287
 10
151.6949176789
 20
86.3170586947
 10
151.6927960992
 20
86.3173002076
  0
LINE
  5
334
100
AcDbEntity
  8
0
100
AcDbLine
 62
7
  6
CONTINUOUS
 10
195.1365923396
 20
87.5736437782
 11
195.8068056515
 21
87.3548946127
  0
LINE
  5
335
100
AcDbEntity
  8
0
100
AcDbLine
 62
7
  6
CONTINUOUS
 10
201.1685074529
 20
93.4798937782
 11
202.0621245241
 21
93.0423929437
  0
LINE
  5
336
100
AcDbEntity
  8
0
100
AcDbLine
 62
7
  6
CONTINUOUS
 10
200.9451032242
 20
92.1673937782
 11
201.6153159103
 21
91.7298929437
  0
LINE
  5
337
100
AcDbEntity
  8
0
100
AcDbLine
 62
7
  6
CONTINUOUS
 10
202.0621245241
 20
93.0423929437
 11
202.9557415171
 21
92.1673937782
  0
LWPOLYLINE
  5
338
100
AcDbEntity
  8
BEZUGSACHSEN
100
AcDbPolyline
 62
7
  6
CONTINUOUS
 90
147
 70
0
 10
121.6169976394
 20
93.2771856158
 10
121.4332537205
 20
93.2740683668
 10
121.2496111758
 20
93.2672131787
 10
121.0661461905
 20
93.256622925
 10
120.8829347824
 20
93.2423020462
 10
120.7000529337
 20
93.2242565568
 10
120.5175764292
 20
93.2024940337
 10
120.3355809859
 20
93.1770236323
 10
120.1541419904
 20
93.1478560545
 10
119.9733349087
 20
93.1150036167
 10
119.793234748
 20
93.0784801715
 10
119.6139165284
 20
93.0383012011
 10
119.4354545259
 20
92.9944836605
 10
119.2579237956
 20
92.9470463604
 10
119.0813984996
 20
92.8960095951
 10
118.9059528957
 20
92.8413954127
 10
118.7316605469
 20
92.7832274082
 10
118.558594497
 20
92.7215307694
 10
118.3868269483
 20
92.6563321565
 10
118.2164303104
 20
92.5876601095
 10
118.0474742539
 20
92.5155438562
 10
117.8800349621
 20
92.440017349
 10
117.7141848863
 20
92.361115157
 10
117.5499993374
 20
92.2788755008
 10
117.3875527352
 20
92.1933387179
 10
117.2269135029
 20
92.1045444026
 10
117.0681506418
 20
92.0125346545
 10
116.9113300585
 20
91.917352019
 10
116.7565167741
 20
91.8190406444
 10
116.6037753363
 20
91.717646591
 10
116.4531666049
 20
91.6132156552
 10
116.3047588486
 20
91.5058011911
 10
116.1585940371
 20
91.3954394744
 10
116.014801957
 20
91.2822373941
 10
115.8734703374
 20
91.1662785383
 10
115.7347392528
 20
91.0476992312
 10
115.5987358081
 20
90.9266392857
 10
115.465543979
 20
90.8032124689
 10
115.3353056115
 20
90.6775989874
 10
115.2079360652
 20
90.5497669084
 10
115.0834287814
 20
90.4197517428
 10
114.9617035667
 20
90.2875037533
 10
114.8425964622
 20
90.1528595323
 10
114.7263856551
 20
90.0161517541
 10
114.6128501784
 20
89.8771379992
 10
114.503239111
 20
89.7374394121
 10
114.3983516911
 20
89.5983285805
 10
114.2987945421
 20
89.4609926456
 10
114.2055540184
 20
89.3273296142
 10
114.1178199691
 20
89.1967604363
 10
114.0353580394
 20
89.0694642878
 10
113.9575195176
 20
88.9449232541
 10
113.8837346099
 20
88.8226332692
 10
113.8137481797
 20
88.7025329596
 10
113.7472008649
 20
88.5843361555
 10
113.6839516375
 20
88.4681000612
 10
113.6238139684
 20
88.3537808121
 10
113.5666139975
 20
88.2413338715
 10
113.5121628054
 20
88.130659169
 10
113.4603648805
 20
88.0218257923
 10
113.4110657716
 20
87.9147667594
 10
113.3642711549
 20
87.8097565725
 10
113.3199403377
 20
87.7069831322
 10
113.2780287505
 20
87.6066344125
 10
113.2384961314
 20
87.5089175822
 10
113.2012671928
 20
87.4139586056
 10
113.1663248109
 20
87.3220366549
 10
113.1334503296
 20
87.2328918341
 10
113.1025216647
 20
87.1464866652
 10
113.0732917842
 20
87.062397142
 10
113.0455412956
 20
86.9802164281
 10
113.0191560529
 20
86.8998033456
 10
112.9939889839
 20
86.8208862644
 10
112.969973051
 20
86.7434159782
 10
112.9470323068
 20
86.6673011531
 10
112.9250741649
 20
86.5923763957
 10
112.9040225027
 20
86.5185106648
 10
112.8837825907
 20
86.4454854771
 10
112.8642693591
 20
86.373090177
 10
112.8454111195
 20
86.3011392897
 10
112.8271346758
 20
86.2294184788
 10
112.8093867532
 20
86.157769476
 10
112.792102967
 20
86.0859688998
 10
112.775263277
 20
86.0139601981
 10
112.7588329844
 20
85.9416161768
 10
112.742798337
 20
85.8688926136
 10
112.7271395349
 20
85.7957136566
 10
112.711840565
 20
85.7220154341
 10
112.6968826087
 20
85.647715163
 10
112.6822538155
 20
85.5727593816
 10
112.667938439
 20
85.4970708418
 10
112.6539275194
 20
85.4206043081
 10
112.6402101409
 20
85.3433023778
 10
112.6267734379
 20
85.2650936007
 10
112.6136053082
 20
85.1859069977
 10
112.6006914282
 20
85.1056537957
 10
112.5880190413
 20
85.0242496777
 10
112.5755718672
 20
84.9415813949
 10
112.5633353651
 20
84.8575389785
 10
112.5512942181
 20
84.7719990949
 10
112.5394402222
 20
84.6848820754
 10
112.52774125
 20
84.5959199331
 10
112.5161779272
 20
84.5049176533
 10
112.5047135055
 20
84.4115181902
 10
112.4933151116
 20
84.3153570883
 10
112.4819649317
 20
84.2161639339
 10
112.4706287072
 20
84.1134912525
 10
112.4593322952
 20
84.0074157626
 10
112.4480812692
 20
83.8978425975
 10
112.4368993704
 20
83.7848661696
 10
112.4258129895
 20
83.6686407499
 10
112.4148149673
 20
83.5489870341
 10
112.4039177448
 20
83.4259372655
 10
112.3930926275
 20
83.2990504186
 10
112.3823241052
 20
83.1679934185
 10
112.3715976131
 20
83.0324080109
 10
112.3609004207
 20
82.89192025
 10
112.3502236475
 20
82.746167649
 10
112.3395541675
 20
82.5946869026
 10
112.3289035613
 20
82.4373313074
 10
112.3182617088
 20
82.2736114984
 10
112.3076868795
 20
82.1040960226
 10
112.2972149404
 20
81.9290930377
 10
112.2868917601
 20
81.7491602655
 10
112.2767594138
 20
81.564897124
 10
112.2668496795
 20
81.3768172255
 10
112.2571956285
 20
81.1855525613
 10
112.2478209672
 20
80.9916457675
 10
112.2387517535
 20
80.7957771062
 10
112.2300004243
 20
80.5984182324
 10
112.221591777
 20
80.4004005695
 10
112.2135039558
 20
80.201504713
 10
112.2057303862
 20
80.001841142
 10
112.1982541021
 20
79.8012265182
 10
112.1910622411
 20
79.599534202
 10
112.1841434245
 20
79.3966346779
 10
112.1774863935
 20
79.1923552716
 10
112.1710849204
 20
78.9866364227
 10
112.1649304114
 20
78.779306697
 10
112.1590238134
 20
78.5704891417
 10
112.1533635642
 20
78.360220986
 10
112.1479495213
 20
78.1485875717
 10
112.1427812004
 20
77.9356627216
 10
112.1378581841
 20
77.7215221992
 10
112.1331801375
 20
77.5062468277
 10
112.1287463175
 20
77.2898981379
 10
112.1206089762
 20
76.8542462626
  0
LINE
  5
339
100
AcDbEntity
  8
0
100
AcDbLine
 62
7
  6
CONTINUOUS
 10
200.2748905382
 20
92.1673937782
 11
200.9451032242
 21
92.1673937782
  0
LINE
  5
33A
100
AcDbEntity
  8
BEZUGSACHSEN
100
AcDbLine
 62
7
  6
CONTINUOUS
 10
163.1959542814
 20
93.2773937782
 11
121.6169976394
 21
93.2771856158
  0
LINE
  5
33B
100
AcDbEntity
  8
0
100
AcDbLine
 62
7
  6
CONTINUOUS
 10
200.0514863095
 20
93.4798937782
 11
201.1685074529
 21
93.4798937782
  0
LINE
  5
33C
100
AcDbEntity
  8
KONSTRUKTIONSELEMENTE
100
AcDbLine
 62
7
  6
CONTINUOUS
 10
253.1959542814
 20
114.9645967288
 11
253.1959542814
 21
112.6697038987
  0
LINE
  5
33D
100
AcDbEntity
  8
0
100
AcDbLine
 62
7
  6
CONTINUOUS
 10
253.1959542814
 20
112.6697038987
 11
253.1959542814
 21
86.2773937782
  0
LINE
  5
33E
100
AcDbEntity
  8
0
100
AcDbLine
 62
7
  6
CONTINUOUS
 10
253.1959542814
 20
31.5901908276
 11
253.1959542814
 21
60.2773937782
  0
LINE
  5
33F
100
AcDbEntity
  8
0
100
AcDbLine
 62
7
  6
CONTINUOUS
 10
168.4065467253
 20
121.2561210824
 11
247.9853618376
 21
121.2561210824
  0
LINE
  5
340
100
AcDbEntity
  8
0
100
AcDbLine
 62
7
  6
CONTINUOUS
 10
276.8059542814
 20
57.7666969284
 11
276.8059542814
 21
55.4951932341
  0
LINE
  5
341
100
AcDbEntity
  8
0
100
AcDbLine
 62
7
  6
CONTINUOUS
 10
278.7796384939
 20
55.5258211979
 11
278.7796384939
 21
55.6767756018
  0
LINE
  5
342
100
AcDbEntity
  8
0
100
AcDbLine
 62
7
  6
CONTINUOUS
 10
281.7533227074
 20
57.1471107037
 11
281.7533227074
 21
57.0240937293
  0
LINE
  5
343
100
AcDbEntity
  8
0
100
AcDbLine
 62
7
  6
CONTINUOUS
 10
283.7270069199
 20
56.9478521763
 11
283.7270069199
 21
57.1471107037
  0
LINE
  5
344
100
AcDbEntity
  8
0
100
AcDbLine
 62
7
  6
CONTINUOUS
 10
284.2059542889
 20
55.6767756018
 11
284.2059542889
 21
55.3747703787
  0
LINE
  5
345
100
AcDbEntity
  8
0
100
AcDbLine
 62
7
  6
CONTINUOUS
 10
285.4901648164
 20
55.6767756018
 11
285.4901648164
 21
55.9660218514
  0
LINE
  5
346
100
AcDbEntity
  8
0
100
AcDbLine
 62
7
  6
CONTINUOUS
 10
285.4901648164
 20
57.1471107037
 11
285.4901648164
 21
57.7666969284
  0
LINE
  5
347
100
AcDbEntity
  8
0
100
AcDbLine
 62
7
  6
CONTINUOUS
 10
286.6743753439
 20
57.7666969284
 11
286.6743753439
 21
56.9478521763
  0
LINE
  5
348
100
AcDbEntity
  8
0
100
AcDbLine
 62
7
  6
CONTINUOUS
 10
286.6743753439
 20
55.9660218514
 11
286.6743753439
 21
55.525820856
  0
LINE
  5
349
100
AcDbEntity
  8
0
100
AcDbLine
 62
7
  6
CONTINUOUS
 10
288.6480595564
 20
55.4951932341
 11
288.6480595564
 21
57.7666969284
  0
LWPOLYLINE
  5
34A
100
AcDbEntity
  8
BEZUGSACHSEN
100
AcDbPolyline
 62
7
  6
CONTINUOUS
 90
146
 70
0
 10
304.2587261411
 20
77.5063550372
 10
304.2540478367
 20
77.7216358978
 10
304.249124548
 20
77.9357818391
 10
304.243955942
 20
78.1487119292
 10
304.2385416041
 20
78.3603503128
 10
304.232881053
 20
78.5706230793
 10
304.22697415
 20
78.7794447681
 10
304.2208193338
 20
78.986778172
 10
304.2144175572
 20
79.1925000917
 10
304.2077602144
 20
79.3967823731
 10
304.2008410699
 20
79.5996848051
 10
304.1936488514
 20
79.8013803901
 10
304.1861721664
 20
80.0019989262
 10
304.1783981371
 20
80.2016673211
 10
304.1703097707
 20
80.4005693924
 10
304.1619005032
 20
80.5985942002
 10
304.1531484436
 20
80.7959617362
 10
304.1440785028
 20
80.9918379526
 10
304.1347031977
 20
81.185749659
 10
304.1250487044
 20
81.3770145994
 10
304.1151389002
 20
81.5650875161
 10
304.1050068402
 20
81.7493376214
 10
304.0946843875
 20
81.929250633
 10
304.0842134857
 20
82.1042301766
 10
304.0736399164
 20
82.2737204295
 10
304.06299944
 20
82.4374151392
 10
304.0523501696
 20
82.5947480942
 10
304.0416819888
 20
82.7462083849
 10
304.0310064139
 20
82.8919433874
 10
304.0203103537
 20
83.0324156895
 10
304.0095849395
 20
83.1679874424
 10
303.9988174563
 20
83.2990322541
 10
303.9879933571
 20
83.425908057
 10
303.9770971471
 20
83.5489476706
 10
303.9661001633
 20
83.6685917326
 10
303.9550148273
 20
83.7848081784
 10
303.9438339793
 20
83.8977762827
 10
303.9325839843
 20
84.0073419751
 10
303.9212885483
 20
84.1134110952
 10
303.9099532632
 20
84.2160782493
 10
303.8986039826
 20
84.3152666685
 10
303.8872064799
 20
84.4114235006
 10
303.8757429707
 20
84.504818889
 10
303.8641805967
 20
84.5958171734
 10
303.8524826455
 20
84.6847751401
 10
303.8406297174
 20
84.7718880203
 10
303.8285896728
 20
84.8574238997
 10
303.8163542985
 20
84.9414625083
 10
303.8039082647
 20
85.0241272534
 10
303.7912370207
 20
85.1055281514
 10
303.7783242735
 20
85.1857785068
 10
303.765157253
 20
85.2649626864
 10
303.7517216159
 20
85.3431695426
 10
303.7380052568
 20
85.4204700279
 10
303.7239952997
 20
85.4969356046
 10
303.709680823
 20
85.5726236622
 10
303.6950528534
 20
85.6475794593
 10
303.6800956506
 20
85.7218801677
 10
303.6647973737
 20
85.7955791649
 10
303.6491391822
 20
85.868759304
 10
303.6331050462
 20
85.9414844938
 10
303.616675152
 20
86.0138306055
 10
303.5998356902
 20
86.0858420598
 10
303.5825520698
 20
86.1576455542
 10
303.5648043396
 20
86.229297268
 10
303.5465281538
 20
86.3010204547
 10
303.5276703122
 20
86.3729731306
 10
303.5081576294
 20
86.4453696461
 10
303.4879184608
 20
86.5183953726
 10
303.4668677269
 20
86.5922610614
 10
303.4449107701
 20
86.6671850112
 10
303.421971267
 20
86.7432989904
 10
303.3979564225
 20
86.8207690709
 10
303.3727903047
 20
86.8996864928
 10
303.3464056309
 20
86.9801011577
 10
303.3186558784
 20
87.0622829988
 10
303.2894274163
 20
87.1463717758
 10
303.2585009243
 20
87.2327743059
 10
303.2256299374
 20
87.3219132723
 10
303.1906915097
 20
87.413828694
 10
303.1534661921
 20
87.5087825637
 10
303.1139368861
 20
87.6064955383
 10
303.0720280176
 20
87.7068422344
 10
303.0276993474
 20
87.8096152705
 10
302.9809061593
 20
87.9146268494
 10
302.931607958
 20
88.0216884757
 10
302.8798104766
 20
88.1305254046
 10
302.8253596331
 20
88.2412037878
 10
302.7681605099
 20
88.3536533693
 10
302.7080237718
 20
88.4679750997
 10
302.644775343
 20
88.5842139226
 10
302.578228574
 20
88.7024138901
 10
302.5082416647
 20
88.8225190539
 10
302.4344569039
 20
88.9448127283
 10
302.3566203092
 20
89.0693545861
 10
302.27416347
 20
89.1966469122
 10
302.186440752
 20
89.3272036599
 10
302.0932146595
 20
89.4608510736
 10
301.9936737669
 20
89.5981704288
 10
301.8888007935
 20
89.7372686214
 10
301.7791967242
 20
89.8769651687
 10
301.6656635911
 20
90.015982914
 10
301.5494507586
 20
90.1526996311
 10
301.4303398131
 20
90.2873543444
 10
301.3086123197
 20
90.4196105677
 10
301.1841033722
 20
90.5496329218
 10
301.0567331192
 20
90.6774709128
 10
300.9264945406
 20
90.8030895994
 10
300.7933026783
 20
90.9265212783
 10
300.6572991321
 20
91.0475859851
 10
300.5185674701
 20
91.1661702963
 10
300.3772348425
 20
91.2821343227
 10
300.2334411551
 20
91.3953418365
 10
300.0872743534
 20
91.5057090435
 10
299.9388643983
 20
91.6131289069
 10
299.7882532728
 20
91.7175651367
 10
299.6355093298
 20
91.8189643191
 10
299.4806934089
 20
91.9172806728
 10
299.323870064
 20
92.0124681338
 10
299.1651043212
 20
92.1044825515
 10
299.0044620985
 20
92.1932813748
 10
298.8420123846
 20
92.2788225113
 10
298.6778235952
 20
92.3610663701
 10
298.511970144
 20
92.439972615
 10
298.3445273253
 20
92.5155030308
 10
298.175567612
 20
92.5876230359
 10
298.005167202
 20
92.65629867
 10
297.8333957729
 20
92.7215007015
 10
297.6603257461
 20
92.783200585
 10
297.4860293264
 20
92.841371659
 10
297.3105795624
 20
92.8959887332
 10
297.1340500213
 20
92.9470282108
 10
296.9565149646
 20
92.9944680421
 10
296.7780485604
 20
93.0382879302
 10
296.5987258695
 20
93.0784690625
 10
296.4186211739
 20
93.114994482
 10
296.2378094999
 20
93.1478487048
 10
296.0563658608
 20
93.1770178767
 10
295.874365728
 20
93.2024896801
 10
295.6918844944
 20
93.2242534117
 10
295.5089978831
 20
93.2422999153
 10
295.3257816849
 20
93.256621613
 10
295.1423118881
 20
93.2672124896
 10
294.9586645168
 20
93.2740681042
 10
294.7749157622
 20
93.2771855829
 10
253.1959542814
 20
93.2773937782
  0
LINE
  5
34B
100
AcDbEntity
  8
BEZUGSACHSEN
100
AcDbLine
 62
7
  6
CONTINUOUS
 10
304.267350375
 20
77.0726530445
 11
304.2587261411
 21
77.5063550372
  0
LINE
  5
34C
100
AcDbEntity
  8
BEZUGSACHSEN
100
AcDbLine
 62
7
  6
CONTINUOUS
 10
304.2750038911
 20
76.6350965699
 11
304.267350375
 21
77.0726530445
  0
LINE
  5
34D
100
AcDbEntity
  8
BEZUGSACHSEN
100
AcDbLine
 62
7
  6
CONTINUOUS
 10
304.2816939661
 20
76.193962139
 11
304.2750038911
 21
76.6350965699
  0
LINE
  5
34E
100
AcDbEntity
  8
BEZUGSACHSEN
100
AcDbLine
 62
7
  6
CONTINUOUS
 10
304.2874246278
 20
75.7495900561
 11
304.2816939661
 21
76.193962139
  0
LINE
  5
34F
100
AcDbEntity
  8
BEZUGSACHSEN
100
AcDbLine
 62
7
  6
CONTINUOUS
 10
304.292196917
 20
75.3024520594
 11
304.2874246278
 21
75.7495900561
  0
LINE
  5
350
100
AcDbEntity
  8
BEZUGSACHSEN
100
AcDbLine
 62
7
  6
CONTINUOUS
 10
304.2960110713
 20
74.8530664561
 11
304.292196917
 21
75.3024520594
  0
LINE
  5
351
100
AcDbEntity
  8
BEZUGSACHSEN
100
AcDbLine
 62
7
  6
CONTINUOUS
 10
304.2988673988
 20
74.4019379081
 11
304.2960110713
 21
74.8530664561
  0
LINE
  5
352
100
AcDbEntity
  8
BEZUGSACHSEN
100
AcDbLine
 62
7
  6
CONTINUOUS
 10
304.3007661483
 20
73.9495631916
 11
304.2988673988
 21
74.4019379081
  0
LINE
  5
353
100
AcDbEntity
  8
BEZUGSACHSEN
100
AcDbLine
 62
7
  6
CONTINUOUS
 10
304.3017074518
 20
73.4964307506
 11
304.3007661483
 21
73.9495631916
  0
LINE
  5
354
100
AcDbEntity
  8
BEZUGSACHSEN
100
AcDbLine
 62
7
  6
CONTINUOUS
 10
304.3017074579
 20
73.0583627843
 11
304.3017074518
 21
73.4964307506
  0
LINE
  5
355
100
AcDbEntity
  8
BEZUGSACHSEN
100
AcDbLine
 62
7
  6
CONTINUOUS
 10
304.3007662044
 20
72.6052422601
 11
304.3017074579
 21
73.0583627843
  0
LINE
  5
356
100
AcDbEntity
  8
BEZUGSACHSEN
100
AcDbLine
 62
7
  6
CONTINUOUS
 10
304.2988675553
 20
72.1528793838
 11
304.3007662044
 21
72.6052422601
  0
LINE
  5
357
100
AcDbEntity
  8
BEZUGSACHSEN
100
AcDbLine
 62
7
  6
CONTINUOUS
 10
304.2960113786
 20
71.7017625905
 11
304.2988675553
 21
72.1528793838
  0
LINE
  5
358
100
AcDbEntity
  8
BEZUGSACHSEN
100
AcDbLine
 62
7
  6
CONTINUOUS
 10
304.2921974259
 20
71.2523886416
 11
304.2960113786
 21
71.7017625905
  0
LINE
  5
359
100
AcDbEntity
  8
BEZUGSACHSEN
100
AcDbLine
 62
7
  6
CONTINUOUS
 10
304.287425389
 20
70.8052621283
 11
304.2921974259
 21
71.2523886416
  0
LINE
  5
35A
100
AcDbEntity
  8
BEZUGSACHSEN
100
AcDbLine
 62
7
  6
CONTINUOUS
 10
304.2816950291
 20
70.3609012154
 11
304.287425389
 21
70.8052621283
  0
LINE
  5
35B
100
AcDbEntity
  8
BEZUGSACHSEN
100
AcDbLine
 62
7
  6
CONTINUOUS
 10
304.2750053046
 20
69.9197776037
 11
304.2816950291
 21
70.3609012154
  0
LINE
  5
35C
100
AcDbEntity
  8
BEZUGSACHSEN
100
AcDbLine
 62
7
  6
CONTINUOUS
 10
304.2673521927
 20
69.4822318319
 11
304.2750053046
 21
69.9197776037
  0
ARC
  5
35D
100
AcDbEntity
  8
RUNDUNGEN
100
AcDbCircle
 62
7
  6
CONTINUOUS
 10
170.1959542314
 20
234.6304905784
 40
12.0
100
AcDbArc
 50
179.9999888272
 51
234.3131729728
  0
ARC
  5
35E
100
AcDbEntity
  8
BEZUGSACHSEN
100
AcDbCircle
 62
7
  6
CONTINUOUS
 10
121.0900893698
 20
191.6304905787
 40
9.0
100
AcDbArc
 50
176.9486196628
 51
270.0000000002
  0
ARC
  5
35F
100
AcDbEntity
  8
0
100
AcDbCircle
 62
7
  6
CONTINUOUS
 10
171.1959542814
 20
241.6304905784
 40
8.0
100
AcDbArc
 50
90.0
 51
180.0
  0
ARC
  5
360
100
AcDbEntity
  8
BEZUGSACHSEN
100
AcDbCircle
 62
7
  6
CONTINUOUS
 10
176.1673770424
 20
259.6590678174
 40
6.028577239
100
AcDbArc
 50
53.8145378529
 51
55.134832457
  0
ARC
  5
361
100
AcDbEntity
  8
RUNDUNGEN
100
AcDbCircle
 62
7
  6
CONTINUOUS
 10
176.1673770424
 20
259.6590678174
 40
6.028577239
100
AcDbArc
 50
270.0
 51
55.1348325126
  0
ARC
  5
362
100
AcDbEntity
  8
RUNDUNGEN
100
AcDbCircle
 62
7
  6
CONTINUOUS
 10
164.1959542314
 20
247.6304905784
 40
6.0
100
AcDbArc
 50
90.0
 51
178.6950943856
  0
ARC
  5
363
100
AcDbEntity
  8
0
100
AcDbCircle
 62
7
  6
CONTINUOUS
 10
181.4150650865
 20
296.1878258926
 40
46.7979383415
100
AcDbArc
 50
270.0010886615
 51
270.6109308286
  0
ARC
  5
364
100
AcDbEntity
  8
RUNDUNGEN
100
AcDbCircle
 62
7
  6
CONTINUOUS
 10
133.9854279314
 20
305.6304905784
 40
15.7894737
100
AcDbArc
 50
157.4999944569
 51
176.9390165304
  0
ARC
  5
365
100
AcDbEntity
  8
RUNDUNGEN
100
AcDbCircle
 62
7
  6
CONTINUOUS
 10
155.7211878639
 20
358.105256996
 40
15.7894737
100
AcDbArc
 50
112.5
 51
157.5
  0
ARC
  5
366
100
AcDbEntity
  8
BEZUGSACHSEN
100
AcDbCircle
 62
7
  6
CONTINUOUS
 10
246.1959543314
 20
234.6304905784
 40
12.0
100
AcDbArc
 50
305.6868270273
 51
0.0000111728
  0
ARC
  5
367
100
AcDbEntity
  8
BEZUGSACHSEN
100
AcDbCircle
 62
7
  6
CONTINUOUS
 10
295.3018191931
 20
191.6304905787
 40
9.0
100
AcDbArc
 50
269.9999999998
 51
3.0513803257
  0
ARC
  5
368
100
AcDbEntity
  8
0
100
AcDbCircle
 62
7
  6
CONTINUOUS
 10
245.1959542814
 20
241.6304905784
 40
8.0
100
AcDbArc
 50
0.0
 51
90.0
  0
ARC
  5
369
100
AcDbEntity
  8
BEZUGSACHSEN
100
AcDbCircle
 62
7
  6
CONTINUOUS
 10
240.2245315204
 20
259.6590678174
 40
6.028577239
100
AcDbArc
 50
124.865167543
 51
270.0
  0
ARC
  5
36A
100
AcDbEntity
  8
BEZUGSACHSEN
100
AcDbCircle
 62
7
  6
CONTINUOUS
 10
252.1959543314
 20
247.6304905784
 40
6.0
100
AcDbArc
 50
1.3049024879
 51
90.0
  0
ARC
  5
36B
100
AcDbEntity
  8
0
100
AcDbCircle
 62
7
  6
CONTINUOUS
 10
281.1306903113
 20
247.7319678088
 40
4.3247360299
100
AcDbArc
 50
180.0000104153
 51
180.4044684014
  0
ARC
  5
36C
100
AcDbEntity
  8
0
100
AcDbCircle
 62
7
  6
CONTINUOUS
 10
281.2434515198
 20
248.2326114951
 40
2.4638130259
100
AcDbArc
 50
180.0000353345
 51
180.7099847526
  0
ARC
  5
36D
100
AcDbEntity
  8
0
100
AcDbCircle
 62
7
  6
CONTINUOUS
 10
214.6383073242
 20
248.1012978452
 40
2.0291927081
100
AcDbArc
 50
90.0030927031
 51
94.144766435
  0
ARC
  5
36E
100
AcDbEntity
  8
0
100
AcDbCircle
 62
7
  6
CONTINUOUS
 10
222.6109379948
 20
248.1012978452
 40
2.0291927081
100
AcDbArc
 50
85.855233565
 51
89.9969072969
  0
ARC
  5
36F
100
AcDbEntity
  8
0
100
AcDbCircle
 62
7
  6
CONTINUOUS
 10
222.6110730006
 20
248.1051820122
 40
2.0253087188
100
AcDbArc
 50
90.594888775
 51
92.1753309671
  0
ARC
  5
370
100
AcDbEntity
  8
0
100
AcDbCircle
 62
7
  6
CONTINUOUS
 10
214.6381723184
 20
248.1051820122
 40
2.0253087188
100
AcDbArc
 50
87.8246690329
 51
89.405111225
  0
ARC
  5
371
100
AcDbEntity
  8
0
100
AcDbCircle
 62
7
  6
CONTINUOUS
 10
279.7840393533
 20
272.7240550864
 40
1.9693317454
100
AcDbArc
 50
299.9243505434
 51
359.9776663507
  0
ARC
  5
372
100
AcDbEntity
  8
0
100
AcDbCircle
 62
7
  6
CONTINUOUS
 10
285.194936712
 20
271.4770500773
 40
1.4679297921
100
AcDbArc
 50
180.0001051784
 51
181.1917164287
  0
ARC
  5
373
100
AcDbEntity
  8
RUNDUNGEN
100
AcDbCircle
 62
7
  6
CONTINUOUS
 10
208.1959542814
 20
305.6304905784
 40
50.00000005
100
AcDbArc
 50
159.5234451272
 51
235.1348325194
  0
ARC
  5
374
100
AcDbEntity
  8
BEZUGSACHSEN
100
AcDbCircle
 62
7
  6
CONTINUOUS
 10
208.1959542814
 20
305.6304905784
 40
50.00000005
100
AcDbArc
 50
304.8651674874
 51
159.5234451272
  0
ARC
  5
375
100
AcDbEntity
  8
BEZUGSACHSEN
100
AcDbCircle
 62
7
  6
CONTINUOUS
 10
282.4064806314
 20
305.6304905784
 40
15.7894737
100
AcDbArc
 50
3.0609834696
 51
22.5000055431
  0
ARC
  5
376
100
AcDbEntity
  8
BEZUGSACHSEN
100
AcDbCircle
 62
7
  6
CONTINUOUS
 10
260.6707206989
 20
358.105256996
 40
15.7894737
100
AcDbArc
 50
22.5
 51
67.5
  0
ARC
  5
377
100
AcDbEntity
  8
BEZUGSACHSEN
100
AcDbCircle
 62
7
  6
CONTINUOUS
 10
208.1959542814
 20
379.8410169284
 40
15.7894737
100
AcDbArc
 50
67.5
 51
112.5
  0
ARC
  5
378
100
AcDbEntity
  8
RUNDUNGEN
100
AcDbCircle
 62
7
  6
CONTINUOUS
 10
675.3163844526
 20
326.2701107667
 40
280.0
100
AcDbArc
 50
180.0
 51
183.5008356442
  0
ARC
  5
379
100
AcDbEntity
  8
BEZUGSACHSEN
100
AcDbCircle
 62
7
  6
CONTINUOUS
 10
89.3163844526
 20
326.2701107667
 40
280.0
100
AcDbArc
 50
356.4991643558
 51
360.0
  0
ARC
  5
37A
100
AcDbEntity
  8
0
100
AcDbCircle
 62
7
  6
CONTINUOUS
 10
382.3163844526
 20
201.6304905784
 40
48.5
100
AcDbArc
 50
113.7679398041
 51
114.6167379493
  0
ARC
  5
37B
100
AcDbEntity
  8
0
100
AcDbCircle
 62
7
  6
CONTINUOUS
 10
382.3163844526
 20
201.6304905784
 40
48.5
100
AcDbArc
 50
110.936308211
 51
113.7668255449
  0
ARC
  5
37C
100
AcDbEntity
  8
0
100
AcDbCircle
 62
7
  6
CONTINUOUS
 10
382.3163844526
 20
201.6304905784
 40
48.5
100
AcDbArc
 50
68.3924281626
 51
69.0636331381
  0
ARC
  5
37D
100
AcDbEntity
  8
0
100
AcDbCircle
 62
7
  6
CONTINUOUS
 10
382.3163844526
 20
201.6304905784
 40
48.0
100
AcDbArc
 50
1.7058636575
 51
68.7828169747
  0
ARC
  5
37E
100
AcDbEntity
  8
0
100
AcDbCircle
 62
7
  6
CONTINUOUS
 10
382.3163844526
 20
201.6304905784
 40
48.0
100
AcDbArc
 50
111.2171830253
 51
178.2941363425
  0
ARC
  5
37F
100
AcDbEntity
  8
0
100
AcDbCircle
 62
7
  6
CONTINUOUS
 10
382.3163844526
 20
203.0504905784
 40
21.83
100
AcDbArc
 50
183.1977914097
 51
356.8022085903
  0
ARC
  5
380
100
AcDbEntity
  8
0
100
AcDbCircle
 62
7
  6
CONTINUOUS
 10
382.3163844526
 20
201.6304905784
 40
21.5
100
AcDbArc
 50
10.0
 51
24.4603551377
  0
ARC
  5
381
100
AcDbEntity
  8
0
100
AcDbCircle
 62
7
  6
CONTINUOUS
 10
382.3163844526
 20
201.6304905784
 40
21.5
100
AcDbArc
 50
155.5396448623
 51
170.0
  0
ARC
  5
382
100
AcDbEntity
  8
0
100
AcDbCircle
 62
7
  6
CONTINUOUS
 10
382.3163844526
 20
203.0504905784
 40
20.83
100
AcDbArc
 50
160.1749150639
 51
19.8250849361
  0
ARC
  5
383
100
AcDbEntity
  8
BEZUGSACHSEN
100
AcDbCircle
 62
7
  6
CONTINUOUS
 10
382.3163844526
 20
202.6304905784
 40
20.0
100
AcDbArc
 50
179.999994117
 51
0.000005883
  0
ARC
  5
384
100
AcDbEntity
  8
RUNDUNGEN
100
AcDbCircle
 62
7
  6
CONTINUOUS
 10
384.3163844526
 20
202.7416107034
 40
18.0
100
AcDbArc
 50
359.9999990537
 51
3.5008366878
  0
ARC
  5
385
100
AcDbEntity
  8
BEZUGSACHSEN
100
AcDbCircle
 62
7
  6
CONTINUOUS
 10
380.3163844526
 20
202.7416107034
 40
18.0
100
AcDbArc
 50
176.4991633122
 51
180.0000009463
  0
ARC
  5
386
100
AcDbEntity
  8
BEZUGSACHSEN
100
AcDbCircle
 62
7
  6
CONTINUOUS
 10
378.3163844526
 20
386.6304906284
 40
9.0
100
AcDbArc
 50
90.0
 51
180.0
  0
ARC
  5
387
100
AcDbEntity
  8
BEZUGSACHSEN
100
AcDbCircle
 62
7
  6
CONTINUOUS
 10
386.3163844526
 20
386.6304906284
 40
9.0
100
AcDbArc
 50
0.0
 51
90.0
  0
ARC
  5
388
100
AcDbEntity
  8
0
100
AcDbCircle
 62
7
  6
CONTINUOUS
 10
181.7159542814
 20
85.0773937782
 40
2.4
100
AcDbArc
 50
30.0361380331
 51
90.0
  0
ARC
  5
389
100
AcDbEntity
  8
0
100
AcDbCircle
 62
7
  6
CONTINUOUS
 10
178.7559542814
 20
85.0773937782
 40
2.4
100
AcDbArc
 50
90.0
 51
149.9638787237
  0
SPLINE
  5
38A
100
AcDbEntity
  8
0
100
AcDbSpline
 62
7
  6
CONTINUOUS
 70
0
 71
3
 72
11
 73
7
 74
0
 42
0.0000001
 43
0.0000001
 44
0.0000000001
 40
0.0
 40
0.0
 40
0.0
 40
0.0
 40
0.2314861265
 40
0.4999999773
 40
0.7685138385
 40
1.0
 40
1.0
 40
1.0
 40
1.0
 10
239.0629431633
 20
250.0775434647
 30
0.0
 10
238.6437741452
 20
250.0957050869
 30
0.0
 10
237.7374968335
 20
250.1118921439
 30
0.0
 10
236.3446233203
 20
250.1176627224
 30
0.0
 10
234.9517497435
 20
250.1118921541
 30
0.0
 10
234.0454723497
 20
250.0957051126
 30
0.0
 10
233.6263032675
 20
250.0775435047
 30
0.0
  0
SPLINE
  5
38B
100
AcDbEntity
  8
0
100
AcDbSpline
 62
7
  6
CONTINUOUS
 70
0
 71
3
 72
33
 73
29
 74
0
 42
0.0000001
 43
0.0000001
 44
0.0000000001
 40
0.0
 40
0.0
 40
0.0
 40
0.0
 40
0.0010322913
 40
0.0030477966
 40
0.0104992892
 40
0.0225799379
 40
0.0392163861
 40
0.0602495507
 40
0.0854914281
 40
0.1146944195
 40
0.1475867107
 40
0.2231461525
 40
0.3093046682
 40
0.4027816936
 40
0.4999974454
 40
0.5972132947
 40
0.6906906107
 40
0.7768496039
 40
0.8524096967
 40
0.8853023716
 40
0.9145057786
 40
0.9397481016
 40
0.9607817349
 40
0.9774186714
 40
0.9894998206
 40
0.9969518077
 40
0.9989675457
 40
1.0
 40
1.0
 40
1.0
 40
1.0
 10
233.5446539683
 20
250.1040834718
 30
0.0
 10
233.5446503099
 20
250.1021484185
 30
0.0
 10
233.5495959075
 20
250.0976020311
 30
0.0
 10
233.5671345886
 20
250.0904414175
 30
0.0
 10
233.6071558168
 20
250.0804042797
 30
0.0
 10
233.6734858426
 20
250.0686529603
 30
0.0
 10
233.7659993703
 20
250.0553506978
 30
0.0
 10
233.8830195475
 20
250.0412890452
 30
0.0
 10
234.0237794812
 20
250.026676356
 30
0.0
 10
234.1868254647
 20
250.0119318709
 30
0.0
 10
234.4440707117
 20
249.9916261911
 30
0.0
 10
234.8081775127
 20
249.9687335493
 30
0.0
 10
235.2860994438
 20
249.9474644599
 30
0.0
 10
235.8049086122
 20
249.933660395
 30
0.0
 10
236.3446080856
 20
249.9288747272
 30
0.0
 10
236.8843081082
 20
249.9336598853
 30
0.0
 10
237.4031189119
 20
249.9474634955
 30
0.0
 10
237.8810435215
 20
249.9687322352
 30
0.0
 10
238.2451531746
 20
249.9916246838
 30
0.0
 10
238.502401156
 20
250.0119302746
 30
0.0
 10
238.6654494819
 20
250.0266747611
 30
0.0
 10
238.8062119219
 20
250.0412874671
 30
0.0
 10
238.9232347262
 20
250.0553492532
 30
0.0
 10
239.0157510287
 20
250.0686514854
 30
0.0
 10
239.0820837666
 20
250.0804033017
 30
0.0
 10
239.1221074889
 20
250.0904399942
 30
0.0
 10
239.1396477042
 20
250.0976013009
 30
0.0
 10
239.1445944767
 20
250.1021471086
 30
0.0
 10
239.1445914475
 20
250.1040824686
 30
0.0
  0
SPLINE
  5
38C
100
AcDbEntity
  8
0
100
AcDbSpline
 62
7
  6
CONTINUOUS
 70
0
 71
3
 72
13
 73
9
 74
0
 42
0.0000001
 43
0.0000001
 44
0.0000000001
 40
0.0
 40
0.0
 40
0.0
 40
0.0
 40
0.0158986373
 40
0.0629929897
 40
0.1413586857
 40
0.251006106
 40
0.5638505185
 40
1.0
 40
1.0
 40
1.0
 40
1.0
 10
183.7159331742
 20
250.1303833487
 30
0.0
 10
183.7159318151
 20
250.1300280339
 30
0.0
 10
183.7137097318
 20
250.1304506167
 30
0.0
 10
183.711351803
 20
250.1296145864
 30
0.0
 10
183.7056650162
 20
250.1295541201
 30
0.0
 10
183.6947668148
 20
250.1286256976
 30
0.0
 10
183.6754045341
 20
250.1276348915
 30
0.0
 10
183.6587651114
 20
250.1266512752
 30
0.0
 10
183.6490320403
 20
250.1261216567
 30
0.0
  0
SPLINE
  5
38D
100
AcDbEntity
  8
0
100
AcDbSpline
 62
7
  6
CONTINUOUS
 70
0
 71
3
 72
9
 73
5
 74
0
 42
0.0000001
 43
0.0000001
 44
0.0000000001
 40
0.0
 40
0.0
 40
0.0
 40
0.0
 40
0.3649901263
 40
1.0
 40
1.0
 40
1.0
 40
1.0
 10
183.6490320403
 20
250.1261216567
 30
0.0
 10
183.3776467651
 20
250.1113544081
 30
0.0
 10
182.6334768374
 20
250.0830028557
 30
0.0
 10
181.8888089134
 20
250.0710727384
 30
0.0
 10
181.4159542814
 20
250.0710727384
 30
0.0
  0
LINE
  5
38E
100
AcDbEntity
  8
0
100
AcDbLine
 62
7
  6
CONTINUOUS
 10
222.5900450683
 20
250.1303815659
 11
222.6110475263
 21
250.1304905504
  0
LINE
  5
38F
100
AcDbEntity
  8
0
100
AcDbLine
 62
7
  6
CONTINUOUS
 10
214.6592002507
 20
250.1303815659
 11
214.6381977927
 21
250.1304905504
  0
SPLINE
  5
390
100
AcDbEntity
  8
0
100
AcDbSpline
 62
7
  6
CONTINUOUS
 70
0
 71
3
 72
22
 73
18
 74
0
 42
0.0000001
 43
0.0000001
 44
0.0000000001
 40
0.0
 40
0.0
 40
0.0
 40
0.0
 40
0.0094789581
 40
0.0198376156
 40
0.0319457749
 40
0.046342666
 40
0.0829684759
 40
0.1305176408
 40
0.188506648
 40
0.2558007707
 40
0.3308118033
 40
0.4116188303
 40
0.5817953897
 40
0.7478547006
 40
0.8919745596
 40
0.9511708246
 40
1.0
 40
1.0
 40
1.0
 40
1.0
 10
174.3559542814
 20
248.9354586051
 30
0.0
 10
174.3559542814
 20
248.9568313879
 30
0.0
 10
174.3644639494
 20
249.0019160117
 30
0.0
 10
174.4016502169
 20
249.0648379903
 30
0.0
 10
174.4612530158
 20
249.1236905817
 30
0.0
 10
174.5793943505
 20
249.2040302915
 30
0.0
 10
174.7857257069
 20
249.2909476054
 30
0.0
 10
175.0949706196
 20
249.376241523
 30
0.0
 10
175.4784057087
 20
249.4480447905
 30
0.0
 10
175.9264455445
 20
249.5058115062
 30
0.0
 10
176.4277592618
 20
249.5492454053
 30
0.0
 10
177.1618257739
 20
249.5886425685
 30
0.0
 10
178.1025698496
 20
249.6008033855
 30
0.0
 10
179.1852382846
 20
249.5632300812
 30
0.0
 10
180.0156926024
 20
249.4855714826
 30
0.0
 10
180.5755863781
 20
249.3853427382
 30
0.0
 10
180.8117220465
 20
249.3233812311
 30
0.0
 10
180.9159542814
 20
249.287923725
 30
0.0
  0
SPLINE
  5
391
100
AcDbEntity
  8
0
100
AcDbSpline
 62
7
  6
CONTINUOUS
 70
0
 71
3
 72
19
 73
15
 74
0
 42
0.0000001
 43
0.0000001
 44
0.0000000001
 40
0.0
 40
0.0
 40
0.0
 40
0.0
 40
0.0543165844
 40
0.1009828367
 40
0.1613439299
 40
0.234025072
 40
0.3167392513
 40
0.4999539443
 40
0.6832240498
 40
0.7659695821
 40
0.8386685078
 40
0.8990324704
 40
0.9456915016
 40
1.0
 40
1.0
 40
1.0
 40
1.0
 10
176.3559542814
 20
248.3294199024
 30
0.0
 10
176.3559542814
 20
248.3867936683
 30
0.0
 10
176.4626190165
 20
248.4675837849
 30
0.0
 10
176.6145808
 20
248.5244426125
 30
0.0
 10
176.8012591394
 20
248.5734421804
 30
0.0
 10
177.0252214243
 20
248.6110899223
 30
0.0
 10
177.3812718756
 20
248.6503346
 30
0.0
 10
177.8558676623
 20
248.667825238
 30
0.0
 10
178.3304973178
 20
248.6503460768
 30
0.0
 10
178.686658415
 20
248.6110947577
 30
0.0
 10
178.910674693
 20
248.5734374331
 30
0.0
 10
179.0973662247
 20
248.5244323796
 30
0.0
 10
179.2493155475
 20
248.4675696359
 30
0.0
 10
179.3559542814
 20
248.3867851273
 30
0.0
 10
179.3559542814
 20
248.3294199024
 30
0.0
  0
SPLINE
  5
392
100
AcDbEntity
  8
0
100
AcDbSpline
 62
7
  6
CONTINUOUS
 70
0
 71
3
 72
9
 73
5
 74
0
 42
0.0000001
 43
0.0000001
 44
0.0000000001
 40
0.0
 40
0.0
 40
0.0
 40
0.0
 40
0.3000545901
 40
1.0
 40
1.0
 40
1.0
 40
1.0
 10
239.1445914475
 20
250.1040824686
 30
0.0
 10
239.1445864921
 20
250.1072484876
 30
0.0
 10
239.1320763284
 20
250.1129634985
 30
0.0
 10
239.1231832576
 20
250.1143947615
 30
0.0
 10
239.1159040298
 20
250.1156429449
 30
0.0
  0
SPLINE
  5
393
100
AcDbEntity
  8
0
100
AcDbSpline
 62
7
  6
CONTINUOUS
 70
0
 71
3
 72
16
 73
12
 74
0
 42
0.0000001
 43
0.0000001
 44
0.0000000001
 40
0.0
 40
0.0
 40
0.0
 40
0.0
 40
0.0070817074
 40
0.0208535784
 40
0.071575636
 40
0.153614389
 40
0.2664353701
 40
0.4089565581
 40
0.5798704312
 40
0.7774989391
 40
1.0
 40
1.0
 40
1.0
 40
1.0
 10
240.3445857871
 20
250.104065102
 30
0.0
 10
240.3445718308
 20
250.1012623815
 30
0.0
 10
240.3375068053
 20
250.094687006
 30
0.0
 10
240.3125167192
 20
250.0837599562
 30
0.0
 10
240.2553812265
 20
250.0681100777
 30
0.0
 10
240.1607217506
 20
250.0490072268
 30
0.0
 10
240.028726459
 20
250.0269534772
 30
0.0
 10
239.8618129258
 20
250.0031299484
 30
0.0
 10
239.6610694316
 20
249.9779917522
 30
0.0
 10
239.4285709931
 20
249.9522988763
 30
0.0
 10
239.263071735
 20
249.93615724
 30
0.0
 10
239.1753803111
 20
249.9281074433
 30
0.0
  0
LINE
  5
394
100
AcDbEntity
  8
0
100
AcDbLine
 62
7
  6
CONTINUOUS
 10
239.1753803111
 20
249.9281074433
 11
239.1604923798
 21
249.926745636
  0
SPLINE
  5
395
100
AcDbEntity
  8
0
100
AcDbSpline
 62
7
  6
CONTINUOUS
 70
0
 71
3
 72
11
 73
7
 74
0
 42
0.0000001
 43
0.0000001
 44
0.0000000001
 40
0.0
 40
0.0
 40
0.0
 40
0.0
 40
0.2297337074
 40
0.5000000889
 40
0.7702664334
 40
1.0
 40
1.0
 40
1.0
 40
1.0
 10
239.1604923798
 20
249.926745636
 30
0.0
 10
238.7305060047
 20
249.8875544671
 30
0.0
 10
237.7923801022
 20
249.8268324424
 30
0.0
 10
236.3446207924
 20
249.7949128351
 30
0.0
 10
234.8968617514
 20
249.8268326065
 30
0.0
 10
233.9587361885
 20
249.8875547094
 30
0.0
 10
233.5287500822
 20
249.9267459117
 30
0.0
  0
LINE
  5
396
100
AcDbEntity
  8
0
100
AcDbLine
 62
7
  6
CONTINUOUS
 10
233.5287500822
 20
249.9267459117
 11
233.5138055193
 21
249.9281129197
  0
SPLINE
  5
397
100
AcDbEntity
  8
0
100
AcDbSpline
 62
7
  6
CONTINUOUS
 70
0
 71
3
 72
16
 73
12
 74
0
 42
0.0000001
 43
0.0000001
 44
0.0000000001
 40
0.0
 40
0.0
 40
0.0
 40
0.0
 40
0.2225039138
 40
0.4201342987
 40
0.5910491512
 40
0.7335705295
 40
0.8463909312
 40
0.9284283366
 40
0.9791483997
 40
0.9929191263
 40
1.0
 40
1.0
 40
1.0
 40
1.0
 10
233.5138055193
 20
249.9281129197
 30
0.0
 10
233.4261173262
 20
249.93616265
 30
0.0
 10
233.2606244267
 20
249.952304098
 30
0.0
 10
233.0281352999
 20
249.9779965535
 30
0.0
 10
232.8274006057
 20
250.0031342511
 30
0.0
 10
232.6604951577
 20
250.026957112
 30
0.0
 10
232.5285071905
 20
250.0490104006
 30
0.0
 10
232.4338539517
 20
250.0681121838
 30
0.0
 10
232.3767233403
 20
250.0837622353
 30
0.0
 10
232.3517360206
 20
250.0946881781
 30
0.0
 10
232.344672748
 20
250.101264142
 30
0.0
 10
232.3446596278
 20
250.1040663981
 30
0.0
  0
SPLINE
  5
398
100
AcDbEntity
  8
0
100
AcDbSpline
 62
7
  6
CONTINUOUS
 70
0
 71
3
 72
33
 73
29
 74
0
 42
0.0000001
 43
0.0000001
 44
0.0000000001
 40
0.0
 40
0.0
 40
0.0
 40
0.0
 40
0.0010597991
 40
0.0031085988
 40
0.0106298702
 40
0.0227776886
 40
0.039473083
 40
0.060555843
 40
0.0858323101
 40
0.1150540483
 40
0.1479484246
 40
0.2234674881
 40
0.3095413246
 40
0.4029122272
 40
0.5000144671
 40
0.5971161133
 40
0.6904853715
 40
0.7765564787
 40
0.852071854
 40
0.8849641037
 40
0.9141834791
 40
0.9394574042
 40
0.9605375307
 40
0.9772302047
 40
0.9893752146
 40
0.996893678
 40
0.9989411517
 40
1.0
 40
1.0
 40
1.0
 40
1.0
 10
232.3446598909
 20
249.6037355486
 30
0.0
 10
232.3447082217
 20
249.6008942957
 30
0.0
 10
232.3518153355
 20
249.5942793585
 30
0.0
 10
232.3769496114
 20
249.5831774329
 30
0.0
 10
232.4342688059
 20
249.5673777538
 30
0.0
 10
232.5292074012
 20
249.5480236187
 30
0.0
 10
232.6615016095
 20
249.5257218274
 30
0.0
 10
232.828750225
 20
249.5016203937
 30
0.0
 10
233.0298517826
 20
249.4761989073
 30
0.0
 10
233.2627301603
 20
249.4502183644
 30
0.0
 10
233.6300131835
 20
249.4140667249
 30
0.0
 10
234.1499063286
 20
249.3727373112
 30
0.0
 10
234.8325003138
 20
249.3339181728
 30
0.0
 10
235.5736430644
 20
249.3085530405
 30
0.0
 10
236.3447412863
 20
249.2997307691
 30
0.0
 10
237.1158350377
 20
249.3085583594
 30
0.0
 10
237.856964298
 20
249.3339282184
 30
0.0
 10
238.5395364349
 20
249.3727507782
 30
0.0
 10
239.0594064526
 20
249.4140820275
 30
0.0
 10
239.4266673763
 20
249.4502343441
 30
0.0
 10
239.6595268082
 20
249.4762146676
 30
0.0
 10
239.8606080495
 20
249.5016357279
 30
0.0
 10
240.027835472
 20
249.5257357396
 30
0.0
 10
240.1601075781
 20
249.5480372367
 30
0.0
 10
240.2550241404
 20
249.5673870703
 30
0.0
 10
240.3123236658
 20
249.583189442
 30
0.0
 10
240.3374449521
 20
249.5942857222
 30
0.0
 10
240.3445429094
 20
249.6009048161
 30
0.0
 10
240.3445860705
 20
249.6037436028
 30
0.0
  0
SPLINE
  5
399
100
AcDbEntity
  8
0
100
AcDbSpline
 62
7
  6
CONTINUOUS
 70
0
 71
3
 72
9
 73
5
 74
0
 42
0.0000001
 43
0.0000001
 44
0.0000000001
 40
0.0
 40
0.0
 40
0.0
 40
0.0
 40
0.6999245783
 40
1.0
 40
1.0
 40
1.0
 40
1.0
 10
233.5733414456
 20
250.1156429449
 30
0.0
 10
233.5660625847
 20
250.1143948244
 30
0.0
 10
233.5571692833
 20
250.112962738
 30
0.0
 10
233.5446599543
 20
250.1072496435
 30
0.0
 10
233.5446539683
 20
250.1040834718
 30
0.0
  0
SPLINE
  5
39A
100
AcDbEntity
  8
0
100
AcDbSpline
 62
7
  6
CONTINUOUS
 70
0
 71
3
 72
9
 73
5
 74
0
 42
0.0000001
 43
0.0000001
 44
0.0000000001
 40
0.0
 40
0.0
 40
0.0
 40
0.0
 40
0.238747605
 40
1.0
 40
1.0
 40
1.0
 40
1.0
 10
181.4480095036
 20
248.0052201656
 30
0.0
 10
181.4522484672
 20
248.0076385828
 30
0.0
 10
181.4701304611
 20
248.0175451927
 30
0.0
 10
181.4884783902
 20
248.0266001685
 30
0.0
 10
181.5026168253
 20
248.0331001822
 30
0.0
  0
SPLINE
  5
39B
100
AcDbEntity
  8
0
100
AcDbSpline
 62
7
  6
CONTINUOUS
 70
0
 71
3
 72
9
 73
5
 74
0
 42
0.0000001
 43
0.0000001
 44
0.0000000001
 40
0.0
 40
0.0
 40
0.0
 40
0.0
 40
0.4405474484
 40
1.0
 40
1.0
 40
1.0
 40
1.0
 10
181.5026168253
 20
248.0331001822
 30
0.0
 10
181.5735295215
 20
248.0657016334
 30
0.0
 10
181.7435820518
 20
248.1192436707
 30
0.0
 10
181.9178805135
 20
248.1517719091
 30
0.0
 10
182.0159542814
 20
248.1660883417
 30
0.0
  0
SPLINE
  5
39C
100
AcDbEntity
  8
0
100
AcDbSpline
 62
7
  6
CONTINUOUS
 70
0
 71
3
 72
19
 73
15
 74
0
 42
0.0000001
 43
0.0000001
 44
0.0000000001
 40
0.0
 40
0.0
 40
0.0
 40
0.0
 40
0.0540430759
 40
0.1006845508
 40
0.1610721555
 40
0.2338172811
 40
0.3166140788
 40
0.4999999583
 40
0.6833859376
 40
0.7661826293
 40
0.838927859
 40
0.8993154456
 40
0.9459568662
 40
1.0
 40
1.0
 40
1.0
 40
1.0
 10
179.3559542814
 20
248.8432007315
 30
0.0
 10
179.3559542814
 20
248.9002285271
 30
0.0
 10
179.248812267
 20
248.9800250984
 30
0.0
 10
179.0972478639
 20
249.0361339065
 30
0.0
 10
178.9104963769
 20
249.0846142178
 30
0.0
 10
178.6865388308
 20
249.1218450801
 30
0.0
 10
178.3304564721
 20
249.1606583325
 30
0.0
 10
177.8559543199
 20
249.1779442843
 30
0.0
 10
177.3814522838
 20
249.1606583456
 30
0.0
 10
177.0253698135
 20
249.1218451121
 30
0.0
 10
176.8014123118
 20
249.0846141792
 30
0.0
 10
176.6146607363
 20
249.0361340194
 30
0.0
 10
176.4630964282
 20
248.9800250513
 30
0.0
 10
176.3559542814
 20
248.9002285883
 30
0.0
 10
176.3559542814
 20
248.8432007315
 30
0.0
  0
SPLINE
  5
39D
100
AcDbEntity
  8
0
100
AcDbSpline
 62
7
  6
CONTINUOUS
 70
0
 71
3
 72
13
 73
9
 74
0
 42
0.0000001
 43
0.0000001
 44
0.0000000001
 40
0.0
 40
0.0
 40
0.0
 40
0.0
 40
0.3691703464
 40
0.659157319
 40
0.7716565012
 40
0.8631240794
 40
0.9368280703
 40
1.0
 40
1.0
 40
1.0
 40
1.0
 10
182.0159542814
 20
248.6816527234
 30
0.0
 10
181.9174103285
 20
248.6674252796
 30
0.0
 10
181.7424496705
 20
248.6350288585
 30
0.0
 10
181.5425541134
 20
248.5727949581
 30
0.0
 10
181.4240554163
 20
248.5110054525
 30
0.0
 10
181.3640659028
 20
248.4653605901
 30
0.0
 10
181.3254754723
 20
248.4159963945
 30
0.0
 10
181.3159542814
 20
248.378790564
 30
0.0
 10
181.3159542814
 20
248.3617530144
 30
0.0
  0
SPLINE
  5
39E
100
AcDbEntity
  8
0
100
AcDbSpline
 62
7
  6
CONTINUOUS
 70
0
 71
3
 72
26
 73
22
 74
0
 42
0.0000001
 43
0.0000001
 44
0.0000000001
 40
0.0
 40
0.0
 40
0.0
 40
0.0
 40
0.1948735726
 40
0.3822583303
 40
0.554984697
 40
0.6337636209
 40
0.7064698008
 40
0.7723987097
 40
0.830925077
 40
0.881466706
 40
0.9235393477
 40
0.9412594638
 40
0.9567107897
 40
0.9698570725
 40
0.980662033
 40
0.9890932337
 40
0.9951341982
 40
0.9972545317
 40
0.9987728031
 40
0.9996877649
 40
1.0
 40
1.0
 40
1.0
 40
1.0
 10
181.4159542814
 20
249.8923803052
 30
0.0
 10
181.7217839403
 20
249.8923803052
 30
0.0
 10
182.3217073454
 20
249.8982039284
 30
0.0
 10
183.1923732986
 20
249.9232449097
 30
0.0
 10
183.880442869
 20
249.9554030597
 30
0.0
 10
184.3883615023
 20
249.9855662535
 30
0.0
 10
184.7288048196
 20
250.008387236
 30
0.0
 10
185.0373804799
 20
250.0312636611
 30
0.0
 10
185.3111295327
 20
250.0533384187
 30
0.0
 10
185.547444338
 20
250.0737758893
 30
0.0
 10
185.7198765531
 20
250.0896160849
 30
0.0
 10
185.8374232597
 20
250.1008666149
 30
0.0
 10
185.9097714712
 20
250.1079644167
 30
0.0
 10
185.9712796563
 20
250.1141755541
 30
0.0
 10
186.0218787147
 20
250.1193802476
 30
0.0
 10
186.0611966611
 20
250.1236756905
 30
0.0
 10
186.0873403411
 20
250.1263924915
 30
0.0
 10
186.1020683722
 20
250.1284206887
 30
0.0
 10
186.109743647
 20
250.128958568
 30
0.0
 10
186.1129647294
 20
250.1302359058
 30
0.0
 10
186.1159542307
 20
250.1298974717
 30
0.0
 10
186.1159542814
 20
250.1303874856
 30
0.0
  0
SPLINE
  5
39F
100
AcDbEntity
  8
0
100
AcDbSpline
 62
7
  6
CONTINUOUS
 70
0
 71
3
 72
15
 73
11
 74
0
 42
0.0000001
 43
0.0000001
 44
0.0000000001
 40
0.0
 40
0.0
 40
0.0
 40
0.0
 40
0.1248856483
 40
0.2497886631
 40
0.3747238466
 40
0.499701043
 40
0.6247237281
 40
0.7497884709
 40
0.8748854439
 40
1.0
 40
1.0
 40
1.0
 40
1.0
 10
286.6743753439
 20
248.232604387
 30
0.0
 10
286.6743753439
 20
248.0714786529
 30
0.0
 10
286.6425649391
 20
247.7483110435
 30
0.0
 10
286.5012523825
 20
247.282853181
 30
0.0
 10
286.2717649519
 20
246.8536164422
 30
0.0
 10
285.9629009168
 20
246.4772951378
 30
0.0
 10
285.5865223207
 20
246.1682430293
 30
0.0
 10
285.1569929362
 20
245.9383155002
 30
0.0
 10
284.6910153552
 20
245.7963125084
 30
0.0
 10
284.3673749926
 20
245.7638846933
 30
0.0
 10
284.2059542889
 20
245.7635418851
 30
0.0
  0
SPLINE
  5
3A0
100
AcDbEntity
  8
0
100
AcDbSpline
 62
7
  6
CONTINUOUS
 70
0
 71
3
 72
15
 73
11
 74
0
 42
0.0000001
 43
0.0000001
 44
0.0000000001
 40
0.0
 40
0.0
 40
0.0
 40
0.0
 40
0.1251134978
 40
0.2502098097
 40
0.3752743999
 40
0.5002974121
 40
0.6252752328
 40
0.7502110226
 40
0.8751142323
 40
1.0
 40
1.0
 40
1.0
 40
1.0
 10
281.2533227069
 20
245.7635418851
 30
0.0
 10
281.0929516632
 20
245.7635418851
 30
0.0
 10
280.7713597923
 20
245.7948681729
 30
0.0
 10
280.3078821239
 20
245.9340644154
 30
0.0
 10
279.8799704899
 20
246.1602053128
 30
0.0
 10
279.5040480215
 20
246.4647487211
 30
0.0
 10
279.1942753949
 20
246.836163477
 30
0.0
 10
278.9623939349
 20
247.2604671519
 30
0.0
 10
278.8171807779
 20
247.7213714257
 30
0.0
 10
278.7818111537
 20
248.0420149118
 30
0.0
 10
278.779827652
 20
248.202081761
 30
0.0
  0
SPLINE
  5
3A1
100
AcDbEntity
  8
0
100
AcDbSpline
 62
7
  6
CONTINUOUS
 70
0
 71
3
 72
15
 73
11
 74
0
 42
0.0000001
 43
0.0000001
 44
0.0000000001
 40
0.0
 40
0.0
 40
0.0
 40
0.0
 40
0.1251144713
 40
0.2502115279
 40
0.3752763958
 40
0.5002991959
 40
0.6252764461
 40
0.750211599
 40
0.8751145225
 40
1.0
 40
1.0
 40
1.0
 40
1.0
 10
281.5427963914
 20
264.8841102473
 30
0.0
 10
281.2332741261
 20
264.8841102473
 30
0.0
 10
280.6125633372
 20
264.8231652196
 30
0.0
 10
279.7185746943
 20
264.5524142675
 30
0.0
 10
278.8943000849
 20
264.1127276346
 30
0.0
 10
278.1718780796
 20
263.5209782043
 30
0.0
 10
277.5789538285
 20
262.7999267106
 30
0.0
 10
277.1383596872
 20
261.9771505164
 30
0.0
 10
276.8670336473
 20
261.0847363085
 30
0.0
 10
276.8059543488
 20
260.4650632754
 30
0.0
 10
276.8059543488
 20
260.1561075207
 30
0.0
  0
SPLINE
  5
3A2
100
AcDbEntity
  8
0
100
AcDbSpline
 62
7
  6
CONTINUOUS
 70
0
 71
3
 72
15
 73
11
 74
0
 42
0.0000001
 43
0.0000001
 44
0.0000000001
 40
0.0
 40
0.0
 40
0.0
 40
0.0
 40
0.1251144884
 40
0.2502115267
 40
0.3752763943
 40
0.5002991941
 40
0.6252764445
 40
0.7502115978
 40
0.8751145217
 40
1.0
 40
1.0
 40
1.0
 40
1.0
 10
281.5427963914
 20
257.7921061575
 30
0.0
 10
281.3880352388
 20
257.7921061575
 30
0.0
 10
281.0776798532
 20
257.8225787443
 30
0.0
 10
280.6306855432
 20
257.9579541941
 30
0.0
 10
280.2185482173
 20
258.1777974387
 30
0.0
 10
279.8573373031
 20
258.4736722479
 30
0.0
 10
279.5608750755
 20
258.8341978991
 30
0.0
 10
279.3405780471
 20
259.245586032
 30
0.0
 10
279.2049150807
 20
259.6917931366
 30
0.0
 10
279.1743753364
 20
260.0016296436
 30
0.0
 10
279.1743753364
 20
260.1561075207
 30
0.0
  0
SPLINE
  5
3A3
100
AcDbEntity
  8
0
100
AcDbSpline
 62
7
  6
CONTINUOUS
 70
0
 71
3
 72
27
 73
23
 74
0
 42
0.0000001
 43
0.0000001
 44
0.0000000001
 40
0.0
 40
0.0
 40
0.0
 40
0.0
 40
0.0624237066
 40
0.0936755566
 40
0.1249305558
 40
0.1873787943
 40
0.2498478697
 40
0.2811280801
 40
0.312413882
 40
0.3749265763
 40
0.4374555016
 40
0.4999934531
 40
0.5625318736
 40
0.6250621351
 40
0.6875768328
 40
0.7188637908
 40
0.7501452074
 40
0.8126166628
 40
0.8750669338
 40
0.9063227152
 40
0.9375751453
 40
1.0
 40
1.0
 40
1.0
 40
1.0
 10
286.6743753439
 20
271.4770473826
 30
0.0
 10
286.6743753439
 20
271.3815608936
 30
0.0
 10
286.6602765434
 20
271.2377584653
 30
0.0
 10
286.6139807515
 20
271.0521268845
 30
0.0
 10
286.5498168633
 20
270.8717860437
 30
0.0
 10
286.4369963729
 20
270.6593879655
 30
0.0
 10
286.2850344815
 20
270.4729226893
 30
0.0
 10
286.1437009523
 20
270.3436670852
 30
0.0
 10
285.9904298756
 20
270.2287153251
 30
0.0
 10
285.7788200533
 20
270.1138519979
 30
0.0
 10
285.5032041385
 20
270.0278850216
 30
0.0
 10
285.216081701
 20
269.9968341202
 30
0.0
 10
284.928375641
 20
270.0219304996
 30
0.0
 10
284.6510320119
 20
270.1021692968
 30
0.0
 10
284.4370803038
 20
270.2126237707
 30
0.0
 10
284.2814521947
 20
270.3243751419
 30
0.0
 10
284.1374615464
 20
270.4506749368
 30
0.0
 10
283.9816553696
 20
270.6339512033
 30
0.0
 10
283.8644424586
 20
270.8439661679
 30
0.0
 10
283.7965419666
 20
271.0229391453
 30
0.0
 10
283.7463960225
 20
271.2075718654
 30
0.0
 10
283.7293102631
 20
271.3510526622
 30
0.0
 10
283.727324432
 20
271.4465202558
 30
0.0
  0
SPLINE
  5
3A4
100
AcDbEntity
  8
0
100
AcDbSpline
 62
7
  6
CONTINUOUS
 70
0
 71
3
 72
27
 73
23
 74
0
 42
0.0000001
 43
0.0000001
 44
0.0000000001
 40
0.0
 40
0.0
 40
0.0
 40
0.0
 40
0.0624425316
 40
0.093699631
 40
0.1249615476
 40
0.1874418047
 40
0.2499417392
 40
0.2812276331
 40
0.3125172973
 40
0.3750468001
 40
0.4375826855
 40
0.5001181024
 40
0.5626462554
 40
0.6251612102
 40
0.6876585979
 40
0.7189292144
 40
0.750194778
 40
0.8126525388
 40
0.8750929496
 40
0.906337373
 40
0.9375792788
 40
1.0
 40
1.0
 40
1.0
 40
1.0
 10
281.9863505675
 20
269.4149014972
 30
0.0
 10
282.0582171015
 20
269.2298423116
 30
0.0
 10
282.190584044
 20
268.9607716783
 30
0.0
 10
282.4109284067
 20
268.6297574681
 30
0.0
 10
282.6591789445
 20
268.3188417054
 30
0.0
 10
283.0187077189
 20
267.9722602101
 30
0.0
 10
283.432709022
 20
267.692858562
 30
0.0
 10
283.7887197163
 20
267.5147273392
 30
0.0
 10
284.158850129
 20
267.3679411622
 30
0.0
 10
284.6433793517
 20
267.2453455426
 30
0.0
 10
285.2410591892
 20
267.2005688761
 30
0.0
 10
285.837606836
 20
267.2592581967
 30
0.0
 10
286.4150886334
 20
267.4197259128
 30
0.0
 10
286.9561697519
 20
267.6770800266
 30
0.0
 10
287.3635856411
 20
267.9661924764
 30
0.0
 10
287.6555587581
 20
268.2365888008
 30
0.0
 10
287.9230051712
 20
268.5311071225
 30
0.0
 10
288.2078624019
 20
268.9409843269
 30
0.0
 10
288.4175935243
 20
269.393843832
 30
0.0
 10
288.5364794913
 20
269.7732909614
 30
0.0
 10
288.6220747381
 20
270.161438287
 30
0.0
 10
288.6480595564
 20
270.4600609171
 30
0.0
 10
288.6480595564
 20
270.6585153797
 30
0.0
  0
SPLINE
  5
3A5
100
AcDbEntity
  8
0
100
AcDbSpline
 62
7
  6
CONTINUOUS
 70
0
 71
3
 72
15
 73
11
 74
0
 42
0.0000001
 43
0.0000001
 44
0.0000000001
 40
0.0
 40
0.0
 40
0.0
 40
0.0
 40
0.1248854783
 40
0.2497884022
 40
0.3747235555
 40
0.4997008059
 40
0.6247236057
 40
0.7497884733
 40
0.8748855116
 40
1.0
 40
1.0
 40
1.0
 40
1.0
 10
279.1743753364
 20
260.1561075207
 30
0.0
 10
279.1743753364
 20
260.3105853979
 30
0.0
 10
279.2049150807
 20
260.6204219048
 30
0.0
 10
279.3405780471
 20
261.0666290095
 30
0.0
 10
279.5608750755
 20
261.4780171424
 30
0.0
 10
279.8573373031
 20
261.8385427936
 30
0.0
 10
280.2185482173
 20
262.1344176028
 30
0.0
 10
280.6306855432
 20
262.3542608474
 30
0.0
 10
281.0776798532
 20
262.4896362971
 30
0.0
 10
281.3880352388
 20
262.520108884
 30
0.0
 10
281.5427963914
 20
262.520108884
 30
0.0
  0
SPLINE
  5
3A6
100
AcDbEntity
  8
0
100
AcDbSpline
 62
7
  6
CONTINUOUS
 70
0
 71
3
 72
15
 73
11
 74
0
 42
0.0000001
 43
0.0000001
 44
0.0000000001
 40
0.0
 40
0.0
 40
0.0
 40
0.0
 40
0.1248854775
 40
0.249788401
 40
0.3747235539
 40
0.4997008041
 40
0.6247236042
 40
0.7497884721
 40
0.8748855287
 40
1.0
 40
1.0
 40
1.0
 40
1.0
 10
276.8059543488
 20
260.1561075207
 30
0.0
 10
276.8059543488
 20
259.847151766
 30
0.0
 10
276.8670336473
 20
259.227478733
 30
0.0
 10
277.1383596872
 20
258.335064525
 30
0.0
 10
277.5789538285
 20
257.5122883308
 30
0.0
 10
278.1718780796
 20
256.7912368372
 30
0.0
 10
278.8943000849
 20
256.1994874069
 30
0.0
 10
279.7185746943
 20
255.759800774
 30
0.0
 10
280.6125633372
 20
255.4890498219
 30
0.0
 10
281.2332741261
 20
255.4281047942
 30
0.0
 10
281.5427963914
 20
255.4281047942
 30
0.0
  0
SPLINE
  5
3A7
100
AcDbEntity
  8
0
100
AcDbSpline
 62
7
  6
CONTINUOUS
 70
0
 71
3
 72
15
 73
11
 74
0
 42
0.0000001
 43
0.0000001
 44
0.0000000001
 40
0.0
 40
0.0
 40
0.0
 40
0.0
 40
0.1248854783
 40
0.2497884024
 40
0.3747235558
 40
0.4997008062
 40
0.6247236061
 40
0.7497884736
 40
0.8748855287
 40
1.0
 40
1.0
 40
1.0
 40
1.0
 10
276.8059542814
 20
247.7014354741
 30
0.0
 10
276.8059542814
 20
247.4182260285
 30
0.0
 10
276.8619436405
 20
246.8501924073
 30
0.0
 10
277.1106591855
 20
246.0321460411
 30
0.0
 10
277.5145371605
 20
245.2779345253
 30
0.0
 10
278.0580510707
 20
244.616970657
 30
0.0
 10
278.7202712541
 20
244.0745336846
 30
0.0
 10
279.4758563198
 20
243.6714876141
 30
0.0
 10
280.2953459125
 20
243.4232992461
 30
0.0
 10
280.8643308035
 20
243.3674329748
 30
0.0
 10
281.1480595489
 20
243.3674329748
 30
0.0
  0
SPLINE
  5
3A8
100
AcDbEntity
  8
0
100
AcDbSpline
 62
7
  6
CONTINUOUS
 70
0
 71
3
 72
15
 73
11
 74
0
 42
0.0000001
 43
0.0000001
 44
0.0000000001
 40
0.0
 40
0.0
 40
0.0
 40
0.0
 40
0.1248854789
 40
0.2497884033
 40
0.3747235564
 40
0.4997008062
 40
0.6247236056
 40
0.7497884728
 40
0.8748855295
 40
1.0
 40
1.0
 40
1.0
 40
1.0
 10
276.8059542814
 20
260.1255759722
 30
0.0
 10
276.8059542814
 20
259.8166202139
 30
0.0
 10
276.8670335923
 20
259.1969471748
 30
0.0
 10
277.1383596647
 20
258.3045329696
 30
0.0
 10
277.5789538338
 20
257.4817567884
 30
0.0
 10
278.1718780985
 20
256.7607053095
 30
0.0
 10
278.894300103
 20
256.1689558862
 30
0.0
 10
279.718574705
 20
255.7292692465
 30
0.0
 10
280.6125633407
 20
255.4585182821
 30
0.0
 10
281.2332741279
 20
255.3975732457
 30
0.0
 10
281.5427963914
 20
255.3975732457
 30
0.0
  0
SPLINE
  5
3A9
100
AcDbEntity
  8
0
100
AcDbSpline
 62
7
  6
CONTINUOUS
 70
0
 71
3
 72
15
 73
11
 74
0
 42
0.0000001
 43
0.0000001
 44
0.0000000001
 40
0.0
 40
0.0
 40
0.0
 40
0.0
 40
0.1251135492
 40
0.2502099266
 40
0.3752746003
 40
0.5002977181
 40
0.6252756607
 40
0.7502115752
 40
0.8751149096
 40
1.0
 40
1.0
 40
1.0
 40
1.0
 10
281.5427963914
 20
262.4895773355
 30
0.0
 10
281.3893035155
 20
262.4895773355
 30
0.0
 10
281.0815050016
 20
262.4596052296
 30
0.0
 10
280.6378935784
 20
262.3264251983
 30
0.0
 10
280.2282994336
 20
262.1100541793
 30
0.0
 10
279.8684314464
 20
261.8186599071
 30
0.0
 10
279.5718361215
 20
261.4632677347
 30
0.0
 10
279.3497475192
 20
261.0572473711
 30
0.0
 10
279.2105666105
 20
260.6161755634
 30
0.0
 10
279.1765549247
 20
260.3093041337
 30
0.0
 10
279.1745728744
 20
260.1561043586
 30
0.0
  0
SPLINE
  5
3AA
100
AcDbEntity
  8
0
100
AcDbSpline
 62
7
  6
CONTINUOUS
 70
0
 71
3
 72
15
 73
11
 74
0
 42
0.0000001
 43
0.0000001
 44
0.0000000001
 40
0.0
 40
0.0
 40
0.0
 40
0.0
 40
0.1251144713
 40
0.2502115264
 40
0.3752763939
 40
0.5002991938
 40
0.6252764442
 40
0.7502115976
 40
0.8751145217
 40
1.0
 40
1.0
 40
1.0
 40
1.0
 10
284.3059542889
 20
243.3674329748
 30
0.0
 10
284.5896830343
 20
243.3674329748
 30
0.0
 10
285.1586679254
 20
243.4232992461
 30
0.0
 10
285.978157518
 20
243.6714876141
 30
0.0
 10
286.7337425837
 20
244.0745336846
 30
0.0
 10
287.3959627671
 20
244.616970657
 30
0.0
 10
287.9394766774
 20
245.2779345253
 30
0.0
 10
288.3433546523
 20
246.0321460411
 30
0.0
 10
288.5920701974
 20
246.8501924073
 30
0.0
 10
288.6480595564
 20
247.4182260285
 30
0.0
 10
288.6480595564
 20
247.7014354741
 30
0.0
  0
SPLINE
  5
3AB
100
AcDbEntity
  8
0
100
AcDbSpline
 62
7
  6
CONTINUOUS
 70
0
 71
3
 72
15
 73
11
 74
0
 42
0.0000001
 43
0.0000001
 44
0.0000000001
 40
0.0
 40
0.0
 40
0.0
 40
0.0
 40
0.1248855859
 40
0.2497886849
 40
0.3747242066
 40
0.4997017889
 40
0.624724717
 40
0.7497894341
 40
0.874886081
 40
1.0
 40
1.0
 40
1.0
 40
1.0
 10
276.80606204
 20
247.7014384303
 30
0.0
 10
276.8080523137
 20
247.4195005351
 30
0.0
 10
276.8675280373
 20
246.8544226887
 30
0.0
 10
277.1197833583
 20
246.0415056908
 30
0.0
 10
277.5254706738
 20
245.2926626784
 30
0.0
 10
278.0691310109
 20
244.6368367007
 30
0.0
 10
278.7300168614
 20
244.0988862357
 30
0.0
 10
279.4830632522
 20
243.6993182559
 30
0.0
 10
280.2991713246
 20
243.4533293277
 30
0.0
 10
280.8655991382
 20
243.3979645233
 30
0.0
 10
281.1480595489
 20
243.3979645233
 30
0.0
  0
SPLINE
  5
3AC
100
AcDbEntity
  8
0
100
AcDbSpline
 62
7
  6
CONTINUOUS
 70
0
 71
3
 72
15
 73
11
 74
0
 42
0.0000001
 43
0.0000001
 44
0.0000000001
 40
0.0
 40
0.0
 40
0.0
 40
0.0
 40
0.125114475
 40
0.2502115279
 40
0.3752763949
 40
0.5002991938
 40
0.6252764432
 40
0.7502115961
 40
0.8751145181
 40
1.0
 40
1.0
 40
1.0
 40
1.0
 10
284.3059542889
 20
243.3979645233
 30
0.0
 10
284.5896830401
 20
243.3979645233
 30
0.0
 10
285.1586679305
 20
243.4538308016
 30
0.0
 10
285.9781575065
 20
243.7020192068
 30
0.0
 10
286.733742546
 20
244.1050652898
 30
0.0
 10
287.3959627116
 20
244.647502261
 30
0.0
 10
287.9394766206
 20
245.3084661115
 30
0.0
 10
288.3433546081
 20
246.0626776011
 30
0.0
 10
288.5920701903
 20
246.8807239506
 30
0.0
 10
288.6480595564
 20
247.4487575713
 30
0.0
 10
288.6480595564
 20
247.7319670227
 30
0.0
  0
SPLINE
  5
3AD
100
AcDbEntity
  8
0
100
AcDbSpline
 62
7
  6
CONTINUOUS
 70
0
 71
3
 72
27
 73
23
 74
0
 42
0.0000001
 43
0.0000001
 44
0.0000000001
 40
0.0
 40
0.0
 40
0.0
 40
0.0
 40
0.0624425318
 40
0.0936996309
 40
0.1249615475
 40
0.1874418046
 40
0.2499417392
 40
0.2812276336
 40
0.3125172974
 40
0.3750468002
 40
0.4375826856
 40
0.5001181024
 40
0.5626462553
 40
0.6251612101
 40
0.6876585978
 40
0.7189292139
 40
0.750194778
 40
0.8126525389
 40
0.8750929497
 40
0.9063373731
 40
0.9375792785
 40
1.0
 40
1.0
 40
1.0
 40
1.0
 10
281.9863505675
 20
269.4454330457
 30
0.0
 10
282.0582171018
 20
269.2603738595
 30
0.0
 10
282.19058404
 20
268.9913032255
 30
0.0
 10
282.4109283988
 20
268.6602890109
 30
0.0
 10
282.6591789806
 20
268.3493732857
 30
0.0
 10
283.0187077034
 20
268.0027917409
 30
0.0
 10
283.4327090123
 20
267.7233900952
 30
0.0
 10
283.7887197016
 20
267.5452588542
 30
0.0
 10
284.158850169
 20
267.3984728184
 30
0.0
 10
284.6433793356
 20
267.2758770388
 30
0.0
 10
285.2410591959
 20
267.2311003603
 30
0.0
 10
285.8376068116
 20
267.2897898759
 30
0.0
 10
286.4150886503
 20
267.4502573989
 30
0.0
 10
286.956169786
 20
267.7076115321
 30
0.0
 10
287.3635855649
 20
267.996724111
 30
0.0
 10
287.6555587839
 20
268.2671203234
 30
0.0
 10
287.9230051858
 20
268.5616386601
 30
0.0
 10
288.2078624227
 20
268.9715158645
 30
0.0
 10
288.4175934791
 20
269.4243753971
 30
0.0
 10
288.5364795007
 20
269.8038225075
 30
0.0
 10
288.6220747422
 20
270.1919698357
 30
0.0
 10
288.6480595564
 20
270.4905924649
 30
0.0
 10
288.6480595564
 20
270.6890469282
 30
0.0
  0
SPLINE
  5
3AE
100
AcDbEntity
  8
0
100
AcDbSpline
 62
7
  6
CONTINUOUS
 70
0
 71
3
 72
15
 73
11
 74
0
 42
0.0000001
 43
0.0000001
 44
0.0000000001
 40
0.0
 40
0.0
 40
0.0
 40
0.0
 40
0.0994156665
 40
0.2329438202
 40
0.3664719739
 40
0.5000001276
 40
0.6335282814
 40
0.7670564351
 40
0.9005845888
 40
1.0
 40
1.0
 40
1.0
 40
1.0
 10
174.3857324031
 20
86.2779672501
 30
0.0
 10
174.443399541
 20
86.6658131493
 30
0.0
 10
174.7734835593
 20
87.5613630901
 30
0.0
 10
175.9699222916
 20
88.7794563563
 30
0.0
 10
177.9271944054
 20
89.6691212645
 30
0.0
 10
180.2359542814
 20
89.981530035
 30
0.0
 10
182.5447141574
 20
89.6691212645
 30
0.0
 10
184.5019862713
 20
88.7794563563
 30
0.0
 10
185.69842417
 20
87.5613639387
 30
0.0
 10
186.0285082983
 20
86.6658151123
 30
0.0
 10
186.0861757154
 20
86.277970238
 30
0.0
  0
SPLINE
  5
3AF
100
AcDbEntity
  8
0
100
AcDbSpline
 62
7
  6
CONTINUOUS
 70
0
 71
3
 72
9
 73
5
 74
0
 42
0.0000001
 43
0.0000001
 44
0.0000000001
 40
0.0
 40
0.0
 40
0.0
 40
0.0
 40
0.238803744
 40
1.0
 40
1.0
 40
1.0
 40
1.0
 10
168.4065467253
 20
25.298666474
 30
0.0
 10
168.6355337492
 20
25.3162460074
 30
0.0
 10
169.5908915436
 20
25.4341363694
 30
0.0
 10
170.5223081636
 20
25.7200866414
 30
0.0
 10
171.1959542814
 20
26.0066216336
 30
0.0
  0
SPLINE
  5
3B0
100
AcDbEntity
  8
0
100
AcDbSpline
 62
7
  6
CONTINUOUS
 70
0
 71
3
 72
9
 73
5
 74
0
 42
0.0000001
 43
0.0000001
 44
0.0000000001
 40
0.0
 40
0.0
 40
0.0
 40
0.0
 40
0.2623146352
 40
1.0
 40
1.0
 40
1.0
 40
1.0
 10
171.1959542814
 20
120.5481659228
 30
0.0
 10
170.963838797
 20
120.6468961118
 30
0.0
 10
170.0660288227
 20
120.9910333955
 30
0.0
 10
169.1138201375
 20
121.2018230861
 30
0.0
 10
168.4065467253
 20
121.2561210824
 30
0.0
  0
SPLINE
  5
3B1
100
AcDbEntity
  8
0
100
AcDbSpline
 62
7
  6
CONTINUOUS
 70
0
 71
3
 72
9
 73
5
 74
0
 42
0.0000001
 43
0.0000001
 44
0.0000000001
 40
0.0
 40
0.0
 40
0.0
 40
0.0
 40
0.238803747
 40
1.0
 40
1.0
 40
1.0
 40
1.0
 10
247.9853618376
 20
121.2561210824
 30
0.0
 10
247.7563748108
 20
121.2385415488
 30
0.0
 10
246.8010170164
 20
121.1206511862
 30
0.0
 10
245.8696003966
 20
120.8347009139
 30
0.0
 10
245.1959542814
 20
120.5481659228
 30
0.0
  0
SPLINE
  5
3B2
100
AcDbEntity
  8
0
100
AcDbSpline
 62
7
  6
CONTINUOUS
 70
0
 71
3
 72
9
 73
5
 74
0
 42
0.0000001
 43
0.0000001
 44
0.0000000001
 40
0.0
 40
0.0
 40
0.0
 40
0.0
 40
0.2623146386
 40
1.0
 40
1.0
 40
1.0
 40
1.0
 10
245.1959542814
 20
26.0066216336
 30
0.0
 10
245.4280697688
 20
25.9078914434
 30
0.0
 10
246.3258797432
 20
25.5637541596
 30
0.0
 10
247.2780884285
 20
25.3529644701
 30
0.0
 10
247.9853618376
 20
25.298666474
 30
0.0
  0
SPLINE
  5
3B3
100
AcDbEntity
  8
0
100
AcDbSpline
 62
7
  6
CONTINUOUS
 70
0
 71
3
 72
27
 73
23
 74
0
 42
0.0000001
 43
0.0000001
 44
0.0000000001
 40
0.0
 40
0.0
 40
0.0
 40
0.0
 40
0.0015181118
 40
0.0032552957
 40
0.0053628601
 40
0.0079267226
 40
0.014585483
 40
0.0234208095
 40
0.034489744
 40
0.0478046199
 40
0.0633554849
 40
0.0811186534
 40
0.1010605293
 40
0.1231395474
 40
0.1735083242
 40
0.2317673812
 40
0.2973723697
 40
0.3697031186
 40
0.4480716967
 40
0.6198771179
 40
0.8062296059
 40
1.0
 40
1.0
 40
1.0
 40
1.0
 10
276.8059542814
 20
55.4951932341
 30
0.0
 10
276.8059542814
 20
55.4929809595
 30
0.0
 10
276.8069922546
 20
55.4882065904
 30
0.0
 10
276.8112755591
 20
55.4815429631
 30
0.0
 10
276.8180662453
 20
55.4750507767
 30
0.0
 10
276.8317012242
 20
55.4656588275
 30
0.0
 10
276.8556967562
 20
55.4545286458
 30
0.0
 10
276.8923537798
 20
55.4420416383
 30
0.0
 10
276.9391723068
 20
55.4296009592
 30
0.0
 10
276.9960504336
 20
55.4172427145
 30
0.0
 10
277.0629044412
 20
55.4050281905
 30
0.0
 10
277.1395795842
 20
55.3929979892
 30
0.0
 10
277.2259008917
 20
55.381189729
 30
0.0
 10
277.3595725139
 20
55.3650735391
 30
0.0
 10
277.5491180212
 20
55.3461128245
 30
0.0
 10
277.802194446
 20
55.3255425032
 30
0.0
 10
278.0874753408
 20
55.3065241669
 30
0.0
 10
278.4022180542
 20
55.2892521395
 30
0.0
 10
278.8717218017
 20
55.2681552943
 30
0.0
 10
279.5075583285
 20
55.2479190899
 30
0.0
 10
280.311744742
 20
55.2333173366
 30
0.0
 10
280.8656868654
 20
55.2300508386
 30
0.0
 10
281.1480595489
 20
55.2300508386
 30
0.0
  0
SPLINE
  5
3B4
100
AcDbEntity
  8
0
100
AcDbSpline
 62
7
  6
CONTINUOUS
 70
0
 71
3
 72
24
 73
20
 74
0
 42
0.0000001
 43
0.0000001
 44
0.0000000001
 40
0.0
 40
0.0
 40
0.0
 40
0.0
 40
0.0032075463
 40
0.0053152015
 40
0.0078792187
 40
0.0145383265
 40
0.0233741003
 40
0.0344435885
 40
0.0477591331
 40
0.0633107945
 40
0.0810748831
 40
0.1230965651
 40
0.1734678985
 40
0.2317299421
 40
0.2973383019
 40
0.4480434374
 40
0.6198576612
 40
0.8062196687
 40
1.0
 40
1.0
 40
1.0
 40
1.0
 10
279.1743753364
 20
56.2552681009
 30
0.0
 10
279.1743753364
 20
56.2578175393
 30
0.0
 10
279.176435981
 20
56.2619685185
 30
0.0
 10
279.1809797948
 20
56.2662369266
 30
0.0
 10
279.1884208825
 20
56.2713925024
 30
0.0
 10
279.2015068124
 20
56.2774415988
 30
0.0
 10
279.2215027036
 20
56.2842626079
 30
0.0
 10
279.2470396148
 20
56.2910447606
 30
0.0
 10
279.2780642085
 20
56.2977867454
 30
0.0
 10
279.314529843
 20
56.3044496649
 30
0.0
 10
279.373691523
 20
56.3137263141
 30
0.0
 10
279.4605806743
 20
56.3246527075
 30
0.0
 10
279.5797358456
 20
56.3365884537
 30
0.0
 10
279.7177794906
 20
56.3478049125
 30
0.0
 10
279.9355417442
 20
56.3623142162
 30
0.0
 10
280.2436970737
 20
56.3772575534
 30
0.0
 10
280.6479760816
 20
56.3901512756
 30
0.0
 10
281.0866251127
 20
56.3981075318
 30
0.0
 10
281.3887749137
 20
56.3998912257
 30
0.0
 10
281.5427963914
 20
56.3998912257
 30
0.0
  0
SPLINE
  5
3B5
100
AcDbEntity
  8
0
100
AcDbSpline
 62
7
  6
CONTINUOUS
 70
0
 71
3
 72
27
 73
23
 74
0
 42
0.0000001
 43
0.0000001
 44
0.0000000001
 40
0.0
 40
0.0
 40
0.0
 40
0.0
 40
0.0015181576
 40
0.0032553145
 40
0.0053628451
 40
0.0079267391
 40
0.0145854994
 40
0.023420824
 40
0.0344897568
 40
0.0478046308
 40
0.0633554937
 40
0.0811186603
 40
0.1010605342
 40
0.1231395505
 40
0.1735083243
 40
0.2317673793
 40
0.2973723668
 40
0.3697031155
 40
0.4480716943
 40
0.6198771175
 40
0.8062296121
 40
1.0
 40
1.0
 40
1.0
 40
1.0
 10
276.8059543488
 20
56.2552681009
 30
0.0
 10
276.8059543488
 20
56.2528546377
 30
0.0
 10
276.8070863134
 20
56.2476460963
 30
0.0
 10
276.8117595154
 20
56.2403769698
 30
0.0
 10
276.8191672699
 20
56.2332944709
 30
0.0
 10
276.834041944
 20
56.2230488417
 30
0.0
 10
276.8602188148
 20
56.2109066932
 30
0.0
 10
276.9002083436
 20
56.1972845594
 30
0.0
 10
276.9512830705
 20
56.1837128858
 30
0.0
 10
277.0133319348
 20
56.1702311735
 30
0.0
 10
277.0862635675
 20
56.1569062348
 30
0.0
 10
277.1699091697
 20
56.1437823799
 30
0.0
 10
277.2640778598
 20
56.1309006408
 30
0.0
 10
277.4099014377
 20
56.1133193424
 30
0.0
 10
277.6166783446
 20
56.0926349257
 30
0.0
 10
277.8927617088
 20
56.0701945748
 30
0.0
 10
278.2039772267
 20
56.0494472983
 30
0.0
 10
278.5473329149
 20
56.0306050863
 30
0.0
 10
279.0595188277
 20
56.0075903459
 30
0.0
 10
279.7531586931
 20
55.9855144868
 30
0.0
 10
280.6304529705
 20
55.9695853036
 30
0.0
 10
281.2347534722
 20
55.9660218514
 30
0.0
 10
281.5427963914
 20
55.9660218514
 30
0.0
  0
SPLINE
  5
3B6
100
AcDbEntity
  8
0
100
AcDbSpline
 62
7
  6
CONTINUOUS
 70
0
 71
3
 72
32
 73
28
 74
0
 42
0.0000001
 43
0.0000001
 44
0.0000000001
 40
0.0
 40
0.0
 40
0.0
 40
0.0
 40
0.0180881332
 40
0.0396052498
 40
0.0922969605
 40
0.1565528306
 40
0.2304768587
 40
0.3118738657
 40
0.3983203846
 40
0.4872395547
 40
0.5759795715
 40
0.6618940631
 40
0.7424222978
 40
0.8151672585
 40
0.877969995
 40
0.9050514928
 40
0.9289817058
 40
0.9495894371
 40
0.9667332305
 40
0.9739720356
 40
0.9803089558
 40
0.9857390627
 40
0.9902633222
 40
0.9938927534
 40
0.9953814218
 40
0.9966615921
 40
1.0
 40
1.0
 40
1.0
 40
1.0
 10
281.9863505675
 20
56.8235635788
 30
0.0
 10
282.0261910245
 20
56.8172873572
 30
0.0
 10
282.1137105426
 20
56.8053633193
 30
0.0
 10
282.3182872071
 20
56.7828597482
 30
0.0
 10
282.6260964409
 20
56.7581734277
 30
0.0
 10
283.0510070245
 20
56.7337640163
 30
0.0
 10
283.5402277878
 20
56.7139959987
 30
0.0
 10
284.079123789
 20
56.6994975741
 30
0.0
 10
284.6515828191
 20
56.6907777399
 30
0.0
 10
285.2404738983
 20
56.6881166306
 30
0.0
 10
285.828174679
 20
56.6916021377
 30
0.0
 10
286.3970971227
 20
56.7011225561
 30
0.0
 10
286.9302206089
 20
56.7163562321
 30
0.0
 10
287.4115942241
 20
56.7368159651
 30
0.0
 10
287.7735976445
 20
56.7585008487
 30
0.0
 10
288.0265826894
 20
56.7786216902
 30
0.0
 10
288.1855611827
 20
56.7938071321
 30
0.0
 10
288.3221827028
 20
56.8097085813
 30
0.0
 10
288.4214881934
 20
56.8240944737
 30
0.0
 10
288.4889115082
 20
56.8362052447
 30
0.0
 10
288.5304034271
 20
56.8448708198
 30
0.0
 10
288.5656697039
 20
56.8535976089
 30
0.0
 10
288.5946899663
 20
56.8623981224
 30
0.0
 10
288.6147405684
 20
56.8701084165
 30
0.0
 10
288.6275732379
 20
56.8765927059
 30
0.0
 10
288.638912777
 20
56.8834887596
 30
0.0
 10
288.6480595564
 20
56.8922006953
 30
0.0
 10
288.6480595564
 20
56.899644468
 30
0.0
  0
SPLINE
  5
3B7
100
AcDbEntity
  8
0
100
AcDbSpline
 62
7
  6
CONTINUOUS
 70
0
 71
3
 72
27
 73
23
 74
0
 42
0.0000001
 43
0.0000001
 44
0.0000000001
 40
0.0
 40
0.0
 40
0.0
 40
0.0
 40
0.1937703941
 40
0.3801228821
 40
0.5519283033
 40
0.6302968814
 40
0.7026276303
 40
0.7682326188
 40
0.8264916758
 40
0.8768604526
 40
0.8989394707
 40
0.9188813466
 40
0.9366445151
 40
0.9521953801
 40
0.965510256
 40
0.9765791905
 40
0.985414517
 40
0.9920732774
 40
0.9946371399
 40
0.9967447043
 40
0.9984818882
 40
1.0
 40
1.0
 40
1.0
 40
1.0
 10
284.3059542889
 20
55.2300508386
 30
0.0
 10
284.5883269725
 20
55.2300508386
 30
0.0
 10
285.1422690958
 20
55.2333173366
 30
0.0
 10
285.9464555094
 20
55.2479190899
 30
0.0
 10
286.5822920362
 20
55.2681552943
 30
0.0
 10
287.0517957836
 20
55.2892521395
 30
0.0
 10
287.366538497
 20
55.3065241669
 30
0.0
 10
287.6518193918
 20
55.3255425032
 30
0.0
 10
287.9048958167
 20
55.3461128245
 30
0.0
 10
288.0944413239
 20
55.3650735391
 30
0.0
 10
288.2281129461
 20
55.381189729
 30
0.0
 10
288.3144342536
 20
55.3929979892
 30
0.0
 10
288.3911093966
 20
55.4050281905
 30
0.0
 10
288.4579634042
 20
55.4172427145
 30
0.0
 10
288.514841531
 20
55.4296009592
 30
0.0
 10
288.561660058
 20
55.4420416383
 30
0.0
 10
288.5983170816
 20
55.4545286458
 30
0.0
 10
288.6223126137
 20
55.4656588275
 30
0.0
 10
288.6359475925
 20
55.4750507767
 30
0.0
 10
288.6427382788
 20
55.4815429631
 30
0.0
 10
288.6470215832
 20
55.4882065904
 30
0.0
 10
288.6480595564
 20
55.4929809595
 30
0.0
 10
288.6480595564
 20
55.4951932341
 30
0.0
  0
SPLINE
  5
3B8
100
AcDbEntity
  8
0
100
AcDbSpline
 62
7
  6
CONTINUOUS
 70
0
 71
3
 72
11
 73
7
 74
0
 42
0.0000001
 43
0.0000001
 44
0.0000000001
 40
0.0
 40
0.0
 40
0.0
 40
0.0
 40
0.3144305519
 40
0.5900810134
 40
0.820398675
 40
1.0
 40
1.0
 40
1.0
 40
1.0
 10
285.4902914312
 20
55.8959876115
 30
0.0
 10
285.5941162656
 20
55.899860715
 30
0.0
 10
285.7889191947
 20
55.9083129835
 30
0.0
 10
286.0595482251
 20
55.9243304504
 30
0.0
 10
286.2853584555
 20
55.942533459
 30
0.0
 10
286.4200299808
 20
55.9575420933
 30
0.0
 10
286.4787672498
 20
55.9660170714
 30
0.0
  0
SPLINE
  5
3B9
100
AcDbEntity
  8
0
100
AcDbSpline
 62
7
  6
CONTINUOUS
 70
0
 71
3
 72
20
 73
16
 74
0
 42
0.0000001
 43
0.0000001
 44
0.0000000001
 40
0.0
 40
0.0
 40
0.0
 40
0.0
 40
0.2031760496
 40
0.3933099327
 40
0.5648467787
 40
0.7127904417
 40
0.8328639967
 40
0.8813530704
 40
0.921685098
 40
0.9536182659
 40
0.9663936415
 40
0.9770400411
 40
0.9855844073
 40
0.9921026165
 40
1.0
 40
1.0
 40
1.0
 40
1.0
 10
285.4901856939
 20
57.3586847959
 30
0.0
 10
285.5710377191
 20
57.3596739167
 30
0.0
 10
285.7275434676
 20
57.3624146772
 30
0.0
 10
285.9522442711
 20
57.3690137465
 30
0.0
 10
286.1548758417
 20
57.3777765911
 30
0.0
 10
286.3294887584
 20
57.3884275097
 30
0.0
 10
286.4550218152
 20
57.3991069879
 30
0.0
 10
286.5375962723
 20
57.408799144
 30
0.0
 10
286.5851527777
 20
57.4157851129
 30
0.0
 10
286.6184186712
 20
57.4220702344
 30
0.0
 10
286.6398135485
 20
57.4274251284
 30
0.0
 10
286.651954183
 20
57.431112346
 30
0.0
 10
286.6615880914
 20
57.434927233
 30
0.0
 10
286.6694114666
 20
57.4389951544
 30
0.0
 10
286.6743753439
 20
57.4437762045
 30
0.0
 10
286.6743753439
 20
57.4469191302
 30
0.0
  0
SPLINE
  5
3BA
100
AcDbEntity
  8
0
100
AcDbSpline
 62
7
  6
CONTINUOUS
 70
0
 71
3
 72
37
 73
33
 74
0
 42
0.0000001
 43
0.0000001
 44
0.0000000001
 40
0.0
 40
0.0
 40
0.0
 40
0.0
 40
0.00381601
 40
0.0071463726
 40
0.0115653511
 40
0.017101493
 40
0.0237609394
 40
0.0315386968
 40
0.0404229363
 40
0.0614390291
 40
0.0866309615
 40
0.1157692588
 40
0.1485815892
 40
0.2239529435
 40
0.309881462
 40
0.4030857001
 40
0.5
 40
0.5969142999
 40
0.690118538
 40
0.7760470565
 40
0.8514184108
 40
0.8842307412
 40
0.9133690385
 40
0.9385609709
 40
0.9595770637
 40
0.9684613032
 40
0.9762390606
 40
0.982898507
 40
0.9884346489
 40
0.9928536274
 40
0.99618399
 40
1.0
 40
1.0
 40
1.0
 40
1.0
 10
286.6743753439
 20
56.9478521763
 30
0.0
 10
286.6743753439
 20
56.9440786412
 30
0.0
 10
286.6675429917
 20
56.9386476155
 30
0.0
 10
286.6576232465
 20
56.9341336072
 30
0.0
 10
286.6450022244
 20
56.9297813004
 30
0.0
 10
286.6291796655
 20
56.9256018074
 30
0.0
 10
286.6098517664
 20
56.9213925122
 30
0.0
 10
286.5871700091
 20
56.9172514845
 30
0.0
 10
286.5503549656
 20
56.9114773145
 30
0.0
 10
286.496292627
 20
56.9046799086
 30
0.0
 10
286.4221508049
 20
56.8972527137
 30
0.0
 10
286.3362572655
 20
56.8902737662
 30
0.0
 10
286.2007606459
 20
56.8812456623
 30
0.0
 10
286.009019615
 20
56.8719476451
 30
0.0
 10
285.757468264
 20
56.8639248604
 30
0.0
 10
285.4845307783
 20
56.8589743069
 30
0.0
 10
285.2006911319
 20
56.8572986987
 30
0.0
 10
284.9168514855
 20
56.8589743069
 30
0.0
 10
284.6439139998
 20
56.8639248604
 30
0.0
 10
284.3923626488
 20
56.8719476451
 30
0.0
 10
284.2006216179
 20
56.8812456623
 30
0.0
 10
284.0651249983
 20
56.8902737662
 30
0.0
 10
283.9792314589
 20
56.8972527137
 30
0.0
 10
283.9050896368
 20
56.9046799086
 30
0.0
 10
283.8510272982
 20
56.9114773145
 30
0.0
 10
283.8142122548
 20
56.9172514845
 30
0.0
 10
283.7915304974
 20
56.9213925122
 30
0.0
 10
283.7722025983
 20
56.9256018074
 30
0.0
 10
283.7563800394
 20
56.9297813004
 30
0.0
 10
283.7437590173
 20
56.9341336072
 30
0.0
 10
283.7338392722
 20
56.9386476155
 30
0.0
 10
283.7270069199
 20
56.9440786412
 30
0.0
 10
283.7270069199
 20
56.9478521763
 30
0.0
  0
SPLINE
  5
3BB
100
AcDbEntity
  8
0
100
AcDbSpline
 62
7
  6
CONTINUOUS
 70
0
 71
3
 72
21
 73
17
 74
0
 42
0.0000001
 43
0.0000001
 44
0.0000000001
 40
0.0
 40
0.0
 40
0.0
 40
0.0
 40
0.0089443399
 40
0.015525732
 40
0.0238829858
 40
0.0341320597
 40
0.0463286061
 40
0.0766478328
 40
0.1148943191
 40
0.1609873074
 40
0.2147761737
 40
0.2760597533
 40
0.4201001289
 40
0.5907487424
 40
0.7851444312
 40
1.0
 40
1.0
 40
1.0
 40
1.0
 10
281.7533227074
 20
57.0240937293
 30
0.0
 10
281.7533227074
 20
57.02111251
 30
0.0
 10
281.7498664288
 20
57.0163076181
 30
0.0
 10
281.7434210619
 20
57.0118597
 30
0.0
 10
281.7359155248
 20
57.0079532153
 30
0.0
 10
281.7263945325
 20
57.0041292862
 30
0.0
 10
281.7096829138
 20
56.9986009752
 30
0.0
 10
281.6835542697
 20
56.992028559
 30
0.0
 10
281.6460493508
 20
56.9846421766
 30
0.0
 10
281.6005771729
 20
56.9773878507
 30
0.0
 10
281.5473257106
 20
56.9702948613
 30
0.0
 10
281.4615040933
 20
56.9605886194
 30
0.0
 10
281.3366656008
 20
56.9494944627
 30
0.0
 10
281.167371736
 20
56.9379211339
 30
0.0
 10
280.9743484625
 20
56.9277383028
 30
0.0
 10
280.8380492015
 20
56.9222441157
 30
0.0
 10
280.7664806012
 20
56.9197209793
 30
0.0
  0
SPLINE
  5
3BC
100
AcDbEntity
  8
0
100
AcDbSpline
 62
7
  6
CONTINUOUS
 70
0
 71
3
 72
24
 73
20
 74
0
 42
0.0000001
 43
0.0000001
 44
0.0000000001
 40
0.0
 40
0.0
 40
0.0
 40
0.0
 40
0.1937803313
 40
0.3801423388
 40
0.5519565626
 40
0.7026616981
 40
0.7682700579
 40
0.8265321015
 40
0.8769034349
 40
0.9189251169
 40
0.9366892055
 40
0.9522408669
 40
0.9655564115
 40
0.9766258997
 40
0.9854616735
 40
0.9921207813
 40
0.9946847985
 40
0.9967924537
 40
1.0
 40
1.0
 40
1.0
 40
1.0
 10
281.5427963914
 20
56.1106449762
 30
0.0
 10
281.3887749137
 20
56.1106449762
 30
0.0
 10
281.0866251127
 20
56.1124286701
 30
0.0
 10
280.6479760816
 20
56.1203849263
 30
0.0
 10
280.2436970737
 20
56.1332786485
 30
0.0
 10
279.9355417442
 20
56.1482219857
 30
0.0
 10
279.7177794906
 20
56.1627312894
 30
0.0
 10
279.5797358456
 20
56.1739477482
 30
0.0
 10
279.4605806743
 20
56.1858834944
 30
0.0
 10
279.373691523
 20
56.1968098878
 30
0.0
 10
279.314529843
 20
56.206086537
 30
0.0
 10
279.2780642085
 20
56.2127494565
 30
0.0
 10
279.2470396148
 20
56.2194914413
 30
0.0
 10
279.2215027036
 20
56.226273594
 30
0.0
 10
279.2015068124
 20
56.233094603
 30
0.0
 10
279.1884208825
 20
56.2391436995
 30
0.0
 10
279.1809797948
 20
56.2442992753
 30
0.0
 10
279.176435981
 20
56.2485676834
 30
0.0
 10
279.1743753364
 20
56.2527186626
 30
0.0
 10
279.1743753364
 20
56.2552681009
 30
0.0
  0
SPLINE
  5
3BD
100
AcDbEntity
  8
0
100
AcDbSpline
 62
7
  6
CONTINUOUS
 70
0
 71
3
 72
27
 73
23
 74
0
 42
0.0000001
 43
0.0000001
 44
0.0000000001
 40
0.0
 40
0.0
 40
0.0
 40
0.0
 40
0.1937703879
 40
0.3801228825
 40
0.5519283057
 40
0.6302968845
 40
0.7026276332
 40
0.7682326207
 40
0.8264916757
 40
0.8768604495
 40
0.8989394658
 40
0.9188813397
 40
0.9366445063
 40
0.9521953692
 40
0.9655102432
 40
0.976579176
 40
0.9854145006
 40
0.9920732609
 40
0.9946371549
 40
0.9967446855
 40
0.9984818424
 40
1.0
 40
1.0
 40
1.0
 40
1.0
 10
281.5427963914
 20
56.5445143505
 30
0.0
 10
281.2347534722
 20
56.5445143505
 30
0.0
 10
280.6304529705
 20
56.5409508983
 30
0.0
 10
279.7531586931
 20
56.5250217151
 30
0.0
 10
279.0595188277
 20
56.502945856
 30
0.0
 10
278.5473329149
 20
56.4799311156
 30
0.0
 10
278.2039772267
 20
56.4610889036
 30
0.0
 10
277.8927617088
 20
56.4403416271
 30
0.0
 10
277.6166783446
 20
56.4179012761
 30
0.0
 10
277.4099014377
 20
56.3972168595
 30
0.0
 10
277.2640778598
 20
56.3796355611
 30
0.0
 10
277.1699091697
 20
56.366753822
 30
0.0
 10
277.0862635675
 20
56.3536299671
 30
0.0
 10
277.0133319348
 20
56.3403050284
 30
0.0
 10
276.9512830705
 20
56.3268233161
 30
0.0
 10
276.9002083436
 20
56.3132516425
 30
0.0
 10
276.8602188148
 20
56.2996295087
 30
0.0
 10
276.834041944
 20
56.2874873602
 30
0.0
 10
276.8191672699
 20
56.277241731
 30
0.0
 10
276.8117595154
 20
56.2701592321
 30
0.0
 10
276.8070863134
 20
56.2628901056
 30
0.0
 10
276.8059543488
 20
56.2576815642
 30
0.0
 10
276.8059543488
 20
56.2552681009
 30
0.0
  0
SPLINE
  5
3BE
100
AcDbEntity
  8
0
100
AcDbSpline
 62
7
  6
CONTINUOUS
 70
0
 71
3
 72
24
 73
20
 74
0
 42
0.0000001
 43
0.0000001
 44
0.0000000001
 40
0.0
 40
0.0
 40
0.0
 40
0.0
 40
0.1937803315
 40
0.3801423394
 40
0.5519565634
 40
0.7026616992
 40
0.7682700591
 40
0.8265321027
 40
0.8769034362
 40
0.9189251183
 40
0.9366892069
 40
0.9522408683
 40
0.9655564131
 40
0.9766259007
 40
0.9854616769
 40
0.992120776
 40
0.9946847894
 40
0.996792477
 40
1.0
 40
1.0
 40
1.0
 40
1.0
 10
281.2533227069
 20
55.3747703787
 30
0.0
 10
281.0924558302
 20
55.3747703787
 30
0.0
 10
280.7768771492
 20
55.3766333479
 30
0.0
 10
280.3187326055
 20
55.3849432155
 30
0.0
 10
279.8964856418
 20
55.3984099921
 30
0.0
 10
279.5746345199
 20
55.4140174775
 30
0.0
 10
279.3471939438
 20
55.4291716392
 30
0.0
 10
279.2030150257
 20
55.4408866072
 30
0.0
 10
279.0785640691
 20
55.4533528313
 30
0.0
 10
278.9878131775
 20
55.4647648415
 30
0.0
 10
278.9260220898
 20
55.4744537874
 30
0.0
 10
278.8879357598
 20
55.4814128335
 30
0.0
 10
278.8555322975
 20
55.4884544712
 30
0.0
 10
278.8288604067
 20
55.4955380314
 30
0.0
 10
278.8079758203
 20
55.5026622326
 30
0.0
 10
278.7943083089
 20
55.5089801487
 30
0.0
 10
278.7865364329
 20
55.5143648086
 30
0.0
 10
278.7817907922
 20
55.5188230461
 30
0.0
 10
278.7796384939
 20
55.5231584704
 30
0.0
 10
278.7796384939
 20
55.5258211979
 30
0.0
  0
SPLINE
  5
3BF
100
AcDbEntity
  8
0
100
AcDbSpline
 62
7
  6
CONTINUOUS
 70
0
 71
3
 72
24
 73
20
 74
0
 42
0.0000001
 43
0.0000001
 44
0.0000000001
 40
0.0
 40
0.0
 40
0.0
 40
0.0
 40
0.00320936
 40
0.0053172203
 40
0.0078808849
 40
0.0145378624
 40
0.0233698453
 40
0.0344340582
 40
0.0477429995
 40
0.0632868715
 40
0.0810421304
 40
0.1230436555
 40
0.1733926689
 40
0.2316317995
 40
0.2972184169
 40
0.4478914509
 40
0.6197030542
 40
0.8061098582
 40
1.0
 40
1.0
 40
1.0
 40
1.0
 10
286.6743753439
 20
55.525820856
 30
0.0
 10
286.6743753439
 20
55.5231622334
 30
0.0
 10
286.6722301002
 20
55.5188336155
 30
0.0
 10
286.667496535
 20
55.5143802694
 30
0.0
 10
286.6597461433
 20
55.5090031374
 30
0.0
 10
286.6461155013
 20
55.5026933123
 30
0.0
 10
286.6252868071
 20
55.495578357
 30
0.0
 10
286.5986862648
 20
55.4885037793
 30
0.0
 10
286.5663692623
 20
55.4814709165
 30
0.0
 10
286.528384113
 20
55.4745202554
 30
0.0
 10
286.4667558866
 20
55.4648424605
 30
0.0
 10
286.3762410908
 20
55.4534424231
 30
0.0
 10
286.252109052
 20
55.4409874336
 30
0.0
 10
286.1082917969
 20
55.4292806533
 30
0.0
 10
285.881397277
 20
55.4141324533
 30
0.0
 10
285.5602748059
 20
55.3985218618
 30
0.0
 10
285.1389132629
 20
55.385035654
 30
0.0
 10
284.6816118765
 20
55.3766891296
 30
0.0
 10
284.3665722067
 20
55.3747912465
 30
0.0
 10
284.2059542889
 20
55.3747703787
 30
0.0
  0
ELLIPSE
  5
3C0
100
AcDbEntity
  8
0
100
AcDbEllipse
 62
7
  6
CONTINUOUS
 10
241.2286273467
 20
201.6304905784
 30
0.0
 11
297.1909564668
 21
0.0
 31
0.0
 40
0.1631947371
 41
1.6397685206
 42
1.6442903096
  0
ELLIPSE
  5
3C1
100
AcDbEntity
  8
0
100
AcDbEllipse
 62
7
  6
CONTINUOUS
 10
225.8673896436
 20
201.6304905784
 30
0.0
 11
74.2978898699
 21
0.0
 31
0.0
 40
0.6527776238
 41
1.6216945891
 42
1.6397685206
  0
ELLIPSE
  5
3C2
100
AcDbEntity
  8
0
100
AcDbEllipse
 62
7
  6
CONTINUOUS
 10
223.7673885515
 20
201.6304905784
 30
0.0
 11
0.0
 21
48.5
 31
0.0
 40
0.6808509827
 41
0.0373540471
 42
0.0508982623
  0
ELLIPSE
  5
3C3
100
AcDbEntity
  8
0
100
AcDbEllipse
 62
7
  6
CONTINUOUS
 10
222.9041545413
 20
201.6304905784
 30
0.0
 11
0.0
 21
48.5
 31
0.0
 40
0.2042552558
 41
0.0147943498
 42
0.0373540471
  0
ELLIPSE
  5
3C4
100
AcDbEntity
  8
0
100
AcDbEllipse
 62
7
  6
CONTINUOUS
 10
222.7903672493
 20
201.6304905784
 30
0.0
 11
-0.0
 21
48.5
 31
0.0
 40
0.6808509827
 41
0.0077578055
 42
0.0212902638
  0
ELLIPSE
  5
3C5
100
AcDbEntity
  8
0
100
AcDbEllipse
 62
7
  6
CONTINUOUS
 10
223.669090933
 20
201.6304905784
 30
0.0
 11
74.2978898699
 21
-0.0
 31
0.0
 40
0.6527776238
 41
1.5920865906
 42
1.6101363617
  0
ELLIPSE
  5
3C6
100
AcDbEntity
  8
0
100
AcDbEllipse
 62
7
  6
CONTINUOUS
 10
232.4354503461
 20
201.6304905784
 30
0.0
 11
297.1909564668
 21
-0.0
 31
0.0
 40
0.1631947371
 41
1.6101363617
 42
1.6146505884
  0
ELLIPSE
  5
3C7
100
AcDbEntity
  8
0
100
AcDbEllipse
 62
7
  6
CONTINUOUS
 10
204.813798171
 20
201.6304905784
 30
0.0
 11
297.1908870871
 21
0.0
 31
0.0
 40
0.1631947752
 41
1.5269420652
 42
1.5314562919
  0
ELLIPSE
  5
3C8
100
AcDbEntity
  8
0
100
AcDbEllipse
 62
7
  6
CONTINUOUS
 10
213.5801538321
 20
201.6304905784
 30
0.0
 11
74.2979158873
 21
0.0
 31
0.0
 40
0.6527773952
 41
1.5314562919
 42
1.5495060629
  0
ELLIPSE
  5
3C9
100
AcDbEntity
  8
0
100
AcDbEllipse
 62
7
  6
CONTINUOUS
 10
214.4588780697
 20
201.6304905784
 30
0.0
 11
0.0
 21
48.5
 31
0.0
 40
0.6808509827
 41
6.2618950433
 42
6.2754275017
  0
ELLIPSE
  5
3CA
100
AcDbEntity
  8
0
100
AcDbEllipse
 62
7
  6
CONTINUOUS
 10
214.3450907777
 20
201.6304905784
 30
0.0
 11
-0.0
 21
48.5
 31
0.0
 40
0.2042552558
 41
-0.0373540471
 42
-0.0147943498
  0
ELLIPSE
  5
3CB
100
AcDbEntity
  8
0
100
AcDbEllipse
 62
7
  6
CONTINUOUS
 10
213.4818567675
 20
201.6304905784
 30
0.0
 11
-0.0
 21
48.5
 31
0.0
 40
0.6808509827
 41
-0.0508982623
 42
-0.0373540471
  0
ELLIPSE
  5
3CC
100
AcDbEntity
  8
0
100
AcDbEllipse
 62
7
  6
CONTINUOUS
 10
211.3818543517
 20
201.6304905784
 30
0.0
 11
74.2979158873
 21
-0.0
 31
0.0
 40
0.6527773952
 41
1.501824133
 42
1.5198980645
  0
ELLIPSE
  5
3CD
100
AcDbEntity
  8
0
100
AcDbEllipse
 62
7
  6
CONTINUOUS
 10
196.0206232231
 20
201.6304905784
 30
0.0
 11
297.1908870871
 21
-0.0
 31
0.0
 40
0.1631947752
 41
1.497302344
 42
1.501824133
  0
ELLIPSE
  5
3CE
100
AcDbEntity
  8
0
100
AcDbEllipse
 62
7
  6
CONTINUOUS
 10
205.9665348345
 20
201.6304905784
 30
0.0
 11
57.7872502804
 21
-0.0
 31
0.0
 40
0.8392854785
 41
1.383517936
 42
1.4109933353
  0
ELLIPSE
  5
3CF
100
AcDbEntity
  8
0
100
AcDbEllipse
 62
7
  6
CONTINUOUS
 10
239.1959542814
 20
203.1476532916
 30
0.0
 11
0.0
 21
40.311393382
 31
0.0
 40
0.3472963553
 41
-2.1936895934
 42
-2.0480630828
  0
ELLIPSE
  5
3D0
100
AcDbEntity
  8
0
100
AcDbEllipse
 62
7
  6
CONTINUOUS
 10
239.1959542814
 20
191.0614336998
 30
0.0
 11
14.0
 21
-0.0
 31
0.0
 40
1.0
 41
-0.477266756
 42
0.0
  0
ELLIPSE
  5
3D1
100
AcDbEntity
  8
0
100
AcDbEllipse
 62
7
  6
CONTINUOUS
 10
242.6175669273
 20
201.6304905784
 30
0.0
 11
145.0577557532
 21
0.0
 31
0.0
 40
0.334349582
 41
1.8525506656
 42
1.918974183
  0
ELLIPSE
  5
3D2
100
AcDbEntity
  8
0
100
AcDbEllipse
 62
7
  6
CONTINUOUS
 10
165.7959520266
 20
201.6304905784
 30
0.0
 11
145.5000086725
 21
-0.0
 31
0.0
 40
0.3333333135
 41
1.3077741239
 42
1.381838824
  0
ELLIPSE
  5
3D3
100
AcDbEntity
  8
0
100
AcDbEllipse
 62
7
  6
CONTINUOUS
 10
177.1959542814
 20
191.0614336998
 30
0.0
 11
0.0
 21
14.0
 31
0.0
 40
1.0
 41
-4.7123889804
 42
-4.2351222244
  0
ELLIPSE
  5
3D4
100
AcDbEntity
  8
0
100
AcDbEllipse
 62
7
  6
CONTINUOUS
 10
177.1959542814
 20
203.1476532916
 30
0.0
 11
-0.0
 21
40.311393382
 31
0.0
 40
0.3472963553
 41
-4.2351222244
 42
-4.0894957137
  0
ELLIPSE
  5
3D5
100
AcDbEntity
  8
0
100
AcDbEllipse
 62
7
  6
CONTINUOUS
 10
196.5062460572
 20
201.6304905784
 30
0.0
 11
84.0044641671
 21
0.0
 31
0.0
 40
0.5773502692
 41
1.6948012676
 42
1.7574674144
  0
ELLIPSE
  5
3D6
100
AcDbEntity
  8
0
100
AcDbEllipse
 62
7
  6
CONTINUOUS
 10
193.8491045782
 20
201.6304905784
 30
0.0
 11
247.6594268515
 21
-0.0
 31
0.0
 40
0.1958334501
 41
1.4746689679
 42
1.4791992246
  0
ELLIPSE
  5
3D7
100
AcDbEntity
  8
0
100
AcDbEllipse
 62
7
  6
CONTINUOUS
 10
202.9103630808
 20
201.6304905784
 30
0.0
 11
148.5957948705
 21
-0.0
 31
0.0
 40
0.3263887786
 41
1.4791992246
 42
1.4837275969
  0
ELLIPSE
  5
3D8
100
AcDbEntity
  8
0
100
AcDbEllipse
 62
7
  6
CONTINUOUS
 10
207.2176003543
 20
201.6304905784
 30
0.0
 11
99.0638415966
 21
0.0
 31
0.0
 40
0.489583275
 41
1.4837275969
 42
1.492779062
  0
ELLIPSE
  5
3D9
100
AcDbEntity
  8
0
100
AcDbEllipse
 62
7
  6
CONTINUOUS
 10
211.0780272668
 20
201.6304905784
 30
0.0
 11
49.531908989
 21
0.0
 31
0.0
 40
0.9791667834
 41
1.492779062
 42
1.506344497
  0
ELLIPSE
  5
3DA
100
AcDbEntity
  8
0
100
AcDbEllipse
 62
7
  6
CONTINUOUS
 10
212.3541125862
 20
201.6304905784
 30
0.0
 11
-0.0
 21
48.5
 31
0.0
 40
0.6127657675
 41
-0.0644518298
 42
-0.0418678966
  0
ELLIPSE
  5
3DB
100
AcDbEntity
  8
0
100
AcDbEllipse
 62
7
  6
CONTINUOUS
 10
213.2524951282
 20
201.6304905784
 30
0.0
 11
0.0
 21
48.5
 31
0.0
 40
0.1702127457
 41
-0.0418678966
 42
-0.0147943498
  0
ELLIPSE
  5
3DC
100
AcDbEntity
  8
0
100
AcDbEllipse
 62
7
  6
CONTINUOUS
 10
171.1959542814
 20
195.5614336998
 30
0.0
 11
8.0
 21
0.0
 31
0.0
 40
1.0
 41
1.9269543459
 42
3.1415926536
  0
ELLIPSE
  5
3DD
100
AcDbEntity
  8
0
100
AcDbEllipse
 62
7
  6
CONTINUOUS
 10
223.9967503579
 20
201.6304905784
 30
0.0
 11
-0.0
 21
48.5
 31
0.0
 40
0.1702127606
 41
0.0147943498
 42
0.0418678966
  0
ELLIPSE
  5
3DE
100
AcDbEntity
  8
0
100
AcDbEllipse
 62
7
  6
CONTINUOUS
 10
224.8951329786
 20
201.6304905784
 30
0.0
 11
0.0
 21
48.5
 31
0.0
 40
0.6127658212
 41
0.0418678966
 42
0.0644518298
  0
ELLIPSE
  5
3DF
100
AcDbEntity
  8
0
100
AcDbEllipse
 62
7
  6
CONTINUOUS
 10
226.1712185028
 20
201.6304905784
 30
0.0
 11
49.5319147706
 21
-0.0
 31
0.0
 40
0.9791666691
 41
1.6352481566
 42
1.6488135916
  0
ELLIPSE
  5
3E0
100
AcDbEntity
  8
0
100
AcDbEllipse
 62
7
  6
CONTINUOUS
 10
230.0316463165
 20
201.6304905784
 30
0.0
 11
99.0638589415
 21
-0.0
 31
0.0
 40
0.4895831892
 41
1.6488135916
 42
1.6578650567
  0
ELLIPSE
  5
3E1
100
AcDbEntity
  8
0
100
AcDbEllipse
 62
7
  6
CONTINUOUS
 10
234.3388700154
 20
201.6304905784
 30
0.0
 11
148.5956561109
 21
0.0
 31
0.0
 40
0.3263890834
 41
1.6578650567
 42
1.662393429
  0
ELLIPSE
  5
3E2
100
AcDbEntity
  8
0
100
AcDbEllipse
 62
7
  6
CONTINUOUS
 10
243.4001475563
 20
201.6304905784
 30
0.0
 11
247.6594962313
 21
0.0
 31
0.0
 40
0.1958333952
 41
1.662393429
 42
1.6669236857
  0
ELLIPSE
  5
3E3
100
AcDbEntity
  8
0
100
AcDbEllipse
 62
7
  6
CONTINUOUS
 10
246.7059526846
 20
201.6304905784
 30
0.0
 11
145.4999956638
 21
0.0
 31
0.0
 40
0.3333333433
 41
1.8713849326
 42
1.9479195987
  0
ELLIPSE
  5
3E4
100
AcDbEntity
  8
0
100
AcDbEllipse
 62
7
  6
CONTINUOUS
 10
204.179304685
 20
201.6304905784
 30
0.0
 11
57.7872271538
 21
-0.0
 31
0.0
 40
0.8392858143
 41
1.383517936
 42
1.4109933353
  0
ELLIPSE
  5
3E5
100
AcDbEntity
  8
0
100
AcDbEllipse
 62
7
  6
CONTINUOUS
 10
161.9534905783
 20
201.6304905784
 30
0.0
 11
145.0577557532
 21
-0.0
 31
0.0
 40
0.334349582
 41
1.289041988
 42
1.3542100528
  0
ELLIPSE
  5
3E6
100
AcDbEntity
  8
0
100
AcDbEllipse
 62
7
  6
CONTINUOUS
 10
245.1959542814
 20
195.5614336998
 30
0.0
 11
-0.0
 21
8.0
 31
0.0
 40
1.0
 41
-1.5707963268
 42
-0.3561580191
  0
ELLIPSE
  5
3E7
100
AcDbEntity
  8
0
100
AcDbEllipse
 62
7
  6
CONTINUOUS
 10
204.179304685
 20
201.6304905784
 30
0.0
 11
57.1914825439
 21
0.0
 31
0.0
 40
0.8392858143
 41
1.3815436172
 42
1.4093141768
  0
ELLIPSE
  5
3E8
100
AcDbEntity
  8
0
100
AcDbEllipse
 62
7
  6
CONTINUOUS
 10
161.9534905783
 20
201.6304905784
 30
0.0
 11
143.5623149723
 21
-0.0
 31
0.0
 40
0.334349582
 41
1.3053861155
 42
1.351917413
  0
ELLIPSE
  5
3E9
100
AcDbEntity
  8
0
100
AcDbEllipse
 62
7
  6
CONTINUOUS
 10
202.3952188029
 20
201.6304905784
 30
0.0
 11
84.0044641671
 21
0.0
 31
0.0
 40
0.5773502692
 41
1.7658207234
 42
1.8158386657
  0
ELLIPSE
  5
3EA
100
AcDbEntity
  8
0
100
AcDbEllipse
 62
7
  6
CONTINUOUS
 10
202.3952188029
 20
201.6304905784
 30
0.0
 11
83.1384387633
 21
0.0
 31
0.0
 40
0.5773502692
 41
1.7678788011
 42
1.818444389
  0
ELLIPSE
  5
3EB
100
AcDbEntity
  8
0
100
AcDbEllipse
 62
7
  6
CONTINUOUS
 10
246.7059526846
 20
201.6304905784
 30
0.0
 11
143.9999957085
 21
0.0
 31
0.0
 40
0.3333333433
 41
1.8746155277
 42
1.9520488297
  0
ELLIPSE
  5
3EC
100
AcDbEntity
  8
0
100
AcDbEllipse
 62
7
  6
CONTINUOUS
 10
171.1959542814
 20
31.5901908276
 30
0.0
 11
8.0
 21
-0.0
 31
0.0
 40
0.8390996312
 41
-3.1415926536
 42
-1.9269543459
  0
ELLIPSE
  5
3ED
100
AcDbEntity
  8
0
100
AcDbEllipse
 62
7
  6
CONTINUOUS
 10
171.1959542814
 20
114.9645967288
 30
0.0
 11
8.0
 21
-0.0
 31
0.0
 40
0.8390996312
 41
1.9269543459
 42
3.1415926536
  0
ELLIPSE
  5
3EE
100
AcDbEntity
  8
0
100
AcDbEllipse
 62
7
  6
CONTINUOUS
 10
245.1959542814
 20
31.5901908276
 30
0.0
 11
8.0
 21
-0.0
 31
0.0
 40
0.8390996312
 41
-1.2146383077
 42
0.0
  0
ELLIPSE
  5
3EF
100
AcDbEntity
  8
0
100
AcDbEllipse
 62
7
  6
CONTINUOUS
 10
245.1959542814
 20
114.9645967288
 30
0.0
 11
8.0
 21
-0.0
 31
0.0
 40
0.8390996312
 41
0.0
 42
1.2146383077
  0
ENDSEC
  0
SECTION
  2
OBJECTS
  0
DICTIONARY
  5
C
100
AcDbDictionary
280
0
281
1
  3
ACAD_GROUP
350
D
  3
ACAD_MLINESTYLE
350
17
  3
ACAD_LAYOUT
350
1A
  3
ACAD_PLOTSETTINGS
350
19
  3
ACAD_PLOTSTYLENAME
350
E
  0
DICTIONARY
  5
D
102
{ACAD_REACTORS
330
C
102
}
100
AcDbDictionary
280
0
281
1
  0
ACDBDICTIONARYWDFLT
  5
E
102
{ACAD_REACTORS
330
C
102
}
100
AcDbDictionary
281
1
  3
Normal
350
F
100
AcDbDictionaryWithDefault
340
F
  0
DICTIONARY
  5
17
102
{ACAD_REACTORS
330
C
102
}
100
AcDbDictionary
280
0
281
1
  3
Standard
350
18
  0
DICTIONARY
  5
19
102
{ACAD_REACTORS
330
C
102
}
100
AcDbDictionary
281
1
  0
DICTIONARY
  5
1A
102
{ACAD_REACTORS
330
C
102
}
100
AcDbDictionary
281
1
  3
Model
350
3F0
  3
Layout1
350
3F1
  0
ACDBPLACEHOLDER
  5
F
102
{ACAD_REACTORS
330
E
102
}
  0
MLINESTYLE
  5
18
102
{ACAD_REACTORS
330
17
102
}
100
AcDbMlineStyle
  2
STANDARD
 70
0
  3

 62
256
 51
90.0
 52
90.0
 71
2
 49
0.5
 62
256
  6
BYLAYER
 49
-0.5
 62
256
  6
BYLAYER
  0
LAYOUT
  5
3F0
102
{ACAD_REACTORS
330
1A
102
}
100
AcDbPlotSettings
  1

  2
none_device
  4
ISO_A2_(594.00_x_420.00_MM)
  6

 40
0.0
 41
0.0
 42
0.0
 43
0.0
 44
594.0
 45
420.0
 46
0.0
 47
0.0
 48
0.0
 49
0.0
140
0.0
141
0.0
142
1.0
143
1.0
 70
1024
 72
1
 73
0
 74
0
  7

 75
0
147
1.0
148
0.0
149
0.0
100
AcDbLayout
  1
Model
 70
0
 71
0
 10
0.0
 20
0.0
 11
594.0
 21
420.0
 12
0.0
 22
0.0
 32
0.0
 14
0.0
 24
0.0
 34
0.0
 15
0.0
 25
0.0
 35
0.0
146
0.0
 13
0.0
 23
0.0
 33
0.0
 16
1.0
 26
0.0
 36
0.0
 17
0.0
 27
1.0
 37
0.0
 76
0
330
20E
345
0
346
0
  0
LAYOUT
  5
3F1
102
{ACAD_REACTORS
330
1A
102
}
100
AcDbPlotSettings
  1

  2
none_device
  4
ISO_A2_(594.00_x_420.00_MM)
  6

 40
0.0
 41
0.0
 42
0.0
 43
0.0
 44
594.0
 45
420.0
 46
0.0
 47
0.0
 48
0.0
 49
0.0
140
0.0
141
0.0
142
1.0
143
1.0
 70
0
 72
1
 73
0
 74
0
  7

 75
0
147
1.0
148
0.0
149
0.0
100
AcDbLayout
  1
Layout1
 70
0
 71
1
 10
0.0
 20
0.0
 11
594.0
 21
420.0
 12
0.0
 22
0.0
 32
0.0
 14
0.0
 24
0.0
 34
0.0
 15
0.0
 25
0.0
 35
0.0
146
0.0
 13
0.0
 23
0.0
 33
0.0
 16
1.0
 26
0.0
 36
0.0
 17
0.0
 27
1.0
 37
0.0
 76
0
330
20F
345
0
346
0
  0
ENDSEC
  0
EOF
