999
DXF file: 001-m32121-p3.dxf
999
Pro/ENGINEER 2011490 by Parametric Technology Corporation
  0
SECTION
  2
HEADER
  9
$ACADVER
  1
AC1015
  9
$DWGCODEPAGE
  3
ANSI_1252
  9
$EXTMAX
 10
420.0
 20
297.0
 30
0.0
  9
$EXTMIN
 10
0.0
 20
0.0
 30
0.0
  9
$LIMMIN
 10
0.0
 20
0.0
  9
$LIMMAX
 10
420.0
 20
297.0
  9
$VIEWCTR
 10
210.0
 20
148.5
  9
$VIEWSIZE
 40
297.0
  9
$CLAYER
  8
0
  9
$LTSCALE
 40
23.1
  9
$CELTYPE
  6
BYLAYER
  9
$DIMSCALE
 40
1.0
  9
$DIMASZ
 40
3.5
  9
$DIMEXO
 40
2.625
  9
$DIMDLI
 40
15.96
  9
$DIMEXE
 40
7.56
  9
$DIMCEN
 40
3.78
  9
$DIMLFAC
 40
1.0
  9
$DIMBLK
  1
_FILLED
  9
$DIMTXT
 40
3.5
  9
$DIMTOL
 70
1
  9
$DIMLIM
 70
0
  9
$DIMTFAC
 40
1.0
  9
$DIMTP
 40
0.005
  9
$DIMTM
 40
0.005
  9
$PDMODE
 70
3
  9
$PDSIZE
 40
0.3125
  9
$HANDSEED
  5
367
  9
$TILEMODE
 70
1
  9
$MEASUREMENT
 70
1
  9
$INSUNITS
 70
4
  0
ENDSEC
  0
SECTION
  2
CLASSES
  0
CLASS
  1
ACDBDICTIONARYWDFLT
  2
AcDbDictionaryWithDefault
  3
AutoCAD 2000
 90
0
280
0
281
0
  0
CLASS
  1
ACDBPLACEHOLDER
  2
AcDbPlaceHolder
  3
AutoCAD 2000
 90
0
280
0
281
0
  0
CLASS
  1
LAYOUT
  2
AcDbLayout
  3
AutoCAD 2000
 90
0
280
0
281
0
  0
ENDSEC
  0
SECTION
  2
TABLES
  0
TABLE
  2
VPORT
  5
8
100
AcDbSymbolTable
 70
2
  0
VPORT
  5
1F4
100
AcDbSymbolTableRecord
100
AcDbViewportTableRecord
  2
*ACTIVE
 70
0
 10
0.0
 20
0.0
 11
1.0
 21
1.0
 12
210.0
 22
148.5
 13
0.0
 23
0.0
 14
1.0
 24
1.0
 15
0.0
 25
0.0
 16
0.0
 26
0.0
 36
1.0
 17
0.0
 27
0.0
 37
0.0
 40
297.0
 41
1.4141414141
 42
50.0
 43
0.0
 44
0.0
 50
0.0
 51
0.0
 71
0
 72
100
 73
1
 74
1
 75
0
 76
0
 77
0
 78
0
  0
ENDTAB
  0
TABLE
  2
LTYPE
  5
5
100
AcDbSymbolTable
 70
6
  0
LTYPE
  5
14
100
AcDbSymbolTableRecord
100
AcDbLinetypeTableRecord
  2
BYBLOCK
 70
0
  3

 72
65
 73
0
 40
0.0
  0
LTYPE
  5
15
100
AcDbSymbolTableRecord
100
AcDbLinetypeTableRecord
  2
BYLAYER
 70
0
  3

 72
65
 73
0
 40
0.0
  0
LTYPE
  5
16
100
AcDbSymbolTableRecord
100
AcDbLinetypeTableRecord
  2
CONTINUOUS
 70
64
  3
Solid line
 72
65
 73
0
 40
0.0
  0
LTYPE
  5
1F5
100
AcDbSymbolTableRecord
100
AcDbLinetypeTableRecord
  2
CENTER
 70
64
  3
____ _ ____ _ ____ _ ____ _ ____ _ ____ _ ____
 72
65
 73
4
 40
0.6
 49
0.375
 74
0
 49
-0.075
 74
0
 49
0.075
 74
0
 49
-0.075
 74
0
  0
LTYPE
  5
1F6
100
AcDbSymbolTableRecord
100
AcDbLinetypeTableRecord
  2
HIDDEN
 70
64
  3
- - - - - - - - - - - - - - - - - - - -
 72
65
 73
2
 40
0.2
 49
0.1
 74
0
 49
-0.1
 74
0
  0
LTYPE
  5
1F7
100
AcDbSymbolTableRecord
100
AcDbLinetypeTableRecord
  2
PHANTOM
 70
64
  3
_____ _ _ _____ _ _ _____ _ _ _____
 72
65
 73
6
 40
0.8
 49
0.45
 74
0
 49
-0.05
 74
0
 49
0.1
 74
0
 49
-0.05
 74
0
 49
0.1
 74
0
 49
-0.05
 74
0
  0
LTYPE
  5
1F8
100
AcDbSymbolTableRecord
100
AcDbLinetypeTableRecord
  2
DOT
 70
64
  3
. . . . . . . . . . . . . . . . . . . .
 72
65
 73
2
 40
0.2
 49
0.1
 74
0
 49
-0.1
 74
0
  0
LTYPE
  5
1F9
100
AcDbSymbolTableRecord
100
AcDbLinetypeTableRecord
  2
DASHED
 70
64
  3
- - - - - - - - - - - - - - - - - - - -
 72
65
 73
2
 40
0.2
 49
0.1
 74
0
 49
-0.1
 74
0
  0
ENDTAB
  0
TABLE
  2
LAYER
  5
2
100
AcDbSymbolTable
 70
36
  0
LAYER
  5
10
100
AcDbSymbolTableRecord
100
AcDbLayerTableRecord
  2
0
 70
0
 62
7
  6
CONTINUOUS
370
-3
390
F
  0
LAYER
  5
1FA
100
AcDbSymbolTableRecord
100
AcDbLayerTableRecord
  2
DEFAULT_1
 70
0
 62
7
  6
CENTER
370
-3
390
F
  0
LAYER
  5
1FB
100
AcDbSymbolTableRecord
100
AcDbLayerTableRecord
  2
DEFAULT_2
 70
0
 62
8
  6
HIDDEN
370
-3
390
F
  0
LAYER
  5
1FC
100
AcDbSymbolTableRecord
100
AcDbLayerTableRecord
  2
DEFAULT_3
 70
0
 62
7
  6
PHANTOM
370
-3
390
F
  0
LAYER
  5
1FD
100
AcDbSymbolTableRecord
100
AcDbLayerTableRecord
  2
AUSFORMSCHRAEGEN
 70
0
 62
7
  6
CONTINUOUS
370
-3
390
F
  0
LAYER
  5
1FE
100
AcDbSymbolTableRecord
100
AcDbLayerTableRecord
  2
BEZUGSACHSEN
 70
0
 62
7
  6
CONTINUOUS
370
-3
390
F
  0
LAYER
  5
1FF
100
AcDbSymbolTableRecord
100
AcDbLayerTableRecord
  2
BEZUGSEBENEN
 70
0
 62
7
  6
CONTINUOUS
370
-3
390
F
  0
LAYER
  5
200
100
AcDbSymbolTableRecord
100
AcDbLayerTableRecord
  2
BG_STARTBEZUEGE
 70
0
 62
7
  6
CONTINUOUS
370
-3
390
F
  0
LAYER
  5
201
100
AcDbSymbolTableRecord
100
AcDbLayerTableRecord
  2
FASEN
 70
0
 62
7
  6
CONTINUOUS
370
-3
390
F
  0
LAYER
  5
202
100
AcDbSymbolTableRecord
100
AcDbLayerTableRecord
  2
FLAECHENVERBUND
 70
0
 62
7
  6
CONTINUOUS
370
-3
390
F
  0
LAYER
  5
203
100
AcDbSymbolTableRecord
100
AcDbLayerTableRecord
  2
HILFEN
 70
0
 62
7
  6
CONTINUOUS
370
-3
390
F
  0
LAYER
  5
204
100
AcDbSymbolTableRecord
100
AcDbLayerTableRecord
  2
KONSTRUKTIONSELEMENTE
 70
0
 62
7
  6
CONTINUOUS
370
-3
390
F
  0
LAYER
  5
205
100
AcDbSymbolTableRecord
100
AcDbLayerTableRecord
  2
KURVEN
 70
0
 62
7
  6
CONTINUOUS
370
-3
390
F
  0
LAYER
  5
206
100
AcDbSymbolTableRecord
100
AcDbLayerTableRecord
  2
NORM
 70
0
 62
7
  6
CONTINUOUS
370
-3
390
F
  0
LAYER
  5
207
100
AcDbSymbolTableRecord
100
AcDbLayerTableRecord
  2
PLATZIERUNG
 70
0
 62
7
  6
CONTINUOUS
370
-3
390
F
  0
LAYER
  5
208
100
AcDbSymbolTableRecord
100
AcDbLayerTableRecord
  2
RUNDUNGEN
 70
0
 62
7
  6
CONTINUOUS
370
-3
390
F
  0
LAYER
  5
209
100
AcDbSymbolTableRecord
100
AcDbLayerTableRecord
  2
TEIL_STARTBEZUEGE
 70
0
 62
7
  6
CONTINUOUS
370
-3
390
F
  0
LAYER
  5
20A
100
AcDbSymbolTableRecord
100
AcDbLayerTableRecord
  2
T_STARTBEZUEGE
 70
0
 62
7
  6
CONTINUOUS
370
-3
390
F
  0
LAYER
  5
20B
100
AcDbSymbolTableRecord
100
AcDbLayerTableRecord
  2
ZEICHNUNGSBEMASSUNGEN
 70
0
 62
7
  6
CONTINUOUS
370
-3
390
F
  0
ENDTAB
  0
TABLE
  2
STYLE
  5
3
100
AcDbSymbolTable
 70
1
  0
STYLE
  5
11
100
AcDbSymbolTableRecord
100
AcDbTextStyleTableRecord
  2
STANDARD
 70
0
 40
0.0
 41
0.7
 50
0.0
 71
0
 42
0.2
  3
txt
  4

  0
STYLE
  5
20C
100
AcDbSymbolTableRecord
100
AcDbTextStyleTableRecord
  2
TEXTSTYLE_1
 70
0
 40
0.0
 41
0.8
 50
0.0
 71
0
 42
0.2
  3
gdt
  4

  0
ENDTAB
  0
TABLE
  2
VIEW
  5
6
100
AcDbSymbolTable
 70
0
  0
ENDTAB
  0
TABLE
  2
UCS
  5
7
100
AcDbSymbolTable
 70
0
  0
ENDTAB
  0
TABLE
  2
APPID
  5
9
100
AcDbSymbolTable
 70
1
  0
APPID
  5
20D
100
AcDbSymbolTableRecord
100
AcDbRegAppTableRecord
  2
ACAD
 70
0
  0
ENDTAB
  0
TABLE
  2
BLOCK_RECORD
  5
1
100
AcDbSymbolTable
 70
0
  0
BLOCK_RECORD
  5
20E
100
AcDbSymbolTableRecord
100
AcDbBlockTableRecord
  2
*Model_Space
  0
BLOCK_RECORD
  5
20F
100
AcDbSymbolTableRecord
100
AcDbBlockTableRecord
  2
*Paper_Space
  0
ENDTAB
  0
TABLE
  2
DIMSTYLE
  5
A
100
AcDbSymbolTable
 70
1
100
AcDbDimStyleTable
 71
0
  0
DIMSTYLE
105
210
100
AcDbSymbolTableRecord
100
AcDbDimStyleTableRecord
  2
STANDARD
 70
0
  3

  4

 40
1.0
 41
3.5
 42
0.0625
 43
0.38
 44
0.18
 45
0.0
 46
0.0
 47
0.005
 48
0.005
140
3.5
141
0.09
142
0.0
143
25.4
144
1.0
145
0.0
146
1.0
147
0.09
 71
1.0
 72
0.0
 73
0
 74
0
 75
0
 76
0
 77
1
 78
8
170
0
171
2
172
0
173
0
174
0
175
0
176
0
177
0
178
5
270
2
271
3
272
3
273
2
274
2
275
0
280
0
281
0
282
0
283
1
284
8
285
0
286
0
287
3
288
0
340
11
  0
ENDTAB
  0
ENDSEC
  0
SECTION
  2
BLOCKS
  0
BLOCK
  5
20
100
AcDbEntity
  8
0
100
AcDbBlockBegin
  2
*Model_Space
 70
0
 10
0.0
 20
0.0
 30
0.0
  3
*Model_Space
  1

  0
ENDBLK
  5
21
100
AcDbEntity
  8
0
100
AcDbBlockEnd
  0
BLOCK
  5
1C
100
AcDbEntity
  8
0
100
AcDbBlockBegin
  2
*Paper_Space
 70
0
 10
0.0
 20
0.0
 30
0.0
  3
*Paper_Space
  1

  0
ENDBLK
  5
1D
100
AcDbEntity
  8
0
100
AcDbBlockEnd
  0
ENDSEC
  0
SECTION
  2
ENTITIES
  0
MTEXT
  5
211
100
AcDbEntity
  8
0
100
AcDbMText
 62
5
  6
CONTINUOUS
  7
STANDARD
 71
2
 72
1
 10
138.4406970697
 20
59.1490457691
 30
0.0
 11
1.0
 21
0.0
 31
0.0
 44
0.9
  1
VLBS-U 10t\PRUD
 40
6.0
 41
44.7142857143
  0
MTEXT
  5
212
100
AcDbEntity
  8
0
100
AcDbMText
 62
5
  6
CONTINUOUS
  7
STANDARD
 71
2
 72
1
 10
137.2577799762
 20
175.4607267542
 30
0.0
 11
1.0
 21
0.0
 31
0.0
 44
0.9
  1
VLBS-U 10t\PRUD
 40
6.0
 41
44.7142857143
  0
MTEXT
  5
213
100
AcDbEntity
  8
0
100
AcDbMText
 62
5
  6
CONTINUOUS
  7
STANDARD
 71
2
 72
1
 10
265.8458615944
 20
206.551014836
 30
0.0
 11
0.0
 21
1.0
 31
0.0
 44
0.9
  1
VLBS-U 10t\P RUD
 40
6.0
 41
44.7142857143
  0
LINE
  5
214
100
AcDbEntity
  8
0
100
AcDbLine
 62
7
  6
CONTINUOUS
 10
0.0
 20
0.0
 11
0.0
 21
297.0
  0
LINE
  5
215
100
AcDbEntity
  8
0
100
AcDbLine
 62
7
  6
CONTINUOUS
 10
0.0
 20
0.0
 11
420.0
 21
0.0
  0
LINE
  5
216
100
AcDbEntity
  8
0
100
AcDbLine
 62
7
  6
CONTINUOUS
 10
0.0
 20
297.0
 11
420.0
 21
297.0
  0
LINE
  5
217
100
AcDbEntity
  8
0
100
AcDbLine
 62
7
  6
CONTINUOUS
 10
420.0
 20
0.0
 11
420.0
 21
297.0
  0
LINE
  5
218
100
AcDbEntity
  8
0
100
AcDbLine
 62
7
  6
CONTINUOUS
 10
109.1186061077
 20
129.9006379738
 11
162.6719300519
 21
129.9006379738
  0
LINE
  5
219
100
AcDbEntity
  8
0
100
AcDbLine
 62
7
  6
CONTINUOUS
 10
165.0910256268
 20
132.9006379738
 11
106.6995105328
 21
132.9006379738
  0
LINE
  5
21A
100
AcDbEntity
  8
BEZUGSACHSEN
100
AcDbLine
 62
7
  6
CONTINUOUS
 10
194.4253637954
 20
133.4006379738
 11
165.2129703413
 21
133.4006379738
  0
LINE
  5
21B
100
AcDbEntity
  8
BEZUGSACHSEN
100
AcDbLine
 62
7
  6
CONTINUOUS
 10
106.5775505723
 20
133.4006379738
 11
77.3651723642
 21
133.4006379738
  0
LINE
  5
21C
100
AcDbEntity
  8
RUNDUNGEN
100
AcDbLine
 62
7
  6
CONTINUOUS
 10
131.846880178
 20
281.5953636521
 11
96.9009186804
 21
267.1202724497
  0
LINE
  5
21D
100
AcDbEntity
  8
BEZUGSACHSEN
100
AcDbLine
 62
7
  6
CONTINUOUS
 10
71.3786063357
 20
139.8019561934
 11
71.3781803846
 21
139.7955139487
  0
LINE
  5
21E
100
AcDbEntity
  8
RUNDUNGEN
100
AcDbLine
 62
7
  6
CONTINUOUS
 10
75.7158898438
 20
205.3862296586
 11
71.3782501957
 21
139.7965709835
  0
LINE
  5
21F
100
AcDbEntity
  8
BEZUGSACHSEN
100
AcDbLine
 62
7
  6
CONTINUOUS
 10
71.8411810624
 20
146.7965709835
 11
71.3782501957
 21
139.7965709835
  0
LINE
  5
220
100
AcDbEntity
  8
RUNDUNGEN
100
AcDbLine
 62
7
  6
CONTINUOUS
 10
77.3471814165
 20
214.7351232954
 11
75.7821699782
 21
205.9314007784
  0
LINE
  5
221
100
AcDbEntity
  8
RUNDUNGEN
100
AcDbLine
 62
7
  6
CONTINUOUS
 10
91.1756336039
 20
261.3949873732
 11
76.7005424014
 21
226.4490258756
  0
LINE
  5
222
100
AcDbEntity
  8
0
100
AcDbLine
 62
7
  6
CONTINUOUS
 10
110.8952680798
 20
155.3430428261
 11
160.8952680798
 21
155.3430428261
  0
LINE
  5
223
100
AcDbEntity
  8
RUNDUNGEN
100
AcDbLine
 62
7
  6
CONTINUOUS
 10
76.7005424014
 20
218.3522500719
 11
77.0437574064
 21
217.5236557521
  0
LINE
  5
224
100
AcDbEntity
  8
RUNDUNGEN
100
AcDbLine
 62
7
  6
CONTINUOUS
 10
102.3952680798
 20
170.9006379738
 11
102.3952680798
 21
182.990544002
  0
LINE
  5
225
100
AcDbEntity
  8
RUNDUNGEN
100
AcDbLine
 62
7
  6
CONTINUOUS
 10
102.3952680798
 20
216.0918730027
 11
102.3952680798
 21
222.4006379738
  0
LINE
  5
226
100
AcDbEntity
  8
0
100
AcDbLine
 62
7
  6
CONTINUOUS
 10
185.2644786148
 20
173.1937958018
 11
187.3802680948
 21
173.1937958018
  0
LINE
  5
227
100
AcDbEntity
  8
0
100
AcDbLine
 62
7
  6
CONTINUOUS
 10
105.8952680798
 20
139.2414173151
 11
105.8952680798
 21
179.9006379738
  0
LINE
  5
228
100
AcDbEntity
  8
0
100
AcDbLine
 62
7
  6
CONTINUOUS
 10
187.3102680948
 20
174.7837958018
 11
185.3350049308
 21
174.7837958018
  0
LINE
  5
229
100
AcDbEntity
  8
0
100
AcDbLine
 62
7
  6
CONTINUOUS
 10
183.6776365048
 20
178.0953747638
 11
188.1736891498
 21
178.0953747638
  0
LINE
  5
22A
100
AcDbEntity
  8
0
100
AcDbLine
 62
7
  6
CONTINUOUS
 10
190.2894786298
 20
179.6822168738
 11
188.9671102048
 21
179.6822168738
  0
LINE
  5
22B
100
AcDbEntity
  8
0
100
AcDbLine
 62
7
  6
CONTINUOUS
 10
188.1736891498
 20
179.6822168738
 11
182.3552680798
 21
179.6822168738
  0
LINE
  5
22C
100
AcDbEntity
  8
0
100
AcDbLine
 62
7
  6
CONTINUOUS
 10
112.0152680798
 20
185.3624702587
 11
112.0152680798
 21
184.7389266028
  0
LINE
  5
22D
100
AcDbEntity
  8
0
100
AcDbLine
 62
7
  6
CONTINUOUS
 10
112.0152680798
 20
184.5817524153
 11
112.0152680798
 21
182.8575903286
  0
LINE
  5
22E
100
AcDbEntity
  8
0
100
AcDbLine
 62
7
  6
CONTINUOUS
 10
113.5152680798
 20
184.5180552525
 11
113.5152680798
 21
182.8575903286
  0
LINE
  5
22F
100
AcDbEntity
  8
0
100
AcDbLine
 62
7
  6
CONTINUOUS
 10
114.1152680798
 20
183.9395427926
 11
114.1152680798
 21
182.8575903286
  0
LINE
  5
230
100
AcDbEntity
  8
0
100
AcDbLine
 62
7
  6
CONTINUOUS
 10
115.7652680798
 20
184.5180552525
 11
115.7652680798
 21
183.9395427926
  0
LINE
  5
231
100
AcDbEntity
  8
0
100
AcDbLine
 62
7
  6
CONTINUOUS
 10
139.7434911565
 20
185.4004988641
 11
139.7647680371
 21
185.4006379666
  0
LINE
  5
232
100
AcDbEntity
  8
0
100
AcDbLine
 62
7
  6
CONTINUOUS
 10
185.5289522998
 20
181.2690589838
 11
190.2894786298
 21
181.2690589838
  0
LINE
  5
233
100
AcDbEntity
  8
0
100
AcDbLine
 62
7
  6
CONTINUOUS
 10
190.2894786298
 20
182.8559010938
 11
185.5289522998
 21
182.8559010938
  0
LINE
  5
234
100
AcDbEntity
  8
0
100
AcDbLine
 62
7
  6
CONTINUOUS
 10
112.0152680798
 20
182.8575903286
 11
113.5152680798
 21
182.8575903286
  0
LINE
  5
235
100
AcDbEntity
  8
0
100
AcDbLine
 62
7
  6
CONTINUOUS
 10
114.1152680798
 20
182.8575903286
 11
120.8352680798
 21
182.8575903286
  0
LINE
  5
236
100
AcDbEntity
  8
0
100
AcDbLine
 62
7
  6
CONTINUOUS
 10
112.0152680798
 20
183.3852209104
 11
113.5152680798
 21
183.3852209104
  0
LINE
  5
237
100
AcDbEntity
  8
0
100
AcDbLine
 62
7
  6
CONTINUOUS
 10
114.1152680798
 20
183.3852209104
 11
120.8352680798
 21
183.3852209104
  0
LINE
  5
238
100
AcDbEntity
  8
0
100
AcDbLine
 62
7
  6
CONTINUOUS
 10
114.1152680798
 20
183.9395427926
 11
115.7652680798
 21
183.9395427926
  0
LINE
  5
239
100
AcDbEntity
  8
0
100
AcDbLine
 62
7
  6
CONTINUOUS
 10
117.2352680798
 20
183.9395427926
 11
120.8352680798
 21
183.9395427926
  0
LINE
  5
23A
100
AcDbEntity
  8
0
100
AcDbLine
 62
7
  6
CONTINUOUS
 10
125.6593857496
 20
184.0991230229
 11
133.3852680798
 21
184.0991230229
  0
LINE
  5
23B
100
AcDbEntity
  8
0
100
AcDbLine
 62
7
  6
CONTINUOUS
 10
140.1477464274
 20
184.13801169
 11
141.7647680775
 21
184.13801169
  0
LINE
  5
23C
100
AcDbEntity
  8
0
100
AcDbLine
 62
7
  6
CONTINUOUS
 10
141.7647680775
 20
184.3586225587
 11
148.2328529791
 21
184.3586225587
  0
LINE
  5
23D
100
AcDbEntity
  8
0
100
AcDbLine
 62
7
  6
CONTINUOUS
 10
123.8852680798
 20
184.609613032
 11
133.3852680798
 21
184.609613032
  0
LINE
  5
23E
100
AcDbEntity
  8
0
100
AcDbLine
 62
7
  6
CONTINUOUS
 10
140.1477464274
 20
184.6479826528
 11
141.7647680775
 21
184.6479826528
  0
LINE
  5
23F
100
AcDbEntity
  8
0
100
AcDbLine
 62
7
  6
CONTINUOUS
 10
112.0152680798
 20
184.7389266028
 11
112.1417690779
 21
184.7389266028
  0
LINE
  5
240
100
AcDbEntity
  8
0
100
AcDbLine
 62
7
  6
CONTINUOUS
 10
123.8852680798
 20
184.8333875989
 11
132.1725021254
 21
184.8333875989
  0
LINE
  5
241
100
AcDbEntity
  8
0
100
AcDbLine
 62
7
  6
CONTINUOUS
 10
140.3498740629
 20
184.8656687647
 11
148.2328529791
 21
184.8656687647
  0
LINE
  5
242
100
AcDbEntity
  8
KONSTRUKTIONSELEMENTE
100
AcDbLine
 62
7
  6
CONTINUOUS
 10
110.8952680798
 20
184.9006379738
 11
112.0152680798
 21
184.9006379738
  0
LINE
  5
243
100
AcDbEntity
  8
KONSTRUKTIONSELEMENTE
100
AcDbLine
 62
7
  6
CONTINUOUS
 10
120.8352680798
 20
184.9006379738
 11
132.1725021254
 21
184.9006379738
  0
LINE
  5
244
100
AcDbEntity
  8
KONSTRUKTIONSELEMENTE
100
AcDbLine
 62
7
  6
CONTINUOUS
 10
133.3852680798
 20
184.9006379738
 11
138.7328529791
 21
184.9006379738
  0
LINE
  5
245
100
AcDbEntity
  8
KONSTRUKTIONSELEMENTE
100
AcDbLine
 62
7
  6
CONTINUOUS
 10
148.2328529791
 20
184.9006379738
 11
152.3828529791
 21
184.9006379738
  0
LINE
  5
246
100
AcDbEntity
  8
KONSTRUKTIONSELEMENTE
100
AcDbLine
 62
7
  6
CONTINUOUS
 10
159.3828529791
 20
184.9006379738
 11
160.8952680798
 21
184.9006379738
  0
LINE
  5
247
100
AcDbEntity
  8
0
100
AcDbLine
 62
7
  6
CONTINUOUS
 10
138.7328529791
 20
185.0456570577
 11
148.2328529791
 21
185.0456570577
  0
LINE
  5
248
100
AcDbEntity
  8
0
100
AcDbLine
 62
7
  6
CONTINUOUS
 10
142.5732786194
 20
185.2278907077
 11
144.3924273387
 21
185.2278907077
  0
LINE
  5
249
100
AcDbEntity
  8
0
100
AcDbLine
 62
7
  6
CONTINUOUS
 10
112.0152680798
 20
185.241008402
 11
117.3102680798
 21
185.241008402
  0
LINE
  5
24A
100
AcDbEntity
  8
0
100
AcDbLine
 62
7
  6
CONTINUOUS
 10
142.7754062549
 20
185.308647738
 11
144.1902997033
 21
185.308647738
  0
LINE
  5
24B
100
AcDbEntity
  8
0
100
AcDbLine
 62
7
  6
CONTINUOUS
 10
142.7754062549
 20
185.3224220212
 11
144.1902997033
 21
185.3224220212
  0
LINE
  5
24C
100
AcDbEntity
  8
0
100
AcDbLine
 62
7
  6
CONTINUOUS
 10
112.0152680798
 20
185.3624702587
 11
117.3102680798
 21
185.3624702587
  0
LINE
  5
24D
100
AcDbEntity
  8
0
100
AcDbLine
 62
7
  6
CONTINUOUS
 10
152.4003969492
 20
185.3865007961
 11
153.4328529842
 21
185.3865007961
  0
LINE
  5
24E
100
AcDbEntity
  8
0
100
AcDbLine
 62
7
  6
CONTINUOUS
 10
158.3328529712
 20
185.3865007961
 11
159.365309009
 21
185.3865007961
  0
LINE
  5
24F
100
AcDbEntity
  8
0
100
AcDbLine
 62
7
  6
CONTINUOUS
 10
123.8852680798
 20
185.390405301
 11
132.1725021254
 21
185.390405301
  0
LINE
  5
250
100
AcDbEntity
  8
0
100
AcDbLine
 62
7
  6
CONTINUOUS
 10
132.1725021254
 20
185.3945336499
 11
133.3852680798
 21
185.3945336499
  0
LINE
  5
251
100
AcDbEntity
  8
0
100
AcDbLine
 62
7
  6
CONTINUOUS
 10
119.0352680798
 20
185.4006379738
 11
120.835268079
 21
185.4006379738
  0
LINE
  5
252
100
AcDbEntity
  8
0
100
AcDbLine
 62
7
  6
CONTINUOUS
 10
138.9349806146
 20
185.4006379738
 11
139.7434911565
 21
185.4006379738
  0
LINE
  5
253
100
AcDbEntity
  8
0
100
AcDbLine
 62
7
  6
CONTINUOUS
 10
147.2222146601
 20
185.4006379738
 11
148.0307253259
 21
185.4006379738
  0
LINE
  5
254
100
AcDbEntity
  8
0
100
AcDbLine
 62
7
  6
CONTINUOUS
 10
185.5289522998
 20
186.0295853138
 11
190.2894786298
 21
186.0295853138
  0
LINE
  5
255
100
AcDbEntity
  8
0
100
AcDbLine
 62
7
  6
CONTINUOUS
 10
147.2009377795
 20
185.4006379666
 11
147.2222146601
 21
185.4004988641
  0
LINE
  5
256
100
AcDbEntity
  8
0
100
AcDbLine
 62
7
  6
CONTINUOUS
 10
117.2352680798
 20
184.1856541315
 11
117.2352680798
 21
183.9395427926
  0
LINE
  5
257
100
AcDbEntity
  8
0
100
AcDbLine
 62
7
  6
CONTINUOUS
 10
120.8352680798
 20
183.9395427926
 11
120.8352680798
 21
182.8575903286
  0
LINE
  5
258
100
AcDbEntity
  8
0
100
AcDbLine
 62
7
  6
CONTINUOUS
 10
120.8352680798
 20
184.2637009011
 11
120.8352680798
 21
185.4006379737
  0
LINE
  5
259
100
AcDbEntity
  8
BEZUGSACHSEN
100
AcDbLine
 62
7
  6
CONTINUOUS
 10
164.3952680798
 20
187.3006379738
 11
156.0134190883
 21
187.3006379738
  0
LINE
  5
25A
100
AcDbEntity
  8
RUNDUNGEN
100
AcDbLine
 62
7
  6
CONTINUOUS
 10
107.3952680798
 20
187.3006379738
 11
115.7771170713
 21
187.3006379738
  0
LINE
  5
25B
100
AcDbEntity
  8
0
100
AcDbLine
 62
7
  6
CONTINUOUS
 10
190.2894786298
 20
187.6164274238
 11
185.5289522998
 21
187.6164274238
  0
LINE
  5
25C
100
AcDbEntity
  8
0
100
AcDbLine
 62
7
  6
CONTINUOUS
 10
123.8852680798
 20
185.390405301
 11
123.8852680798
 21
184.9006379738
  0
LINE
  5
25D
100
AcDbEntity
  8
0
100
AcDbLine
 62
7
  6
CONTINUOUS
 10
123.8852680798
 20
184.8333875989
 11
123.8852680798
 21
183.4167172994
  0
LINE
  5
25E
100
AcDbEntity
  8
0
100
AcDbLine
 62
7
  6
CONTINUOUS
 10
123.8852680798
 20
181.9098444384
 11
123.8852680798
 21
180.7872745496
  0
LINE
  5
25F
100
AcDbEntity
  8
0
100
AcDbLine
 62
7
  6
CONTINUOUS
 10
182.3552680798
 20
194.2282695488
 11
185.6700049318
 21
194.2282695488
  0
LINE
  5
260
100
AcDbEntity
  8
0
100
AcDbLine
 62
7
  6
CONTINUOUS
 10
186.9923733568
 20
194.2282695488
 11
188.1736891498
 21
194.2282695488
  0
LINE
  5
261
100
AcDbEntity
  8
0
100
AcDbLine
 62
7
  6
CONTINUOUS
 10
190.2894786298
 20
195.5506379738
 11
188.9671102048
 21
195.5506379738
  0
LINE
  5
262
100
AcDbEntity
  8
0
100
AcDbLine
 62
7
  6
CONTINUOUS
 10
188.1736891498
 20
195.5506379738
 11
182.3552680798
 21
195.5506379738
  0
LINE
  5
263
100
AcDbEntity
  8
0
100
AcDbLine
 62
7
  6
CONTINUOUS
 10
132.1725021254
 20
185.3945336499
 11
132.1725021254
 21
184.8333875989
  0
LINE
  5
264
100
AcDbEntity
  8
0
100
AcDbLine
 62
7
  6
CONTINUOUS
 10
133.3852680798
 20
185.3945336499
 11
133.3852680798
 21
184.0991230229
  0
LINE
  5
265
100
AcDbEntity
  8
0
100
AcDbLine
 62
7
  6
CONTINUOUS
 10
133.3852680798
 20
183.3211035044
 11
133.3852680798
 21
182.2067082211
  0
LINE
  5
266
100
AcDbEntity
  8
0
100
AcDbLine
 62
7
  6
CONTINUOUS
 10
159.365309009
 20
185.3865007961
 11
159.3828529261
 21
185.37533418
  0
LINE
  5
267
100
AcDbEntity
  8
0
100
AcDbLine
 62
7
  6
CONTINUOUS
 10
138.7328529791
 20
185.4004988626
 11
138.7328529791
 21
184.3586225587
  0
LINE
  5
268
100
AcDbEntity
  8
0
100
AcDbLine
 62
7
  6
CONTINUOUS
 10
138.9349806146
 20
185.3792423319
 11
138.9349806146
 21
185.0456570577
  0
LINE
  5
269
100
AcDbEntity
  8
0
100
AcDbLine
 62
7
  6
CONTINUOUS
 10
139.541363521
 20
185.3338615551
 11
139.541363521
 21
185.0456570577
  0
LINE
  5
26A
100
AcDbEntity
  8
0
100
AcDbLine
 62
7
  6
CONTINUOUS
 10
140.1477464274
 20
185.2945240614
 11
140.1477464274
 21
185.0456570577
  0
LINE
  5
26B
100
AcDbEntity
  8
0
100
AcDbLine
 62
7
  6
CONTINUOUS
 10
140.1477464274
 20
184.6479826528
 11
140.1477464274
 21
184.13801169
  0
LINE
  5
26C
100
AcDbEntity
  8
0
100
AcDbLine
 62
7
  6
CONTINUOUS
 10
140.9562569693
 20
185.2632376028
 11
140.9562569693
 21
185.0456570577
  0
LINE
  5
26D
100
AcDbEntity
  8
0
100
AcDbLine
 62
7
  6
CONTINUOUS
 10
141.562640442
 20
185.2460723701
 11
141.562640442
 21
185.0456570577
  0
LINE
  5
26E
100
AcDbEntity
  8
0
100
AcDbLine
 62
7
  6
CONTINUOUS
 10
141.562640442
 20
185.3344705322
 11
141.562640442
 21
185.3217599203
  0
LINE
  5
26F
100
AcDbEntity
  8
0
100
AcDbLine
 62
7
  6
CONTINUOUS
 10
141.7647680775
 20
184.6479826528
 11
141.7647680775
 21
184.13801169
  0
LINE
  5
270
100
AcDbEntity
  8
0
100
AcDbLine
 62
7
  6
CONTINUOUS
 10
142.5732786194
 20
185.2278907077
 11
142.5732786194
 21
185.0456570577
  0
LINE
  5
271
100
AcDbEntity
  8
0
100
AcDbLine
 62
7
  6
CONTINUOUS
 10
142.7754062549
 20
185.3224220212
 11
142.7754062549
 21
185.308647738
  0
LINE
  5
272
100
AcDbEntity
  8
0
100
AcDbLine
 62
7
  6
CONTINUOUS
 10
144.1902997033
 20
185.3224220212
 11
144.1902997033
 21
185.308647738
  0
LINE
  5
273
100
AcDbEntity
  8
0
100
AcDbLine
 62
7
  6
CONTINUOUS
 10
144.3924273387
 20
185.2278907077
 11
144.3924273387
 21
185.0456570577
  0
LINE
  5
274
100
AcDbEntity
  8
0
100
AcDbLine
 62
7
  6
CONTINUOUS
 10
145.4030657992
 20
185.2460723701
 11
145.4030657992
 21
185.0456570577
  0
LINE
  5
275
100
AcDbEntity
  8
0
100
AcDbLine
 62
7
  6
CONTINUOUS
 10
145.4030657992
 20
185.3344705322
 11
145.4030657992
 21
185.3217599203
  0
LINE
  5
276
100
AcDbEntity
  8
0
100
AcDbLine
 62
7
  6
CONTINUOUS
 10
146.0094487057
 20
185.2632376028
 11
146.0094487057
 21
185.0456570577
  0
LINE
  5
277
100
AcDbEntity
  8
0
100
AcDbLine
 62
7
  6
CONTINUOUS
 10
146.8179593892
 20
185.2945240614
 11
146.8179593892
 21
185.0456570577
  0
LINE
  5
278
100
AcDbEntity
  8
0
100
AcDbLine
 62
7
  6
CONTINUOUS
 10
147.4243423664
 20
185.3338615551
 11
147.4243423664
 21
185.0456570577
  0
LINE
  5
279
100
AcDbEntity
  8
0
100
AcDbLine
 62
7
  6
CONTINUOUS
 10
148.0307253259
 20
185.3792423319
 11
148.0307253259
 21
185.0456570577
  0
LINE
  5
27A
100
AcDbEntity
  8
0
100
AcDbLine
 62
7
  6
CONTINUOUS
 10
148.2328529791
 20
184.3586225587
 11
148.2328529791
 21
185.4004988644
  0
LINE
  5
27B
100
AcDbEntity
  8
0
100
AcDbLine
 62
7
  6
CONTINUOUS
 10
152.3828529791
 20
184.8734426539
 11
152.3828529791
 21
185.3737846959
  0
LINE
  5
27C
100
AcDbEntity
  8
0
100
AcDbLine
 62
7
  6
CONTINUOUS
 10
153.4579818485
 20
185.3865007961
 11
153.4579818485
 21
185.3754127851
  0
LINE
  5
27D
100
AcDbEntity
  8
0
100
AcDbLine
 62
7
  6
CONTINUOUS
 10
158.3077241097
 20
185.3865007961
 11
158.3077241097
 21
185.3754106511
  0
LINE
  5
27E
100
AcDbEntity
  8
0
100
AcDbLine
 62
7
  6
CONTINUOUS
 10
159.3828529791
 20
184.8734490438
 11
159.3828529791
 21
185.3737837543
  0
LINE
  5
27F
100
AcDbEntity
  8
0
100
AcDbLine
 62
7
  6
CONTINUOUS
 10
152.3828530245
 20
185.3753370785
 11
152.4003969492
 21
185.3865007961
  0
LINE
  5
280
100
AcDbEntity
  8
0
100
AcDbLine
 62
7
  6
CONTINUOUS
 10
165.8952680798
 20
179.9006379738
 11
165.8952680798
 21
139.2414173151
  0
LINE
  5
281
100
AcDbEntity
  8
BEZUGSACHSEN
100
AcDbLine
 62
7
  6
CONTINUOUS
 10
169.3952680798
 20
222.4006379738
 11
169.3952680798
 21
216.0918730027
  0
LINE
  5
282
100
AcDbEntity
  8
BEZUGSACHSEN
100
AcDbLine
 62
7
  6
CONTINUOUS
 10
169.3952680798
 20
170.9006379738
 11
169.3952680798
 21
182.990544002
  0
LINE
  5
283
100
AcDbEntity
  8
0
100
AcDbLine
 62
7
  6
CONTINUOUS
 10
185.0088207193
 20
191.7332910268
 11
182.3552680798
 21
190.2012616961
  0
LINE
  5
284
100
AcDbEntity
  8
0
100
AcDbLine
 62
7
  6
CONTINUOUS
 10
182.3552680798
 20
188.6743221638
 11
185.8261335984
 21
190.6782273052
  0
LINE
  5
285
100
AcDbEntity
  8
0
100
AcDbLine
 62
7
  6
CONTINUOUS
 10
182.3552680798
 20
195.5506379738
 11
182.3552680798
 21
194.2282695488
  0
LINE
  5
286
100
AcDbEntity
  8
0
100
AcDbLine
 62
7
  6
CONTINUOUS
 10
182.3552680798
 20
190.2012616961
 11
182.3552680798
 21
188.6743221638
  0
LINE
  5
287
100
AcDbEntity
  8
0
100
AcDbLine
 62
7
  6
CONTINUOUS
 10
182.3552680798
 20
179.6822168738
 11
182.3552680798
 21
176.1030063368
  0
LINE
  5
288
100
AcDbEntity
  8
0
100
AcDbLine
 62
7
  6
CONTINUOUS
 10
183.6776365048
 20
176.4411642278
 11
183.6776365048
 21
178.0953747638
  0
LINE
  5
289
100
AcDbEntity
  8
0
100
AcDbLine
 62
7
  6
CONTINUOUS
 10
185.6700049318
 20
194.2282695488
 11
185.6700049318
 21
192.878495676
  0
LINE
  5
28A
100
AcDbEntity
  8
0
100
AcDbLine
 62
7
  6
CONTINUOUS
 10
186.9923733568
 20
192.0419537528
 11
186.9923733568
 21
194.2282695488
  0
LINE
  5
28B
100
AcDbEntity
  8
0
100
AcDbLine
 62
7
  6
CONTINUOUS
 10
188.1736891498
 20
178.0953747638
 11
188.1736891498
 21
179.6822168738
  0
LINE
  5
28C
100
AcDbEntity
  8
0
100
AcDbLine
 62
7
  6
CONTINUOUS
 10
188.1736891498
 20
194.2282695488
 11
188.1736891498
 21
195.5506379738
  0
LINE
  5
28D
100
AcDbEntity
  8
0
100
AcDbLine
 62
7
  6
CONTINUOUS
 10
188.9671102048
 20
195.5506379738
 11
188.9671102048
 21
192.0419537528
  0
LINE
  5
28E
100
AcDbEntity
  8
0
100
AcDbLine
 62
7
  6
CONTINUOUS
 10
188.9671102048
 20
179.6822168738
 11
188.9671102048
 21
176.4411641442
  0
LINE
  5
28F
100
AcDbEntity
  8
BEZUGSACHSEN
100
AcDbLine
 62
7
  6
CONTINUOUS
 10
195.0899937582
 20
218.3522500719
 11
194.7467787532
 21
217.5236557521
  0
LINE
  5
290
100
AcDbEntity
  8
BEZUGSACHSEN
100
AcDbLine
 62
7
  6
CONTINUOUS
 10
196.0746463158
 20
205.3862296586
 11
200.4122859639
 21
139.7965709835
  0
LINE
  5
291
100
AcDbEntity
  8
BEZUGSACHSEN
100
AcDbLine
 62
7
  6
CONTINUOUS
 10
200.4123557614
 20
139.7955141553
 11
200.4119298239
 21
139.8019561938
  0
LINE
  5
292
100
AcDbEntity
  8
BEZUGSACHSEN
100
AcDbLine
 62
7
  6
CONTINUOUS
 10
200.412355775
 20
139.7955139487
 11
200.4122859639
 21
139.7965709835
  0
LINE
  5
293
100
AcDbEntity
  8
0
100
AcDbLine
 62
7
  6
CONTINUOUS
 10
190.2894786298
 20
176.1030063368
 11
190.2894786298
 21
179.6822168738
  0
LINE
  5
294
100
AcDbEntity
  8
0
100
AcDbLine
 62
7
  6
CONTINUOUS
 10
190.2894786298
 20
181.2690589838
 11
190.2894786298
 21
182.8559010938
  0
LINE
  5
295
100
AcDbEntity
  8
0
100
AcDbLine
 62
7
  6
CONTINUOUS
 10
190.2894786298
 20
186.0295853138
 11
190.2894786298
 21
187.6164274238
  0
LINE
  5
296
100
AcDbEntity
  8
0
100
AcDbLine
 62
7
  6
CONTINUOUS
 10
190.2894786298
 20
191.5130063828
 11
190.2894786298
 21
195.5506379738
  0
LINE
  5
297
100
AcDbEntity
  8
BEZUGSACHSEN
100
AcDbLine
 62
7
  6
CONTINUOUS
 10
194.4433547431
 20
214.7351232954
 11
196.0083661814
 21
205.9314007784
  0
LINE
  5
298
100
AcDbEntity
  8
BEZUGSACHSEN
100
AcDbLine
 62
7
  6
CONTINUOUS
 10
180.6149025557
 20
261.3949873732
 11
195.0899937582
 21
226.4490258756
  0
LINE
  5
299
100
AcDbEntity
  8
BEZUGSACHSEN
100
AcDbLine
 62
7
  6
CONTINUOUS
 10
139.9436559816
 20
281.5953636521
 11
174.8896174792
 21
267.1202724497
  0
LINE
  5
29A
100
AcDbEntity
  8
KONSTRUKTIONSELEMENTE
100
AcDbLine
 62
7
  6
CONTINUOUS
 10
255.9430566994
 20
129.9006379738
 11
251.4430566994
 21
129.9006379738
  0
LINE
  5
29B
100
AcDbEntity
  8
0
100
AcDbLine
 62
7
  6
CONTINUOUS
 10
290.1937921956
 20
129.9006379738
 11
294.6937921956
 21
129.9006379738
  0
LINE
  5
29C
100
AcDbEntity
  8
KONSTRUKTIONSELEMENTE
100
AcDbLine
 62
7
  6
CONTINUOUS
 10
249.3424340848
 20
132.9006379738
 11
247.8424340848
 21
132.9006379738
  0
LINE
  5
29D
100
AcDbEntity
  8
0
100
AcDbLine
 62
7
  6
CONTINUOUS
 10
296.7944148103
 20
132.9006379738
 11
298.2944148103
 21
132.9006379738
  0
LINE
  5
29E
100
AcDbEntity
  8
BEZUGSACHSEN
100
AcDbLine
 62
7
  6
CONTINUOUS
 10
273.3184244475
 20
133.4006379738
 11
272.8184244475
 21
133.4006379738
  0
LINE
  5
29F
100
AcDbEntity
  8
KONSTRUKTIONSELEMENTE
100
AcDbLine
 62
7
  6
CONTINUOUS
 10
251.4430566994
 20
129.9006379738
 11
249.3424340848
 21
132.9006379738
  0
LINE
  5
2A0
100
AcDbEntity
  8
KONSTRUKTIONSELEMENTE
100
AcDbLine
 62
7
  6
CONTINUOUS
 10
247.8424340848
 20
132.9006379738
 11
235.6213498561
 21
155.3430428261
  0
LINE
  5
2A1
100
AcDbEntity
  8
0
100
AcDbLine
 62
7
  6
CONTINUOUS
 10
255.9459244475
 20
181.4409004407
 11
255.9459244475
 21
180.8835321932
  0
LINE
  5
2A2
100
AcDbEntity
  8
0
100
AcDbLine
 62
7
  6
CONTINUOUS
 10
256.3417585359
 20
181.6315710792
 11
256.3417585359
 21
181.0772676756
  0
LINE
  5
2A3
100
AcDbEntity
  8
0
100
AcDbLine
 62
7
  6
CONTINUOUS
 10
256.5396744475
 20
181.7248566267
 11
256.5396744475
 21
181.1720403533
  0
LINE
  5
2A4
100
AcDbEntity
  8
0
100
AcDbLine
 62
7
  6
CONTINUOUS
 10
256.7375903592
 20
181.8167904748
 11
256.7375903592
 21
181.2654319353
  0
LINE
  5
2A5
100
AcDbEntity
  8
0
100
AcDbLine
 62
7
  6
CONTINUOUS
 10
286.3184244475
 20
187.6164274238
 11
286.8184244475
 21
187.6164274238
  0
LINE
  5
2A6
100
AcDbEntity
  8
0
100
AcDbLine
 62
7
  6
CONTINUOUS
 10
286.3184244475
 20
188.6743221638
 11
286.8184244475
 21
188.6743221638
  0
LINE
  5
2A7
100
AcDbEntity
  8
0
100
AcDbLine
 62
7
  6
CONTINUOUS
 10
257.3313403592
 20
182.0845865277
 11
257.3313403592
 21
181.5374304341
  0
LINE
  5
2A8
100
AcDbEntity
  8
0
100
AcDbLine
 62
7
  6
CONTINUOUS
 10
258.1230085359
 20
182.4233328095
 11
258.1230085359
 21
181.8814009761
  0
LINE
  5
2A9
100
AcDbEntity
  8
0
100
AcDbLine
 62
7
  6
CONTINUOUS
 10
259.1125903592
 20
182.8181433098
 11
259.1125903592
 21
182.2821749378
  0
LINE
  5
2AA
100
AcDbEntity
  8
BEZUGSACHSEN
100
AcDbLine
 62
7
  6
CONTINUOUS
 10
259.8184244475
 20
276.4006375849
 11
259.8184244475
 21
146.4006393679
  0
LINE
  5
2AB
100
AcDbEntity
  8
0
100
AcDbLine
 62
7
  6
CONTINUOUS
 10
286.3184244475
 20
190.2012616961
 11
286.8184244475
 21
190.2012616961
  0
LINE
  5
2AC
100
AcDbEntity
  8
0
100
AcDbLine
 62
7
  6
CONTINUOUS
 10
286.3184244475
 20
194.2282695488
 11
286.8184244475
 21
194.2282695488
  0
LINE
  5
2AD
100
AcDbEntity
  8
0
100
AcDbLine
 62
7
  6
CONTINUOUS
 10
286.3184244475
 20
195.5506379738
 11
286.8184244475
 21
195.5506379738
  0
LINE
  5
2AE
100
AcDbEntity
  8
KONSTRUKTIONSELEMENTE
100
AcDbLine
 62
7
  6
CONTINUOUS
 10
255.9430566994
 20
129.9006379738
 11
259.2811159054
 21
148.8317124611
  0
LINE
  5
2AF
100
AcDbEntity
  8
0
100
AcDbLine
 62
7
  6
CONTINUOUS
 10
290.1937921956
 20
129.9006379738
 11
286.8557329897
 21
148.8317124611
  0
LINE
  5
2B0
100
AcDbEntity
  8
BEZUGSACHSEN
100
AcDbLine
 62
7
  6
CONTINUOUS
 10
286.3184244475
 20
276.4006375849
 11
286.3184244475
 21
276.0520864571
  0
LINE
  5
2B1
100
AcDbEntity
  8
RUNDUNGEN
100
AcDbLine
 62
7
  6
CONTINUOUS
 10
286.3184244475
 20
276.0520864571
 11
286.3184244475
 21
146.4006393679
  0
LINE
  5
2B2
100
AcDbEntity
  8
0
100
AcDbLine
 62
7
  6
CONTINUOUS
 10
286.4250912086
 20
183.0421370293
 11
286.4250912086
 21
182.5094935778
  0
LINE
  5
2B3
100
AcDbEntity
  8
0
100
AcDbLine
 62
7
  6
CONTINUOUS
 10
286.8184244475
 20
195.5506379738
 11
286.8184244475
 21
188.6743221638
  0
LINE
  5
2B4
100
AcDbEntity
  8
0
100
AcDbLine
 62
7
  6
CONTINUOUS
 10
286.8184244475
 20
187.6164274238
 11
286.8184244475
 21
182.8958655396
  0
LINE
  5
2B5
100
AcDbEntity
  8
0
100
AcDbLine
 62
7
  6
CONTINUOUS
 10
289.1959244475
 20
181.9098444384
 11
289.1959244475
 21
181.3599535241
  0
LINE
  5
2B6
100
AcDbEntity
  8
0
100
AcDbLine
 62
7
  6
CONTINUOUS
 10
290.3834244475
 20
181.3461781041
 11
290.3834244475
 21
180.7872745496
  0
LINE
  5
2B7
100
AcDbEntity
  8
0
100
AcDbLine
 62
7
  6
CONTINUOUS
 10
298.2944148103
 20
132.9006379738
 11
310.515499039
 21
155.3430428261
  0
LINE
  5
2B8
100
AcDbEntity
  8
0
100
AcDbLine
 62
7
  6
CONTINUOUS
 10
294.6937921956
 20
129.9006379738
 11
296.7944148103
 21
132.9006379738
  0
LINE
  5
2B9
100
AcDbEntity
  8
0
100
AcDbLine
 62
7
  6
CONTINUOUS
 10
265.8184244475
 20
282.4006380738
 11
280.3184244475
 21
282.4006380738
  0
LWPOLYLINE
  5
2BA
100
AcDbEntity
  8
RUNDUNGEN
100
AcDbPolyline
 62
7
  6
CONTINUOUS
 90
157
 70
0
 10
71.3651723643
 20
52.6400374065
 10
71.365266889
 20
52.4946355457
 10
71.3655638467
 20
52.3441666821
 10
71.3660634036
 20
52.1937763802
 10
71.3667656408
 20
52.0434993122
 10
71.3676706571
 20
51.8933754161
 10
71.3687785494
 20
51.743449143
 10
71.3700894057
 20
51.5937649638
 10
71.3716033824
 20
51.44436224
 10
71.3733205617
 20
51.2952878136
 10
71.3752413643
 20
51.1465640335
 10
71.3773662126
 20
50.9982211332
 10
71.3796957226
 20
50.8502832916
 10
71.3822308369
 20
50.7027638042
 10
71.384971688
 20
50.5557275613
 10
71.3879188167
 20
50.4092157794
 10
71.3910718441
 20
50.2633119964
 10
71.3944299402
 20
50.1181103159
 10
71.3979942522
 20
49.9736156287
 10
71.4017645001
 20
49.8298956792
 10
71.4057449004
 20
49.6868571218
 10
71.4099391321
 20
49.5444547482
 10
71.4143520304
 20
49.4026283147
 10
71.4189889405
 20
49.2613258847
 10
71.4238558985
 20
49.1204989833
 10
71.4289611333
 20
48.9800626634
 10
71.4343074819
 20
48.840099769
 10
71.4399026533
 20
48.7005744075
 10
71.445741731
 20
48.56176527
 10
71.4518225171
 20
48.4238563747
 10
71.4581407227
 20
48.2870571051
 10
71.4646916818
 20
48.1515605569
 10
71.4714702744
 20
48.0175469635
 10
71.4784715783
 20
47.8851720272
 10
71.4856868721
 20
47.7546416179
 10
71.4931095324
 20
47.6260992049
 10
71.5007244096
 20
47.4998088878
 10
71.5085175128
 20
47.3759780797
 10
71.5164729781
 20
47.254810294
 10
71.5245742918
 20
47.1364859061
 10
71.5328041585
 20
47.021165241
 10
71.5411436654
 20
46.909000732
 10
71.5495766034
 20
46.8000812796
 10
71.5580791665
 20
46.6945668906
 10
71.5666520908
 20
46.5922976357
 10
71.5752878435
 20
46.4932204598
 10
71.5839910125
 20
46.3971493824
 10
71.5927642111
 20
46.3039361861
 10
71.601612414
 20
46.2134212871
 10
71.6105411792
 20
46.1254530868
 10
71.619558507
 20
46.03987041
 10
71.6286753781
 20
45.9564995916
 10
71.6378962418
 20
45.8752404189
 10
71.6472350393
 20
45.7959197621
 10
71.6566807129
 20
45.7185827155
 10
71.6662299985
 20
45.6432000347
 10
71.6758735217
 20
45.5697842943
 10
71.6855972696
 20
45.4983714627
 10
71.6954090911
 20
45.4288313968
 10
71.7053029901
 20
45.361136059
 10
71.715307485
 20
45.2950283385
 10
71.7254428828
 20
45.2303288306
 10
71.7357367038
 20
45.1668311087
 10
71.7462223623
 20
45.1043148291
 10
71.7569135738
 20
45.0426947407
 10
71.7678390289
 20
44.9818100438
 10
71.7789936321
 20
44.921695464
 10
71.7903816389
 20
44.8623294502
 10
71.8020000961
 20
44.8037250357
 10
71.8138455169
 20
44.7458921495
 10
71.8259161606
 20
44.6888273063
 10
71.8382008388
 20
44.6325662057
 10
71.8507155139
 20
44.577017837
 10
71.863465684
 20
44.5221428286
 10
71.8764691033
 20
44.4678528379
 10
71.8897343542
 20
44.4141035965
 10
71.903295358
 20
44.3607552149
 10
71.9171753529
 20
44.3077217393
 10
71.9314232605
 20
44.2548310926
 10
71.9460842029
 20
44.201942505
 10
71.961209128
 20
44.1489098561
 10
71.9768591298
 20
44.0955687575
 10
71.9930683356
 20
44.0418613122
 10
72.0098805479
 20
43.9877060931
 10
72.0273409979
 20
43.9330273081
 10
72.0454784747
 20
43.8778083576
 10
72.0644004447
 20
43.8218066591
 10
72.0841923477
 20
43.7648711186
 10
72.1049871077
 20
43.7067399525
 10
72.1269424795
 20
43.6471188511
 10
72.1501249936
 20
43.5859904408
 10
72.1746533929
 20
43.523215618
 10
72.2005621098
 20
43.4588863891
 10
72.2279119087
 20
43.3930306902
 10
72.2567511383
 20
43.3257107259
 10
72.2871336581
 20
43.2569780028
 10
72.31910626
 20
43.186902024
 10
72.3527041674
 20
43.1155769024
 10
72.3880136848
 20
43.0429905735
 10
72.4251013195
 20
42.9691801862
 10
72.4640729628
 20
42.8941129643
 10
72.5050298285
 20
42.817778755
 10
72.5480746679
 20
42.7401766828
 10
72.5932933766
 20
42.6613463566
 10
72.6408594855
 20
42.5811891756
 10
72.6908559585
 20
42.4997777275
 10
72.7436877057
 20
42.4166918415
 10
72.7997132692
 20
42.3316546199
 10
72.8593001101
 20
42.2444373633
 10
72.9231205525
 20
42.154450058
 10
72.9907729799
 20
42.0626546762
 10
73.062264139
 20
41.9693856607
 10
73.1368673592
 20
41.8758606048
 10
73.2137498246
 20
41.7832619025
 10
73.2928346103
 20
41.6917479519
 10
73.3736465323
 20
41.601895324
 10
73.4563753963
 20
41.513502082
 10
73.5410454695
 20
41.4265678301
 10
73.6276912725
 20
41.3410879151
 10
73.7163828128
 20
41.2570315589
 10
73.8070516002
 20
41.1745031429
 10
73.8996792008
 20
41.0935552271
 10
73.9941667843
 20
41.0143052196
 10
74.0904249011
 20
40.9368513417
 10
74.1883736122
 20
40.8612750323
 10
74.2879054629
 20
40.7876700283
 10
74.3889857794
 20
40.7160692222
 10
74.4915527548
 20
40.6465225623
 10
74.5955685364
 20
40.5790608055
 10
74.7009876822
 20
40.5137183074
 10
74.8077645195
 20
40.4505278057
 10
74.9158520219
 20
40.3895211337
 10
75.0252028326
 20
40.3307286194
 10
75.1357684761
 20
40.2741795444
 10
75.2474999035
 20
40.2199018432
 10
75.3603471851
 20
40.1679222662
 10
75.4742596543
 20
40.1182662987
 10
75.5891858403
 20
40.0709581815
 10
75.7050739051
 20
40.0260207284
 10
75.8218709553
 20
39.9834755978
 10
75.9395249039
 20
39.9433426233
 10
76.0579815258
 20
39.9056408709
 10
76.1771911776
 20
39.8703865406
 10
76.2971022245
 20
39.837595251
 10
76.4176640736
 20
39.8072811283
 10
76.5388254352
 20
39.779457336
 10
76.6605348509
 20
39.7541359268
 10
76.782740516
 20
39.7313278845
 10
76.905390584
 20
39.7110430658
 10
77.0284328685
 20
39.6932902588
 10
77.1518153053
 20
39.6780771155
 10
77.2754855804
 20
39.6654102161
 10
77.3993912889
 20
39.6552950473
 10
77.523479895
 20
39.6477360062
 10
77.6476988053
 20
39.6427363956
 10
77.7719953958
 20
39.6402984245
 10
77.8281037588
 20
39.6400374079
  0
LINE
  5
2BB
100
AcDbEntity
  8
0
100
AcDbLine
 62
7
  6
CONTINUOUS
 10
75.8952679798
 20
60.1400374065
 11
75.8952679798
 21
45.6400374065
  0
LINE
  5
2BC
100
AcDbEntity
  8
0
100
AcDbLine
 62
7
  6
CONTINUOUS
 10
110.8952680798
 20
15.442962815
 11
160.8952680798
 21
15.442962815
  0
LINE
  5
2BD
100
AcDbEntity
  8
0
100
AcDbLine
 62
7
  6
CONTINUOUS
 10
105.8952680798
 20
19.4293224299
 11
105.8952680798
 21
39.6400374065
  0
LINE
  5
2BE
100
AcDbEntity
  8
0
100
AcDbLine
 62
7
  6
CONTINUOUS
 10
105.8952680798
 20
66.1400374065
 11
105.8952680798
 21
86.3507523831
  0
LINE
  5
2BF
100
AcDbEntity
  8
0
100
AcDbLine
 62
7
  6
CONTINUOUS
 10
125.5022891636
 20
69.2208714948
 11
124.6937786217
 21
68.6271214948
  0
LINE
  5
2C0
100
AcDbEntity
  8
0
100
AcDbLine
 62
7
  6
CONTINUOUS
 10
124.0873957153
 20
67.8354533182
 11
123.8852680798
 21
66.8458714948
  0
LINE
  5
2C1
100
AcDbEntity
  8
0
100
AcDbLine
 62
7
  6
CONTINUOUS
 10
125.3001615282
 20
67.6375374065
 11
125.0980338927
 21
67.0437874065
  0
LINE
  5
2C2
100
AcDbEntity
  8
0
100
AcDbLine
 62
7
  6
CONTINUOUS
 10
124.6937786217
 20
68.6271214948
 11
124.0873957153
 21
67.8354533182
  0
LINE
  5
2C3
100
AcDbEntity
  8
0
100
AcDbLine
 62
7
  6
CONTINUOUS
 10
125.7044167991
 20
68.0333714948
 11
125.3001615282
 21
67.6375374065
  0
LINE
  5
2C4
100
AcDbEntity
  8
0
100
AcDbLine
 62
7
  6
CONTINUOUS
 10
129.342714804
 20
69.6167033182
 11
128.5342042621
 21
68.8250374065
  0
LINE
  5
2C5
100
AcDbEntity
  8
0
100
AcDbLine
 62
7
  6
CONTINUOUS
 10
130.3533532645
 20
68.8250374065
 11
129.7469700749
 21
68.4292033182
  0
LINE
  5
2C6
100
AcDbEntity
  8
0
100
AcDbLine
 62
7
  6
CONTINUOUS
 10
126.1086720701
 20
68.2312874065
 11
125.7044167991
 21
68.0333714948
  0
LINE
  5
2C7
100
AcDbEntity
  8
0
100
AcDbLine
 62
7
  6
CONTINUOUS
 10
130.151225629
 20
70.0125374065
 11
129.342714804
 21
69.6167033182
  0
LINE
  5
2C8
100
AcDbEntity
  8
0
100
AcDbLine
 62
7
  6
CONTINUOUS
 10
126.1086720701
 20
69.4187874065
 11
125.5022891636
 21
69.2208714948
  0
LINE
  5
2C9
100
AcDbEntity
  8
0
100
AcDbLine
 62
7
  6
CONTINUOUS
 10
123.8852680798
 20
66.8458714948
 11
123.8852680798
 21
66.1400374065
  0
LINE
  5
2CA
100
AcDbEntity
  8
0
100
AcDbLine
 62
7
  6
CONTINUOUS
 10
123.8852680798
 20
36.7625374065
 11
123.8852680798
 21
35.5750374065
  0
LINE
  5
2CB
100
AcDbEntity
  8
0
100
AcDbLine
 62
7
  6
CONTINUOUS
 10
125.0980338927
 20
67.0437874065
 11
125.0980338927
 21
66.1400374065
  0
LINE
  5
2CC
100
AcDbEntity
  8
0
100
AcDbLine
 62
7
  6
CONTINUOUS
 10
126.1086720701
 20
69.4187874065
 11
126.1086720701
 21
68.2312874065
  0
LINE
  5
2CD
100
AcDbEntity
  8
0
100
AcDbLine
 62
7
  6
CONTINUOUS
 10
128.1299489911
 20
68.0333714948
 11
127.9278213556
 21
67.0437874065
  0
LINE
  5
2CE
100
AcDbEntity
  8
0
100
AcDbLine
 62
7
  6
CONTINUOUS
 10
129.342714804
 20
67.8354533182
 11
129.1405871685
 21
67.0437874065
  0
LINE
  5
2CF
100
AcDbEntity
  8
0
100
AcDbLine
 62
7
  6
CONTINUOUS
 10
128.5342042621
 20
68.8250374065
 11
128.1299489911
 21
68.0333714948
  0
LINE
  5
2D0
100
AcDbEntity
  8
0
100
AcDbLine
 62
7
  6
CONTINUOUS
 10
129.7469700749
 20
68.4292033182
 11
129.342714804
 21
67.8354533182
  0
LWPOLYLINE
  5
2D1
100
AcDbEntity
  8
BEZUGSACHSEN
100
AcDbPolyline
 62
7
  6
CONTINUOUS
 90
157
 70
0
 10
193.9624324008
 20
39.6400374079
 10
194.0185391444
 20
39.6402984095
 10
194.142834114
 20
39.6427362987
 10
194.2670514036
 20
39.6477357604
 10
194.391138392
 20
39.6552945855
 10
194.5150424882
 20
39.6654094716
 10
194.638711159
 20
39.6780760213
 10
194.7620920018
 20
39.6932887486
 10
194.8851327052
 20
39.7110410733
 10
195.0077812076
 20
39.7313253439
 10
195.1299853249
 20
39.7541327729
 10
195.2516932133
 20
39.7794535042
 10
195.3728530705
 20
39.8072765548
 10
195.49341344
 20
39.8375898727
 10
195.6133230347
 20
39.8703802952
 10
195.7325312623
 20
39.9056336967
 10
195.8509864946
 20
39.9433344607
 10
195.9686390947
 20
39.9834663904
 10
196.085434838
 20
40.0260104206
 10
196.2013216413
 20
40.0709467203
 10
196.3162466066
 20
40.1182536299
 10
196.4301578934
 20
40.1679083354
 10
196.5430040288
 20
40.2198865951
 10
196.6547343441
 20
40.2741629229
 10
196.7652989072
 20
40.3307105669
 10
196.874648665
 20
40.3895015898
 10
196.982735147
 20
40.4505067117
 10
197.089510999
 20
40.5136956056
 10
197.1949291975
 20
40.5790364393
 10
197.2989440719
 20
40.6464964761
 10
197.4015101843
 20
40.7160413624
 10
197.5025896443
 20
40.7876403138
 10
197.6021207718
 20
40.8612434738
 10
197.7000690063
 20
40.9368180473
 10
197.7963268645
 20
41.0142702944
 10
197.8908144567
 20
41.0935188374
 10
197.9834422028
 20
41.174465364
 10
198.074111294
 20
41.2569924991
 10
198.1628029197
 20
41.3410473332
 10
198.2494482162
 20
41.4265250816
 10
198.334117328
 20
41.5134565874
 10
198.4168446204
 20
41.6018462687
 10
198.4976548792
 20
41.6916950165
 10
198.5767375001
 20
41.7832042495
 10
198.6536197692
 20
41.8758003553
 10
198.7282274021
 20
41.969328592
 10
198.7997256716
 20
42.0626047599
 10
198.8673882779
 20
42.1544122467
 10
198.9312180984
 20
42.2444115655
 10
198.9908097675
 20
42.3316350545
 10
199.0468372121
 20
42.4166744687
 10
199.0996676108
 20
42.4997575757
 10
199.1496613129
 20
42.5811637256
 10
199.1972246511
 20
42.6613152738
 10
199.2424407861
 20
42.7401399705
 10
199.2854840226
 20
42.8177378572
 10
199.3264396663
 20
42.8940683748
 10
199.3654102335
 20
42.9691320023
 10
199.4024967762
 20
43.0429385876
 10
199.4378048841
 20
43.1155202658
 10
199.4714013511
 20
43.1868404365
 10
199.5033725777
 20
43.2569113628
 10
199.5337539788
 20
43.325639381
 10
199.5625925156
 20
43.392955441
 10
199.5899421088
 20
43.4588082782
 10
199.6158512095
 20
43.5231360566
 10
199.6403805709
 20
43.585910949
 10
199.6635648475
 20
43.6470416865
 10
199.6855221694
 20
43.7066658742
 10
199.7063186243
 20
43.7647996834
 10
199.7261118954
 20
43.8217371512
 10
199.745034595
 20
43.8777390429
 10
199.7631725295
 20
43.9329574235
 10
199.7806333699
 20
43.9876354488
 10
199.797445981
 20
44.0417899499
 10
199.8136557698
 20
44.0954973108
 10
199.8293063883
 20
44.1488384915
 10
199.8444319012
 20
44.2018711773
 10
199.85909335
 20
44.2547595557
 10
199.8733416005
 20
44.3076494093
 10
199.8872218317
 20
44.360681673
 10
199.900782962
 20
44.4140283697
 10
199.9140483176
 20
44.4677757717
 10
199.9270518892
 20
44.5220640484
 10
199.9398022774
 20
44.5769375613
 10
199.9523172686
 20
44.6324848218
 10
199.9646023697
 20
44.6887452836
 10
199.9766735731
 20
44.7458101485
 10
199.988519651
 20
44.8036435945
 10
200.0001388521
 20
44.8622491092
 10
200.0115276459
 20
44.9216165902
 10
200.022683048
 20
44.9817328713
 10
200.0336092858
 20
45.0426193672
 10
200.0443012363
 20
45.1042411995
 10
200.0547875737
 20
45.166759054
 10
200.0650819783
 20
45.2302579356
 10
200.075217904
 20
45.2949583929
 10
200.0852228884
 20
45.3610669355
 10
200.0951172618
 20
45.4287631133
 10
200.1049295637
 20
45.4983041835
 10
200.1146538128
 20
45.5697183128
 10
200.1242978847
 20
45.6431358797
 10
200.1338477453
 20
45.7185208043
 10
200.1432940127
 20
45.7958604947
 10
200.1526334128
 20
45.8751841426
 10
200.1618548754
 20
45.9564465759
 10
200.1709723442
 20
46.0398209585
 10
200.1799902635
 20
46.1254074789
 10
200.1889196223
 20
46.2133798951
 10
200.1977684246
 20
46.3038994516
 10
200.2065422319
 20
46.397117815
 10
200.2152460219
 20
46.4931946442
 10
200.2238824096
 20
46.5922782268
 10
200.2324559902
 20
46.69455469
 10
200.2409592145
 20
46.8000769538
 10
200.2493928143
 20
46.9090049506
 10
200.2577329567
 20
47.0211783593
 10
200.2659634131
 20
47.1365080111
 10
200.2740652547
 20
47.2548412128
 10
200.2820211713
 20
47.3760173504
 10
200.2898146366
 20
47.499855744
 10
200.2974297742
 20
47.6261525348
 10
200.3048525876
 20
47.7547000277
 10
200.3120679117
 20
47.885233618
 10
200.3190691495
 20
48.0176100727
 10
200.3258475897
 20
48.1516234825
 10
200.3323983394
 20
48.2871185252
 10
200.3387163004
 20
48.423915269
 10
200.3447968262
 20
48.5618209391
 10
200.3506356461
 20
48.7006265035
 10
200.356230576
 20
48.8401482687
 10
200.3615767171
 20
48.9801080345
 10
200.3666817733
 20
49.1205416415
 10
200.3715485845
 20
49.2613664241
 10
200.3761853699
 20
49.402667139
 10
200.3805981602
 20
49.5444921571
 10
200.3847922952
 20
49.6868933013
 10
200.3887726058
 20
49.8299306938
 10
200.3925427676
 20
49.9736494347
 10
200.3961069931
 20
50.1181426983
 10
200.3994650042
 20
50.2633427869
 10
200.4026179475
 20
50.4092447654
 10
200.4055649961
 20
50.5557546333
 10
200.4083057728
 20
50.7027889388
 10
200.4108408188
 20
50.8503064824
 10
200.4131702672
 20
50.9982424331
 10
200.4152950598
 20
51.1465834577
 10
200.4172158123
 20
51.2953053625
 10
200.4189329467
 20
51.4443779023
 10
200.4204468837
 20
51.593778708
 10
200.4217577055
 20
51.7434609482
 10
200.4228655686
 20
51.8933852631
 10
200.423770561
 20
52.0435071891
 10
200.4244727795
 20
52.1937822813
 10
200.4249723232
 20
52.3441706077
 10
200.4252692732
 20
52.4946375043
 10
200.4253637953
 20
52.6400374065
  0
LINE
  5
2D2
100
AcDbEntity
  8
0
100
AcDbLine
 62
7
  6
CONTINUOUS
 10
190.2894786298
 20
39.1400374065
 11
182.3552680798
 21
39.1400374065
  0
LINE
  5
2D3
100
AcDbEntity
  8
RUNDUNGEN
100
AcDbLine
 62
7
  6
CONTINUOUS
 10
134.1429807721
 20
39.6400374065
 11
77.8281033231
 21
39.6400374065
  0
LINE
  5
2D4
100
AcDbEntity
  8
BEZUGSACHSEN
100
AcDbLine
 62
7
  6
CONTINUOUS
 10
134.1429807721
 20
39.6400374065
 11
193.9624328365
 21
39.6400374065
  0
LINE
  5
2D5
100
AcDbEntity
  8
0
100
AcDbLine
 62
7
  6
CONTINUOUS
 10
131.8534744765
 20
39.6400374065
 11
132.1725021254
 21
39.5333706454
  0
LINE
  5
2D6
100
AcDbEntity
  8
0
100
AcDbLine
 62
7
  6
CONTINUOUS
 10
127.9278213556
 20
67.0437874065
 11
127.9278213556
 21
66.1400374065
  0
LINE
  5
2D7
100
AcDbEntity
  8
0
100
AcDbLine
 62
7
  6
CONTINUOUS
 10
129.1405871685
 20
67.0437874065
 11
129.1405871685
 21
66.1400374065
  0
LINE
  5
2D8
100
AcDbEntity
  8
0
100
AcDbLine
 62
7
  6
CONTINUOUS
 10
132.1725021254
 20
67.0437874065
 11
132.1725021254
 21
66.1400374065
  0
LINE
  5
2D9
100
AcDbEntity
  8
0
100
AcDbLine
 62
7
  6
CONTINUOUS
 10
133.3852680798
 20
67.0437874065
 11
133.3852680798
 21
66.1400374065
  0
LINE
  5
2DA
100
AcDbEntity
  8
0
100
AcDbLine
 62
7
  6
CONTINUOUS
 10
133.3852680798
 20
39.6400374065
 11
133.3852680798
 21
38.7417041675
  0
LINE
  5
2DB
100
AcDbEntity
  8
0
100
AcDbLine
 62
7
  6
CONTINUOUS
 10
131.9703744899
 20
67.8354533182
 11
132.1725021254
 21
67.0437874065
  0
LINE
  5
2DC
100
AcDbEntity
  8
0
100
AcDbLine
 62
7
  6
CONTINUOUS
 10
133.1831404266
 20
68.0333714948
 11
133.3852680798
 21
67.0437874065
  0
LINE
  5
2DD
100
AcDbEntity
  8
0
100
AcDbLine
 62
7
  6
CONTINUOUS
 10
131.5661190774
 20
68.4292033182
 11
131.9703744899
 21
67.8354533182
  0
LINE
  5
2DE
100
AcDbEntity
  8
0
100
AcDbLine
 62
7
  6
CONTINUOUS
 10
132.7788851026
 20
68.8250374065
 11
133.1831404266
 21
68.0333714948
  0
LINE
  5
2DF
100
AcDbEntity
  8
0
100
AcDbLine
 62
7
  6
CONTINUOUS
 10
131.9703744899
 20
69.6167033182
 11
132.7788851026
 21
68.8250374065
  0
LINE
  5
2E0
100
AcDbEntity
  8
0
100
AcDbLine
 62
7
  6
CONTINUOUS
 10
132.1725021254
 20
39.5333706454
 11
123.8852680798
 21
36.7625374065
  0
LINE
  5
2E1
100
AcDbEntity
  8
0
100
AcDbLine
 62
7
  6
CONTINUOUS
 10
133.3852680798
 20
38.7417041675
 11
123.8852680798
 21
35.5750374065
  0
LWPOLYLINE
  5
2E2
100
AcDbEntity
  8
BEZUGSACHSEN
100
AcDbPolyline
 62
7
  6
CONTINUOUS
 90
157
 70
0
 10
77.8281037588
 20
66.1400374051
 10
77.7719970152
 20
66.1397764035
 10
77.6477020456
 20
66.1373385143
 10
77.523484756
 20
66.1323390526
 10
77.3993977676
 20
66.1247802274
 10
77.2754936714
 20
66.1146653414
 10
77.1518250006
 20
66.1019987916
 10
77.0284441578
 20
66.0867860644
 10
76.9054034544
 20
66.0690337397
 10
76.782754952
 20
66.0487494691
 10
76.6605508347
 20
66.0259420401
 10
76.5388429463
 20
66.0006213088
 10
76.4176830891
 20
65.9727982582
 10
76.2971227196
 20
65.9424849403
 10
76.1772131249
 20
65.9096945178
 10
76.0580048973
 20
65.8744411163
 10
75.939549665
 20
65.8367403522
 10
75.8218970649
 20
65.7966084226
 10
75.7051013216
 20
65.7540643923
 10
75.5892145183
 20
65.7091280927
 10
75.474289553
 20
65.661821183
 10
75.3603782662
 20
65.6121664775
 10
75.2475321308
 20
65.5601882178
 10
75.1358018155
 20
65.5059118901
 10
75.0252372524
 20
65.449364246
 10
74.9158874946
 20
65.3905732232
 10
74.8078010126
 20
65.3295681013
 10
74.7010251606
 20
65.2663792073
 10
74.5956069621
 20
65.2010383736
 10
74.4915920877
 20
65.1335783368
 10
74.3890259753
 20
65.0640334505
 10
74.2879465153
 20
64.9924344992
 10
74.1884153878
 20
64.9188313391
 10
74.0904671533
 20
64.8432567657
 10
73.9942092951
 20
64.7658045186
 10
73.8997217029
 20
64.6865559756
 10
73.8070939568
 20
64.6056094489
 10
73.7164248656
 20
64.5230823139
 10
73.6277332399
 20
64.4390274797
 10
73.5410879434
 20
64.3535497313
 10
73.4564188316
 20
64.2666182255
 10
73.3736915392
 20
64.1782285442
 10
73.2928812804
 20
64.0883797965
 10
73.2137986595
 20
63.9968705635
 10
73.1369163904
 20
63.9042744577
 10
73.0623087574
 20
63.810746221
 10
72.990810488
 20
63.717470053
 10
72.9231478817
 20
63.6256625663
 10
72.8593180612
 20
63.5356632475
 10
72.7997263921
 20
63.4484397585
 10
72.7436989475
 20
63.3634003443
 10
72.6908685488
 20
63.2803172373
 10
72.6408748467
 20
63.1989110873
 10
72.5933115085
 20
63.1187595391
 10
72.5480953735
 20
63.0399348424
 10
72.505052137
 20
62.9623369558
 10
72.4640964933
 20
62.8860064382
 10
72.4251259261
 20
62.8109428107
 10
72.3880393834
 20
62.7371362254
 10
72.3527312755
 20
62.6645545472
 10
72.3191348085
 20
62.5932343765
 10
72.2871635819
 20
62.5231634502
 10
72.2567821808
 20
62.454435432
 10
72.227943644
 20
62.3871193719
 10
72.2005940508
 20
62.3212665348
 10
72.1746849501
 20
62.2569387564
 10
72.1501555887
 20
62.1941638639
 10
72.1269713121
 20
62.1330331265
 10
72.1050139902
 20
62.0734089388
 10
72.0842175353
 20
62.0152751295
 10
72.0644242642
 20
61.9583376618
 10
72.0455015646
 20
61.90233577
 10
72.0273636301
 20
61.8471173894
 10
72.0099027897
 20
61.7924393642
 10
71.9930901786
 20
61.7382848631
 10
71.9768803898
 20
61.6845775022
 10
71.9612297713
 20
61.6312363215
 10
71.9461042584
 20
61.5782036357
 10
71.9314428096
 20
61.5253152573
 10
71.9171945591
 20
61.4724254037
 10
71.9033143279
 20
61.4193931399
 10
71.8897531976
 20
61.3660464432
 10
71.876487842
 20
61.3122990413
 10
71.8634842704
 20
61.2580107645
 10
71.8507338822
 20
61.2031372517
 10
71.838218891
 20
61.1475899912
 10
71.8259337899
 20
61.0913295294
 10
71.8138625865
 20
61.0342646645
 10
71.8020165086
 20
60.9764312185
 10
71.7903973075
 20
60.9178257037
 10
71.7790085137
 20
60.8584582227
 10
71.7678531116
 20
60.7983419417
 10
71.7569268738
 20
60.7374554458
 10
71.7462349233
 20
60.6758336135
 10
71.7357485859
 20
60.613315759
 10
71.7254541813
 20
60.5498168774
 10
71.7153182556
 20
60.4851164201
 10
71.7053132712
 20
60.4190078775
 10
71.6954188978
 20
60.3513116996
 10
71.6856065959
 20
60.2817706295
 10
71.6758823468
 20
60.2103565001
 10
71.6662382749
 20
60.1369389333
 10
71.6566884143
 20
60.0615540086
 10
71.6472421469
 20
59.9842143182
 10
71.6379027468
 20
59.9048906704
 10
71.6286812842
 20
59.8236282371
 10
71.6195638154
 20
59.7402538544
 10
71.6105458961
 20
59.654667334
 10
71.6016165373
 20
59.5666949178
 10
71.592767735
 20
59.4761753614
 10
71.5839939277
 20
59.382956998
 10
71.5752901377
 20
59.2868801687
 10
71.56665375
 20
59.1877965862
 10
71.5580801694
 20
59.085520123
 10
71.5495769451
 20
58.9799978592
 10
71.5411433453
 20
58.8710698623
 10
71.5328032029
 20
58.7588964537
 10
71.5245727465
 20
58.6435668018
 10
71.516470905
 20
58.5252336002
 10
71.5085149883
 20
58.4040574626
 10
71.500721523
 20
58.280219069
 10
71.4931063854
 20
58.1539222782
 10
71.485683572
 20
58.0253747853
 10
71.4784682479
 20
57.8948411949
 10
71.4714670101
 20
57.7624647403
 10
71.4646885699
 20
57.6284513304
 10
71.4581378202
 20
57.4929562878
 10
71.4518198592
 20
57.3561595439
 10
71.4457393334
 20
57.2182538738
 10
71.4399005135
 20
57.0794483095
 10
71.4343055836
 20
56.9399265443
 10
71.4289594425
 20
56.7999667784
 10
71.4238543863
 20
56.6595331715
 10
71.4189875751
 20
56.5187083889
 10
71.4143507897
 20
56.377407674
 10
71.4099379994
 20
56.2355826559
 10
71.4057438644
 20
56.0931815117
 10
71.4017635538
 20
55.9501441192
 10
71.397993392
 20
55.8064253783
 10
71.3944291665
 20
55.6619321147
 10
71.3910711554
 20
55.5167320261
 10
71.3879182121
 20
55.3708300476
 10
71.3849711635
 20
55.2243201797
 10
71.3822303868
 20
55.0772858742
 10
71.3796953408
 20
54.9297683305
 10
71.3773658924
 20
54.7818323799
 10
71.3752410998
 20
54.6334913553
 10
71.3733203473
 20
54.4847694505
 10
71.3716032129
 20
54.3356969107
 10
71.3700892759
 20
54.186296105
 10
71.3687784541
 20
54.0366138648
 10
71.367670591
 20
53.8866895499
 10
71.3667655986
 20
53.7365676239
 10
71.3660633801
 20
53.5862925317
 10
71.3655638364
 20
53.4359042052
 10
71.3652668864
 20
53.2854373087
 10
71.3651723642
 20
52.6400374065
  0
LINE
  5
2E3
100
AcDbEntity
  8
BEZUGSACHSEN
100
AcDbLine
 62
7
  6
CONTINUOUS
 10
77.8281033231
 20
66.1400374065
 11
193.9624329287
 21
66.1400374065
  0
LINE
  5
2E4
100
AcDbEntity
  8
0
100
AcDbLine
 62
7
  6
CONTINUOUS
 10
131.1618638064
 20
70.0125374065
 11
131.9703744899
 21
69.6167033182
  0
LINE
  5
2E5
100
AcDbEntity
  8
0
100
AcDbLine
 62
7
  6
CONTINUOUS
 10
130.9597361709
 20
68.8250374065
 11
131.5661190774
 21
68.4292033182
  0
LINE
  5
2E6
100
AcDbEntity
  8
0
100
AcDbLine
 62
7
  6
CONTINUOUS
 10
130.3533532645
 20
68.8250374065
 11
130.9597361709
 21
68.8250374065
  0
LINE
  5
2E7
100
AcDbEntity
  8
0
100
AcDbLine
 62
7
  6
CONTINUOUS
 10
130.151225629
 20
70.0125374065
 11
131.1618638064
 21
70.0125374065
  0
LINE
  5
2E8
100
AcDbEntity
  8
0
100
AcDbLine
 62
7
  6
CONTINUOUS
 10
165.8952680798
 20
86.3507517774
 11
165.8952680798
 21
66.1400374065
  0
LINE
  5
2E9
100
AcDbEntity
  8
0
100
AcDbLine
 62
7
  6
CONTINUOUS
 10
165.8952680798
 20
39.6400374065
 11
165.8952680798
 21
19.4293230356
  0
LINE
  5
2EA
100
AcDbEntity
  8
KONSTRUKTIONSELEMENTE
100
AcDbLine
 62
7
  6
CONTINUOUS
 10
110.8952680798
 20
90.3371119979
 11
160.8952680798
 21
90.3371119979
  0
LINE
  5
2EB
100
AcDbEntity
  8
0
100
AcDbLine
 62
7
  6
CONTINUOUS
 10
182.3552680798
 20
39.6400374065
 11
182.3552680798
 21
39.1400374065
  0
LINE
  5
2EC
100
AcDbEntity
  8
0
100
AcDbLine
 62
7
  6
CONTINUOUS
 10
188.1736891498
 20
39.6400374065
 11
188.1736891498
 21
39.1400374065
  0
LINE
  5
2ED
100
AcDbEntity
  8
0
100
AcDbLine
 62
7
  6
CONTINUOUS
 10
188.9671102048
 20
39.6400374065
 11
188.9671102048
 21
39.1400374065
  0
LINE
  5
2EE
100
AcDbEntity
  8
0
100
AcDbLine
 62
7
  6
CONTINUOUS
 10
190.2894786298
 20
39.6400374065
 11
190.2894786298
 21
39.1400374065
  0
LINE
  5
2EF
100
AcDbEntity
  8
BEZUGSACHSEN
100
AcDbLine
 62
7
  6
CONTINUOUS
 10
195.8952681798
 20
45.6400374065
 11
195.8952681798
 21
60.1400374065
  0
LWPOLYLINE
  5
2F0
100
AcDbEntity
  8
BEZUGSACHSEN
100
AcDbPolyline
 62
7
  6
CONTINUOUS
 90
156
 70
0
 10
200.4252692706
 20
53.2854392672
 10
200.4249723129
 20
53.4359081309
 10
200.424472756
 20
53.5862984328
 10
200.4237705188
 20
53.7365755008
 10
200.4228655025
 20
53.8866993969
 10
200.4217576102
 20
54.03662567
 10
200.4204467539
 20
54.1863098492
 10
200.4189327772
 20
54.335712573
 10
200.4172155979
 20
54.4847869993
 10
200.4152947953
 20
54.6335107795
 10
200.413169947
 20
54.7818536798
 10
200.410840437
 20
54.9297915213
 10
200.4083053227
 20
55.0773110088
 10
200.4055644716
 20
55.2243472517
 10
200.4026173429
 20
55.3708590336
 10
200.3994643155
 20
55.5167628166
 10
200.3961062194
 20
55.6619644971
 10
200.3925419074
 20
55.8064591843
 10
200.3887716595
 20
55.9501791338
 10
200.3847912592
 20
56.0932176912
 10
200.3805970275
 20
56.2356200647
 10
200.3761841292
 20
56.3774464983
 10
200.3715472191
 20
56.5187489282
 10
200.3666802611
 20
56.6595758297
 10
200.3615750263
 20
56.8000121495
 10
200.3562286777
 20
56.939975044
 10
200.3506335063
 20
57.0795004055
 10
200.3447944286
 20
57.2183095429
 10
200.3387136425
 20
57.3562184383
 10
200.3323954369
 20
57.4930177079
 10
200.3258444778
 20
57.6285142561
 10
200.3190658852
 20
57.7625278495
 10
200.3120645813
 20
57.8949027857
 10
200.3048492875
 20
58.0254331951
 10
200.2974266272
 20
58.1539756081
 10
200.28981175
 20
58.2802659252
 10
200.2820186468
 20
58.4040967332
 10
200.2740631815
 20
58.525264519
 10
200.2659618678
 20
58.6435889068
 10
200.2577320011
 20
58.758909572
 10
200.2493924942
 20
58.8710740809
 10
200.2409595562
 20
58.9799935334
 10
200.2324569931
 20
59.0855079224
 10
200.2238840688
 20
59.1877771773
 10
200.2152483161
 20
59.2868543531
 10
200.2065451471
 20
59.3829254306
 10
200.1977719485
 20
59.4761386269
 10
200.1889237456
 20
59.5666535259
 10
200.1799949804
 20
59.6546217261
 10
200.1709776527
 20
59.740204403
 10
200.1618607815
 20
59.8235752214
 10
200.1526399178
 20
59.9048343941
 10
200.1433011203
 20
59.9841550509
 10
200.1338554467
 20
60.0614920975
 10
200.1243061611
 20
60.1368747782
 10
200.1146626379
 20
60.2102905187
 10
200.10493889
 20
60.2817033503
 10
200.0951270685
 20
60.3512434161
 10
200.0852331695
 20
60.418938754
 10
200.0752286746
 20
60.4850464744
 10
200.0650932768
 20
60.5497459824
 10
200.0547994558
 20
60.6132437042
 10
200.0443137974
 20
60.6757599838
 10
200.0336225858
 20
60.7373800722
 10
200.0226971307
 20
60.7982647692
 10
200.0115425275
 20
60.858379349
 10
200.0001545207
 20
60.9177453628
 10
199.9885360635
 20
60.9763497773
 10
199.9766906427
 20
61.0341826634
 10
199.9646199991
 20
61.0912475066
 10
199.9523353208
 20
61.1475086072
 10
199.9398206457
 20
61.2030569759
 10
199.9270704756
 20
61.2579319843
 10
199.9140670563
 20
61.312221975
 10
199.9008018054
 20
61.3659712165
 10
199.8872408016
 20
61.4193195981
 10
199.8733608067
 20
61.4723530736
 10
199.8591128991
 20
61.5252437203
 10
199.8444519567
 20
61.578132308
 10
199.8293270316
 20
61.6311649569
 10
199.8136770298
 20
61.6845060555
 10
199.797467824
 20
61.7382135007
 10
199.7806556118
 20
61.7923687198
 10
199.7631951617
 20
61.8470475048
 10
199.7450576849
 20
61.9022664553
 10
199.7261357149
 20
61.9582681539
 10
199.7063438119
 20
62.0152036944
 10
199.6855490519
 20
62.0733348604
 10
199.6635936801
 20
62.1329559618
 10
199.640411166
 20
62.1940843722
 10
199.6158827667
 20
62.256859195
 10
199.5899740498
 20
62.3211884238
 10
199.562624251
 20
62.3870441227
 10
199.5337850213
 20
62.454364087
 10
199.5034025015
 20
62.5230968102
 10
199.4714298996
 20
62.593172789
 10
199.4378319922
 20
62.6644979105
 10
199.4025224748
 20
62.7370842394
 10
199.3654348401
 20
62.8108946268
 10
199.3264631968
 20
62.8859618486
 10
199.2855063311
 20
62.962296058
 10
199.2424614917
 20
63.0398981302
 10
199.197242783
 20
63.1187284564
 10
199.1496766741
 20
63.1988856374
 10
199.0996802011
 20
63.2802970855
 10
199.0468484539
 20
63.3633829714
 10
198.9908228904
 20
63.448420193
 10
198.9312360495
 20
63.5356374497
 10
198.8674156071
 20
63.625624755
 10
198.7997631797
 20
63.7174201368
 10
198.7282720206
 20
63.8106891523
 10
198.6536688004
 20
63.9042142081
 10
198.576786335
 20
63.9968129104
 10
198.4977015493
 20
64.088326861
 10
198.4168896273
 20
64.1781794889
 10
198.3341607633
 20
64.266572731
 10
198.2494906901
 20
64.3535069828
 10
198.1628448871
 20
64.4389868979
 10
198.0741533468
 20
64.5230432541
 10
197.9834845594
 20
64.6055716701
 10
197.8908569589
 20
64.6865195859
 10
197.7963693753
 20
64.7657695933
 10
197.7001112585
 20
64.8432234713
 10
197.6021625474
 20
64.9187997806
 10
197.5026306967
 20
64.9924047847
 10
197.4015503802
 20
65.0640055908
 10
197.2989834048
 20
65.1335522506
 10
197.1949676232
 20
65.2010140075
 10
197.0895484774
 20
65.2663565056
 10
196.9827716401
 20
65.3295470073
 10
196.8746841377
 20
65.3905536792
 10
196.765333327
 20
65.4493461936
 10
196.6547676835
 20
65.5058952686
 10
196.5430362561
 20
65.5601729698
 10
196.4301889745
 20
65.6121525468
 10
196.3162765053
 20
65.6618085143
 10
196.2013503193
 20
65.7091166315
 10
196.0854622545
 20
65.7540540846
 10
195.9686652043
 20
65.7965992152
 10
195.8510112557
 20
65.8367321897
 10
195.7325546338
 20
65.874433942
 10
195.6133449821
 20
65.9096882724
 10
195.4934339351
 20
65.942479562
 10
195.372872086
 20
65.9727936847
 10
195.2517107244
 20
66.000617477
 10
195.1300013087
 20
66.0259388862
 10
195.0077956436
 20
66.0487469285
 10
194.8851455756
 20
66.0690317472
 10
194.7621032911
 20
66.0867845541
 10
194.6387208543
 20
66.1019976975
 10
194.5150505792
 20
66.1146645968
 10
194.3911448707
 20
66.1247797657
 10
194.2670562646
 20
66.1323388067
 10
194.1428373543
 20
66.1373384173
 10
194.0185407638
 20
66.1397763884
 10
193.9624324008
 20
66.1400374051
  0
LINE
  5
2F1
100
AcDbEntity
  8
BEZUGSACHSEN
100
AcDbLine
 62
7
  6
CONTINUOUS
 10
200.4252692706
 20
53.2854392672
 11
200.4253637954
 21
52.6400374065
  0
ARC
  5
2F2
100
AcDbEntity
  8
RUNDUNGEN
100
AcDbCircle
 62
7
  6
CONTINUOUS
 10
113.3952680798
 20
170.9006379738
 40
11.0
100
AcDbArc
 50
180.0
 51
227.0131151298
  0
ARC
  5
2F3
100
AcDbEntity
  8
BEZUGSACHSEN
100
AcDbCircle
 62
7
  6
CONTINUOUS
 10
77.3651723642
 20
139.4006379738
 40
6.0
100
AcDbArc
 50
176.2264848083
 51
270.0
  0
ARC
  5
2F4
100
AcDbEntity
  8
RUNDUNGEN
100
AcDbCircle
 62
7
  6
CONTINUOUS
 10
77.3651723642
 20
139.4006379738
 40
6.0
100
AcDbArc
 50
176.2163688794
 51
270.0
  0
ARC
  5
2F5
100
AcDbEntity
  8
0
100
AcDbCircle
 62
7
  6
CONTINUOUS
 10
110.8952680798
 20
179.9006379738
 40
5.0
100
AcDbArc
 50
90.0
 51
180.0
  0
ARC
  5
2F6
100
AcDbEntity
  8
RUNDUNGEN
100
AcDbCircle
 62
7
  6
CONTINUOUS
 10
80.7049916509
 20
205.056285484
 40
5.0
100
AcDbArc
 50
169.9200000051
 51
176.2163688818
  0
ARC
  5
2F7
100
AcDbEntity
  8
RUNDUNGEN
100
AcDbCircle
 62
7
  6
CONTINUOUS
 10
107.3952680798
 20
182.3006379738
 40
5.0
100
AcDbArc
 50
90.0
 51
178.7480152516
  0
ARC
  5
2F8
100
AcDbEntity
  8
BEZUGSACHSEN
100
AcDbCircle
 62
7
  6
CONTINUOUS
 10
115.7771170713
 20
191.0506379738
 40
3.75
100
AcDbArc
 50
270.0
 51
57.3106021126
  0
ARC
  5
2F9
100
AcDbEntity
  8
RUNDUNGEN
100
AcDbCircle
 62
7
  6
CONTINUOUS
 10
115.7771170713
 20
191.0506379738
 40
3.75
100
AcDbArc
 50
270.0
 51
57.3106021126
  0
ARC
  5
2FA
100
AcDbEntity
  8
0
100
AcDbCircle
 62
7
  6
CONTINUOUS
 10
117.2913013856
 20
224.5633424776
 40
39.3227303729
100
AcDbArc
 50
272.2546958188
 51
275.1708065087
  0
ARC
  5
2FB
100
AcDbEntity
  8
0
100
AcDbCircle
 62
7
  6
CONTINUOUS
 10
117.3089247097
 20
224.4266136551
 40
39.0641434195
100
AcDbArc
 50
270.0019703346
 51
272.4302777099
  0
ARC
  5
2FC
100
AcDbEntity
  8
0
100
AcDbCircle
 62
7
  6
CONTINUOUS
 10
117.3085537697
 20
224.1986084712
 40
38.9576001069
100
AcDbArc
 50
270.0025212727
 51
272.2504457748
  0
ARC
  5
2FD
100
AcDbEntity
  8
RUNDUNGEN
100
AcDbCircle
 62
7
  6
CONTINUOUS
 10
86.4742153798
 20
222.4006379738
 40
10.5789474
100
AcDbArc
 50
157.5
 51
202.5
  0
ARC
  5
2FE
100
AcDbEntity
  8
RUNDUNGEN
100
AcDbCircle
 62
7
  6
CONTINUOUS
 10
100.9493065823
 20
257.3465994713
 40
10.5789474
100
AcDbArc
 50
112.5
 51
157.5
  0
ARC
  5
2FF
100
AcDbEntity
  8
RUNDUNGEN
100
AcDbCircle
 62
7
  6
CONTINUOUS
 10
72.4243597438
 20
215.6102385903
 40
5.0
100
AcDbArc
 50
349.92
 51
22.5
  0
ARC
  5
300
100
AcDbEntity
  8
BEZUGSACHSEN
100
AcDbCircle
 62
7
  6
CONTINUOUS
 10
158.3952680798
 20
170.9006379738
 40
11.0
100
AcDbArc
 50
312.9868848702
 51
360.0
  0
ARC
  5
301
100
AcDbEntity
  8
BEZUGSACHSEN
100
AcDbCircle
 62
7
  6
CONTINUOUS
 10
194.4253637954
 20
139.4006379738
 40
6.0
100
AcDbArc
 50
270.0
 51
3.7836311206
  0
ARC
  5
302
100
AcDbEntity
  8
0
100
AcDbCircle
 62
7
  6
CONTINUOUS
 10
160.8952680798
 20
179.9006379738
 40
5.0
100
AcDbArc
 50
0.0
 51
90.0
  0
ARC
  5
303
100
AcDbEntity
  8
BEZUGSACHSEN
100
AcDbCircle
 62
7
  6
CONTINUOUS
 10
164.3952680798
 20
182.3006379738
 40
5.0
100
AcDbArc
 50
0.0
 51
90.0
  0
ARC
  5
304
100
AcDbEntity
  8
BEZUGSACHSEN
100
AcDbCircle
 62
7
  6
CONTINUOUS
 10
191.0855445087
 20
205.056285484
 40
5.0
100
AcDbArc
 50
3.7836311182
 51
10.0799999949
  0
ARC
  5
305
100
AcDbEntity
  8
BEZUGSACHSEN
100
AcDbCircle
 62
7
  6
CONTINUOUS
 10
156.0134190883
 20
191.0506379738
 40
3.75
100
AcDbArc
 50
122.6893978874
 51
270.0
  0
ARC
  5
306
100
AcDbEntity
  8
0
100
AcDbCircle
 62
7
  6
CONTINUOUS
 10
185.5289522998
 20
184.4427432038
 40
3.17368422
100
AcDbArc
 50
90.0
 51
270.0
  0
ARC
  5
307
100
AcDbEntity
  8
0
100
AcDbCircle
 62
7
  6
CONTINUOUS
 10
185.2644786148
 20
176.1030063368
 40
2.909210535
100
AcDbArc
 50
180.0
 51
270.0
  0
ARC
  5
308
100
AcDbEntity
  8
0
100
AcDbCircle
 62
7
  6
CONTINUOUS
 10
187.3802680948
 20
176.1030063368
 40
2.909210535
100
AcDbArc
 50
270.0
 51
360.0
  0
ARC
  5
309
100
AcDbEntity
  8
0
100
AcDbCircle
 62
7
  6
CONTINUOUS
 10
187.9797417808
 20
191.5130063828
 40
2.309736849
100
AcDbArc
 50
201.1872687082
 51
360.0
  0
ARC
  5
30A
100
AcDbEntity
  8
0
100
AcDbCircle
 62
7
  6
CONTINUOUS
 10
187.3097417788
 20
176.4411641442
 40
1.657368426
100
AcDbArc
 50
270.0181949201
 51
360.0
  0
ARC
  5
30B
100
AcDbEntity
  8
0
100
AcDbCircle
 62
7
  6
CONTINUOUS
 10
185.3350049308
 20
176.4411642278
 40
1.657368426
100
AcDbArc
 50
180.0
 51
270.0
  0
ARC
  5
30C
100
AcDbEntity
  8
0
100
AcDbCircle
 62
7
  6
CONTINUOUS
 10
185.5289522998
 20
184.4427432038
 40
1.58684211
100
AcDbArc
 50
90.0
 51
270.0
  0
ARC
  5
30D
100
AcDbEntity
  8
0
100
AcDbCircle
 62
7
  6
CONTINUOUS
 10
184.3476365068
 20
192.878495676
 40
1.322368425
100
AcDbArc
 50
300.0
 51
360.0
  0
ARC
  5
30E
100
AcDbEntity
  8
0
100
AcDbCircle
 62
7
  6
CONTINUOUS
 10
187.9797417808
 20
192.0419537528
 40
0.987368424
100
AcDbArc
 50
180.0
 51
360.0
  0
ARC
  5
30F
100
AcDbEntity
  8
RUNDUNGEN
100
AcDbCircle
 62
7
  6
CONTINUOUS
 10
135.8952680798
 20
222.4006379738
 40
33.5000001
100
AcDbArc
 50
180.0
 51
237.310602548
  0
ARC
  5
310
100
AcDbEntity
  8
BEZUGSACHSEN
100
AcDbCircle
 62
7
  6
CONTINUOUS
 10
135.8952680798
 20
222.4006379738
 40
33.5000001
100
AcDbArc
 50
302.689397452
 51
180.0
  0
ARC
  5
311
100
AcDbEntity
  8
BEZUGSACHSEN
100
AcDbCircle
 62
7
  6
CONTINUOUS
 10
185.3163207798
 20
222.4006379738
 40
10.5789474
100
AcDbArc
 50
337.5
 51
22.5
  0
ARC
  5
312
100
AcDbEntity
  8
BEZUGSACHSEN
100
AcDbCircle
 62
7
  6
CONTINUOUS
 10
170.8412295773
 20
257.3465994713
 40
10.5789474
100
AcDbArc
 50
22.5
 51
67.5
  0
ARC
  5
313
100
AcDbEntity
  8
BEZUGSACHSEN
100
AcDbCircle
 62
7
  6
CONTINUOUS
 10
135.8952680798
 20
271.8216906738
 40
10.5789474
100
AcDbArc
 50
67.5
 51
112.5
  0
ARC
  5
314
100
AcDbEntity
  8
BEZUGSACHSEN
100
AcDbCircle
 62
7
  6
CONTINUOUS
 10
199.3661764158
 20
215.6102385903
 40
5.0
100
AcDbArc
 50
157.5
 51
190.08
  0
ARC
  5
315
100
AcDbEntity
  8
0
100
AcDbCircle
 62
7
  6
CONTINUOUS
 10
273.0684244475
 20
146.4006379738
 40
39.0
100
AcDbArc
 50
109.8613117208
 51
116.0425472861
  0
ARC
  5
316
100
AcDbEntity
  8
0
100
AcDbCircle
 62
7
  6
CONTINUOUS
 10
273.0684244475
 20
146.4006379738
 40
39.0
100
AcDbArc
 50
63.6422627944
 51
70.1383574963
  0
ARC
  5
317
100
AcDbEntity
  8
0
100
AcDbCircle
 62
7
  6
CONTINUOUS
 10
273.0684244475
 20
146.4006379738
 40
38.5
100
AcDbArc
 50
13.4307681401
 51
69.8604289687
  0
ARC
  5
318
100
AcDbEntity
  8
0
100
AcDbCircle
 62
7
  6
CONTINUOUS
 10
273.0684244475
 20
146.4006379738
 40
38.5
100
AcDbArc
 50
110.1395710313
 51
166.5692318599
  0
ARC
  5
319
100
AcDbEntity
  8
0
100
AcDbCircle
 62
7
  6
CONTINUOUS
 10
273.0684244475
 20
147.0906379738
 40
14.55
100
AcDbArc
 50
187.452780224
 51
352.547219776
  0
ARC
  5
31A
100
AcDbEntity
  8
0
100
AcDbCircle
 62
7
  6
CONTINUOUS
 10
273.0684244475
 20
146.4006379738
 40
14.0
100
AcDbArc
 50
10.0
 51
18.7161397767
  0
ARC
  5
31B
100
AcDbEntity
  8
0
100
AcDbCircle
 62
7
  6
CONTINUOUS
 10
273.0684244475
 20
146.4006379738
 40
14.0
100
AcDbArc
 50
161.2838602233
 51
170.0
  0
ARC
  5
31C
100
AcDbEntity
  8
0
100
AcDbCircle
 62
7
  6
CONTINUOUS
 10
273.0684244475
 20
147.0906379738
 40
13.75
100
AcDbArc
 50
164.5817980491
 51
15.4182019509
  0
ARC
  5
31D
100
AcDbEntity
  8
RUNDUNGEN
100
AcDbCircle
 62
7
  6
CONTINUOUS
 10
273.3184244475
 20
146.4006379738
 40
13.0
100
AcDbArc
 50
269.9999939885
 51
0.0000061447
  0
ARC
  5
31E
100
AcDbEntity
  8
BEZUGSACHSEN
100
AcDbCircle
 62
7
  6
CONTINUOUS
 10
272.8184244475
 20
146.4006379738
 40
13.0
100
AcDbArc
 50
179.9999938553
 51
270.0000060115
  0
ARC
  5
31F
100
AcDbEntity
  8
BEZUGSACHSEN
100
AcDbCircle
 62
7
  6
CONTINUOUS
 10
265.8184244475
 20
276.4006380738
 40
6.0
100
AcDbArc
 50
90.0
 51
180.0
  0
ARC
  5
320
100
AcDbEntity
  8
BEZUGSACHSEN
100
AcDbCircle
 62
7
  6
CONTINUOUS
 10
280.3184244475
 20
276.4006380738
 40
6.0
100
AcDbArc
 50
0.0
 51
90.0
  0
ARC
  5
321
100
AcDbEntity
  8
BEZUGSACHSEN
100
AcDbCircle
 62
7
  6
CONTINUOUS
 10
189.8952681798
 20
60.1400374065
 40
6.0
100
AcDbArc
 50
0.0
 51
90.0
  0
ARC
  5
322
100
AcDbEntity
  8
BEZUGSACHSEN
100
AcDbCircle
 62
7
  6
CONTINUOUS
 10
81.8952679798
 20
60.1400374065
 40
6.0
100
AcDbArc
 50
90.0
 51
180.0
  0
ARC
  5
323
100
AcDbEntity
  8
BEZUGSACHSEN
100
AcDbCircle
 62
7
  6
CONTINUOUS
 10
189.8952681798
 20
45.6400374065
 40
6.0
100
AcDbArc
 50
270.0
 51
360.0
  0
ARC
  5
324
100
AcDbEntity
  8
RUNDUNGEN
100
AcDbCircle
 62
7
  6
CONTINUOUS
 10
81.8952679798
 20
45.6400374065
 40
6.0
100
AcDbArc
 50
180.0
 51
270.0
  0
SPLINE
  5
325
100
AcDbEntity
  8
0
100
AcDbSpline
 62
7
  6
CONTINUOUS
 70
0
 71
3
 72
11
 73
7
 74
0
 42
0.0000001
 43
0.0000001
 44
0.0000000001
 40
0.0
 40
0.0
 40
0.0
 40
0.0
 40
0.2322812701
 40
0.4999991681
 40
0.7677174964
 40
1.0
 40
1.0
 40
1.0
 40
1.0
 10
158.2217650017
 20
185.3520432357
 30
0.0
 10
157.859883782
 20
185.3682848444
 30
0.0
 10
157.0801008002
 20
185.3830675668
 30
0.0
 10
155.8828675795
 20
185.3883389994
 30
0.0
 10
154.6856324308
 20
185.3830678356
 30
0.0
 10
153.9058468551
 20
185.3682854963
 30
0.0
 10
153.5439636932
 20
185.3520442572
 30
0.0
  0
SPLINE
  5
326
100
AcDbEntity
  8
0
100
AcDbSpline
 62
7
  6
CONTINUOUS
 70
0
 71
3
 72
33
 73
29
 74
0
 42
0.0000001
 43
0.0000001
 44
0.0000000001
 40
0.0
 40
0.0
 40
0.0
 40
0.0
 40
0.0010930904
 40
0.0031438556
 40
0.010641691
 40
0.0227519119
 40
0.0394086619
 40
0.060455158
 40
0.0856980553
 40
0.1149002678
 40
0.1477797076
 40
0.2233057372
 40
0.3094154405
 40
0.4028386758
 40
0.4999962714
 40
0.597154022
 40
0.6905776866
 40
0.7766880681
 40
0.8522150746
 40
0.8850950717
 40
0.9142978762
 40
0.9395414181
 40
0.9605886076
 40
0.9772460841
 40
0.9893570316
 40
0.9968555793
 40
0.9989066803
 40
1.0
 40
1.0
 40
1.0
 40
1.0
 10
153.4328911718
 20
185.3754905779
 30
0.0
 10
153.4328897406
 20
185.37369638
 30
0.0
 10
153.4370543725
 20
185.3694067914
 30
0.0
 10
153.4525430923
 20
185.3624793859
 30
0.0
 10
153.4874731129
 20
185.3529843201
 30
0.0
 10
153.5456123759
 20
185.3417420384
 30
0.0
 10
153.6265463115
 20
185.3290924942
 30
0.0
 10
153.7289465033
 20
185.3156907878
 30
0.0
 10
153.8520987598
 20
185.301777631
 30
0.0
 10
153.994741654
 20
185.2877339034
 30
0.0
 10
154.2197885004
 20
185.2683923811
 30
0.0
 10
154.53834526
 20
185.2465831342
 30
0.0
 10
154.9565343153
 20
185.2263176045
 30
0.0
 10
155.4105326286
 20
185.213166705
 30
0.0
 10
155.8828342039
 20
185.2086059953
 30
0.0
 10
156.3551364908
 20
185.2131659915
 30
0.0
 10
156.809136896
 20
185.2263162514
 30
0.0
 10
157.2273294002
 20
185.2465813022
 30
0.0
 10
157.5458898172
 20
185.2683902835
 30
0.0
 10
157.7709401782
 20
185.2877316766
 30
0.0
 10
157.9135860296
 20
185.3017754019
 30
0.0
 10
158.0367414748
 20
185.3156885906
 30
0.0
 10
158.1391450497
 20
185.3290904631
 30
0.0
 10
158.2200825782
 20
185.3417400254
 30
0.0
 10
158.2782252849
 20
185.3529828588
 30
0.0
 10
158.3131585151
 20
185.362477534
 30
0.0
 10
158.3286491367
 20
185.3694056609
 30
0.0
 10
158.3328153383
 20
185.3736946041
 30
0.0
 10
158.3328146948
 20
185.3754891788
 30
0.0
  0
LINE
  5
327
100
AcDbEntity
  8
0
100
AcDbLine
 62
7
  6
CONTINUOUS
 10
119.035237942
 20
185.40063224
 11
118.9653861955
 21
185.3976060269
  0
SPLINE
  5
328
100
AcDbEntity
  8
0
100
AcDbSpline
 62
7
  6
CONTINUOUS
 70
0
 71
3
 72
22
 73
18
 74
0
 42
0.0000001
 43
0.0000001
 44
0.0000000001
 40
0.0
 40
0.0
 40
0.0
 40
0.0
 40
0.008805063
 40
0.0186134567
 40
0.0303246331
 40
0.0444612738
 40
0.0808566724
 40
0.1284280227
 40
0.1865852988
 40
0.2541154091
 40
0.3293810854
 40
0.4104329772
 40
0.5810565311
 40
0.7475264295
 40
0.891963241
 40
0.9512311704
 40
1.0
 40
1.0
 40
1.0
 40
1.0
 10
112.0152680798
 20
184.5817524153
 30
0.0
 10
112.0152680798
 20
184.5965850822
 30
0.0
 10
112.0218706089
 20
184.6282042332
 30
0.0
 10
112.0501391074
 20
184.6717187513
 30
0.0
 10
112.0950304268
 20
184.7122980976
 30
0.0
 10
112.1843587558
 20
184.7678900065
 30
0.0
 10
112.3395756169
 20
184.827699265
 30
0.0
 10
112.5718206333
 20
184.8864390061
 30
0.0
 10
112.8597448811
 20
184.9358314385
 30
0.0
 10
113.1960056937
 20
184.9755548758
 30
0.0
 10
113.5719907992
 20
185.0053840036
 30
0.0
 10
114.1221322742
 20
185.0323941748
 30
0.0
 10
114.8267850457
 20
185.0406860219
 30
0.0
 10
115.6376821873
 20
185.0147873339
 30
0.0
 10
116.259756048
 20
184.9613773998
 30
0.0
 10
116.6795844477
 20
184.8922961195
 30
0.0
 10
116.8568631345
 20
184.8495630733
 30
0.0
 10
116.9352680798
 20
184.8250282694
 30
0.0
  0
LINE
  5
329
100
AcDbEntity
  8
0
100
AcDbLine
 62
7
  6
CONTINUOUS
 10
119.0177182548
 20
185.3998656725
 11
119.035237942
 21
185.40063224
  0
SPLINE
  5
32A
100
AcDbEntity
  8
0
100
AcDbSpline
 62
7
  6
CONTINUOUS
 70
0
 71
3
 72
9
 73
5
 74
0
 42
0.0000001
 43
0.0000001
 44
0.0000000001
 40
0.0
 40
0.0
 40
0.0
 40
0.0
 40
0.3068795402
 40
1.0
 40
1.0
 40
1.0
 40
1.0
 10
158.3328146948
 20
185.3754891788
 30
0.0
 10
158.3328136634
 20
185.3783652389
 30
0.0
 10
158.322192028
 20
185.3839730084
 30
0.0
 10
158.3141097836
 20
185.3853092537
 30
0.0
 10
158.3077241097
 20
185.3865007961
 30
0.0
  0
SPLINE
  5
32B
100
AcDbEntity
  8
0
100
AcDbSpline
 62
7
  6
CONTINUOUS
 70
0
 71
3
 72
17
 73
13
 74
0
 42
0.0000001
 43
0.0000001
 44
0.0000000001
 40
0.0
 40
0.0
 40
0.0
 40
0.0
 40
0.0072328229
 40
0.0211823865
 40
0.0428576958
 40
0.0724093556
 40
0.1550175972
 40
0.2683849413
 40
0.4112540957
 40
0.5821169994
 40
0.7790637388
 40
1.0
 40
1.0
 40
1.0
 40
1.0
 10
159.3828121904
 20
185.3754711398
 30
0.0
 10
159.3827948123
 20
185.37262035
 30
0.0
 10
159.3757534361
 20
185.3659027903
 30
0.0
 10
159.3609790944
 20
185.3592234977
 30
0.0
 10
159.3364080814
 20
185.3505142104
 30
0.0
 10
159.2856575449
 20
185.3367728996
 30
0.0
 10
159.1984988905
 20
185.3183618773
 30
0.0
 10
159.0669691905
 20
185.29551233
 30
0.0
 10
158.9004170421
 20
185.2707463249
 30
0.0
 10
158.7008031811
 20
185.2448588795
 30
0.0
 10
158.47021912
 20
185.218656956
 30
0.0
 10
158.3063066875
 20
185.2024118239
 30
0.0
 10
158.2195948759
 20
185.1943820527
 30
0.0
  0
SPLINE
  5
32C
100
AcDbEntity
  8
0
100
AcDbSpline
 62
7
  6
CONTINUOUS
 70
0
 71
3
 72
11
 73
7
 74
0
 42
0.0000001
 43
0.0000001
 44
0.0000000001
 40
0.0
 40
0.0
 40
0.0
 40
0.0
 40
0.2323944276
 40
0.5000023168
 40
0.7676090145
 40
1.0
 40
1.0
 40
1.0
 40
1.0
 10
158.2195948759
 20
185.1943820527
 30
0.0
 10
157.8586606075
 20
185.160958468
 30
0.0
 10
157.0801806952
 20
185.1091855119
 30
0.0
 10
155.8828116832
 20
185.0821762778
 30
0.0
 10
154.6854481254
 20
185.1091890117
 30
0.0
 10
153.9069755763
 20
185.1609637552
 30
0.0
 10
153.5460467617
 20
185.1943880085
 30
0.0
  0
SPLINE
  5
32D
100
AcDbEntity
  8
0
100
AcDbSpline
 62
7
  6
CONTINUOUS
 70
0
 71
3
 72
17
 73
13
 74
0
 42
0.0000001
 43
0.0000001
 44
0.0000000001
 40
0.0
 40
0.0
 40
0.0
 40
0.0
 40
0.2209397377
 40
0.4178888337
 40
0.5887530149
 40
0.7316224087
 40
0.844989002
 40
0.9275955724
 40
0.957146091
 40
0.9788200945
 40
0.9927682298
 40
1.0
 40
1.0
 40
1.0
 40
1.0
 10
153.5460467617
 20
185.1943880085
 30
0.0
 10
153.4593382353
 20
185.2024177574
 30
0.0
 10
153.2954323068
 20
185.218662771
 30
0.0
 10
153.0648578409
 20
185.244864357
 30
0.0
 10
152.8652531966
 20
185.2707512934
 30
0.0
 10
152.6987097314
 20
185.2955166983
 30
0.0
 10
152.5671879926
 20
185.3183654805
 30
0.0
 10
152.4800355257
 20
185.336776026
 30
0.0
 10
152.4292893935
 20
185.3505166898
 30
0.0
 10
152.4047214413
 20
185.3592259415
 30
0.0
 10
152.3899492904
 20
185.3659042619
 30
0.0
 10
152.3829100275
 20
185.3726225444
 30
0.0
 10
152.3828936861
 20
185.3754727733
 30
0.0
  0
SPLINE
  5
32E
100
AcDbEntity
  8
0
100
AcDbSpline
 62
7
  6
CONTINUOUS
 70
0
 71
3
 72
23
 73
19
 74
0
 42
0.0000001
 43
0.0000001
 44
0.0000000001
 40
0.0
 40
0.0
 40
0.0
 40
0.0
 40
0.0216970911
 40
0.0362825637
 40
0.0541768004
 40
0.1005469508
 40
0.1608735371
 40
0.2336355879
 40
0.316498447
 40
0.4999968802
 40
0.683499046
 40
0.7663600428
 40
0.8391226635
 40
0.8994513621
 40
0.9458224176
 40
0.96371683
 40
0.9783025787
 40
1.0
 40
1.0
 40
1.0
 40
1.0
 10
113.5152680798
 20
184.0063223845
 30
0.0
 10
113.5152680798
 20
184.0234587126
 30
0.0
 10
113.5309850585
 20
184.0513189647
 30
0.0
 10
113.5641276759
 20
184.0779523772
 30
0.0
 10
113.6184092969
 20
184.1092322135
 30
0.0
 10
113.7115299768
 20
184.1424284514
 30
0.0
 10
113.8495816987
 20
184.1750497457
 30
0.0
 10
114.0182221123
 20
184.2014912278
 30
0.0
 10
114.2847956285
 20
184.2283811427
 30
0.0
 10
114.6402634819
 20
184.2405733728
 30
0.0
 10
114.99572989
 20
184.2283820427
 30
0.0
 10
115.2623054165
 20
184.2014926689
 30
0.0
 10
115.4309463962
 20
184.1750506657
 30
0.0
 10
115.5690011186
 20
184.1424300164
 30
0.0
 10
115.6621246113
 20
184.1092339196
 30
0.0
 10
115.7164069921
 20
184.0779530986
 30
0.0
 10
115.7495498466
 20
184.0513192586
 30
0.0
 10
115.7652680798
 20
184.0234589734
 30
0.0
 10
115.7652680798
 20
184.0063223845
 30
0.0
  0
SPLINE
  5
32F
100
AcDbEntity
  8
0
100
AcDbSpline
 62
7
  6
CONTINUOUS
 70
0
 71
3
 72
33
 73
29
 74
0
 42
0.0000001
 43
0.0000001
 44
0.0000000001
 40
0.0
 40
0.0
 40
0.0
 40
0.0
 40
0.0011259815
 40
0.0032175179
 40
0.0107982854
 40
0.022989415
 40
0.0397166153
 40
0.0608212654
 40
0.0861071151
 40
0.1153304257
 40
0.148214508
 40
0.2236899898
 40
0.309698719
 40
0.4029941594
 40
0.5000184884
 40
0.5970420963
 40
0.6903353964
 40
0.7763406422
 40
0.8518114044
 40
0.884692727
 40
0.9139130195
 40
0.9391956656
 40
0.9602969209
 40
0.9770206054
 40
0.9892081365
 40
0.9967853487
 40
0.998875199
 40
1.0
 40
1.0
 40
1.0
 40
1.0
 10
152.3828940966
 20
184.8750813299
 30
0.0
 10
152.3829454984
 20
184.8724374908
 30
0.0
 10
152.3889521354
 20
184.866183496
 30
0.0
 10
152.4111468951
 20
184.85543861
 30
0.0
 10
152.4612100174
 20
184.8404272355
 30
0.0
 10
152.544446257
 20
184.8218770348
 30
0.0
 10
152.660204353
 20
184.800603572
 30
0.0
 10
152.8065693415
 20
184.7775753685
 30
0.0
 10
152.9825158588
 20
184.7533061873
 30
0.0
 10
153.1862498434
 20
184.7284909381
 30
0.0
 10
153.5075230654
 20
184.6939715102
 30
0.0
 10
153.9623339187
 20
184.654484545
 30
0.0
 10
154.5595848751
 20
184.6173851455
 30
0.0
 10
155.2081496799
 20
184.5931320673
 30
0.0
 10
155.8829862608
 20
184.5846976551
 30
0.0
 10
156.5578177318
 20
184.59313863
 30
0.0
 10
157.2063674087
 20
184.6173974609
 30
0.0
 10
157.8035937585
 20
184.6545011279
 30
0.0
 10
158.2583785799
 20
184.6939902855
 30
0.0
 10
158.5796269192
 20
184.7285105185
 30
0.0
 10
158.7833396876
 20
184.7533255428
 30
0.0
 10
158.9592634748
 20
184.7775941537
 30
0.0
 10
159.1056047043
 20
184.8006207525
 30
0.0
 10
159.221337781
 20
184.821893464
 30
0.0
 10
159.3045494775
 20
184.8404393165
 30
0.0
 10
159.3545903444
 20
184.8554524502
 30
0.0
 10
159.3767708712
 20
184.8661920832
 30
0.0
 10
159.3827667795
 20
184.8724500448
 30
0.0
 10
159.3828125009
 20
184.8750912154
 30
0.0
  0
SPLINE
  5
330
100
AcDbEntity
  8
0
100
AcDbSpline
 62
7
  6
CONTINUOUS
 70
0
 71
3
 72
9
 73
5
 74
0
 42
0.0000001
 43
0.0000001
 44
0.0000000001
 40
0.0
 40
0.0
 40
0.0
 40
0.0
 40
0.6930925743
 40
1.0
 40
1.0
 40
1.0
 40
1.0
 10
153.4579818485
 20
185.3865007961
 30
0.0
 10
153.451596647
 20
185.3853093418
 30
0.0
 10
153.4435143365
 20
185.3839720929
 30
0.0
 10
153.4328934661
 20
185.3783668014
 30
0.0
 10
153.4328911718
 20
185.3754905779
 30
0.0
  0
SPLINE
  5
331
100
AcDbEntity
  8
0
100
AcDbSpline
 62
7
  6
CONTINUOUS
 70
0
 71
3
 72
14
 73
10
 74
0
 42
0.0000001
 43
0.0000001
 44
0.0000000001
 40
0.0
 40
0.0
 40
0.0
 40
0.0
 40
0.0681157877
 40
0.1356870415
 40
0.2673162885
 40
0.3946458075
 40
0.5186641021
 40
0.7605644731
 40
1.0
 40
1.0
 40
1.0
 40
1.0
 10
160.8952680798
 20
155.3430428261
 30
0.0
 10
161.1181872317
 20
155.3430428261
 30
0.0
 10
161.5632663402
 20
155.3036141258
 30
0.0
 10
162.4119764279
 20
155.0773022031
 30
0.0
 10
163.3634522853
 20
154.5520446618
 30
0.0
 10
164.2640632313
 20
153.6631757646
 30
0.0
 10
165.1454950525
 20
152.2990261222
 30
0.0
 10
165.7671260719
 20
150.3857363402
 30
0.0
 10
165.8952680798
 20
148.80620245
 30
0.0
 10
165.8952680798
 20
148.0226137051
 30
0.0
  0
SPLINE
  5
332
100
AcDbEntity
  8
0
100
AcDbSpline
 62
7
  6
CONTINUOUS
 70
0
 71
3
 72
14
 73
10
 74
0
 42
0.0000001
 43
0.0000001
 44
0.0000000001
 40
0.0
 40
0.0
 40
0.0
 40
0.0
 40
0.239433434
 40
0.4813301462
 40
0.6053487559
 40
0.7326793527
 40
0.8643110136
 40
0.931883786
 40
1.0
 40
1.0
 40
1.0
 40
1.0
 10
105.8952680798
 20
148.0226137051
 30
0.0
 10
105.8952680798
 20
148.8061954661
 30
0.0
 10
106.0234082432
 20
150.3857104337
 30
0.0
 10
106.6450273237
 20
152.2989826389
 30
0.0
 10
107.5264402494
 20
153.6631352175
 30
0.0
 10
108.4270524928
 20
154.552020414
 30
0.0
 10
109.3785389704
 20
155.0772940467
 30
0.0
 10
110.2272623177
 20
155.3036114833
 30
0.0
 10
110.6723475712
 20
155.3430428261
 30
0.0
 10
110.8952680798
 20
155.3430428261
 30
0.0
  0
SPLINE
  5
333
100
AcDbEntity
  8
0
100
AcDbSpline
 62
7
  6
CONTINUOUS
 70
0
 71
3
 72
23
 73
19
 74
0
 42
0.0000001
 43
0.0000001
 44
0.0000000001
 40
0.0
 40
0.0
 40
0.0
 40
0.0
 40
0.0214918292
 40
0.036018859
 40
0.053880284
 40
0.1002419768
 40
0.160612795
 40
0.2334418688
 40
0.3163565756
 40
0.4999981626
 40
0.6836403109
 40
0.7665552918
 40
0.8393850581
 40
0.8997573326
 40
0.9461196285
 40
0.9639811734
 40
0.9785082221
 40
1.0
 40
1.0
 40
1.0
 40
1.0
 10
115.7652680798
 20
184.5180552525
 30
0.0
 10
115.7652680798
 20
184.5350108443
 30
0.0
 10
115.7494584914
 20
184.5625821626
 30
0.0
 10
115.7163415667
 20
184.588770605
 30
0.0
 10
115.6619947529
 20
184.619642493
 30
0.0
 10
115.5688422161
 20
184.6523837407
 30
0.0
 10
115.430766488
 20
184.6845732057
 30
0.0
 10
115.2621298095
 20
184.7106316446
 30
0.0
 10
114.9956107518
 20
184.7371658335
 30
0.0
 10
114.6402719714
 20
184.7491672924
 30
0.0
 10
114.2849329963
 20
184.7371661862
 30
0.0
 10
114.0184126427
 20
184.7106326592
 30
0.0
 10
113.8497741173
 20
184.6845737493
 30
0.0
 10
113.7116960936
 20
184.6523845526
 30
0.0
 10
113.618541918
 20
184.6196427038
 30
0.0
 10
113.5641945744
 20
184.5887705857
 30
0.0
 10
113.5310775177
 20
184.5625821623
 30
0.0
 10
113.5152680798
 20
184.5350108039
 30
0.0
 10
113.5152680798
 20
184.5180552525
 30
0.0
  0
SPLINE
  5
334
100
AcDbEntity
  8
0
100
AcDbSpline
 62
7
  6
CONTINUOUS
 70
0
 71
3
 72
13
 73
9
 74
0
 42
0.0000001
 43
0.0000001
 44
0.0000000001
 40
0.0
 40
0.0
 40
0.0
 40
0.0
 40
0.3737279317
 40
0.6663034976
 40
0.7788638098
 40
0.8692456276
 40
0.9404839303
 40
1.0
 40
1.0
 40
1.0
 40
1.0
 10
117.7602680798
 20
184.4065137412
 30
0.0
 10
117.686572917
 20
184.3967186187
 30
0.0
 10
117.5558191125
 20
184.374437362
 30
0.0
 10
117.4060696372
 20
184.3316709774
 30
0.0
 10
117.3168934703
 20
184.2890052519
 30
0.0
 10
117.271896646
 20
184.2576235066
 30
0.0
 10
117.2426907418
 20
184.2236795461
 30
0.0
 10
117.2352680798
 20
184.1974932763
 30
0.0
 10
117.2352680798
 20
184.1856541315
 30
0.0
  0
SPLINE
  5
335
100
AcDbEntity
  8
0
100
AcDbSpline
 62
7
  6
CONTINUOUS
 70
0
 71
3
 72
15
 73
11
 74
0
 42
0.0000001
 43
0.0000001
 44
0.0000000001
 40
0.0
 40
0.0
 40
0.0
 40
0.0
 40
0.089940515
 40
0.1819833039
 40
0.2792272684
 40
0.3859786508
 40
0.5076268686
 40
0.6498667466
 40
0.8158958069
 40
1.0
 40
1.0
 40
1.0
 40
1.0
 10
105.8952680798
 20
19.4293261958
 30
0.0
 10
105.8952680798
 20
19.2154644038
 30
0.0
 10
105.9283258112
 20
18.7817390044
 30
0.0
 10
106.0963208382
 20
18.1354039464
 30
0.0
 10
106.4077635272
 20
17.4984247753
 30
0.0
 10
106.8914401601
 20
16.8860990179
 30
0.0
 10
107.5779367121
 20
16.3229881472
 30
0.0
 10
108.4913341793
 20
15.8484099108
 30
0.0
 10
109.6225795778
 20
15.5207089887
 30
0.0
 10
110.4575026005
 20
15.442962815
 30
0.0
 10
110.8952680798
 20
15.442962815
 30
0.0
  0
SPLINE
  5
336
100
AcDbEntity
  8
KONSTRUKTIONSELEMENTE
100
AcDbSpline
 62
7
  6
CONTINUOUS
 70
0
 71
3
 72
15
 73
11
 74
0
 42
0.0000001
 43
0.0000001
 44
0.0000000001
 40
0.0
 40
0.0
 40
0.0
 40
0.0
 40
0.089940515
 40
0.1819833039
 40
0.2792272684
 40
0.3859786508
 40
0.5076268686
 40
0.6498667466
 40
0.8158958069
 40
1.0
 40
1.0
 40
1.0
 40
1.0
 10
105.8952680798
 20
86.3507486172
 30
0.0
 10
105.8952680798
 20
86.5646104092
 30
0.0
 10
105.9283258112
 20
86.9983358085
 30
0.0
 10
106.0963208382
 20
87.6446708665
 30
0.0
 10
106.4077635272
 20
88.2816500377
 30
0.0
 10
106.8914401601
 20
88.893975795
 30
0.0
 10
107.5779367121
 20
89.4570866658
 30
0.0
 10
108.4913341793
 20
89.9316649022
 30
0.0
 10
109.6225795778
 20
90.2593658243
 30
0.0
 10
110.4575026005
 20
90.3371119979
 30
0.0
 10
110.8952680798
 20
90.3371119979
 30
0.0
  0
SPLINE
  5
337
100
AcDbEntity
  8
0
100
AcDbSpline
 62
7
  6
CONTINUOUS
 70
0
 71
3
 72
15
 73
11
 74
0
 42
0.0000001
 43
0.0000001
 44
0.0000000001
 40
0.0
 40
0.0
 40
0.0
 40
0.0
 40
0.1841016268
 40
0.3501280561
 40
0.4923674128
 40
0.6140160815
 40
0.7207695092
 40
0.8180150964
 40
0.9100590025
 40
1.0
 40
1.0
 40
1.0
 40
1.0
 10
160.8952680798
 20
15.442962815
 30
0.0
 10
161.3330275588
 20
15.442962815
 30
0.0
 10
162.167938377
 20
15.5207058034
 30
0.0
 10
163.2991721936
 20
15.8483979418
 30
0.0
 10
164.2125671955
 20
16.3229669591
 30
0.0
 10
164.8990734882
 20
16.8860733134
 30
0.0
 10
165.3827632616
 20
17.4984020118
 30
0.0
 10
165.694212239
 20
18.1353913873
 30
0.0
 10
165.8622095687
 20
18.7817339156
 30
0.0
 10
165.8952680798
 20
19.2154632067
 30
0.0
 10
165.8952680798
 20
19.4293261958
 30
0.0
  0
SPLINE
  5
338
100
AcDbEntity
  8
KONSTRUKTIONSELEMENTE
100
AcDbSpline
 62
7
  6
CONTINUOUS
 70
0
 71
3
 72
15
 73
11
 74
0
 42
0.0000001
 43
0.0000001
 44
0.0000000001
 40
0.0
 40
0.0
 40
0.0
 40
0.0
 40
0.1841016268
 40
0.3501280561
 40
0.4923674128
 40
0.6140160815
 40
0.7207695092
 40
0.8180150964
 40
0.9100590025
 40
1.0
 40
1.0
 40
1.0
 40
1.0
 10
160.8952680798
 20
90.3371119979
 30
0.0
 10
161.3330275588
 20
90.3371119979
 30
0.0
 10
162.167938377
 20
90.2593690096
 30
0.0
 10
163.2991721936
 20
89.9316768711
 30
0.0
 10
164.2125671955
 20
89.4571078538
 30
0.0
 10
164.8990734882
 20
88.8940014995
 30
0.0
 10
165.3827632616
 20
88.2816728012
 30
0.0
 10
165.694212239
 20
87.6446834256
 30
0.0
 10
165.8622095687
 20
86.9983408974
 30
0.0
 10
165.8952680798
 20
86.5646116062
 30
0.0
 10
165.8952680798
 20
86.3507486172
 30
0.0
  0
ELLIPSE
  5
339
100
AcDbEntity
  8
0
100
AcDbEllipse
 62
7
  6
CONTINUOUS
 10
139.7647677192
 20
146.4006379738
 30
0.0
 11
-0.0
 21
39.0
 31
0.0
 40
0.2042553727
 41
-0.0227049373
 42
-0.0000000399
  0
ELLIPSE
  5
33A
100
AcDbEntity
  8
0
100
AcDbEllipse
 62
7
  6
CONTINUOUS
 10
152.8952680798
 20
139.2414173151
 30
0.0
 11
0.0
 21
18.3117050706
 31
0.0
 40
0.7099284283
 41
-1.9243876641
 42
-1.5707963268
  0
ELLIPSE
  5
33B
100
AcDbEntity
  8
0
100
AcDbEllipse
 62
7
  6
CONTINUOUS
 10
160.5945267645
 20
146.4006379738
 30
0.0
 11
238.9782948908
 21
0.0
 31
0.0
 40
0.1631947371
 41
1.6344075887
 42
1.6394935151
  0
ELLIPSE
  5
33C
100
AcDbEntity
  8
0
100
AcDbEllipse
 62
7
  6
CONTINUOUS
 10
149.2009387466
 20
146.4006379738
 30
0.0
 11
59.7446949469
 21
0.0
 31
0.0
 40
0.6527776238
 41
1.6140790706
 42
1.6344075887
  0
ELLIPSE
  5
33D
100
AcDbEntity
  8
0
100
AcDbEllipse
 62
7
  6
CONTINUOUS
 10
147.7647677869
 20
146.4006379738
 30
0.0
 11
0.0
 21
39.0
 31
0.0
 40
0.6808509827
 41
0.0280485494
 42
0.0432827438
  0
ELLIPSE
  5
33E
100
AcDbEntity
  8
0
100
AcDbEllipse
 62
7
  6
CONTINUOUS
 10
147.2434912107
 20
146.4006379738
 30
0.0
 11
0.0
 21
39.0
 31
0.0
 40
0.2042552558
 41
6.2858562457
 42
6.3112338566
  0
ELLIPSE
  5
33F
100
AcDbEntity
  8
0
100
AcDbEllipse
 62
7
  6
CONTINUOUS
 10
147.2009380973
 20
146.4006379738
 30
0.0
 11
-0.0
 21
39.0
 31
0.0
 40
0.2042553727
 41
0.0000000399
 42
0.0227049373
  0
ELLIPSE
  5
340
100
AcDbEntity
  8
0
100
AcDbEllipse
 62
7
  6
CONTINUOUS
 10
147.6229237037
 20
146.4006379738
 30
0.0
 11
-0.0
 21
39.0
 31
0.0
 40
0.6808509827
 41
0.0227049373
 42
0.0379364445
  0
ELLIPSE
  5
341
100
AcDbEntity
  8
0
100
AcDbEllipse
 62
7
  6
CONTINUOUS
 10
148.881789446
 20
146.4006379738
 30
0.0
 11
59.7446949469
 21
-0.0
 31
0.0
 40
0.6527776238
 41
1.6087327713
 42
1.6290557642
  0
ELLIPSE
  5
342
100
AcDbEntity
  8
0
100
AcDbEllipse
 62
7
  6
CONTINUOUS
 10
159.3179321523
 20
146.4006379738
 30
0.0
 11
238.9782948908
 21
-0.0
 31
0.0
 40
0.1631947371
 41
1.6290557642
 42
1.6341399605
  0
ELLIPSE
  5
343
100
AcDbEntity
  8
0
100
AcDbEllipse
 62
7
  6
CONTINUOUS
 10
127.6477773375
 20
146.4006379738
 30
0.0
 11
238.978239101
 21
0.0
 31
0.0
 40
0.1631947752
 41
1.5074526931
 42
1.5125368893
  0
ELLIPSE
  5
344
100
AcDbEntity
  8
0
100
AcDbEllipse
 62
7
  6
CONTINUOUS
 10
138.0839155771
 20
146.4006379738
 30
0.0
 11
59.7447158682
 21
0.0
 31
0.0
 40
0.6527773952
 41
1.5125368893
 42
1.5328598823
  0
ELLIPSE
  5
345
100
AcDbEntity
  8
0
100
AcDbEllipse
 62
7
  6
CONTINUOUS
 10
139.3427821129
 20
146.4006379738
 30
0.0
 11
0.0
 21
39.0
 31
0.0
 40
0.6808509827
 41
-0.0379364445
 42
-0.0227049373
  0
ELLIPSE
  5
346
100
AcDbEntity
  8
0
100
AcDbEllipse
 62
7
  6
CONTINUOUS
 10
139.7222146059
 20
146.4006379738
 30
0.0
 11
-0.0
 21
39.0
 31
0.0
 40
0.2042552558
 41
-0.0280485494
 42
-0.0026709385
  0
ELLIPSE
  5
347
100
AcDbEntity
  8
0
100
AcDbEllipse
 62
7
  6
CONTINUOUS
 10
139.2009380297
 20
146.4006379738
 30
0.0
 11
-0.0
 21
39.0
 31
0.0
 40
0.6808509827
 41
-0.0432827438
 42
-0.0280485494
  0
ELLIPSE
  5
348
100
AcDbEntity
  8
0
100
AcDbEllipse
 62
7
  6
CONTINUOUS
 10
137.7647661648
 20
146.4006379738
 30
0.0
 11
59.7447158682
 21
0.0
 31
0.0
 40
0.6527773952
 41
1.5071850649
 42
1.527513583
  0
ELLIPSE
  5
349
100
AcDbEntity
  8
0
100
AcDbEllipse
 62
7
  6
CONTINUOUS
 10
126.3711830233
 20
146.4006379738
 30
0.0
 11
238.978239101
 21
-0.0
 31
0.0
 40
0.1631947752
 41
1.5020991385
 42
1.5071850649
  0
ELLIPSE
  5
34A
100
AcDbEntity
  8
0
100
AcDbEllipse
 62
7
  6
CONTINUOUS
 10
132.6796591417
 20
146.4006379738
 30
0.0
 11
46.4680981636
 21
-0.0
 31
0.0
 40
0.8392854785
 41
1.3740159917
 42
1.4049733217
  0
ELLIPSE
  5
34B
100
AcDbEntity
  8
0
100
AcDbEllipse
 62
7
  6
CONTINUOUS
 10
172.1207104697
 20
146.4006379738
 30
0.0
 11
116.644380915
 21
0.0
 31
0.0
 40
0.334349582
 41
1.9203501371
 42
1.9971192348
  0
ELLIPSE
  5
34C
100
AcDbEntity
  8
0
100
AcDbEllipse
 62
7
  6
CONTINUOUS
 10
152.8952680798
 20
139.8267113533
 30
0.0
 11
0.0
 21
15.0599270988
 31
0.0
 40
0.86321799
 41
-2.2904243985
 42
-2.0486798709
  0
ELLIPSE
  5
34D
100
AcDbEntity
  8
0
100
AcDbEllipse
 62
7
  6
CONTINUOUS
 10
95.690265833
 20
146.4006379738
 30
0.0
 11
117.0000069737
 21
-0.0
 31
0.0
 40
0.3333333135
 41
1.2427654925
 42
1.3274178455
  0
ELLIPSE
  5
34E
100
AcDbEntity
  8
0
100
AcDbEllipse
 62
7
  6
CONTINUOUS
 10
118.8952680798
 20
139.2414173151
 30
0.0
 11
0.0
 21
18.3117050706
 31
0.0
 40
0.7099284283
 41
-4.7123889804
 42
-4.358797643
  0
ELLIPSE
  5
34F
100
AcDbEntity
  8
0
100
AcDbEllipse
 62
7
  6
CONTINUOUS
 10
118.8952680798
 20
139.8267113533
 30
0.0
 11
0.0
 21
15.0599270988
 31
0.0
 40
0.86321799
 41
-4.2345054363
 42
-3.9927609086
  0
ELLIPSE
  5
350
100
AcDbEntity
  8
0
100
AcDbEllipse
 62
7
  6
CONTINUOUS
 10
128.498083101
 20
146.4006379738
 30
0.0
 11
67.5499814952
 21
0.0
 31
0.0
 40
0.5773502692
 41
1.6844802319
 42
1.7428176774
  0
ELLIPSE
  5
351
100
AcDbEntity
  8
0
100
AcDbEllipse
 62
7
  6
CONTINUOUS
 10
123.8498850422
 20
146.4006379738
 30
0.0
 11
199.1488174683
 21
-0.0
 31
0.0
 40
0.1958334501
 41
1.4766401703
 42
1.4817363332
  0
ELLIPSE
  5
352
100
AcDbEntity
  8
0
100
AcDbEllipse
 62
7
  6
CONTINUOUS
 10
130.934977278
 20
146.4006379738
 30
0.0
 11
119.4894020608
 21
-0.0
 31
0.0
 40
0.3263887786
 41
1.4817363332
 42
1.486830178
  0
ELLIPSE
  5
353
100
AcDbEntity
  8
0
100
AcDbEllipse
 62
7
  6
CONTINUOUS
 10
134.2754053019
 20
146.4006379738
 30
0.0
 11
79.6595839642
 21
-0.0
 31
0.0
 40
0.489583275
 41
1.486830178
 42
1.4970114463
  0
ELLIPSE
  5
354
100
AcDbEntity
  8
0
100
AcDbEllipse
 62
7
  6
CONTINUOUS
 10
137.2115765647
 20
146.4006379738
 30
0.0
 11
39.829782486
 21
0.0
 31
0.0
 40
0.9791667834
 41
1.4970114463
 42
1.5122693296
  0
ELLIPSE
  5
355
100
AcDbEntity
  8
0
100
AcDbEllipse
 62
7
  6
CONTINUOUS
 10
138.1434916138
 20
146.4006379738
 30
0.0
 11
0.0
 21
39.0
 31
0.0
 40
0.6127657675
 41
-0.0585269972
 42
-0.0331257112
  0
ELLIPSE
  5
356
100
AcDbEntity
  8
0
100
AcDbEllipse
 62
7
  6
CONTINUOUS
 10
138.7151225169
 20
146.4006379738
 30
0.0
 11
-0.0
 21
39.0
 31
0.0
 40
0.1702127457
 41
-0.0331257112
 42
-0.0026709385
  0
ELLIPSE
  5
357
100
AcDbEntity
  8
0
100
AcDbEllipse
 62
7
  6
CONTINUOUS
 10
148.2505834428
 20
146.4006379738
 30
0.0
 11
-0.0
 21
39.0
 31
0.0
 40
0.1702127606
 41
6.2858562457
 42
6.3163110183
  0
ELLIPSE
  5
358
100
AcDbEntity
  8
0
100
AcDbEllipse
 62
7
  6
CONTINUOUS
 10
148.8222143959
 20
146.4006379738
 30
0.0
 11
-0.0
 21
39.0
 31
0.0
 40
0.6127658212
 41
0.0331257112
 42
0.0585269972
  0
ELLIPSE
  5
359
100
AcDbEntity
  8
0
100
AcDbEllipse
 62
7
  6
CONTINUOUS
 10
149.7541295946
 20
146.4006379738
 30
0.0
 11
39.8297871351
 21
-0.0
 31
0.0
 40
0.9791666691
 41
1.629323324
 42
1.6445812073
  0
ELLIPSE
  5
35A
100
AcDbEntity
  8
0
100
AcDbEllipse
 62
7
  6
CONTINUOUS
 10
152.6903015429
 20
146.4006379738
 30
0.0
 11
79.6595979117
 21
-0.0
 31
0.0
 40
0.4895831892
 41
1.6445812073
 42
1.6547624756
  0
ELLIPSE
  5
35B
100
AcDbEntity
  8
0
100
AcDbEllipse
 62
7
  6
CONTINUOUS
 10
156.0307190391
 20
146.4006379738
 30
0.0
 11
119.489290481
 21
-0.0
 31
0.0
 40
0.3263890834
 41
1.6547624756
 42
1.6598563204
  0
ELLIPSE
  5
35C
100
AcDbEntity
  8
0
100
AcDbEllipse
 62
7
  6
CONTINUOUS
 10
163.1158261612
 20
146.4006379738
 30
0.0
 11
199.1488732582
 21
0.0
 31
0.0
 40
0.1958333952
 41
1.6598563204
 42
1.6649524833
  0
ELLIPSE
  5
35D
100
AcDbEntity
  8
0
100
AcDbEllipse
 62
7
  6
CONTINUOUS
 10
131.0626411275
 20
146.4006379738
 30
0.0
 11
46.468079567
 21
-0.0
 31
0.0
 40
0.8392858143
 41
1.3740159917
 42
1.4049733217
  0
ELLIPSE
  5
35E
100
AcDbEntity
  8
0
100
AcDbEllipse
 62
7
  6
CONTINUOUS
 10
132.9148126603
 20
146.4006379738
 30
0.0
 11
66.6839560914
 21
0.0
 31
0.0
 40
0.5773502692
 41
1.7529481246
 42
1.7946293249
  0
ELLIPSE
  5
35F
100
AcDbEntity
  8
0
100
AcDbEllipse
 62
7
  6
CONTINUOUS
 10
175.8302665317
 20
146.4006379738
 30
0.0
 11
116.9999965131
 21
0.0
 31
0.0
 40
0.3333333433
 41
1.9420433404
 42
2.0308256244
  0
ELLIPSE
  5
360
100
AcDbEntity
  8
0
100
AcDbEllipse
 62
7
  6
CONTINUOUS
 10
92.224293781
 20
146.4006379738
 30
0.0
 11
116.644380915
 21
-0.0
 31
0.0
 40
0.334349582
 41
1.2212425165
 42
1.2959161348
  0
ELLIPSE
  5
361
100
AcDbEntity
  8
0
100
AcDbEllipse
 62
7
  6
CONTINUOUS
 10
92.224293781
 20
146.4006379738
 30
0.0
 11
115.148940134
 21
-0.0
 31
0.0
 40
0.334349582
 41
1.2365137284
 42
1.2922516451
  0
ELLIPSE
  5
362
100
AcDbEntity
  8
0
100
AcDbEllipse
 62
7
  6
CONTINUOUS
 10
131.0626411275
 20
146.4006379738
 30
0.0
 11
45.8723349571
 21
-0.0
 31
0.0
 40
0.8392858143
 41
1.3714262262
 42
1.4027994206
  0
ELLIPSE
  5
363
100
AcDbEntity
  8
0
100
AcDbEllipse
 62
7
  6
CONTINUOUS
 10
175.8302665317
 20
146.4006379738
 30
0.0
 11
115.4999965578
 21
0.0
 31
0.0
 40
0.3333333433
 41
1.9471041716
 42
2.0372708339
  0
ELLIPSE
  5
364
100
AcDbEntity
  8
0
100
AcDbEllipse
 62
7
  6
CONTINUOUS
 10
132.9148126603
 20
146.4006379738
 30
0.0
 11
67.5499814952
 21
0.0
 31
0.0
 40
0.5773502692
 41
1.7505871812
 42
1.7970678462
  0
ENDSEC
  0
SECTION
  2
OBJECTS
  0
DICTIONARY
  5
C
100
AcDbDictionary
280
0
281
1
  3
ACAD_GROUP
350
D
  3
ACAD_MLINESTYLE
350
17
  3
ACAD_LAYOUT
350
1A
  3
ACAD_PLOTSETTINGS
350
19
  3
ACAD_PLOTSTYLENAME
350
E
  0
DICTIONARY
  5
D
102
{ACAD_REACTORS
330
C
102
}
100
AcDbDictionary
280
0
281
1
  0
ACDBDICTIONARYWDFLT
  5
E
102
{ACAD_REACTORS
330
C
102
}
100
AcDbDictionary
281
1
  3
Normal
350
F
100
AcDbDictionaryWithDefault
340
F
  0
DICTIONARY
  5
17
102
{ACAD_REACTORS
330
C
102
}
100
AcDbDictionary
280
0
281
1
  3
Standard
350
18
  0
DICTIONARY
  5
19
102
{ACAD_REACTORS
330
C
102
}
100
AcDbDictionary
281
1
  0
DICTIONARY
  5
1A
102
{ACAD_REACTORS
330
C
102
}
100
AcDbDictionary
281
1
  3
Model
350
365
  3
Layout1
350
366
  0
ACDBPLACEHOLDER
  5
F
102
{ACAD_REACTORS
330
E
102
}
  0
MLINESTYLE
  5
18
102
{ACAD_REACTORS
330
17
102
}
100
AcDbMlineStyle
  2
STANDARD
 70
0
  3

 62
256
 51
90.0
 52
90.0
 71
2
 49
0.5
 62
256
  6
BYLAYER
 49
-0.5
 62
256
  6
BYLAYER
  0
LAYOUT
  5
365
102
{ACAD_REACTORS
330
1A
102
}
100
AcDbPlotSettings
  1

  2
none_device
  4
ISO_A3_(420.00_x_297.00_MM)
  6

 40
0.0
 41
0.0
 42
0.0
 43
0.0
 44
420.0
 45
297.0
 46
0.0
 47
0.0
 48
0.0
 49
0.0
140
0.0
141
0.0
142
1.0
143
1.0
 70
1024
 72
1
 73
0
 74
0
  7

 75
0
147
1.0
148
0.0
149
0.0
100
AcDbLayout
  1
Model
 70
0
 71
0
 10
0.0
 20
0.0
 11
420.0
 21
297.0
 12
0.0
 22
0.0
 32
0.0
 14
0.0
 24
0.0
 34
0.0
 15
0.0
 25
0.0
 35
0.0
146
0.0
 13
0.0
 23
0.0
 33
0.0
 16
1.0
 26
0.0
 36
0.0
 17
0.0
 27
1.0
 37
0.0
 76
0
330
20E
345
0
346
0
  0
LAYOUT
  5
366
102
{ACAD_REACTORS
330
1A
102
}
100
AcDbPlotSettings
  1

  2
none_device
  4
ISO_A3_(420.00_x_297.00_MM)
  6

 40
0.0
 41
0.0
 42
0.0
 43
0.0
 44
420.0
 45
297.0
 46
0.0
 47
0.0
 48
0.0
 49
0.0
140
0.0
141
0.0
142
1.0
143
1.0
 70
0
 72
1
 73
0
 74
0
  7

 75
0
147
1.0
148
0.0
149
0.0
100
AcDbLayout
  1
Layout1
 70
0
 71
1
 10
0.0
 20
0.0
 11
420.0
 21
297.0
 12
0.0
 22
0.0
 32
0.0
 14
0.0
 24
0.0
 34
0.0
 15
0.0
 25
0.0
 35
0.0
146
0.0
 13
0.0
 23
0.0
 33
0.0
 16
1.0
 26
0.0
 36
0.0
 17
0.0
 27
1.0
 37
0.0
 76
0
330
20F
345
0
346
0
  0
ENDSEC
  0
EOF
