999
DXF file: ABA-5t-7900354-M33973-P1.dxf
999
Pro/ENGINEER 2011490 by Parametric Technology Corporation
  0
SECTION
  2
HEADER
  9
$ACADVER
  1
AC1015
  9
$DWGCODEPAGE
  3
ANSI_1252
  9
$EXTMAX
 10
420.0
 20
297.0
 30
0.0
  9
$EXTMIN
 10
0.0
 20
0.0
 30
0.0
  9
$LIMMIN
 10
0.0
 20
0.0
  9
$LIMMAX
 10
420.0
 20
297.0
  9
$VIEWCTR
 10
210.0
 20
148.5
  9
$VIEWSIZE
 40
297.0
  9
$CLAYER
  8
0
  9
$LTSCALE
 40
23.1
  9
$CELTYPE
  6
BYLAYER
  9
$DIMSCALE
 40
1.0
  9
$DIMASZ
 40
3.5
  9
$DIMEXO
 40
2.625
  9
$DIMDLI
 40
15.96
  9
$DIMEXE
 40
7.56
  9
$DIMCEN
 40
3.78
  9
$DIMLFAC
 40
1.0
  9
$DIMBLK
  1
_FILLED
  9
$DIMTXT
 40
3.5
  9
$DIMTOL
 70
1
  9
$DIMLIM
 70
0
  9
$DIMTFAC
 40
1.0
  9
$DIMTP
 40
0.005
  9
$DIMTM
 40
0.005
  9
$PDMODE
 70
3
  9
$PDSIZE
 40
0.3125
  9
$HANDSEED
  5
35C
  9
$TILEMODE
 70
1
  9
$MEASUREMENT
 70
1
  9
$INSUNITS
 70
4
  0
ENDSEC
  0
SECTION
  2
CLASSES
  0
CLASS
  1
ACDBDICTIONARYWDFLT
  2
AcDbDictionaryWithDefault
  3
AutoCAD 2000
 90
0
280
0
281
0
  0
CLASS
  1
ACDBPLACEHOLDER
  2
AcDbPlaceHolder
  3
AutoCAD 2000
 90
0
280
0
281
0
  0
CLASS
  1
LAYOUT
  2
AcDbLayout
  3
AutoCAD 2000
 90
0
280
0
281
0
  0
ENDSEC
  0
SECTION
  2
TABLES
  0
TABLE
  2
VPORT
  5
8
100
AcDbSymbolTable
 70
2
  0
VPORT
  5
1F4
100
AcDbSymbolTableRecord
100
AcDbViewportTableRecord
  2
*ACTIVE
 70
0
 10
0.0
 20
0.0
 11
1.0
 21
1.0
 12
210.0
 22
148.5
 13
0.0
 23
0.0
 14
1.0
 24
1.0
 15
0.0
 25
0.0
 16
0.0
 26
0.0
 36
1.0
 17
0.0
 27
0.0
 37
0.0
 40
297.0
 41
1.4141414141
 42
50.0
 43
0.0
 44
0.0
 50
0.0
 51
0.0
 71
0
 72
100
 73
1
 74
1
 75
0
 76
0
 77
0
 78
0
  0
ENDTAB
  0
TABLE
  2
LTYPE
  5
5
100
AcDbSymbolTable
 70
6
  0
LTYPE
  5
14
100
AcDbSymbolTableRecord
100
AcDbLinetypeTableRecord
  2
BYBLOCK
 70
0
  3

 72
65
 73
0
 40
0.0
  0
LTYPE
  5
15
100
AcDbSymbolTableRecord
100
AcDbLinetypeTableRecord
  2
BYLAYER
 70
0
  3

 72
65
 73
0
 40
0.0
  0
LTYPE
  5
16
100
AcDbSymbolTableRecord
100
AcDbLinetypeTableRecord
  2
CONTINUOUS
 70
64
  3
Solid line
 72
65
 73
0
 40
0.0
  0
LTYPE
  5
1F5
100
AcDbSymbolTableRecord
100
AcDbLinetypeTableRecord
  2
CENTER
 70
64
  3
____ _ ____ _ ____ _ ____ _ ____ _ ____ _ ____
 72
65
 73
4
 40
0.6
 49
0.375
 74
0
 49
-0.075
 74
0
 49
0.075
 74
0
 49
-0.075
 74
0
  0
LTYPE
  5
1F6
100
AcDbSymbolTableRecord
100
AcDbLinetypeTableRecord
  2
HIDDEN
 70
64
  3
- - - - - - - - - - - - - - - - - - - -
 72
65
 73
2
 40
0.2
 49
0.1
 74
0
 49
-0.1
 74
0
  0
LTYPE
  5
1F7
100
AcDbSymbolTableRecord
100
AcDbLinetypeTableRecord
  2
PHANTOM
 70
64
  3
_____ _ _ _____ _ _ _____ _ _ _____
 72
65
 73
6
 40
0.8
 49
0.45
 74
0
 49
-0.05
 74
0
 49
0.1
 74
0
 49
-0.05
 74
0
 49
0.1
 74
0
 49
-0.05
 74
0
  0
LTYPE
  5
1F8
100
AcDbSymbolTableRecord
100
AcDbLinetypeTableRecord
  2
DOT
 70
64
  3
. . . . . . . . . . . . . . . . . . . .
 72
65
 73
2
 40
0.2
 49
0.1
 74
0
 49
-0.1
 74
0
  0
LTYPE
  5
1F9
100
AcDbSymbolTableRecord
100
AcDbLinetypeTableRecord
  2
DASHED
 70
64
  3
- - - - - - - - - - - - - - - - - - - -
 72
65
 73
2
 40
0.2
 49
0.1
 74
0
 49
-0.1
 74
0
  0
ENDTAB
  0
TABLE
  2
LAYER
  5
2
100
AcDbSymbolTable
 70
36
  0
LAYER
  5
10
100
AcDbSymbolTableRecord
100
AcDbLayerTableRecord
  2
0
 70
0
 62
7
  6
CONTINUOUS
370
-3
390
F
  0
LAYER
  5
1FA
100
AcDbSymbolTableRecord
100
AcDbLayerTableRecord
  2
DEFAULT_1
 70
0
 62
7
  6
CENTER
370
-3
390
F
  0
LAYER
  5
1FB
100
AcDbSymbolTableRecord
100
AcDbLayerTableRecord
  2
DEFAULT_2
 70
0
 62
8
  6
HIDDEN
370
-3
390
F
  0
LAYER
  5
1FC
100
AcDbSymbolTableRecord
100
AcDbLayerTableRecord
  2
DEFAULT_3
 70
0
 62
7
  6
PHANTOM
370
-3
390
F
  0
LAYER
  5
1FD
100
AcDbSymbolTableRecord
100
AcDbLayerTableRecord
  2
AUSFORMSCHRAEGEN
 70
0
 62
7
  6
CONTINUOUS
370
-3
390
F
  0
LAYER
  5
1FE
100
AcDbSymbolTableRecord
100
AcDbLayerTableRecord
  2
BEZUGSACHSEN
 70
0
 62
7
  6
CONTINUOUS
370
-3
390
F
  0
LAYER
  5
1FF
100
AcDbSymbolTableRecord
100
AcDbLayerTableRecord
  2
BEZUGSEBENEN
 70
0
 62
7
  6
CONTINUOUS
370
-3
390
F
  0
LAYER
  5
200
100
AcDbSymbolTableRecord
100
AcDbLayerTableRecord
  2
FLAECHEN
 70
0
 62
7
  6
CONTINUOUS
370
-3
390
F
  0
LAYER
  5
201
100
AcDbSymbolTableRecord
100
AcDbLayerTableRecord
  2
HILFEN
 70
0
 62
7
  6
CONTINUOUS
370
-3
390
F
  0
LAYER
  5
202
100
AcDbSymbolTableRecord
100
AcDbLayerTableRecord
  2
KURVEN
 70
0
 62
7
  6
CONTINUOUS
370
-3
390
F
  0
LAYER
  5
203
100
AcDbSymbolTableRecord
100
AcDbLayerTableRecord
  2
PLATZIERUNG
 70
0
 62
7
  6
CONTINUOUS
370
-3
390
F
  0
LAYER
  5
204
100
AcDbSymbolTableRecord
100
AcDbLayerTableRecord
  2
RUNDUNGEN
 70
0
 62
7
  6
CONTINUOUS
370
-3
390
F
  0
LAYER
  5
205
100
AcDbSymbolTableRecord
100
AcDbLayerTableRecord
  2
TEIL_STARTBEZUEGE
 70
0
 62
7
  6
CONTINUOUS
370
-3
390
F
  0
LAYER
  5
206
100
AcDbSymbolTableRecord
100
AcDbLayerTableRecord
  2
ZEICHNUNGSBEMASSUNGEN
 70
0
 62
7
  6
CONTINUOUS
370
-3
390
F
  0
ENDTAB
  0
TABLE
  2
STYLE
  5
3
100
AcDbSymbolTable
 70
1
  0
STYLE
  5
11
100
AcDbSymbolTableRecord
100
AcDbTextStyleTableRecord
  2
STANDARD
 70
0
 40
0.0
 41
0.7
 50
0.0
 71
0
 42
0.2
  3
txt
  4

  0
STYLE
  5
207
100
AcDbSymbolTableRecord
100
AcDbTextStyleTableRecord
  2
TEXTSTYLE_1
 70
0
 40
0.0
 41
0.8
 50
0.0
 71
0
 42
0.2
  3
gdt
  4

  0
ENDTAB
  0
TABLE
  2
VIEW
  5
6
100
AcDbSymbolTable
 70
0
  0
ENDTAB
  0
TABLE
  2
UCS
  5
7
100
AcDbSymbolTable
 70
0
  0
ENDTAB
  0
TABLE
  2
APPID
  5
9
100
AcDbSymbolTable
 70
1
  0
APPID
  5
208
100
AcDbSymbolTableRecord
100
AcDbRegAppTableRecord
  2
ACAD
 70
0
  0
ENDTAB
  0
TABLE
  2
BLOCK_RECORD
  5
1
100
AcDbSymbolTable
 70
0
  0
BLOCK_RECORD
  5
209
100
AcDbSymbolTableRecord
100
AcDbBlockTableRecord
  2
*Model_Space
  0
BLOCK_RECORD
  5
20A
100
AcDbSymbolTableRecord
100
AcDbBlockTableRecord
  2
*Paper_Space
  0
ENDTAB
  0
TABLE
  2
DIMSTYLE
  5
A
100
AcDbSymbolTable
 70
1
100
AcDbDimStyleTable
 71
0
  0
DIMSTYLE
105
20B
100
AcDbSymbolTableRecord
100
AcDbDimStyleTableRecord
  2
STANDARD
 70
0
  3

  4

 40
1.0
 41
3.5
 42
0.0625
 43
0.38
 44
0.18
 45
0.0
 46
0.0
 47
0.005
 48
0.005
140
3.5
141
0.09
142
0.0
143
25.4
144
1.0
145
0.0
146
1.0
147
0.09
 71
1.0
 72
0.0
 73
0
 74
0
 75
0
 76
0
 77
1
 78
8
170
0
171
2
172
0
173
0
174
0
175
0
176
0
177
0
178
5
270
2
271
3
272
3
273
2
274
2
275
0
280
0
281
0
282
0
283
1
284
8
285
0
286
0
287
3
288
0
340
11
  0
ENDTAB
  0
ENDSEC
  0
SECTION
  2
BLOCKS
  0
BLOCK
  5
20
100
AcDbEntity
  8
0
100
AcDbBlockBegin
  2
*Model_Space
 70
0
 10
0.0
 20
0.0
 30
0.0
  3
*Model_Space
  1

  0
ENDBLK
  5
21
100
AcDbEntity
  8
0
100
AcDbBlockEnd
  0
BLOCK
  5
1C
100
AcDbEntity
  8
0
100
AcDbBlockBegin
  2
*Paper_Space
 70
0
 10
0.0
 20
0.0
 30
0.0
  3
*Paper_Space
  1

  0
ENDBLK
  5
1D
100
AcDbEntity
  8
0
100
AcDbBlockEnd
  0
ENDSEC
  0
SECTION
  2
ENTITIES
  0
MTEXT
  5
20C
100
AcDbEntity
  8
0
100
AcDbMText
 62
5
  6
CONTINUOUS
  7
STANDARD
 71
1
 72
1
 10
308.7084443445
 20
181.079043099
 30
0.0
 11
0.0
 21
1.0
 31
0.0
 44
0.9
  1
RUD ABA 5t
 40
5.0
 41
40.119047619
  0
MTEXT
  5
20D
100
AcDbEntity
  8
0
100
AcDbMText
 62
5
  6
CONTINUOUS
  7
STANDARD
 71
1
 72
1
 10
120.5936377028
 20
90.0426139741
 30
0.0
 11
1.0
 21
0.0
 31
0.0
 44
0.9
  1
RUD ABA 5t
 40
5.0
 41
40.119047619
  0
MTEXT
  5
20E
100
AcDbEntity
  8
0
100
AcDbMText
 62
5
  6
CONTINUOUS
  7
STANDARD
 71
1
 72
1
 10
117.7700123911
 20
176.5773891418
 30
0.0
 11
1.0
 21
0.0
 31
0.0
 44
0.9
  1
RUD ABA 5t
 40
5.0
 41
40.119047619
  0
LINE
  5
20F
100
AcDbEntity
  8
0
100
AcDbLine
 62
7
  6
CONTINUOUS
 10
0.0
 20
0.0
 11
0.0
 21
297.0
  0
LINE
  5
210
100
AcDbEntity
  8
0
100
AcDbLine
 62
7
  6
CONTINUOUS
 10
0.0
 20
0.0
 11
420.0
 21
0.0
  0
LINE
  5
211
100
AcDbEntity
  8
0
100
AcDbLine
 62
7
  6
CONTINUOUS
 10
0.0
 20
297.0
 11
420.0
 21
297.0
  0
LINE
  5
212
100
AcDbEntity
  8
0
100
AcDbLine
 62
7
  6
CONTINUOUS
 10
420.0
 20
0.0
 11
420.0
 21
297.0
  0
LINE
  5
213
100
AcDbEntity
  8
RUNDUNGEN
100
AcDbLine
 62
7
  6
CONTINUOUS
 10
51.3972380705
 20
168.4780860996
 11
51.3972380705
 21
184.2168040507
  0
LINE
  5
214
100
AcDbEntity
  8
0
100
AcDbLine
 62
7
  6
CONTINUOUS
 10
72.6931270138
 20
200.130967569
 11
72.6099196993
 21
201.062953633
  0
LINE
  5
215
100
AcDbEntity
  8
RUNDUNGEN
100
AcDbLine
 62
7
  6
CONTINUOUS
 10
64.4635481183
 20
218.7453524889
 11
52.5390450829
 21
189.9570555362
  0
LINE
  5
216
100
AcDbEntity
  8
0
100
AcDbLine
 62
7
  6
CONTINUOUS
 10
71.3895871504
 20
200.8808904119
 11
71.6285350007
 21
200.335369955
  0
LINE
  5
217
100
AcDbEntity
  8
0
100
AcDbLine
 62
7
  6
CONTINUOUS
 10
71.6285350007
 20
200.335369955
 11
71.5922682787
 21
199.676143843
  0
LINE
  5
218
100
AcDbEntity
  8
0
100
AcDbLine
 62
7
  6
CONTINUOUS
 10
72.6099196993
 20
201.062953633
 11
72.0541535079
 21
201.9607611904
  0
LINE
  5
219
100
AcDbEntity
  8
0
100
AcDbLine
 62
7
  6
CONTINUOUS
 10
78.8822426826
 20
207.5198390279
 11
79.0433204033
 21
206.7810857117
  0
LINE
  5
21A
100
AcDbEntity
  8
0
100
AcDbLine
 62
7
  6
CONTINUOUS
 10
80.3052563962
 20
206.4971550228
 11
80.2220492526
 21
207.4291416606
  0
LINE
  5
21B
100
AcDbEntity
  8
0
100
AcDbLine
 62
7
  6
CONTINUOUS
 10
84.043033266
 20
215.7723395447
 11
83.9598256768
 21
216.7043250767
  0
LINE
  5
21C
100
AcDbEntity
  8
0
100
AcDbLine
 62
7
  6
CONTINUOUS
 10
79.0433204033
 20
206.7810857117
 11
78.9291831906
 21
205.9286262434
  0
LINE
  5
21D
100
AcDbEntity
  8
0
100
AcDbLine
 62
7
  6
CONTINUOUS
 10
82.7810963819
 20
216.0562680222
 11
82.6669596147
 21
215.2038096595
  0
LINE
  5
21E
100
AcDbEntity
  8
0
100
AcDbLine
 62
7
  6
CONTINUOUS
 10
80.1132491557
 20
205.4514632968
 11
80.3052563962
 21
206.4971550228
  0
LINE
  5
21F
100
AcDbEntity
  8
0
100
AcDbLine
 62
7
  6
CONTINUOUS
 10
83.8510255798
 20
214.7266467129
 11
84.043033266
 21
215.7723395447
  0
LINE
  5
220
100
AcDbEntity
  8
0
100
AcDbLine
 62
7
  6
CONTINUOUS
 10
74.5758421637
 20
218.4644231371
 11
72.7069539516
 21
213.826831429
  0
LINE
  5
221
100
AcDbEntity
  8
0
100
AcDbLine
 62
7
  6
CONTINUOUS
 10
72.0839913628
 20
212.2809678949
 11
71.6167693097
 21
211.1215699679
  0
LINE
  5
222
100
AcDbEntity
  8
0
100
AcDbLine
 62
7
  6
CONTINUOUS
 10
69.7478810977
 20
206.4839782598
 11
69.2806588219
 21
205.3245797799
  0
LINE
  5
223
100
AcDbEntity
  8
0
100
AcDbLine
 62
7
  6
CONTINUOUS
 10
67.5675113684
 20
201.0734542318
 11
65.6986231563
 21
196.4358625238
  0
LINE
  5
224
100
AcDbEntity
  8
0
100
AcDbLine
 62
7
  6
CONTINUOUS
 10
67.1525667317
 20
197.1976247084
 11
68.6321031587
 21
200.869051293
  0
LINE
  5
225
100
AcDbEntity
  8
0
100
AcDbLine
 62
7
  6
CONTINUOUS
 10
74.3582418315
 20
214.5090664651
 11
75.7599079905
 21
217.9872602462
  0
LINE
  5
226
100
AcDbEntity
  8
0
100
AcDbLine
 62
7
  6
CONTINUOUS
 10
71.5922682787
 20
199.676143843
 11
70.1127318517
 21
196.0047172584
  0
LINE
  5
227
100
AcDbEntity
  8
0
100
AcDbLine
 62
7
  6
CONTINUOUS
 10
71.2967976786
 20
195.5275543675
 11
72.6205934583
 21
198.8125150686
  0
LINE
  5
228
100
AcDbEntity
  8
0
100
AcDbLine
 62
7
  6
CONTINUOUS
 10
75.1625384761
 20
219.3510616649
 11
74.5758421637
 21
218.4644231371
  0
LINE
  5
229
100
AcDbEntity
  8
0
100
AcDbLine
 62
7
  6
CONTINUOUS
 10
70.8754245048
 20
201.3127046609
 11
71.3895871504
 21
200.8808904119
  0
LINE
  5
22A
100
AcDbEntity
  8
0
100
AcDbLine
 62
7
  6
CONTINUOUS
 10
72.0541535079
 20
201.9607611904
 11
71.5399908623
 21
202.3925754394
  0
LINE
  5
22B
100
AcDbEntity
  8
0
100
AcDbLine
 62
7
  6
CONTINUOUS
 10
78.445950305
 20
208.1448860805
 11
78.8822426826
 21
207.5198390279
  0
LINE
  5
22C
100
AcDbEntity
  8
0
100
AcDbLine
 62
7
  6
CONTINUOUS
 10
80.2220492526
 20
207.4291416606
 11
79.7441534828
 21
208.5201826023
  0
LINE
  5
22D
100
AcDbEntity
  8
0
100
AcDbLine
 62
7
  6
CONTINUOUS
 10
82.6200186612
 20
216.7950213384
 11
82.7810963819
 21
216.0562680222
  0
LINE
  5
22E
100
AcDbEntity
  8
0
100
AcDbLine
 62
7
  6
CONTINUOUS
 10
82.6669596147
 20
215.2038096595
 11
81.2652934557
 21
211.7256158784
  0
LINE
  5
22F
100
AcDbEntity
  8
0
100
AcDbLine
 62
7
  6
CONTINUOUS
 10
78.9291831906
 20
205.9286262434
 11
78.6177016734
 21
205.1556939234
  0
LINE
  5
230
100
AcDbEntity
  8
0
100
AcDbLine
 62
7
  6
CONTINUOUS
 10
74.9738065724
 20
192.6980860996
 11
75.4410286254
 21
193.8574840266
  0
LINE
  5
231
100
AcDbEntity
  8
0
100
AcDbLine
 62
7
  6
CONTINUOUS
 10
77.3877871054
 20
198.6883085382
 11
77.9328796492
 21
200.0409398216
  0
LINE
  5
232
100
AcDbEntity
  8
0
100
AcDbLine
 62
7
  6
CONTINUOUS
 10
79.8017676384
 20
204.6785309769
 11
80.1132491557
 21
205.4514632968
  0
LINE
  5
233
100
AcDbEntity
  8
0
100
AcDbLine
 62
7
  6
CONTINUOUS
 10
81.9821373677
 20
210.0890550048
 11
83.8510255798
 21
214.7266467129
  0
LINE
  5
234
100
AcDbEntity
  8
0
100
AcDbLine
 62
7
  6
CONTINUOUS
 10
68.154207458
 20
201.9600922068
 11
67.5675113684
 21
201.0734542318
  0
LINE
  5
235
100
AcDbEntity
  8
0
100
AcDbLine
 62
7
  6
CONTINUOUS
 10
75.7599079905
 20
217.9872602462
 11
76.2687333667
 21
218.6806643119
  0
LINE
  5
236
100
AcDbEntity
  8
RUNDUNGEN
100
AcDbLine
 62
7
  6
CONTINUOUS
 10
51.3972380705
 20
168.4780860996
 11
223.3972380705
 21
168.4780860996
  0
LINE
  5
237
100
AcDbEntity
  8
0
100
AcDbLine
 62
7
  6
CONTINUOUS
 10
65.6986231563
 20
196.4358625238
 11
74.9738065724
 21
192.6980860996
  0
LINE
  5
238
100
AcDbEntity
  8
0
100
AcDbLine
 62
7
  6
CONTINUOUS
 10
75.4410286254
 20
193.8574840266
 11
71.2967976786
 21
195.5275543675
  0
LINE
  5
239
100
AcDbEntity
  8
0
100
AcDbLine
 62
7
  6
CONTINUOUS
 10
70.1127318517
 20
196.0047172584
 11
67.1525667317
 21
197.1976247084
  0
LINE
  5
23A
100
AcDbEntity
  8
0
100
AcDbLine
 62
7
  6
CONTINUOUS
 10
79.7441534828
 20
208.5201826023
 11
79.1105166625
 21
209.224756859
  0
LINE
  5
23B
100
AcDbEntity
  8
0
100
AcDbLine
 62
7
  6
CONTINUOUS
 10
82.1837267292
 20
217.4200694966
 11
82.6200186612
 21
216.7950213384
  0
LINE
  5
23C
100
AcDbEntity
  8
0
100
AcDbLine
 62
7
  6
CONTINUOUS
 10
83.9598256768
 20
216.7043250767
 11
83.4819294614
 21
217.7953649127
  0
LINE
  5
23D
100
AcDbEntity
  8
BEZUGSACHSEN
100
AcDbLine
 62
7
  6
CONTINUOUS
 10
88.7338778695
 20
202.0317856594
 11
86.2351213374
 21
208.0643175684
  0
LINE
  5
23E
100
AcDbEntity
  8
BEZUGSACHSEN
100
AcDbLine
 62
7
  6
CONTINUOUS
 10
86.234975903
 20
211.8915035211
 11
99.8670652246
 21
244.8022784448
  0
LINE
  5
23F
100
AcDbEntity
  8
0
100
AcDbLine
 62
7
  6
CONTINUOUS
 10
79.2150717544
 20
203.7918935617
 11
79.8017676384
 21
204.6785309769
  0
LINE
  5
240
100
AcDbEntity
  8
0
100
AcDbLine
 62
7
  6
CONTINUOUS
 10
78.6177016734
 20
205.1556939234
 11
78.1088762973
 21
204.4622898577
  0
LINE
  5
241
100
AcDbEntity
  8
0
100
AcDbLine
 62
7
  6
CONTINUOUS
 10
68.6321031587
 20
200.869051293
 11
69.0630584897
 21
201.369223108
  0
LINE
  5
242
100
AcDbEntity
  8
0
100
AcDbLine
 62
7
  6
CONTINUOUS
 10
75.8687081566
 20
219.9649385822
 11
75.1625384761
 21
219.3510616649
  0
LINE
  5
243
100
AcDbEntity
  8
RUNDUNGEN
100
AcDbLine
 62
7
  6
CONTINUOUS
 10
102.5730457253
 20
247.5082589455
 11
135.4838209087
 21
261.1403483747
  0
LINE
  5
244
100
AcDbEntity
  8
0
100
AcDbLine
 62
7
  6
CONTINUOUS
 10
70.2833910386
 20
201.5512863291
 11
70.8754245048
 21
201.3127046609
  0
LINE
  5
245
100
AcDbEntity
  8
0
100
AcDbLine
 62
7
  6
CONTINUOUS
 10
71.5399908623
 20
202.3925754394
 11
70.7506130916
 21
202.7106842561
  0
LINE
  5
246
100
AcDbEntity
  8
0
100
AcDbLine
 62
7
  6
CONTINUOUS
 10
79.1105166625
 20
209.224756859
 11
78.2016656308
 21
209.8156259578
  0
LINE
  5
247
100
AcDbEntity
  8
0
100
AcDbLine
 62
7
  6
CONTINUOUS
 10
77.7344435778
 20
208.6562280308
 11
78.445950305
 21
208.1448860805
  0
LINE
  5
248
100
AcDbEntity
  8
0
100
AcDbLine
 62
7
  6
CONTINUOUS
 10
83.4819294614
 20
217.7953649127
 11
82.8482930867
 21
218.4999402751
  0
LINE
  5
249
100
AcDbEntity
  8
BEZUGSACHSEN
100
AcDbLine
 62
7
  6
CONTINUOUS
 10
87.3316855332
 20
192.1409725294
 11
88.7337270756
 21
195.525800236
  0
LINE
  5
24A
100
AcDbEntity
  8
0
100
AcDbLine
 62
7
  6
CONTINUOUS
 10
76.2687333667
 20
218.6806643119
 11
76.8970330021
 21
219.1013089785
  0
LINE
  5
24B
100
AcDbEntity
  8
0
100
AcDbLine
 62
7
  6
CONTINUOUS
 10
69.2806588219
 20
205.3245797799
 11
75.3983330899
 21
202.8592378429
  0
LINE
  5
24C
100
AcDbEntity
  8
0
100
AcDbLine
 62
7
  6
CONTINUOUS
 10
75.8655553657
 20
204.0186363227
 11
69.7478810977
 21
206.4839782598
  0
LINE
  5
24D
100
AcDbEntity
  8
0
100
AcDbLine
 62
7
  6
CONTINUOUS
 10
81.4722195564
 20
217.9314103412
 11
82.1837267292
 21
217.4200694966
  0
LINE
  5
24E
100
AcDbEntity
  8
0
100
AcDbLine
 62
7
  6
CONTINUOUS
 10
78.5089015764
 20
203.1780155596
 11
79.2150717544
 21
203.7918935617
  0
LINE
  5
24F
100
AcDbEntity
  8
0
100
AcDbLine
 62
7
  6
CONTINUOUS
 10
75.3983330899
 20
202.8592378429
 11
76.462925103
 21
202.6548354568
  0
LINE
  5
250
100
AcDbEntity
  8
0
100
AcDbLine
 62
7
  6
CONTINUOUS
 10
71.6167693097
 20
211.1215699679
 11
77.7344435778
 21
208.6562280308
  0
LINE
  5
251
100
AcDbEntity
  8
0
100
AcDbLine
 62
7
  6
CONTINUOUS
 10
78.2016656308
 20
209.8156259578
 11
72.0839913628
 21
212.2809678949
  0
LINE
  5
252
100
AcDbEntity
  8
0
100
AcDbLine
 62
7
  6
CONTINUOUS
 10
72.7069539516
 20
213.826831429
 11
81.9821373677
 21
210.0890550048
  0
LINE
  5
253
100
AcDbEntity
  8
0
100
AcDbLine
 62
7
  6
CONTINUOUS
 10
81.2652934557
 20
211.7256158784
 11
74.3582418315
 21
214.5090664651
  0
LINE
  5
254
100
AcDbEntity
  8
0
100
AcDbLine
 62
7
  6
CONTINUOUS
 10
82.8482930867
 20
218.4999402751
 11
81.9394416094
 21
219.0908082682
  0
LINE
  5
255
100
AcDbEntity
  8
0
100
AcDbLine
 62
7
  6
CONTINUOUS
 10
78.1088762973
 20
204.4622898577
 11
77.4805765236
 21
204.0416452469
  0
LINE
  5
256
100
AcDbEntity
  8
0
100
AcDbLine
 62
7
  6
CONTINUOUS
 10
69.0577216658
 20
202.4944425284
 11
68.154207458
 21
201.9600922068
  0
LINE
  5
257
100
AcDbEntity
  8
0
100
AcDbLine
 62
7
  6
CONTINUOUS
 10
76.9695664462
 20
220.4197612025
 11
75.8687081566
 21
219.9649385822
  0
LINE
  5
258
100
AcDbEntity
  8
RUNDUNGEN
100
AcDbLine
 62
7
  6
CONTINUOUS
 10
53.9279346754
 20
182.740690625
 11
80.8082133841
 21
186.9981085241
  0
LINE
  5
259
100
AcDbEntity
  8
0
100
AcDbLine
 62
7
  6
CONTINUOUS
 10
72.6205934583
 20
198.8125150686
 11
77.3877871054
 21
198.6883085382
  0
LINE
  5
25A
100
AcDbEntity
  8
0
100
AcDbLine
 62
7
  6
CONTINUOUS
 10
69.6134878572
 20
201.596634971
 11
70.2833910386
 21
201.5512863291
  0
LINE
  5
25B
100
AcDbEntity
  8
0
100
AcDbLine
 62
7
  6
CONTINUOUS
 10
70.7506130916
 20
202.7106842561
 11
70.0807099102
 21
202.756032898
  0
LINE
  5
25C
100
AcDbEntity
  8
0
100
AcDbLine
 62
7
  6
CONTINUOUS
 10
76.7328026288
 20
203.8937599795
 11
75.8655553657
 21
204.0186363227
  0
LINE
  5
25D
100
AcDbEntity
  8
RUNDUNGEN
100
AcDbLine
 62
7
  6
CONTINUOUS
 10
220.8665414657
 20
182.740690625
 11
193.986262757
 21
186.9981085241
  0
LINE
  5
25E
100
AcDbEntity
  8
0
100
AcDbLine
 62
7
  6
CONTINUOUS
 10
78.5120547128
 20
219.1243176798
 11
81.4722195564
 21
217.9314103412
  0
LINE
  5
25F
100
AcDbEntity
  8
0
100
AcDbLine
 62
7
  6
CONTINUOUS
 10
81.9394416094
 20
219.0908082682
 11
78.9792767658
 21
220.2837156068
  0
LINE
  5
260
100
AcDbEntity
  8
0
100
AcDbLine
 62
7
  6
CONTINUOUS
 10
196.3546721203
 20
208.2052877846
 11
195.3218281469
 21
208.1253812499
  0
LINE
  5
261
100
AcDbEntity
  8
0
100
AcDbLine
 62
7
  6
CONTINUOUS
 10
194.9040106715
 20
206.5606688021
 11
196.6664196152
 21
206.5948585999
  0
LINE
  5
262
100
AcDbEntity
  8
0
100
AcDbLine
 62
7
  6
CONTINUOUS
 10
77.9328796492
 20
200.0409398216
 11
72.6931270138
 21
200.130967569
  0
LINE
  5
263
100
AcDbEntity
  8
0
100
AcDbLine
 62
7
  6
CONTINUOUS
 10
69.0630584897
 20
201.369223108
 11
69.6134878572
 21
201.596634971
  0
LINE
  5
264
100
AcDbEntity
  8
0
100
AcDbLine
 62
7
  6
CONTINUOUS
 10
77.4080432177
 20
202.7231929672
 11
78.5089015764
 21
203.1780155596
  0
LINE
  5
265
100
AcDbEntity
  8
0
100
AcDbLine
 62
7
  6
CONTINUOUS
 10
76.462925103
 20
202.6548354568
 11
77.4080432177
 21
202.7231929672
  0
LINE
  5
266
100
AcDbEntity
  8
0
100
AcDbLine
 62
7
  6
CONTINUOUS
 10
77.6448074498
 20
219.249194023
 11
78.5120547128
 21
219.1243176798
  0
LINE
  5
267
100
AcDbEntity
  8
0
100
AcDbLine
 62
7
  6
CONTINUOUS
 10
78.9792767658
 20
220.2837156068
 11
77.9146846455
 21
220.4881193213
  0
LINE
  5
268
100
AcDbEntity
  8
0
100
AcDbLine
 62
7
  6
CONTINUOUS
 10
77.4805765236
 20
204.0416452469
 11
76.7328026288
 21
203.8937599795
  0
LINE
  5
269
100
AcDbEntity
  8
0
100
AcDbLine
 62
7
  6
CONTINUOUS
 10
70.0807099102
 20
202.756032898
 11
69.0577216658
 21
202.4944425284
  0
LINE
  5
26A
100
AcDbEntity
  8
0
100
AcDbLine
 62
7
  6
CONTINUOUS
 10
77.9146846455
 20
220.4881193213
 11
76.9695664462
 21
220.4197612025
  0
LINE
  5
26B
100
AcDbEntity
  8
0
100
AcDbLine
 62
7
  6
CONTINUOUS
 10
195.3218281469
 20
208.1253812499
 11
194.1659783376
 21
208.3424364719
  0
LINE
  5
26C
100
AcDbEntity
  8
0
100
AcDbLine
 62
7
  6
CONTINUOUS
 10
193.3218761294
 20
206.9490625533
 11
194.9040106715
 21
206.5606688021
  0
LINE
  5
26D
100
AcDbEntity
  8
0
100
AcDbLine
 62
7
  6
CONTINUOUS
 10
76.8970330021
 20
219.1013089785
 11
77.6448074498
 21
219.249194023
  0
LINE
  5
26E
100
AcDbEntity
  8
0
100
AcDbLine
 62
7
  6
CONTINUOUS
 10
202.5497321722
 20
221.5566304846
 11
194.6644625747
 21
218.2904448744
  0
LINE
  5
26F
100
AcDbEntity
  8
0
100
AcDbLine
 62
7
  6
CONTINUOUS
 10
196.7958873411
 20
217.433751068
 11
201.6483612663
 21
219.4437115788
  0
LINE
  5
270
100
AcDbEntity
  8
0
100
AcDbLine
 62
7
  6
CONTINUOUS
 10
194.1659783376
 20
208.3424364719
 11
193.1904030362
 21
208.982075287
  0
LINE
  5
271
100
AcDbEntity
  8
0
100
AcDbLine
 62
7
  6
CONTINUOUS
 10
191.7970106378
 20
208.0570008156
 11
193.3218761294
 21
206.9490625533
  0
LINE
  5
272
100
AcDbEntity
  8
0
100
AcDbLine
 62
7
  6
CONTINUOUS
 10
196.9612312547
 20
208.4565328045
 11
196.3546721203
 21
208.2052877846
  0
LINE
  5
273
100
AcDbEntity
  8
0
100
AcDbLine
 62
7
  6
CONTINUOUS
 10
205.2155174439
 20
210.8318347557
 11
206.73191528
 21
211.4599473054
  0
LINE
  5
274
100
AcDbEntity
  8
0
100
AcDbLine
 62
7
  6
CONTINUOUS
 10
196.6664196152
 20
206.5948585999
 11
197.8795378841
 21
207.0973486397
  0
LINE
  5
275
100
AcDbEntity
  8
0
100
AcDbLine
 62
7
  6
CONTINUOUS
 10
195.5255002682
 20
216.2117159971
 11
196.9273605845
 21
215.400738272
  0
LINE
  5
276
100
AcDbEntity
  8
0
100
AcDbLine
 62
7
  6
CONTINUOUS
 10
203.4127750464
 20
206.605995955
 11
202.1996567775
 21
206.1035059152
  0
LINE
  5
277
100
AcDbEntity
  8
0
100
AcDbLine
 62
7
  6
CONTINUOUS
 10
206.8230556629
 20
205.2352858767
 11
204.3968182755
 21
204.2303054453
  0
LINE
  5
278
100
AcDbEntity
  8
0
100
AcDbLine
 62
7
  6
CONTINUOUS
 10
203.1837000066
 20
203.7278154056
 11
197.1181080249
 21
201.2153649429
  0
LINE
  5
279
100
AcDbEntity
  8
0
100
AcDbLine
 62
7
  6
CONTINUOUS
 10
198.339694082
 20
199.9818042257
 11
203.7987267169
 21
202.2430095805
  0
LINE
  5
27A
100
AcDbEntity
  8
0
100
AcDbLine
 62
7
  6
CONTINUOUS
 10
205.0118449858
 20
202.7454996202
 11
207.4380823732
 21
203.7504800516
  0
LINE
  5
27B
100
AcDbEntity
  8
0
100
AcDbLine
 62
7
  6
CONTINUOUS
 10
198.320752973
 20
216.3258122416
 11
196.7958873411
 21
217.433751068
  0
LINE
  5
27C
100
AcDbEntity
  8
0
100
AcDbLine
 62
7
  6
CONTINUOUS
 10
193.1904030362
 20
208.982075287
 11
192.3951020304
 21
210.0442976071
  0
LINE
  5
27D
100
AcDbEntity
  8
0
100
AcDbLine
 62
7
  6
CONTINUOUS
 10
190.8787039819
 20
209.4161849694
 11
191.7970106378
 21
208.0570008156
  0
LINE
  5
27E
100
AcDbEntity
  8
RUNDUNGEN
100
AcDbLine
 62
7
  6
CONTINUOUS
 10
187.4627906079
 20
192.1409725294
 11
186.0607490655
 21
195.525800236
  0
LINE
  5
27F
100
AcDbEntity
  8
0
100
AcDbLine
 62
7
  6
CONTINUOUS
 10
190.9678383489
 20
216.063429407
 11
190.1237361187
 21
214.6700555415
  0
LINE
  5
280
100
AcDbEntity
  8
0
100
AcDbLine
 62
7
  6
CONTINUOUS
 10
191.9349460449
 20
217.159842109
 11
190.9678383489
 21
216.063429407
  0
LINE
  5
281
100
AcDbEntity
  8
0
100
AcDbLine
 62
7
  6
CONTINUOUS
 10
191.7058707047
 20
214.2816616841
 11
192.6729783788
 21
215.3780744392
  0
LINE
  5
282
100
AcDbEntity
  8
0
100
AcDbLine
 62
7
  6
CONTINUOUS
 10
197.7480651095
 20
209.1303615053
 11
196.9612312547
 21
208.4565328045
  0
LINE
  5
283
100
AcDbEntity
  8
0
100
AcDbLine
 62
7
  6
CONTINUOUS
 10
196.4139464857
 20
196.0529274456
 11
197.6270648608
 21
196.5554175293
  0
LINE
  5
284
100
AcDbEntity
  8
0
100
AcDbLine
 62
7
  6
CONTINUOUS
 10
205.151785761
 20
198.9764360855
 11
206.3649040299
 21
199.4789261252
  0
LINE
  5
285
100
AcDbEntity
  8
RUNDUNGEN
100
AcDbLine
 62
7
  6
CONTINUOUS
 10
172.2214304158
 20
247.5082589455
 11
139.3106552324
 21
261.1403483747
  0
LINE
  5
286
100
AcDbEntity
  8
0
100
AcDbLine
 62
7
  6
CONTINUOUS
 10
196.9273605845
 20
215.400738272
 11
197.7226616783
 21
214.3385157396
  0
LINE
  5
287
100
AcDbEntity
  8
RUNDUNGEN
100
AcDbLine
 62
7
  6
CONTINUOUS
 10
188.5595002381
 20
211.8915035211
 11
174.9274109165
 21
244.8022784448
  0
LINE
  5
288
100
AcDbEntity
  8
0
100
AcDbLine
 62
7
  6
CONTINUOUS
 10
190.140671648
 20
211.1979526393
 11
190.8787039819
 21
209.4161849694
  0
LINE
  5
289
100
AcDbEntity
  8
0
100
AcDbLine
 62
7
  6
CONTINUOUS
 10
190.1237361187
 20
214.6700555415
 11
189.8289242676
 21
212.8083816225
  0
LINE
  5
28A
100
AcDbEntity
  8
RUNDUNGEN
100
AcDbLine
 62
7
  6
CONTINUOUS
 10
186.0605982715
 20
202.0317856594
 11
188.5593548037
 21
208.0643175684
  0
LINE
  5
28B
100
AcDbEntity
  8
0
100
AcDbLine
 62
7
  6
CONTINUOUS
 10
197.8795378841
 20
207.0973486397
 11
199.1499252498
 21
208.3193842051
  0
LINE
  5
28C
100
AcDbEntity
  8
0
100
AcDbLine
 62
7
  6
CONTINUOUS
 10
197.5528607915
 20
199.3079747632
 11
198.339694082
 21
199.9818042257
  0
LINE
  5
28D
100
AcDbEntity
  8
0
100
AcDbLine
 62
7
  6
CONTINUOUS
 10
199.2390595144
 20
214.9666282892
 11
198.320752973
 21
216.3258122416
  0
LINE
  5
28E
100
AcDbEntity
  8
0
100
AcDbLine
 62
7
  6
CONTINUOUS
 10
192.3951020304
 20
210.0442976071
 11
191.6570696966
 21
211.8260652769
  0
LINE
  5
28F
100
AcDbEntity
  8
0
100
AcDbLine
 62
7
  6
CONTINUOUS
 10
192.6729783788
 20
215.3780744392
 11
191.9349460449
 21
217.159842109
  0
LINE
  5
290
100
AcDbEntity
  8
0
100
AcDbLine
 62
7
  6
CONTINUOUS
 10
194.6644625747
 20
218.2904448744
 11
195.5255002682
 21
216.2117159971
  0
LINE
  5
291
100
AcDbEntity
  8
0
100
AcDbLine
 62
7
  6
CONTINUOUS
 10
195.9791937457
 20
197.9603176364
 11
196.4139464857
 21
196.0529274456
  0
LINE
  5
292
100
AcDbEntity
  8
0
100
AcDbLine
 62
7
  6
CONTINUOUS
 10
189.8289242676
 20
212.8083816225
 11
190.140671648
 21
211.1979526393
  0
LINE
  5
293
100
AcDbEntity
  8
0
100
AcDbLine
 62
7
  6
CONTINUOUS
 10
191.6570696966
 20
211.8260652769
 11
191.4683277372
 21
213.1395328293
  0
LINE
  5
294
100
AcDbEntity
  8
0
100
AcDbLine
 62
7
  6
CONTINUOUS
 10
195.9134571725
 20
198.9768239922
 11
195.9791937457
 21
197.9603176364
  0
LINE
  5
295
100
AcDbEntity
  8
0
100
AcDbLine
 62
7
  6
CONTINUOUS
 10
191.4683277372
 20
213.1395328293
 11
191.7058707047
 21
214.2816616841
  0
LINE
  5
296
100
AcDbEntity
  8
0
100
AcDbLine
 62
7
  6
CONTINUOUS
 10
199.1499252498
 20
208.3193842051
 11
199.9940273518
 21
209.7127580798
  0
LINE
  5
297
100
AcDbEntity
  8
0
100
AcDbLine
 62
7
  6
CONTINUOUS
 10
198.4118929159
 20
210.101151875
 11
197.7480651095
 21
209.1303615053
  0
LINE
  5
298
100
AcDbEntity
  8
0
100
AcDbLine
 62
7
  6
CONTINUOUS
 10
197.1181080249
 20
201.2153649429
 11
196.1510001932
 21
200.118952869
  0
LINE
  5
299
100
AcDbEntity
  8
0
100
AcDbLine
 62
7
  6
CONTINUOUS
 10
197.7226616783
 20
214.3385157396
 11
198.4606940121
 21
212.5567480697
  0
LINE
  5
29A
100
AcDbEntity
  8
0
100
AcDbLine
 62
7
  6
CONTINUOUS
 10
202.1996567775
 20
206.1035059152
 11
203.1837000066
 21
203.7278154056
  0
LINE
  5
29B
100
AcDbEntity
  8
0
100
AcDbLine
 62
7
  6
CONTINUOUS
 10
203.7987267169
 20
202.2430095805
 11
205.151785761
 21
198.9764360855
  0
LINE
  5
29C
100
AcDbEntity
  8
0
100
AcDbLine
 62
7
  6
CONTINUOUS
 10
199.9770918482
 20
213.1848606194
 11
199.2390595144
 21
214.9666282892
  0
LINE
  5
29D
100
AcDbEntity
  8
0
100
AcDbLine
 62
7
  6
CONTINUOUS
 10
206.3649040299
 20
199.4789261252
 11
205.0118449858
 21
202.7454996202
  0
LINE
  5
29E
100
AcDbEntity
  8
0
100
AcDbLine
 62
7
  6
CONTINUOUS
 10
204.3968182755
 20
204.2303054453
 11
203.4127750464
 21
206.605995955
  0
LINE
  5
29F
100
AcDbEntity
  8
0
100
AcDbLine
 62
7
  6
CONTINUOUS
 10
207.4380823732
 20
203.7504800516
 11
206.8230556629
 21
205.2352858767
  0
LINE
  5
2A0
100
AcDbEntity
  8
0
100
AcDbLine
 62
7
  6
CONTINUOUS
 10
201.6483612663
 20
219.4437115788
 11
205.2155174439
 21
210.8318347557
  0
LINE
  5
2A1
100
AcDbEntity
  8
0
100
AcDbLine
 62
7
  6
CONTINUOUS
 10
197.6270648608
 20
196.5554175293
 11
197.315317824
 21
198.1658459084
  0
LINE
  5
2A2
100
AcDbEntity
  8
0
100
AcDbLine
 62
7
  6
CONTINUOUS
 10
198.4606940121
 20
212.5567480697
 11
198.6494358835
 21
211.2432807298
  0
LINE
  5
2A3
100
AcDbEntity
  8
0
100
AcDbLine
 62
7
  6
CONTINUOUS
 10
199.9940273518
 20
209.7127580798
 11
200.2888393432
 21
211.5744314347
  0
LINE
  5
2A4
100
AcDbEntity
  8
0
100
AcDbLine
 62
7
  6
CONTINUOUS
 10
196.1510001932
 20
200.118952869
 11
195.9134571725
 21
198.9768239922
  0
LINE
  5
2A5
100
AcDbEntity
  8
0
100
AcDbLine
 62
7
  6
CONTINUOUS
 10
198.6494358835
 20
211.2432807298
 11
198.4118929159
 21
210.101151875
  0
LINE
  5
2A6
100
AcDbEntity
  8
0
100
AcDbLine
 62
7
  6
CONTINUOUS
 10
197.315317824
 20
198.1658459084
 11
197.5528607915
 21
199.3079747632
  0
LINE
  5
2A7
100
AcDbEntity
  8
0
100
AcDbLine
 62
7
  6
CONTINUOUS
 10
206.73191528
 20
211.4599473054
 11
202.5497321722
 21
221.5566304846
  0
LINE
  5
2A8
100
AcDbEntity
  8
0
100
AcDbLine
 62
7
  6
CONTINUOUS
 10
200.2888393432
 20
211.5744314347
 11
199.9770918482
 21
213.1848606194
  0
LINE
  5
2A9
100
AcDbEntity
  8
RUNDUNGEN
100
AcDbLine
 62
7
  6
CONTINUOUS
 10
222.2554310582
 20
189.9570555362
 11
210.3309280228
 21
218.7453524889
  0
LINE
  5
2AA
100
AcDbEntity
  8
RUNDUNGEN
100
AcDbLine
 62
7
  6
CONTINUOUS
 10
223.3972380705
 20
168.4780860996
 11
223.3972380705
 21
184.2168040507
  0
LINE
  5
2AB
100
AcDbEntity
  8
RUNDUNGEN
100
AcDbLine
 62
7
  6
CONTINUOUS
 10
336.1204549651
 20
168.4780860996
 11
285.1204549651
 21
168.4780860996
  0
LINE
  5
2AC
100
AcDbEntity
  8
RUNDUNGEN
100
AcDbLine
 62
7
  6
CONTINUOUS
 10
285.1204549651
 20
168.4780860996
 11
285.1204549651
 21
175.5372686478
  0
LINE
  5
2AD
100
AcDbEntity
  8
0
100
AcDbLine
 62
7
  6
CONTINUOUS
 10
318.3204549651
 20
192.6980860996
 11
319.3490263941
 21
192.6980860996
  0
LINE
  5
2AE
100
AcDbEntity
  8
0
100
AcDbLine
 62
7
  6
CONTINUOUS
 10
318.3204549651
 20
196.4358625238
 11
319.3490263941
 21
196.4358625238
  0
LINE
  5
2AF
100
AcDbEntity
  8
0
100
AcDbLine
 62
7
  6
CONTINUOUS
 10
318.3204549651
 20
201.0734542318
 11
319.3490263941
 21
201.0734542318
  0
LINE
  5
2B0
100
AcDbEntity
  8
0
100
AcDbLine
 62
7
  6
CONTINUOUS
 10
318.3204549651
 20
201.9600922068
 11
319.3490263941
 21
201.9600922068
  0
LINE
  5
2B1
100
AcDbEntity
  8
0
100
AcDbLine
 62
7
  6
CONTINUOUS
 10
318.3204549651
 20
202.4944425284
 11
319.3490263941
 21
202.4944425284
  0
LINE
  5
2B2
100
AcDbEntity
  8
0
100
AcDbLine
 62
7
  6
CONTINUOUS
 10
318.3204549651
 20
202.756032898
 11
319.3490263941
 21
202.756032898
  0
LINE
  5
2B3
100
AcDbEntity
  8
0
100
AcDbLine
 62
7
  6
CONTINUOUS
 10
318.3204549651
 20
202.8592378429
 11
319.3490263941
 21
202.8592378429
  0
LINE
  5
2B4
100
AcDbEntity
  8
BEZUGSACHSEN
100
AcDbLine
 62
7
  6
CONTINUOUS
 10
297.1204549651
 20
213.5323166315
 11
297.1204549651
 21
257.22081707
  0
LINE
  5
2B5
100
AcDbEntity
  8
0
100
AcDbLine
 62
7
  6
CONTINUOUS
 10
318.3204549651
 20
205.3245797799
 11
319.3490263941
 21
205.3245797799
  0
LINE
  5
2B6
100
AcDbEntity
  8
0
100
AcDbLine
 62
7
  6
CONTINUOUS
 10
318.3204549651
 20
206.4839782598
 11
319.3490263941
 21
206.4839782598
  0
LINE
  5
2B7
100
AcDbEntity
  8
0
100
AcDbLine
 62
7
  6
CONTINUOUS
 10
318.3204549651
 20
206.7810857117
 11
319.3490263941
 21
206.7810857117
  0
LINE
  5
2B8
100
AcDbEntity
  8
0
100
AcDbLine
 62
7
  6
CONTINUOUS
 10
301.8918835361
 20
209.0650349803
 11
301.8918835361
 21
217.5987928204
  0
LINE
  5
2B9
100
AcDbEntity
  8
0
100
AcDbLine
 62
7
  6
CONTINUOUS
 10
301.8918835361
 20
218.6894418894
 11
301.8918835361
 21
227.2231997296
  0
LINE
  5
2BA
100
AcDbEntity
  8
RUNDUNGEN
100
AcDbLine
 62
7
  6
CONTINUOUS
 10
302.9204549651
 20
183.1317898612
 11
302.9204549651
 21
262.475492121
  0
LINE
  5
2BB
100
AcDbEntity
  8
RUNDUNGEN
100
AcDbLine
 62
7
  6
CONTINUOUS
 10
285.2712234132
 20
176.3923190062
 11
288.120901316
 21
184.221744697
  0
LINE
  5
2BC
100
AcDbEntity
  8
BEZUGSACHSEN
100
AcDbLine
 62
7
  6
CONTINUOUS
 10
288.120901316
 20
184.221744697
 11
295.5525909775
 21
204.6401442302
  0
LINE
  5
2BD
100
AcDbEntity
  8
0
100
AcDbLine
 62
7
  6
CONTINUOUS
 10
318.3204549651
 20
207.5198390279
 11
319.3490263941
 21
207.5198390279
  0
LINE
  5
2BE
100
AcDbEntity
  8
0
100
AcDbLine
 62
7
  6
CONTINUOUS
 10
318.3204549651
 20
208.1448860805
 11
319.3490263941
 21
208.1448860805
  0
LINE
  5
2BF
100
AcDbEntity
  8
0
100
AcDbLine
 62
7
  6
CONTINUOUS
 10
318.3204549651
 20
208.6562280308
 11
319.3490263941
 21
208.6562280308
  0
LINE
  5
2C0
100
AcDbEntity
  8
0
100
AcDbLine
 62
7
  6
CONTINUOUS
 10
302.9204549651
 20
209.0650349803
 11
301.8918835361
 21
209.0650349803
  0
LINE
  5
2C1
100
AcDbEntity
  8
0
100
AcDbLine
 62
7
  6
CONTINUOUS
 10
302.9204549651
 20
209.6626075385
 11
301.8918835361
 21
209.6626075385
  0
LINE
  5
2C2
100
AcDbEntity
  8
0
100
AcDbLine
 62
7
  6
CONTINUOUS
 10
318.3204549651
 20
211.1215699679
 11
319.3490263941
 21
211.1215699679
  0
LINE
  5
2C3
100
AcDbEntity
  8
0
100
AcDbLine
 62
7
  6
CONTINUOUS
 10
302.9204549651
 20
211.8690445729
 11
301.8918835361
 21
211.8690445729
  0
LINE
  5
2C4
100
AcDbEntity
  8
0
100
AcDbLine
 62
7
  6
CONTINUOUS
 10
318.3204549651
 20
212.2809678949
 11
319.3490263941
 21
212.2809678949
  0
LINE
  5
2C5
100
AcDbEntity
  8
0
100
AcDbLine
 62
7
  6
CONTINUOUS
 10
302.9204549651
 20
212.4028819993
 11
301.8918835361
 21
212.4028819993
  0
LINE
  5
2C6
100
AcDbEntity
  8
0
100
AcDbLine
 62
7
  6
CONTINUOUS
 10
302.9204549651
 20
213.0004545575
 11
301.8918835361
 21
213.0004545575
  0
LINE
  5
2C7
100
AcDbEntity
  8
0
100
AcDbLine
 62
7
  6
CONTINUOUS
 10
318.3204549651
 20
213.826831429
 11
319.3490263941
 21
213.826831429
  0
LINE
  5
2C8
100
AcDbEntity
  8
0
100
AcDbLine
 62
7
  6
CONTINUOUS
 10
302.9204549651
 20
217.5992163769
 11
301.8918835361
 21
217.5992163769
  0
LINE
  5
2C9
100
AcDbEntity
  8
0
100
AcDbLine
 62
7
  6
CONTINUOUS
 10
318.3204549651
 20
218.4644231371
 11
319.3490263941
 21
218.4644231371
  0
LINE
  5
2CA
100
AcDbEntity
  8
0
100
AcDbLine
 62
7
  6
CONTINUOUS
 10
302.9204549651
 20
218.6894418894
 11
301.8918835361
 21
218.6894418894
  0
LINE
  5
2CB
100
AcDbEntity
  8
0
100
AcDbLine
 62
7
  6
CONTINUOUS
 10
302.9204549651
 20
219.2870144476
 11
301.8918835361
 21
219.2870144476
  0
LINE
  5
2CC
100
AcDbEntity
  8
0
100
AcDbLine
 62
7
  6
CONTINUOUS
 10
318.3204549651
 20
219.3510616649
 11
319.3490263941
 21
219.3510616649
  0
LINE
  5
2CD
100
AcDbEntity
  8
0
100
AcDbLine
 62
7
  6
CONTINUOUS
 10
318.3204549651
 20
219.9649385822
 11
319.3490263941
 21
219.9649385822
  0
LINE
  5
2CE
100
AcDbEntity
  8
0
100
AcDbLine
 62
7
  6
CONTINUOUS
 10
318.3204549651
 20
220.4197612025
 11
319.3490263941
 21
220.4197612025
  0
LINE
  5
2CF
100
AcDbEntity
  8
0
100
AcDbLine
 62
7
  6
CONTINUOUS
 10
318.3204549651
 20
220.4881193213
 11
319.3490263941
 21
220.4881193213
  0
LINE
  5
2D0
100
AcDbEntity
  8
0
100
AcDbLine
 62
7
  6
CONTINUOUS
 10
302.9204549651
 20
222.0272889084
 11
301.8918835361
 21
222.0272889084
  0
LINE
  5
2D1
100
AcDbEntity
  8
RUNDUNGEN
100
AcDbLine
 62
7
  6
CONTINUOUS
 10
318.3204549651
 20
262.4776868401
 11
318.3204549651
 21
183.1317898612
  0
LINE
  5
2D2
100
AcDbEntity
  8
0
100
AcDbLine
 62
7
  6
CONTINUOUS
 10
302.9204549651
 20
222.6248614666
 11
301.8918835361
 21
222.6248614666
  0
LINE
  5
2D3
100
AcDbEntity
  8
0
100
AcDbLine
 62
7
  6
CONTINUOUS
 10
319.3490263941
 20
220.4881193213
 11
319.3490263941
 21
192.6980860996
  0
LINE
  5
2D4
100
AcDbEntity
  8
0
100
AcDbLine
 62
7
  6
CONTINUOUS
 10
302.9204549651
 20
227.223623286
 11
301.8918835361
 21
227.223623286
  0
LINE
  5
2D5
100
AcDbEntity
  8
RUNDUNGEN
100
AcDbLine
 62
7
  6
CONTINUOUS
 10
330.1781815201
 20
192.3043482099
 11
330.4142445427
 21
191.6557703858
  0
LINE
  5
2D6
100
AcDbEntity
  8
RUNDUNGEN
100
AcDbLine
 62
7
  6
CONTINUOUS
 10
335.9696865171
 20
176.3923190061
 11
332.5120042699
 21
185.892222904
  0
LINE
  5
2D7
100
AcDbEntity
  8
BEZUGSACHSEN
100
AcDbLine
 62
7
  6
CONTINUOUS
 10
333.1200086142
 20
184.221744697
 11
325.6883189528
 21
204.6401442302
  0
LINE
  5
2D8
100
AcDbEntity
  8
BEZUGSACHSEN
100
AcDbLine
 62
7
  6
CONTINUOUS
 10
324.1204549651
 20
213.5323166315
 11
324.1204549651
 21
257.1676663849
  0
LINE
  5
2D9
100
AcDbEntity
  8
RUNDUNGEN
100
AcDbLine
 62
7
  6
CONTINUOUS
 10
324.1204549651
 20
243.5355769557
 11
324.1204549651
 21
257.22081707
  0
LINE
  5
2DA
100
AcDbEntity
  8
RUNDUNGEN
100
AcDbLine
 62
7
  6
CONTINUOUS
 10
336.1204549651
 20
175.5372848552
 11
336.1204549651
 21
168.4780860996
  0
LINE
  5
2DB
100
AcDbEntity
  8
BEZUGSACHSEN
100
AcDbLine
 62
7
  6
CONTINUOUS
 10
301.4204549651
 20
261.5209507122
 11
302.9204549651
 21
261.5209507122
  0
LINE
  5
2DC
100
AcDbEntity
  8
RUNDUNGEN
100
AcDbLine
 62
7
  6
CONTINUOUS
 10
318.3204549651
 20
261.5209507122
 11
319.8204549651
 21
261.5209507122
  0
LINE
  5
2DD
100
AcDbEntity
  8
0
100
AcDbLine
 62
7
  6
CONTINUOUS
 10
307.9204549651
 20
267.4780860996
 11
313.3204549651
 21
267.4780860996
  0
LINE
  5
2DE
100
AcDbEntity
  8
BEZUGSACHSEN
100
AcDbLine
 62
7
  6
CONTINUOUS
 10
51.3972380705
 20
91.1875985477
 11
51.3972380705
 21
85.7875985477
  0
LINE
  5
2DF
100
AcDbEntity
  8
RUNDUNGEN
100
AcDbLine
 62
7
  6
CONTINUOUS
 10
51.3972380705
 20
65.9875985477
 11
51.3972380705
 21
110.9875985477
  0
LINE
  5
2E0
100
AcDbEntity
  8
0
100
AcDbLine
 62
7
  6
CONTINUOUS
 10
65.6986231563
 20
80.7875985477
 11
65.6986231563
 21
79.7590271187
  0
LINE
  5
2E1
100
AcDbEntity
  8
0
100
AcDbLine
 62
7
  6
CONTINUOUS
 10
67.5675113684
 20
80.7875985477
 11
67.5675113684
 21
79.7590271187
  0
LINE
  5
2E2
100
AcDbEntity
  8
0
100
AcDbLine
 62
7
  6
CONTINUOUS
 10
68.154207458
 20
80.7875985477
 11
68.154207458
 21
79.7590271187
  0
LINE
  5
2E3
100
AcDbEntity
  8
0
100
AcDbLine
 62
7
  6
CONTINUOUS
 10
69.0577216658
 20
80.7875985477
 11
69.0577216658
 21
79.7590271187
  0
LINE
  5
2E4
100
AcDbEntity
  8
0
100
AcDbLine
 62
7
  6
CONTINUOUS
 10
69.1792874489
 20
96.1875985477
 11
69.1792874489
 21
97.2161699767
  0
LINE
  5
2E5
100
AcDbEntity
  8
0
100
AcDbLine
 62
7
  6
CONTINUOUS
 10
69.2806588219
 20
80.7875985477
 11
69.2806588219
 21
79.7590271187
  0
LINE
  5
2E6
100
AcDbEntity
  8
0
100
AcDbLine
 62
7
  6
CONTINUOUS
 10
69.7478810977
 20
80.7875985477
 11
69.7478810977
 21
79.7590271187
  0
LINE
  5
2E7
100
AcDbEntity
  8
0
100
AcDbLine
 62
7
  6
CONTINUOUS
 10
71.6167693097
 20
80.7875985477
 11
71.6167693097
 21
79.7590271187
  0
LINE
  5
2E8
100
AcDbEntity
  8
0
100
AcDbLine
 62
7
  6
CONTINUOUS
 10
72.0839913628
 20
80.7875985477
 11
72.0839913628
 21
79.7590271187
  0
LINE
  5
2E9
100
AcDbEntity
  8
0
100
AcDbLine
 62
7
  6
CONTINUOUS
 10
72.5392874489
 20
96.1875985477
 11
72.5392874489
 21
97.2161699767
  0
LINE
  5
2EA
100
AcDbEntity
  8
0
100
AcDbLine
 62
7
  6
CONTINUOUS
 10
72.7069539516
 20
80.7875985477
 11
72.7069539516
 21
79.7590271187
  0
LINE
  5
2EB
100
AcDbEntity
  8
0
100
AcDbLine
 62
7
  6
CONTINUOUS
 10
74.5758421637
 20
80.7875985477
 11
74.5758421637
 21
79.7590271187
  0
LINE
  5
2EC
100
AcDbEntity
  8
0
100
AcDbLine
 62
7
  6
CONTINUOUS
 10
75.1625384761
 20
80.7875985477
 11
75.1625384761
 21
79.7590271187
  0
LINE
  5
2ED
100
AcDbEntity
  8
0
100
AcDbLine
 62
7
  6
CONTINUOUS
 10
75.8687081566
 20
80.7875985477
 11
75.8687081566
 21
79.7590271187
  0
LINE
  5
2EE
100
AcDbEntity
  8
0
100
AcDbLine
 62
7
  6
CONTINUOUS
 10
76.9695664462
 20
80.7875985477
 11
76.9695664462
 21
79.7590271187
  0
LINE
  5
2EF
100
AcDbEntity
  8
0
100
AcDbLine
 62
7
  6
CONTINUOUS
 10
77.9146846455
 20
80.7875985477
 11
77.9146846455
 21
79.7590271187
  0
LINE
  5
2F0
100
AcDbEntity
  8
0
100
AcDbLine
 62
7
  6
CONTINUOUS
 10
78.9792767658
 20
80.7875985477
 11
78.9792767658
 21
79.7590271187
  0
LINE
  5
2F1
100
AcDbEntity
  8
0
100
AcDbLine
 62
7
  6
CONTINUOUS
 10
81.9394416094
 20
80.7875985477
 11
81.9394416094
 21
79.7590271187
  0
LINE
  5
2F2
100
AcDbEntity
  8
0
100
AcDbLine
 62
7
  6
CONTINUOUS
 10
82.8482930867
 20
80.7875985477
 11
82.8482930867
 21
79.7590271187
  0
LINE
  5
2F3
100
AcDbEntity
  8
0
100
AcDbLine
 62
7
  6
CONTINUOUS
 10
83.4819294614
 20
80.7875985477
 11
83.4819294614
 21
79.7590271187
  0
LINE
  5
2F4
100
AcDbEntity
  8
0
100
AcDbLine
 62
7
  6
CONTINUOUS
 10
83.9598256768
 20
80.7875985477
 11
83.9598256768
 21
79.7590271187
  0
LINE
  5
2F5
100
AcDbEntity
  8
0
100
AcDbLine
 62
7
  6
CONTINUOUS
 10
84.043033266
 20
80.7875985477
 11
84.043033266
 21
79.7590271187
  0
LINE
  5
2F6
100
AcDbEntity
  8
0
100
AcDbLine
 62
7
  6
CONTINUOUS
 10
84.3733710583
 20
96.1875985477
 11
84.3733710583
 21
97.2161699767
  0
LWPOLYLINE
  5
2F7
100
AcDbEntity
  8
BEZUGSACHSEN
100
AcDbPolyline
 62
7
  6
CONTINUOUS
 90
18
 70
0
 10
85.8543740153
 20
79.0784412465
 10
85.8716020856
 20
78.6934662047
 10
85.9266187511
 20
78.2926201176
 10
86.0144098631
 20
77.9148699134
 10
86.1311476638
 20
77.5588098105
 10
86.27396941
 20
77.2233993556
 10
86.4417002656
 20
76.9062106258
 10
86.6314865914
 20
76.6093570668
 10
86.8413486611
 20
76.3331868874
 10
87.0683188789
 20
76.0792333371
 10
87.3095647752
 20
75.84832947
 10
87.5624023305
 20
75.6408214607
 10
87.824480723
 20
75.4565732218
 10
88.0923181456
 20
75.2959331355
 10
88.3628596736
 20
75.1584672111
 10
88.6331561342
 20
75.0432891224
 10
88.9008068223
 20
74.9489532326
 10
88.9370702411
 20
74.93758036
  0
LINE
  5
2F8
100
AcDbEntity
  8
BEZUGSACHSEN
100
AcDbLine
 62
7
  6
CONTINUOUS
 10
85.854373458
 20
79.078428271
 11
85.854373458
 21
80.7875985477
  0
LINE
  5
2F9
100
AcDbEntity
  8
BEZUGSACHSEN
100
AcDbLine
 62
7
  6
CONTINUOUS
 10
85.854373458
 20
96.1875985477
 11
85.854373458
 21
97.8967688244
  0
LINE
  5
2FA
100
AcDbEntity
  8
BEZUGSACHSEN
100
AcDbLine
 62
7
  6
CONTINUOUS
 10
89.9595952336
 20
102.6432398609
 11
89.9592234665
 21
102.6429311198
  0
LINE
  5
2FB
100
AcDbEntity
  8
BEZUGSACHSEN
100
AcDbLine
 62
7
  6
CONTINUOUS
 10
89.9595952336
 20
74.3319572345
 11
89.9592116141
 21
74.3322758202
  0
LINE
  5
2FC
100
AcDbEntity
  8
BEZUGSACHSEN
100
AcDbLine
 62
7
  6
CONTINUOUS
 10
89.9592234665
 20
102.6429311198
 11
89.8071736776
 21
102.521490888
  0
LWPOLYLINE
  5
2FD
100
AcDbEntity
  8
BEZUGSACHSEN
100
AcDbPolyline
 62
7
  6
CONTINUOUS
 90
6
 70
0
 10
89.8071736776
 20
102.521490888
 10
89.6043790232
 20
102.3749160222
 10
89.4172754862
 20
102.2562695761
 10
89.2411542819
 20
102.1604766274
 10
89.0732844507
 20
102.0852923523
 10
88.9463753619
 20
102.0404899025
  0
LINE
  5
2FE
100
AcDbEntity
  8
BEZUGSACHSEN
100
AcDbLine
 62
7
  6
CONTINUOUS
 10
89.8063707419
 20
74.4543217557
 11
89.9592116141
 21
74.3322758202
  0
LWPOLYLINE
  5
2FF
100
AcDbEntity
  8
BEZUGSACHSEN
100
AcDbPolyline
 62
7
  6
CONTINUOUS
 90
18
 70
0
 10
88.9371877703
 20
102.0376531363
 10
88.9017785309
 20
102.0265529232
 10
88.6349714749
 20
101.9326117325
 10
88.3653573542
 20
101.8178919288
 10
88.095394905
 20
101.6809615561
 10
87.8280646448
 20
101.5209489284
 10
87.5664348274
 20
101.3374347497
 10
87.3140110867
 20
101.1308010188
 10
87.0731090749
 20
100.9009085054
 10
86.8463807895
 20
100.6480964991
 10
86.6366579921
 20
100.3732282613
 10
86.4469002992
 20
100.077877681
 10
86.279022464
 20
99.7623609882
 10
86.1358284149
 20
99.4287546708
 10
86.0184469044
 20
99.0746314574
 10
85.9296816796
 20
98.6989186463
 10
85.8732996425
 20
98.300211884
 10
85.8543740156
 20
97.8967558119
  0
LINE
  5
300
100
AcDbEntity
  8
BEZUGSACHSEN
100
AcDbLine
 62
7
  6
CONTINUOUS
 10
88.9463767145
 20
102.0404855762
 11
88.9371877703
 21
102.0376531363
  0
LINE
  5
301
100
AcDbEntity
  8
RUNDUNGEN
100
AcDbLine
 62
7
  6
CONTINUOUS
 10
54.3972380705
 20
62.9875985477
 11
220.3972380705
 21
62.9875985477
  0
LINE
  5
302
100
AcDbEntity
  8
BEZUGSACHSEN
100
AcDbLine
 62
7
  6
CONTINUOUS
 10
88.9462970669
 20
74.9347359553
 11
88.9370702411
 21
74.93758036
  0
LWPOLYLINE
  5
303
100
AcDbEntity
  8
BEZUGSACHSEN
100
AcDbPolyline
 62
7
  6
CONTINUOUS
 90
6
 70
0
 10
88.946295714
 20
74.9347316287
 10
89.0711643919
 20
74.8907431225
 10
89.2379016871
 20
74.8163336548
 10
89.4144548924
 20
74.7205872787
 10
89.6027364297
 20
74.6013937931
 10
89.8063707419
 20
74.4543217557
  0
LINE
  5
304
100
AcDbEntity
  8
BEZUGSACHSEN
100
AcDbLine
 62
7
  6
CONTINUOUS
 10
91.5689094079
 20
74.9875985477
 11
137.1293596679
 21
74.9875985477
  0
LINE
  5
305
100
AcDbEntity
  8
RUNDUNGEN
100
AcDbLine
 62
7
  6
CONTINUOUS
 10
104.2185844845
 20
74.9875985477
 11
183.2255619145
 21
74.9875985477
  0
LINE
  5
306
100
AcDbEntity
  8
0
100
AcDbLine
 62
7
  6
CONTINUOUS
 10
207.4380823732
 20
79.7590271187
 11
189.8289242676
 21
79.7590271187
  0
LINE
  5
307
100
AcDbEntity
  8
0
100
AcDbLine
 62
7
  6
CONTINUOUS
 10
84.043033266
 20
79.7590271187
 11
65.6986231563
 21
79.7590271187
  0
LINE
  5
308
100
AcDbEntity
  8
RUNDUNGEN
100
AcDbLine
 62
7
  6
CONTINUOUS
 10
218.3972380705
 20
80.7875985477
 11
56.3972380705
 21
80.7875985477
  0
LINE
  5
309
100
AcDbEntity
  8
RUNDUNGEN
100
AcDbLine
 62
7
  6
CONTINUOUS
 10
56.3972380705
 20
96.1875985477
 11
200.5087578147
 21
96.1875985477
  0
LINE
  5
30A
100
AcDbEntity
  8
RUNDUNGEN
100
AcDbLine
 62
7
  6
CONTINUOUS
 10
201.369256822
 20
96.1875985477
 11
218.3972380705
 21
96.1875985477
  0
LINE
  5
30B
100
AcDbEntity
  8
0
100
AcDbLine
 62
7
  6
CONTINUOUS
 10
69.1792874489
 20
97.2161699767
 11
84.3732219927
 21
97.2161699767
  0
LINE
  5
30C
100
AcDbEntity
  8
0
100
AcDbLine
 62
7
  6
CONTINUOUS
 10
186.0423103492
 20
97.2161699767
 11
212.0356954548
 21
97.2161699767
  0
LINE
  5
30D
100
AcDbEntity
  8
BEZUGSACHSEN
100
AcDbLine
 62
7
  6
CONTINUOUS
 10
91.5689094079
 20
101.9875985477
 11
183.2255619145
 21
101.9875985477
  0
LWPOLYLINE
  5
30E
100
AcDbEntity
  8
RUNDUNGEN
100
AcDbPolyline
 62
7
  6
CONTINUOUS
 90
18
 70
0
 10
185.8572883708
 20
74.9375439591
 10
185.8926976102
 20
74.9486441722
 10
186.1595046662
 20
75.042585363
 10
186.4291187868
 20
75.1573051667
 10
186.699081236
 20
75.2942355394
 10
186.9664114963
 20
75.454248167
 10
187.2280413137
 20
75.6377623457
 10
187.4804650544
 20
75.8443960766
 10
187.7213670662
 20
76.07428859
 10
187.9480953516
 20
76.3271005963
 10
188.1578181489
 20
76.6019688341
 10
188.3475758418
 20
76.8973194144
 10
188.5154536771
 20
77.2128361072
 10
188.6586477262
 20
77.5464424246
 10
188.7760292367
 20
77.900565638
 10
188.8647944615
 20
78.2762784491
 10
188.9211764986
 20
78.6749852114
 10
188.9401021255
 20
79.0784412835
  0
LINE
  5
30F
100
AcDbEntity
  8
RUNDUNGEN
100
AcDbLine
 62
7
  6
CONTINUOUS
 10
185.8480994266
 20
74.9347115192
 11
185.8572883708
 21
74.9375439591
  0
LINE
  5
310
100
AcDbEntity
  8
RUNDUNGEN
100
AcDbLine
 62
7
  6
CONTINUOUS
 10
54.3972380705
 20
113.9875985477
 11
220.3972380705
 21
113.9875985477
  0
LINE
  5
311
100
AcDbEntity
  8
BEZUGSACHSEN
100
AcDbLine
 62
7
  6
CONTINUOUS
 10
185.8481790742
 20
102.0404611401
 11
185.8574058999
 21
102.0376167355
  0
LWPOLYLINE
  5
312
100
AcDbEntity
  8
BEZUGSACHSEN
100
AcDbPolyline
 62
7
  6
CONTINUOUS
 90
6
 70
0
 10
185.848180427
 20
102.0404654667
 10
185.7233117492
 20
102.0844539729
 10
185.556574454
 20
102.1588634406
 10
185.3800212487
 20
102.2546098167
 10
185.1917397114
 20
102.3738033024
 10
184.9881053991
 20
102.5208753398
  0
LINE
  5
313
100
AcDbEntity
  8
RUNDUNGEN
100
AcDbLine
 62
7
  6
CONTINUOUS
 10
184.8348809075
 20
74.3319572345
 11
184.8352526746
 21
74.3322659757
  0
LINE
  5
314
100
AcDbEntity
  8
RUNDUNGEN
100
AcDbLine
 62
7
  6
CONTINUOUS
 10
184.8352526746
 20
74.3322659757
 11
184.9873024635
 21
74.4537062075
  0
LWPOLYLINE
  5
315
100
AcDbEntity
  8
RUNDUNGEN
100
AcDbPolyline
 62
7
  6
CONTINUOUS
 90
6
 70
0
 10
184.9873024635
 20
74.4537062075
 10
185.1900971179
 20
74.6002810733
 10
185.3772006549
 20
74.7189275194
 10
185.5533218592
 20
74.814720468
 10
185.7211916904
 20
74.8899047432
 10
185.8481007792
 20
74.9347071929
  0
LINE
  5
316
100
AcDbEntity
  8
BEZUGSACHSEN
100
AcDbLine
 62
7
  6
CONTINUOUS
 10
184.9881053991
 20
102.5208753398
 11
184.835264527
 21
102.6429212752
  0
LINE
  5
317
100
AcDbEntity
  8
BEZUGSACHSEN
100
AcDbLine
 62
7
  6
CONTINUOUS
 10
184.8348809075
 20
102.6432398609
 11
184.835264527
 21
102.6429212752
  0
LWPOLYLINE
  5
318
100
AcDbEntity
  8
BEZUGSACHSEN
100
AcDbPolyline
 62
7
  6
CONTINUOUS
 90
18
 70
0
 10
188.9401021258
 20
97.8967558489
 10
188.9228740555
 20
98.2817308907
 10
188.86785739
 20
98.6825769778
 10
188.7800662779
 20
99.060327182
 10
188.6633284773
 20
99.4163872849
 10
188.5205067311
 20
99.7517977398
 10
188.3527758755
 20
100.0689864696
 10
188.1629895496
 20
100.3658400286
 10
187.95312748
 20
100.642010208
 10
187.7261572621
 20
100.8959637584
 10
187.4849113658
 20
101.1268676254
 10
187.2320738106
 20
101.3343756347
 10
186.9699954181
 20
101.5186238736
 10
186.7021579954
 20
101.6792639599
 10
186.4316164675
 20
101.8167298843
 10
186.1613200068
 20
101.931907973
 10
185.8936693188
 20
102.0262438628
 10
185.8574058999
 20
102.0376167355
  0
LINE
  5
319
100
AcDbEntity
  8
0
100
AcDbLine
 62
7
  6
CONTINUOUS
 10
186.0423103492
 20
96.1875985477
 11
186.0423103492
 21
97.2161699767
  0
LINE
  5
31A
100
AcDbEntity
  8
BEZUGSACHSEN
100
AcDbLine
 62
7
  6
CONTINUOUS
 10
188.9401026831
 20
97.8967688244
 11
188.9401026831
 21
97.2161699767
  0
LINE
  5
31B
100
AcDbEntity
  8
RUNDUNGEN
100
AcDbLine
 62
7
  6
CONTINUOUS
 10
188.9401026831
 20
80.7875985477
 11
188.9401026831
 21
79.078428271
  0
LINE
  5
31C
100
AcDbEntity
  8
0
100
AcDbLine
 62
7
  6
CONTINUOUS
 10
189.8289242676
 20
80.7875985477
 11
189.8289242676
 21
79.7590271187
  0
LINE
  5
31D
100
AcDbEntity
  8
0
100
AcDbLine
 62
7
  6
CONTINUOUS
 10
190.1237361187
 20
80.7875985477
 11
190.1237361187
 21
79.7590271187
  0
LINE
  5
31E
100
AcDbEntity
  8
0
100
AcDbLine
 62
7
  6
CONTINUOUS
 10
190.9678383489
 20
80.7875985477
 11
190.9678383489
 21
79.7590271187
  0
LINE
  5
31F
100
AcDbEntity
  8
0
100
AcDbLine
 62
7
  6
CONTINUOUS
 10
191.9349460449
 20
80.7875985477
 11
191.9349460449
 21
79.7590271187
  0
LINE
  5
320
100
AcDbEntity
  8
0
100
AcDbLine
 62
7
  6
CONTINUOUS
 10
192.6729783788
 20
80.7875985477
 11
192.6729783788
 21
79.7590271187
  0
LINE
  5
321
100
AcDbEntity
  8
0
100
AcDbLine
 62
7
  6
CONTINUOUS
 10
193.1904030362
 20
80.7875985477
 11
193.1904030362
 21
79.7590271187
  0
LINE
  5
322
100
AcDbEntity
  8
0
100
AcDbLine
 62
7
  6
CONTINUOUS
 10
194.1659783376
 20
80.7875985477
 11
194.1659783376
 21
79.7590271187
  0
LINE
  5
323
100
AcDbEntity
  8
0
100
AcDbLine
 62
7
  6
CONTINUOUS
 10
194.6644625747
 20
80.7875985477
 11
194.6644625747
 21
79.7590271187
  0
LINE
  5
324
100
AcDbEntity
  8
RUNDUNGEN
100
AcDbLine
 62
7
  6
CONTINUOUS
 10
200.7624793962
 20
96.182467445
 11
200.7624793962
 21
97.2161699767
  0
LINE
  5
325
100
AcDbEntity
  8
0
100
AcDbLine
 62
7
  6
CONTINUOUS
 10
201.6554078309
 20
96.1875985477
 11
201.6554078309
 21
97.2161699767
  0
LINE
  5
326
100
AcDbEntity
  8
0
100
AcDbLine
 62
7
  6
CONTINUOUS
 10
202.2442224262
 20
96.1875985477
 11
202.2442224262
 21
97.2161699767
  0
LINE
  5
327
100
AcDbEntity
  8
0
100
AcDbLine
 62
7
  6
CONTINUOUS
 10
202.5497321722
 20
80.7875985477
 11
202.5497321722
 21
79.7590271187
  0
LINE
  5
328
100
AcDbEntity
  8
0
100
AcDbLine
 62
7
  6
CONTINUOUS
 10
203.6798629328
 20
96.1875985477
 11
203.6798629328
 21
97.2161699767
  0
LINE
  5
329
100
AcDbEntity
  8
0
100
AcDbLine
 62
7
  6
CONTINUOUS
 10
204.9519215276
 20
96.1875985477
 11
204.9519215276
 21
97.2161699767
  0
LINE
  5
32A
100
AcDbEntity
  8
0
100
AcDbLine
 62
7
  6
CONTINUOUS
 10
205.785199446
 20
96.1875985477
 11
205.785199446
 21
97.2161699767
  0
LINE
  5
32B
100
AcDbEntity
  8
0
100
AcDbLine
 62
7
  6
CONTINUOUS
 10
206.73191528
 20
80.7875985477
 11
206.73191528
 21
79.7590271187
  0
LINE
  5
32C
100
AcDbEntity
  8
0
100
AcDbLine
 62
7
  6
CONTINUOUS
 10
206.8230556629
 20
80.7875985477
 11
206.8230556629
 21
79.7590271187
  0
LINE
  5
32D
100
AcDbEntity
  8
0
100
AcDbLine
 62
7
  6
CONTINUOUS
 10
207.4380823732
 20
80.7875985477
 11
207.4380823732
 21
79.7590271187
  0
LINE
  5
32E
100
AcDbEntity
  8
0
100
AcDbLine
 62
7
  6
CONTINUOUS
 10
208.4639834726
 20
96.1875985477
 11
208.4639834726
 21
97.2161699767
  0
LINE
  5
32F
100
AcDbEntity
  8
0
100
AcDbLine
 62
7
  6
CONTINUOUS
 10
211.1427674991
 20
96.1875985477
 11
211.1427674991
 21
97.2161699767
  0
LINE
  5
330
100
AcDbEntity
  8
0
100
AcDbLine
 62
7
  6
CONTINUOUS
 10
212.0356954548
 20
96.1875985477
 11
212.0356954548
 21
97.2161699767
  0
LINE
  5
331
100
AcDbEntity
  8
RUNDUNGEN
100
AcDbLine
 62
7
  6
CONTINUOUS
 10
223.3972380705
 20
110.9875985477
 11
223.3972380705
 21
65.9875985477
  0
LINE
  5
332
100
AcDbEntity
  8
BEZUGSACHSEN
100
AcDbLine
 62
7
  6
CONTINUOUS
 10
223.3972380705
 20
85.7875985477
 11
223.3972380705
 21
91.1875985477
  0
ARC
  5
333
100
AcDbEntity
  8
RUNDUNGEN
100
AcDbCircle
 62
7
  6
CONTINUOUS
 10
66.3972380705
 20
184.2168040507
 40
15.0
100
AcDbArc
 50
157.5
 51
180.0
  0
ARC
  5
334
100
AcDbEntity
  8
BEZUGSACHSEN
100
AcDbCircle
 62
7
  6
CONTINUOUS
 10
79.4785799143
 20
195.3934688403
 40
8.5
100
AcDbArc
 50
278.9995940461
 51
337.5022826682
  0
ARC
  5
335
100
AcDbEntity
  8
BEZUGSACHSEN
100
AcDbCircle
 62
7
  6
CONTINUOUS
 10
80.8809024696
 20
198.7789749721
 40
8.5
100
AcDbArc
 50
337.4973328315
 51
22.500011033
  0
ARC
  5
336
100
AcDbEntity
  8
BEZUGSACHSEN
100
AcDbCircle
 62
7
  6
CONTINUOUS
 10
90.854373458
 20
209.9780860996
 40
5.0
100
AcDbArc
 50
157.4999967793
 51
202.5043581179
  0
ARC
  5
337
100
AcDbEntity
  8
RUNDUNGEN
100
AcDbCircle
 62
7
  6
CONTINUOUS
 10
54.3972380705
 20
179.7776256032
 40
3.0
100
AcDbArc
 50
99.0
 51
180.0
  0
ARC
  5
338
100
AcDbEntity
  8
BEZUGSACHSEN
100
AcDbCircle
 62
7
  6
CONTINUOUS
 10
104.4864628871
 20
242.888861283
 40
5.0
100
AcDbArc
 50
112.5
 51
157.5
  0
ARC
  5
339
100
AcDbEntity
  8
RUNDUNGEN
100
AcDbCircle
 62
7
  6
CONTINUOUS
 10
137.3972380705
 20
188.5352289567
 40
78.9428571429
100
AcDbArc
 50
22.5
 51
157.5
  0
CIRCLE
  5
33A
100
AcDbEntity
  8
RUNDUNGEN
100
AcDbCircle
 62
7
  6
CONTINUOUS
 10
137.3972380705
 20
209.9780860996
 40
30.0
  0
ARC
  5
33B
100
AcDbEntity
  8
RUNDUNGEN
100
AcDbCircle
 62
7
  6
CONTINUOUS
 10
208.3972380705
 20
184.2168040507
 40
15.0
100
AcDbArc
 50
0.0
 51
22.5
  0
ARC
  5
33C
100
AcDbEntity
  8
RUNDUNGEN
100
AcDbCircle
 62
7
  6
CONTINUOUS
 10
195.3158962268
 20
195.3934688403
 40
8.5
100
AcDbArc
 50
202.4977173318
 51
261.0004059539
  0
ARC
  5
33D
100
AcDbEntity
  8
RUNDUNGEN
100
AcDbCircle
 62
7
  6
CONTINUOUS
 10
193.9135736715
 20
198.7789749721
 40
8.5
100
AcDbArc
 50
157.499988967
 51
202.5026671685
  0
ARC
  5
33E
100
AcDbEntity
  8
RUNDUNGEN
100
AcDbCircle
 62
7
  6
CONTINUOUS
 10
183.9401026831
 20
209.9780860996
 40
5.0
100
AcDbArc
 50
337.4956418821
 51
22.5000032207
  0
ARC
  5
33F
100
AcDbEntity
  8
RUNDUNGEN
100
AcDbCircle
 62
7
  6
CONTINUOUS
 10
220.3972380705
 20
179.7776057667
 40
3.0
100
AcDbArc
 50
0.0003788493
 51
81.0000592594
  0
ARC
  5
340
100
AcDbEntity
  8
RUNDUNGEN
100
AcDbCircle
 62
7
  6
CONTINUOUS
 10
170.3080132539
 20
242.888861283
 40
5.0
100
AcDbArc
 50
22.5
 51
67.5
  0
ARC
  5
341
100
AcDbEntity
  8
RUNDUNGEN
100
AcDbCircle
 62
7
  6
CONTINUOUS
 10
137.3972380705
 20
256.5209507122
 40
5.0
100
AcDbArc
 50
67.5
 51
112.5
  0
ARC
  5
342
100
AcDbEntity
  8
RUNDUNGEN
100
AcDbCircle
 62
7
  6
CONTINUOUS
 10
350.1204549651
 20
213.5323166315
 40
26.0
100
AcDbArc
 50
182.3067144211
 51
183.9093229916
  0
ARC
  5
343
100
AcDbEntity
  8
RUNDUNGEN
100
AcDbCircle
 62
7
  6
CONTINUOUS
 10
350.1204549651
 20
213.5323166315
 40
26.0
100
AcDbArc
 50
187.9943543949
 51
198.8589329421
  0
ARC
  5
344
100
AcDbEntity
  8
BEZUGSACHSEN
100
AcDbCircle
 62
7
  6
CONTINUOUS
 10
350.1204549651
 20
213.5323166315
 40
26.0
100
AcDbArc
 50
179.9999743636
 51
199.9991760999
  0
ARC
  5
345
100
AcDbEntity
  8
BEZUGSACHSEN
100
AcDbCircle
 62
7
  6
CONTINUOUS
 10
271.1204549651
 20
213.5323166315
 40
26.0
100
AcDbArc
 50
340.0008239001
 51
0.0000256364
  0
ARC
  5
346
100
AcDbEntity
  8
RUNDUNGEN
100
AcDbCircle
 62
7
  6
CONTINUOUS
 10
307.9204549651
 20
262.4780860996
 40
5.0
100
AcDbArc
 50
90.0
 51
180.0
  0
ARC
  5
347
100
AcDbEntity
  8
RUNDUNGEN
100
AcDbCircle
 62
7
  6
CONTINUOUS
 10
313.3204549651
 20
262.4780860996
 40
5.0
100
AcDbArc
 50
0.0
 51
90.0
  0
ARC
  5
348
100
AcDbEntity
  8
BEZUGSACHSEN
100
AcDbCircle
 62
7
  6
CONTINUOUS
 10
301.4204549651
 20
257.2209507122
 40
4.3
100
AcDbArc
 50
90.0
 51
180.0
  0
ARC
  5
349
100
AcDbEntity
  8
RUNDUNGEN
100
AcDbCircle
 62
7
  6
CONTINUOUS
 10
319.8204549651
 20
257.2209507122
 40
4.3
100
AcDbArc
 50
0.0
 51
90.0
  0
ARC
  5
34A
100
AcDbEntity
  8
RUNDUNGEN
100
AcDbCircle
 62
7
  6
CONTINUOUS
 10
333.6204549651
 20
175.5372686478
 40
2.5
100
AcDbArc
 50
0.0003714151
 51
20.0
  0
ARC
  5
34B
100
AcDbEntity
  8
RUNDUNGEN
100
AcDbCircle
 62
7
  6
CONTINUOUS
 10
287.6204549651
 20
175.5372686478
 40
2.5
100
AcDbArc
 50
160.0008029828
 51
180.0000289463
  0
ARC
  5
34C
100
AcDbEntity
  8
RUNDUNGEN
100
AcDbCircle
 62
7
  6
CONTINUOUS
 10
201.348705243
 20
62.7394777673
 40
33.4481272918
100
AcDbArc
 50
89.9642490084
 51
91.0042411759
  0
ARC
  5
34D
100
AcDbEntity
  8
RUNDUNGEN
100
AcDbCircle
 62
7
  6
CONTINUOUS
 10
200.5083394164
 20
89.8913442367
 40
6.2962543112
100
AcDbArc
 50
87.6867031832
 51
90.0004740682
  0
ARC
  5
34E
100
AcDbEntity
  8
RUNDUNGEN
100
AcDbCircle
 62
7
  6
CONTINUOUS
 10
218.3972380705
 20
91.1875985477
 40
5.0
100
AcDbArc
 50
0.0
 51
90.0
  0
ARC
  5
34F
100
AcDbEntity
  8
RUNDUNGEN
100
AcDbCircle
 62
7
  6
CONTINUOUS
 10
56.3972380705
 20
85.7875985477
 40
5.0
100
AcDbArc
 50
180.0
 51
270.0
  0
ARC
  5
350
100
AcDbEntity
  8
RUNDUNGEN
100
AcDbCircle
 62
7
  6
CONTINUOUS
 10
56.3972380705
 20
91.1875985477
 40
5.0
100
AcDbArc
 50
90.0
 51
180.0
  0
ARC
  5
351
100
AcDbEntity
  8
RUNDUNGEN
100
AcDbCircle
 62
7
  6
CONTINUOUS
 10
218.3972380705
 20
85.7875985477
 40
5.0
100
AcDbArc
 50
270.0
 51
360.0
  0
ARC
  5
352
100
AcDbEntity
  8
RUNDUNGEN
100
AcDbCircle
 62
7
  6
CONTINUOUS
 10
54.3972380705
 20
110.9875985477
 40
3.0
100
AcDbArc
 50
89.9807993719
 51
180.0
  0
ARC
  5
353
100
AcDbEntity
  8
RUNDUNGEN
100
AcDbCircle
 62
7
  6
CONTINUOUS
 10
54.3972380705
 20
65.9875985477
 40
3.0
100
AcDbArc
 50
180.0
 51
270.0192010396
  0
ARC
  5
354
100
AcDbEntity
  8
RUNDUNGEN
100
AcDbCircle
 62
7
  6
CONTINUOUS
 10
220.3972380705
 20
110.9875985477
 40
3.0
100
AcDbArc
 50
0.0
 51
90.0159540125
  0
ARC
  5
355
100
AcDbEntity
  8
RUNDUNGEN
100
AcDbCircle
 62
7
  6
CONTINUOUS
 10
220.3972380705
 20
65.9875985477
 40
3.0
100
AcDbArc
 50
269.9807993719
 51
360.0
  0
SPLINE
  5
356
100
AcDbEntity
  8
RUNDUNGEN
100
AcDbSpline
 62
7
  6
CONTINUOUS
 70
0
 71
3
 72
13
 73
9
 74
0
 42
0.0000001
 43
0.0000001
 44
0.0000000001
 40
0.0
 40
0.0
 40
0.0
 40
0.0
 40
0.2877081041
 40
0.5637367226
 40
0.6924451963
 40
0.8110329698
 40
0.9152709421
 40
1.0
 40
1.0
 40
1.0
 40
1.0
 10
307.9204549651
 20
179.7776256032
 30
0.0
 10
307.5202920395
 20
180.0875904726
 30
0.0
 10
306.7362068494
 20
180.6948716085
 30
0.0
 10
305.7625499251
 20
181.4274341106
 30
0.0
 10
305.0099178071
 20
181.9577758392
 30
0.0
 10
304.492137489
 20
182.2967437998
 30
0.0
 10
304.022863834
 20
182.5658141822
 30
0.0
 10
303.7163365811
 20
182.7006488981
 30
0.0
 10
303.5727497379
 20
182.740690625
 30
0.0
  0
SPLINE
  5
357
100
AcDbEntity
  8
RUNDUNGEN
100
AcDbSpline
 62
7
  6
CONTINUOUS
 70
0
 71
3
 72
13
 73
9
 74
0
 42
0.0000001
 43
0.0000001
 44
0.0000000001
 40
0.0
 40
0.0
 40
0.0
 40
0.0
 40
0.0847292055
 40
0.1889682184
 40
0.3075579984
 40
0.4362672534
 40
0.7122936572
 40
1.0
 40
1.0
 40
1.0
 40
1.0
 10
317.6681601923
 20
182.740690625
 30
0.0
 10
317.524573099
 20
182.7006488283
 30
0.0
 10
317.2180439472
 20
182.5658132113
 30
0.0
 10
316.7487654616
 20
182.2967399405
 30
0.0
 10
316.2309799953
 20
181.9577675175
 30
0.0
 10
315.4783477454
 20
181.4274242465
 30
0.0
 10
314.5046949835
 20
180.6948655881
 30
0.0
 10
313.7206154407
 20
180.0875885748
 30
0.0
 10
313.3204549651
 20
179.7776256032
 30
0.0
  0
ELLIPSE
  5
358
100
AcDbEntity
  8
RUNDUNGEN
100
AcDbEllipse
 62
7
  6
CONTINUOUS
 10
307.9204549651
 20
183.1317898612
 30
0.0
 11
5.0
 21
0.0
 31
0.0
 40
0.1583844403
 41
3.1415926536
 42
3.6581167414
  0
ELLIPSE
  5
359
100
AcDbEntity
  8
RUNDUNGEN
100
AcDbEllipse
 62
7
  6
CONTINUOUS
 10
313.3204549651
 20
183.1317898612
 30
0.0
 11
5.0
 21
0.0
 31
0.0
 40
0.1583844403
 41
-0.5165240878
 42
-0.0
  0
ENDSEC
  0
SECTION
  2
OBJECTS
  0
DICTIONARY
  5
C
100
AcDbDictionary
280
0
281
1
  3
ACAD_GROUP
350
D
  3
ACAD_MLINESTYLE
350
17
  3
ACAD_LAYOUT
350
1A
  3
ACAD_PLOTSETTINGS
350
19
  3
ACAD_PLOTSTYLENAME
350
E
  0
DICTIONARY
  5
D
102
{ACAD_REACTORS
330
C
102
}
100
AcDbDictionary
280
0
281
1
  0
ACDBDICTIONARYWDFLT
  5
E
102
{ACAD_REACTORS
330
C
102
}
100
AcDbDictionary
281
1
  3
Normal
350
F
100
AcDbDictionaryWithDefault
340
F
  0
DICTIONARY
  5
17
102
{ACAD_REACTORS
330
C
102
}
100
AcDbDictionary
280
0
281
1
  3
Standard
350
18
  0
DICTIONARY
  5
19
102
{ACAD_REACTORS
330
C
102
}
100
AcDbDictionary
281
1
  0
DICTIONARY
  5
1A
102
{ACAD_REACTORS
330
C
102
}
100
AcDbDictionary
281
1
  3
Model
350
35A
  3
Layout1
350
35B
  0
ACDBPLACEHOLDER
  5
F
102
{ACAD_REACTORS
330
E
102
}
  0
MLINESTYLE
  5
18
102
{ACAD_REACTORS
330
17
102
}
100
AcDbMlineStyle
  2
STANDARD
 70
0
  3

 62
256
 51
90.0
 52
90.0
 71
2
 49
0.5
 62
256
  6
BYLAYER
 49
-0.5
 62
256
  6
BYLAYER
  0
LAYOUT
  5
35A
102
{ACAD_REACTORS
330
1A
102
}
100
AcDbPlotSettings
  1

  2
none_device
  4
ISO_A3_(420.00_x_297.00_MM)
  6

 40
0.0
 41
0.0
 42
0.0
 43
0.0
 44
420.0
 45
297.0
 46
0.0
 47
0.0
 48
0.0
 49
0.0
140
0.0
141
0.0
142
1.0
143
1.0
 70
1024
 72
1
 73
0
 74
0
  7

 75
0
147
1.0
148
0.0
149
0.0
100
AcDbLayout
  1
Model
 70
0
 71
0
 10
0.0
 20
0.0
 11
420.0
 21
297.0
 12
0.0
 22
0.0
 32
0.0
 14
0.0
 24
0.0
 34
0.0
 15
0.0
 25
0.0
 35
0.0
146
0.0
 13
0.0
 23
0.0
 33
0.0
 16
1.0
 26
0.0
 36
0.0
 17
0.0
 27
1.0
 37
0.0
 76
0
330
209
345
0
346
0
  0
LAYOUT
  5
35B
102
{ACAD_REACTORS
330
1A
102
}
100
AcDbPlotSettings
  1

  2
none_device
  4
ISO_A3_(420.00_x_297.00_MM)
  6

 40
0.0
 41
0.0
 42
0.0
 43
0.0
 44
420.0
 45
297.0
 46
0.0
 47
0.0
 48
0.0
 49
0.0
140
0.0
141
0.0
142
1.0
143
1.0
 70
0
 72
1
 73
0
 74
0
  7

 75
0
147
1.0
148
0.0
149
0.0
100
AcDbLayout
  1
Layout1
 70
0
 71
1
 10
0.0
 20
0.0
 11
420.0
 21
297.0
 12
0.0
 22
0.0
 32
0.0
 14
0.0
 24
0.0
 34
0.0
 15
0.0
 25
0.0
 35
0.0
146
0.0
 13
0.0
 23
0.0
 33
0.0
 16
1.0
 26
0.0
 36
0.0
 17
0.0
 27
1.0
 37
0.0
 76
0
330
20A
345
0
346
0
  0
ENDSEC
  0
EOF
