999
DXF file: 001-m33972-p1.dxf
999
Pro/ENGINEER 2011490 by Parametric Technology Corporation
  0
SECTION
  2
HEADER
  9
$ACADVER
  1
AC1015
  9
$DWGCODEPAGE
  3
ANSI_1252
  9
$EXTMAX
 10
420.0
 20
297.0
 30
0.0
  9
$EXTMIN
 10
0.0
 20
0.0
 30
0.0
  9
$LIMMIN
 10
0.0
 20
0.0
  9
$LIMMAX
 10
420.0
 20
297.0
  9
$VIEWCTR
 10
210.0
 20
148.5
  9
$VIEWSIZE
 40
297.0
  9
$CLAYER
  8
0
  9
$LTSCALE
 40
23.1
  9
$CELTYPE
  6
BYLAYER
  9
$DIMSCALE
 40
1.0
  9
$DIMASZ
 40
3.5
  9
$DIMEXO
 40
2.625
  9
$DIMDLI
 40
15.96
  9
$DIMEXE
 40
7.56
  9
$DIMCEN
 40
3.78
  9
$DIMLFAC
 40
1.0
  9
$DIMBLK
  1
_FILLED
  9
$DIMTXT
 40
3.5
  9
$DIMTOL
 70
1
  9
$DIMLIM
 70
0
  9
$DIMTFAC
 40
1.0
  9
$DIMTP
 40
0.005
  9
$DIMTM
 40
0.005
  9
$PDMODE
 70
3
  9
$PDSIZE
 40
0.3125
  9
$HANDSEED
  5
3AC
  9
$TILEMODE
 70
1
  9
$MEASUREMENT
 70
1
  9
$INSUNITS
 70
4
  0
ENDSEC
  0
SECTION
  2
CLASSES
  0
CLASS
  1
ACDBDICTIONARYWDFLT
  2
AcDbDictionaryWithDefault
  3
AutoCAD 2000
 90
0
280
0
281
0
  0
CLASS
  1
ACDBPLACEHOLDER
  2
AcDbPlaceHolder
  3
AutoCAD 2000
 90
0
280
0
281
0
  0
CLASS
  1
LAYOUT
  2
AcDbLayout
  3
AutoCAD 2000
 90
0
280
0
281
0
  0
ENDSEC
  0
SECTION
  2
TABLES
  0
TABLE
  2
VPORT
  5
8
100
AcDbSymbolTable
 70
2
  0
VPORT
  5
1F4
100
AcDbSymbolTableRecord
100
AcDbViewportTableRecord
  2
*ACTIVE
 70
0
 10
0.0
 20
0.0
 11
1.0
 21
1.0
 12
210.0
 22
148.5
 13
0.0
 23
0.0
 14
1.0
 24
1.0
 15
0.0
 25
0.0
 16
0.0
 26
0.0
 36
1.0
 17
0.0
 27
0.0
 37
0.0
 40
297.0
 41
1.4141414141
 42
50.0
 43
0.0
 44
0.0
 50
0.0
 51
0.0
 71
0
 72
100
 73
1
 74
1
 75
0
 76
0
 77
0
 78
0
  0
ENDTAB
  0
TABLE
  2
LTYPE
  5
5
100
AcDbSymbolTable
 70
6
  0
LTYPE
  5
14
100
AcDbSymbolTableRecord
100
AcDbLinetypeTableRecord
  2
BYBLOCK
 70
0
  3

 72
65
 73
0
 40
0.0
  0
LTYPE
  5
15
100
AcDbSymbolTableRecord
100
AcDbLinetypeTableRecord
  2
BYLAYER
 70
0
  3

 72
65
 73
0
 40
0.0
  0
LTYPE
  5
16
100
AcDbSymbolTableRecord
100
AcDbLinetypeTableRecord
  2
CONTINUOUS
 70
64
  3
Solid line
 72
65
 73
0
 40
0.0
  0
LTYPE
  5
1F5
100
AcDbSymbolTableRecord
100
AcDbLinetypeTableRecord
  2
CENTER
 70
64
  3
____ _ ____ _ ____ _ ____ _ ____ _ ____ _ ____
 72
65
 73
4
 40
0.6
 49
0.375
 74
0
 49
-0.075
 74
0
 49
0.075
 74
0
 49
-0.075
 74
0
  0
LTYPE
  5
1F6
100
AcDbSymbolTableRecord
100
AcDbLinetypeTableRecord
  2
HIDDEN
 70
64
  3
- - - - - - - - - - - - - - - - - - - -
 72
65
 73
2
 40
0.2
 49
0.1
 74
0
 49
-0.1
 74
0
  0
LTYPE
  5
1F7
100
AcDbSymbolTableRecord
100
AcDbLinetypeTableRecord
  2
PHANTOM
 70
64
  3
_____ _ _ _____ _ _ _____ _ _ _____
 72
65
 73
6
 40
0.8
 49
0.45
 74
0
 49
-0.05
 74
0
 49
0.1
 74
0
 49
-0.05
 74
0
 49
0.1
 74
0
 49
-0.05
 74
0
  0
LTYPE
  5
1F8
100
AcDbSymbolTableRecord
100
AcDbLinetypeTableRecord
  2
DOT
 70
64
  3
. . . . . . . . . . . . . . . . . . . .
 72
65
 73
2
 40
0.2
 49
0.1
 74
0
 49
-0.1
 74
0
  0
LTYPE
  5
1F9
100
AcDbSymbolTableRecord
100
AcDbLinetypeTableRecord
  2
DASHED
 70
64
  3
- - - - - - - - - - - - - - - - - - - -
 72
65
 73
2
 40
0.2
 49
0.1
 74
0
 49
-0.1
 74
0
  0
ENDTAB
  0
TABLE
  2
LAYER
  5
2
100
AcDbSymbolTable
 70
36
  0
LAYER
  5
10
100
AcDbSymbolTableRecord
100
AcDbLayerTableRecord
  2
0
 70
0
 62
7
  6
CONTINUOUS
370
-3
390
F
  0
LAYER
  5
1FA
100
AcDbSymbolTableRecord
100
AcDbLayerTableRecord
  2
DEFAULT_1
 70
0
 62
7
  6
CENTER
370
-3
390
F
  0
LAYER
  5
1FB
100
AcDbSymbolTableRecord
100
AcDbLayerTableRecord
  2
DEFAULT_2
 70
0
 62
8
  6
HIDDEN
370
-3
390
F
  0
LAYER
  5
1FC
100
AcDbSymbolTableRecord
100
AcDbLayerTableRecord
  2
DEFAULT_3
 70
0
 62
7
  6
PHANTOM
370
-3
390
F
  0
LAYER
  5
1FD
100
AcDbSymbolTableRecord
100
AcDbLayerTableRecord
  2
AUSFORMSCHRAEGEN
 70
0
 62
7
  6
CONTINUOUS
370
-3
390
F
  0
LAYER
  5
1FE
100
AcDbSymbolTableRecord
100
AcDbLayerTableRecord
  2
BEZUGSACHSEN
 70
0
 62
7
  6
CONTINUOUS
370
-3
390
F
  0
LAYER
  5
1FF
100
AcDbSymbolTableRecord
100
AcDbLayerTableRecord
  2
BEZUGSEBENEN
 70
0
 62
7
  6
CONTINUOUS
370
-3
390
F
  0
LAYER
  5
200
100
AcDbSymbolTableRecord
100
AcDbLayerTableRecord
  2
FLAECHEN
 70
0
 62
7
  6
CONTINUOUS
370
-3
390
F
  0
LAYER
  5
201
100
AcDbSymbolTableRecord
100
AcDbLayerTableRecord
  2
HILFEN
 70
0
 62
7
  6
CONTINUOUS
370
-3
390
F
  0
LAYER
  5
202
100
AcDbSymbolTableRecord
100
AcDbLayerTableRecord
  2
KURVEN
 70
0
 62
7
  6
CONTINUOUS
370
-3
390
F
  0
LAYER
  5
203
100
AcDbSymbolTableRecord
100
AcDbLayerTableRecord
  2
PLATZIERUNG
 70
0
 62
7
  6
CONTINUOUS
370
-3
390
F
  0
LAYER
  5
204
100
AcDbSymbolTableRecord
100
AcDbLayerTableRecord
  2
RUNDUNGEN
 70
0
 62
7
  6
CONTINUOUS
370
-3
390
F
  0
LAYER
  5
205
100
AcDbSymbolTableRecord
100
AcDbLayerTableRecord
  2
TEIL_STARTBEZUEGE
 70
0
 62
7
  6
CONTINUOUS
370
-3
390
F
  0
LAYER
  5
206
100
AcDbSymbolTableRecord
100
AcDbLayerTableRecord
  2
ZEICHNUNGSBEMASSUNGEN
 70
0
 62
7
  6
CONTINUOUS
370
-3
390
F
  0
ENDTAB
  0
TABLE
  2
STYLE
  5
3
100
AcDbSymbolTable
 70
1
  0
STYLE
  5
11
100
AcDbSymbolTableRecord
100
AcDbTextStyleTableRecord
  2
STANDARD
 70
0
 40
0.0
 41
0.7
 50
0.0
 71
0
 42
0.2
  3
txt
  4

  0
STYLE
  5
207
100
AcDbSymbolTableRecord
100
AcDbTextStyleTableRecord
  2
TEXTSTYLE_1
 70
0
 40
0.0
 41
0.8
 50
0.0
 71
0
 42
0.2
  3
gdt
  4

  0
ENDTAB
  0
TABLE
  2
VIEW
  5
6
100
AcDbSymbolTable
 70
0
  0
ENDTAB
  0
TABLE
  2
UCS
  5
7
100
AcDbSymbolTable
 70
0
  0
ENDTAB
  0
TABLE
  2
APPID
  5
9
100
AcDbSymbolTable
 70
1
  0
APPID
  5
208
100
AcDbSymbolTableRecord
100
AcDbRegAppTableRecord
  2
ACAD
 70
0
  0
ENDTAB
  0
TABLE
  2
BLOCK_RECORD
  5
1
100
AcDbSymbolTable
 70
0
  0
BLOCK_RECORD
  5
209
100
AcDbSymbolTableRecord
100
AcDbBlockTableRecord
  2
*Model_Space
  0
BLOCK_RECORD
  5
20A
100
AcDbSymbolTableRecord
100
AcDbBlockTableRecord
  2
*Paper_Space
  0
ENDTAB
  0
TABLE
  2
DIMSTYLE
  5
A
100
AcDbSymbolTable
 70
1
100
AcDbDimStyleTable
 71
0
  0
DIMSTYLE
105
20B
100
AcDbSymbolTableRecord
100
AcDbDimStyleTableRecord
  2
STANDARD
 70
0
  3

  4

 40
1.0
 41
3.5
 42
0.0625
 43
0.38
 44
0.18
 45
0.0
 46
0.0
 47
0.005
 48
0.005
140
3.5
141
0.09
142
0.0
143
25.4
144
1.0
145
0.0
146
1.0
147
0.09
 71
1.0
 72
0.0
 73
0
 74
0
 75
0
 76
0
 77
1
 78
8
170
0
171
2
172
0
173
0
174
0
175
0
176
0
177
0
178
5
270
2
271
3
272
3
273
2
274
2
275
0
280
0
281
0
282
0
283
1
284
8
285
0
286
0
287
3
288
0
340
11
  0
ENDTAB
  0
ENDSEC
  0
SECTION
  2
BLOCKS
  0
BLOCK
  5
20
100
AcDbEntity
  8
0
100
AcDbBlockBegin
  2
*Model_Space
 70
0
 10
0.0
 20
0.0
 30
0.0
  3
*Model_Space
  1

  0
ENDBLK
  5
21
100
AcDbEntity
  8
0
100
AcDbBlockEnd
  0
BLOCK
  5
1C
100
AcDbEntity
  8
0
100
AcDbBlockBegin
  2
*Paper_Space
 70
0
 10
0.0
 20
0.0
 30
0.0
  3
*Paper_Space
  1

  0
ENDBLK
  5
1D
100
AcDbEntity
  8
0
100
AcDbBlockEnd
  0
ENDSEC
  0
SECTION
  2
ENTITIES
  0
MTEXT
  5
20C
100
AcDbEntity
  8
0
100
AcDbMText
 62
5
  6
CONTINUOUS
  7
STANDARD
 71
1
 72
1
 10
298.2984089644
 20
192.6032532339
 30
0.0
 11
0.0
 21
1.0
 31
0.0
 44
0.9
  1
RUD ABA 3,2t
 40
4.0
 41
37.5238095238
  0
MTEXT
  5
20D
100
AcDbEntity
  8
0
100
AcDbMText
 62
5
  6
CONTINUOUS
  7
STANDARD
 71
1
 72
1
 10
112.4336024144
 20
106.4392665679
 30
0.0
 11
1.0
 21
0.0
 31
0.0
 44
0.9
  1
RUD ABA 3,2t
 40
4.0
 41
37.5238095238
  0
MTEXT
  5
20E
100
AcDbEntity
  8
0
100
AcDbMText
 62
5
  6
CONTINUOUS
  7
STANDARD
 71
1
 72
1
 10
115.1230598281
 20
188.0200998823
 30
0.0
 11
1.0
 21
0.0
 31
0.0
 44
0.9
  1
RUD ABA 3,2t
 40
4.0
 41
37.5238095238
  0
LINE
  5
20F
100
AcDbEntity
  8
0
100
AcDbLine
 62
7
  6
CONTINUOUS
 10
0.0
 20
0.0
 11
0.0
 21
297.0
  0
LINE
  5
210
100
AcDbEntity
  8
0
100
AcDbLine
 62
7
  6
CONTINUOUS
 10
0.0
 20
0.0
 11
420.0
 21
0.0
  0
LINE
  5
211
100
AcDbEntity
  8
0
100
AcDbLine
 62
7
  6
CONTINUOUS
 10
0.0
 20
297.0
 11
420.0
 21
297.0
  0
LINE
  5
212
100
AcDbEntity
  8
0
100
AcDbLine
 62
7
  6
CONTINUOUS
 10
420.0
 20
0.0
 11
420.0
 21
297.0
  0
LINE
  5
213
100
AcDbEntity
  8
RUNDUNGEN
100
AcDbLine
 62
7
  6
CONTINUOUS
 10
62.5503475104
 20
181.7855446058
 11
62.5503475104
 21
194.425538296
  0
LINE
  5
214
100
AcDbEntity
  8
0
100
AcDbLine
 62
7
  6
CONTINUOUS
 10
78.6637518611
 20
211.2439199526
 11
78.5980335855
 21
211.9895839895
  0
LINE
  5
215
100
AcDbEntity
  8
0
100
AcDbLine
 62
7
  6
CONTINUOUS
 10
77.8122646811
 20
211.4084098784
 11
77.7826518326
 21
210.8810623099
  0
LINE
  5
216
100
AcDbEntity
  8
RUNDUNGEN
100
AcDbLine
 62
7
  6
CONTINUOUS
 10
72.6831814563
 20
222.2978605369
 11
63.6534032118
 21
200.0713278035
  0
LINE
  5
217
100
AcDbEntity
  8
0
100
AcDbLine
 62
7
  6
CONTINUOUS
 10
77.6216026117
 20
211.8450432573
 11
77.8122646811
 21
211.4084098784
  0
LINE
  5
218
100
AcDbEntity
  8
0
100
AcDbLine
 62
7
  6
CONTINUOUS
 10
80.1865951552
 20
225.9089628205
 11
78.6872682008
 21
222.2005913877
  0
LINE
  5
219
100
AcDbEntity
  8
0
100
AcDbLine
 62
7
  6
CONTINUOUS
 10
78.1874926684
 20
220.9644678715
 11
77.8126609298
 21
220.0373750133
  0
LINE
  5
21A
100
AcDbEntity
  8
0
100
AcDbLine
 62
7
  6
CONTINUOUS
 10
76.3133339754
 20
216.3290035805
 11
75.938502058
 21
215.4019102802
  0
LINE
  5
21B
100
AcDbEntity
  8
0
100
AcDbLine
 62
7
  6
CONTINUOUS
 10
74.5641190761
 20
212.0025699475
 11
73.0647921216
 21
208.2941985147
  0
LINE
  5
21C
100
AcDbEntity
  8
0
100
AcDbLine
 62
7
  6
CONTINUOUS
 10
74.2286389646
 20
208.9022856759
 11
75.4156060773
 21
211.8380795795
  0
LINE
  5
21D
100
AcDbEntity
  8
0
100
AcDbLine
 62
7
  6
CONTINUOUS
 10
80.0089180647
 20
222.7448774096
 11
81.1334132805
 21
225.5261559842
  0
LINE
  5
21E
100
AcDbEntity
  8
0
100
AcDbLine
 62
7
  6
CONTINUOUS
 10
78.5980335855
 20
211.9895839895
 11
78.1542373712
 21
212.7083349761
  0
LINE
  5
21F
100
AcDbEntity
  8
0
100
AcDbLine
 62
7
  6
CONTINUOUS
 10
83.6217605172
 20
217.1493850192
 11
83.7499508001
 21
216.5582362667
  0
LINE
  5
220
100
AcDbEntity
  8
0
100
AcDbLine
 62
7
  6
CONTINUOUS
 10
84.7592407403
 20
216.3299442781
 11
84.6935226019
 21
217.0756087739
  0
LINE
  5
221
100
AcDbEntity
  8
0
100
AcDbLine
 62
7
  6
CONTINUOUS
 10
87.7578950066
 20
223.7466880279
 11
87.6921765108
 21
224.4923516395
  0
LINE
  5
222
100
AcDbEntity
  8
0
100
AcDbLine
 62
7
  6
CONTINUOUS
 10
83.7499508001
 20
216.5582362667
 11
83.6578658761
 21
215.8763729271
  0
LINE
  5
223
100
AcDbEntity
  8
0
100
AcDbLine
 62
7
  6
CONTINUOUS
 10
86.7486043515
 20
223.9749782481
 11
86.656519785
 21
223.2931157927
  0
LINE
  5
224
100
AcDbEntity
  8
0
100
AcDbLine
 62
7
  6
CONTINUOUS
 10
84.6046841119
 20
215.493566046
 11
84.7592407403
 21
216.3299442781
  0
LINE
  5
225
100
AcDbEntity
  8
0
100
AcDbLine
 62
7
  6
CONTINUOUS
 10
87.6033380208
 20
222.9103089117
 11
87.7578950066
 21
223.7466880279
  0
LINE
  5
226
100
AcDbEntity
  8
0
100
AcDbLine
 62
7
  6
CONTINUOUS
 10
77.7826518326
 20
210.8810623099
 11
76.5956847199
 21
207.9452684063
  0
LINE
  5
227
100
AcDbEntity
  8
0
100
AcDbLine
 62
7
  6
CONTINUOUS
 10
77.5425028452
 20
207.56246157
 11
78.6045260748
 21
210.1892245945
  0
LINE
  5
228
100
AcDbEntity
  8
0
100
AcDbLine
 62
7
  6
CONTINUOUS
 10
86.656519785
 20
223.2931157927
 11
85.5320245692
 21
220.5118372181
  0
LINE
  5
229
100
AcDbEntity
  8
0
100
AcDbLine
 62
7
  6
CONTINUOUS
 10
83.6578658761
 20
215.8763729271
 11
83.4079779312
 21
215.2583107269
  0
LINE
  5
22A
100
AcDbEntity
  8
0
100
AcDbLine
 62
7
  6
CONTINUOUS
 10
80.6567581966
 20
226.6177396524
 11
80.1865951552
 21
225.9089628205
  0
LINE
  5
22B
100
AcDbEntity
  8
0
100
AcDbLine
 62
7
  6
CONTINUOUS
 10
75.0342819387
 20
212.7113463373
 11
74.5641190761
 21
212.0025699475
  0
LINE
  5
22C
100
AcDbEntity
  8
0
100
AcDbLine
 62
7
  6
CONTINUOUS
 10
81.1334132805
 20
225.5261559842
 11
81.5411038888
 21
226.0804161608
  0
LINE
  5
22D
100
AcDbEntity
  8
0
100
AcDbLine
 62
7
  6
CONTINUOUS
 10
77.2106654459
 20
212.1909620045
 11
77.6216026117
 21
211.8450432573
  0
LINE
  5
22E
100
AcDbEntity
  8
0
100
AcDbLine
 62
7
  6
CONTINUOUS
 10
84.6935226019
 20
217.0756087739
 11
84.3121984081
 21
217.948875554
  0
LINE
  5
22F
100
AcDbEntity
  8
0
100
AcDbLine
 62
7
  6
CONTINUOUS
 10
86.6204140686
 20
224.5661270007
 11
86.7486043515
 21
223.9749782481
  0
LINE
  5
230
100
AcDbEntity
  8
BEZUGSACHSEN
100
AcDbLine
 62
7
  6
CONTINUOUS
 10
90.1524083169
 20
217.3407464919
 11
100.6594783733
 21
244.2624824006
  0
LINE
  5
231
100
AcDbEntity
  8
0
100
AcDbLine
 62
7
  6
CONTINUOUS
 10
80.4815349872
 20
205.2955446058
 11
80.8563667258
 21
206.222637464
  0
LINE
  5
232
100
AcDbEntity
  8
0
100
AcDbLine
 62
7
  6
CONTINUOUS
 10
82.4181655771
 20
210.0855242258
 11
82.8554693913
 21
211.1671328551
  0
LINE
  5
233
100
AcDbEntity
  8
0
100
AcDbLine
 62
7
  6
CONTINUOUS
 10
84.354796167
 20
214.8755038459
 11
84.6046841119
 21
215.493566046
  0
LINE
  5
234
100
AcDbEntity
  8
0
100
AcDbLine
 62
7
  6
CONTINUOUS
 10
86.1040110664
 20
219.2019374789
 11
87.6033380208
 21
222.9103089117
  0
LINE
  5
235
100
AcDbEntity
  8
0
100
AcDbLine
 62
7
  6
CONTINUOUS
 10
81.2222518257
 20
227.1081986897
 11
80.6567581966
 21
226.6177396524
  0
LINE
  5
236
100
AcDbEntity
  8
RUNDUNGEN
100
AcDbLine
 62
7
  6
CONTINUOUS
 10
62.5503475104
 20
181.7855446058
 11
199.5503475104
 21
181.7855446058
  0
LINE
  5
237
100
AcDbEntity
  8
0
100
AcDbLine
 62
7
  6
CONTINUOUS
 10
78.1542373712
 20
212.7083349761
 11
77.7433002054
 21
213.0542537233
  0
LINE
  5
238
100
AcDbEntity
  8
0
100
AcDbLine
 62
7
  6
CONTINUOUS
 10
84.3121984081
 20
217.948875554
 11
83.8059300077
 21
218.5131108142
  0
LINE
  5
239
100
AcDbEntity
  8
0
100
AcDbLine
 62
7
  6
CONTINUOUS
 10
83.2732952482
 20
217.6498190954
 11
83.6217605172
 21
217.1493850192
  0
LINE
  5
23A
100
AcDbEntity
  8
0
100
AcDbLine
 62
7
  6
CONTINUOUS
 10
87.6921765108
 20
224.4923516395
 11
87.3108519595
 21
225.3656175354
  0
LINE
  5
23B
100
AcDbEntity
  8
BEZUGSACHSEN
100
AcDbLine
 62
7
  6
CONTINUOUS
 10
92.0891735073
 20
209.761749722
 11
90.1948866665
 21
214.2475968467
  0
LINE
  5
23C
100
AcDbEntity
  8
0
100
AcDbLine
 62
7
  6
CONTINUOUS
 10
83.8846334693
 20
214.1667279037
 11
84.354796167
 21
214.8755038459
  0
LINE
  5
23D
100
AcDbEntity
  8
0
100
AcDbLine
 62
7
  6
CONTINUOUS
 10
83.4079779312
 20
215.2583107269
 11
83.0002873229
 21
214.7040505502
  0
LINE
  5
23E
100
AcDbEntity
  8
0
100
AcDbLine
 62
7
  6
CONTINUOUS
 10
75.4156060773
 20
211.8380795795
 11
75.7608249675
 21
212.2378248693
  0
LINE
  5
23F
100
AcDbEntity
  8
0
100
AcDbLine
 62
7
  6
CONTINUOUS
 10
81.5411038888
 20
226.0804161608
 11
82.0441257999
 21
226.4163603112
  0
LINE
  5
240
100
AcDbEntity
  8
RUNDUNGEN
100
AcDbLine
 62
7
  6
CONTINUOUS
 10
102.8893498238
 20
246.5544523579
 11
129.4514844009
 21
257.7711301884
  0
LINE
  5
241
100
AcDbEntity
  8
0
100
AcDbLine
 62
7
  6
CONTINUOUS
 10
73.0647921216
 20
208.2941985147
 11
80.4815349872
 21
205.2955446058
  0
LINE
  5
242
100
AcDbEntity
  8
0
100
AcDbLine
 62
7
  6
CONTINUOUS
 10
80.8563667258
 20
206.222637464
 11
77.5425028452
 21
207.56246157
  0
LINE
  5
243
100
AcDbEntity
  8
0
100
AcDbLine
 62
7
  6
CONTINUOUS
 10
76.5956847199
 20
207.9452684063
 11
74.2286389646
 21
208.9022856759
  0
LINE
  5
244
100
AcDbEntity
  8
0
100
AcDbLine
 62
7
  6
CONTINUOUS
 10
82.7045552403
 20
218.0595394241
 11
83.2732952482
 21
217.6498190954
  0
LINE
  5
245
100
AcDbEntity
  8
0
100
AcDbLine
 62
7
  6
CONTINUOUS
 10
86.2719491571
 20
225.066561961
 11
86.6204140686
 21
224.5661270007
  0
LINE
  5
246
100
AcDbEntity
  8
BEZUGSACHSEN
100
AcDbLine
 62
7
  6
CONTINUOUS
 10
91.1266150605
 20
201.9588077437
 11
92.1598923275
 21
204.6063219941
  0
LINE
  5
247
100
AcDbEntity
  8
0
100
AcDbLine
 62
7
  6
CONTINUOUS
 10
76.7372559412
 20
212.3823656014
 11
77.2106654459
 21
212.1909620045
  0
LINE
  5
248
100
AcDbEntity
  8
0
100
AcDbLine
 62
7
  6
CONTINUOUS
 10
77.7433002054
 20
213.0542537233
 11
77.1120876798
 21
213.3094584596
  0
LINE
  5
249
100
AcDbEntity
  8
0
100
AcDbLine
 62
7
  6
CONTINUOUS
 10
75.938502058
 20
215.4019102802
 11
80.8303963685
 21
213.424074691
  0
LINE
  5
24A
100
AcDbEntity
  8
0
100
AcDbLine
 62
7
  6
CONTINUOUS
 10
83.8059300077
 20
218.5131108142
 11
83.0793869789
 21
218.9866322823
  0
LINE
  5
24B
100
AcDbEntity
  8
0
100
AcDbLine
 62
7
  6
CONTINUOUS
 10
87.3108519595
 20
225.3656175354
 11
86.8045839166
 21
225.9298536799
  0
LINE
  5
24C
100
AcDbEntity
  8
0
100
AcDbLine
 62
7
  6
CONTINUOUS
 10
83.3191394412
 20
213.6762679991
 11
83.8846334693
 21
214.1667279037
  0
LINE
  5
24D
100
AcDbEntity
  8
0
100
AcDbLine
 62
7
  6
CONTINUOUS
 10
83.0002873229
 20
214.7040505502
 11
82.4972653013
 21
214.3681064446
  0
LINE
  5
24E
100
AcDbEntity
  8
0
100
AcDbLine
 62
7
  6
CONTINUOUS
 10
75.7575787675
 20
213.1380046772
 11
75.0342819387
 21
212.7113463373
  0
LINE
  5
24F
100
AcDbEntity
  8
0
100
AcDbLine
 62
7
  6
CONTINUOUS
 10
82.1033514967
 20
227.4710554481
 11
81.2222518257
 21
227.1081986897
  0
LINE
  5
250
100
AcDbEntity
  8
0
100
AcDbLine
 62
7
  6
CONTINUOUS
 10
81.2052282858
 20
214.3511679913
 11
76.3133339754
 21
216.3290035805
  0
LINE
  5
251
100
AcDbEntity
  8
0
100
AcDbLine
 62
7
  6
CONTINUOUS
 10
77.8126609298
 20
220.0373750133
 11
82.7045552403
 21
218.0595394241
  0
LINE
  5
252
100
AcDbEntity
  8
0
100
AcDbLine
 62
7
  6
CONTINUOUS
 10
83.0793869789
 20
218.9866322823
 11
78.1874926684
 21
220.9644678715
  0
LINE
  5
253
100
AcDbEntity
  8
0
100
AcDbLine
 62
7
  6
CONTINUOUS
 10
86.8045839166
 20
225.9298536799
 11
86.0780405303
 21
226.4033742637
  0
LINE
  5
254
100
AcDbEntity
  8
0
100
AcDbLine
 62
7
  6
CONTINUOUS
 10
85.7032087917
 20
225.4762814055
 11
86.2719491571
 21
225.066561961
  0
LINE
  5
255
100
AcDbEntity
  8
RUNDUNGEN
100
AcDbLine
 62
7
  6
CONTINUOUS
 10
65.0810441153
 20
194.3990975527
 11
85.8168028388
 21
197.6833190928
  0
LINE
  5
256
100
AcDbEntity
  8
0
100
AcDbLine
 62
7
  6
CONTINUOUS
 10
186.5575087227
 20
210.1319159169
 11
187.424408729
 21
210.2591805835
  0
LINE
  5
257
100
AcDbEntity
  8
RUNDUNGEN
100
AcDbLine
 62
7
  6
CONTINUOUS
 10
197.0196509055
 20
194.3990975527
 11
176.2838921819
 21
197.6833190928
  0
LINE
  5
258
100
AcDbEntity
  8
0
100
AcDbLine
 62
7
  6
CONTINUOUS
 10
80.8303963685
 20
213.424074691
 11
81.6818835485
 21
213.2595847651
  0
LINE
  5
259
100
AcDbEntity
  8
0
100
AcDbLine
 62
7
  6
CONTINUOUS
 10
78.6872682008
 20
222.2005913877
 11
86.1040110664
 21
219.2019374789
  0
LINE
  5
25A
100
AcDbEntity
  8
0
100
AcDbLine
 62
7
  6
CONTINUOUS
 10
85.5320245692
 20
220.5118372181
 11
80.0089180647
 21
222.7448774096
  0
LINE
  5
25B
100
AcDbEntity
  8
0
100
AcDbLine
 62
7
  6
CONTINUOUS
 10
75.7608249675
 20
212.2378248693
 11
76.2013749817
 21
212.4192536906
  0
LINE
  5
25C
100
AcDbEntity
  8
0
100
AcDbLine
 62
7
  6
CONTINUOUS
 10
82.438039715
 20
213.3134112629
 11
83.3191394412
 21
213.6762679991
  0
LINE
  5
25D
100
AcDbEntity
  8
0
100
AcDbLine
 62
7
  6
CONTINUOUS
 10
185.941477971
 20
217.302207698
 11
185.0745779647
 21
217.1749430314
  0
LINE
  5
25E
100
AcDbEntity
  8
0
100
AcDbLine
 62
7
  6
CONTINUOUS
 10
82.8554693913
 20
211.1671328551
 11
78.6637518611
 21
211.2439199526
  0
LINE
  5
25F
100
AcDbEntity
  8
0
100
AcDbLine
 62
7
  6
CONTINUOUS
 10
78.6045260748
 20
210.1892245945
 11
82.4181655771
 21
210.0855242258
  0
LINE
  5
260
100
AcDbEntity
  8
0
100
AcDbLine
 62
7
  6
CONTINUOUS
 10
76.2013749817
 20
212.4192536906
 11
76.7372559412
 21
212.3823656014
  0
LINE
  5
261
100
AcDbEntity
  8
0
100
AcDbLine
 62
7
  6
CONTINUOUS
 10
77.1120876798
 20
213.3094584596
 11
76.5762067203
 21
213.3463465488
  0
LINE
  5
262
100
AcDbEntity
  8
0
100
AcDbLine
 62
7
  6
CONTINUOUS
 10
81.8989120875
 20
214.2504783206
 11
81.2052282858
 21
214.3511679913
  0
LINE
  5
263
100
AcDbEntity
  8
0
100
AcDbLine
 62
7
  6
CONTINUOUS
 10
83.3361632574
 20
226.4332985858
 11
85.7032087917
 21
225.4762814055
  0
LINE
  5
264
100
AcDbEntity
  8
0
100
AcDbLine
 62
7
  6
CONTINUOUS
 10
86.0780405303
 20
226.4033742637
 11
83.710994996
 21
227.360391444
  0
LINE
  5
265
100
AcDbEntity
  8
0
100
AcDbLine
 62
7
  6
CONTINUOUS
 10
181.5397612051
 20
222.4850537417
 11
182.40666166
 21
222.6123173038
  0
LINE
  5
266
100
AcDbEntity
  8
0
100
AcDbLine
 62
7
  6
CONTINUOUS
 10
81.6818835485
 20
213.2595847651
 11
82.438039715
 21
213.3134112629
  0
LINE
  5
267
100
AcDbEntity
  8
0
100
AcDbLine
 62
7
  6
CONTINUOUS
 10
186.9539949343
 20
211.4172871683
 11
186.0086924793
 21
211.483040634
  0
LINE
  5
268
100
AcDbEntity
  8
0
100
AcDbLine
 62
7
  6
CONTINUOUS
 10
181.0021332806
 20
229.4623264586
 11
180.1352329729
 21
229.3350625341
  0
LINE
  5
269
100
AcDbEntity
  8
0
100
AcDbLine
 62
7
  6
CONTINUOUS
 10
177.281424205
 20
220.530486122
 11
177.9512000721
 21
220.5776798688
  0
LINE
  5
26A
100
AcDbEntity
  8
0
100
AcDbLine
 62
7
  6
CONTINUOUS
 10
175.6193131693
 20
216.7072511975
 11
178.2580967575
 21
216.4299193845
  0
LINE
  5
26B
100
AcDbEntity
  8
0
100
AcDbLine
 62
7
  6
CONTINUOUS
 10
177.8660849628
 20
217.3950089415
 11
175.227301599
 21
217.6723402023
  0
LINE
  5
26C
100
AcDbEntity
  8
0
100
AcDbLine
 62
7
  6
CONTINUOUS
 10
82.6424794558
 20
226.5339882564
 11
83.3361632574
 21
226.4332985858
  0
LINE
  5
26D
100
AcDbEntity
  8
0
100
AcDbLine
 62
7
  6
CONTINUOUS
 10
83.710994996
 20
227.360391444
 11
82.8595077314
 21
227.5248824327
  0
LINE
  5
26E
100
AcDbEntity
  8
0
100
AcDbLine
 62
7
  6
CONTINUOUS
 10
185.8093303206
 20
210.2777409107
 11
186.5575087227
 21
210.1319159169
  0
LINE
  5
26F
100
AcDbEntity
  8
0
100
AcDbLine
 62
7
  6
CONTINUOUS
 10
76.5762067203
 20
213.3463465488
 11
75.7575787675
 21
213.1380046772
  0
LINE
  5
270
100
AcDbEntity
  8
0
100
AcDbLine
 62
7
  6
CONTINUOUS
 10
82.4972653013
 20
214.3681064446
 11
81.8989120875
 21
214.2504783206
  0
LINE
  5
271
100
AcDbEntity
  8
0
100
AcDbLine
 62
7
  6
CONTINUOUS
 10
177.5591885017
 20
221.5427688736
 11
177.0865372743
 21
221.5756456064
  0
LINE
  5
272
100
AcDbEntity
  8
0
100
AcDbLine
 62
7
  6
CONTINUOUS
 10
182.0146500897
 20
223.5774063086
 11
181.0693474104
 21
223.6431603265
  0
LINE
  5
273
100
AcDbEntity
  8
0
100
AcDbLine
 62
7
  6
CONTINUOUS
 10
185.4665893107
 20
216.2098545789
 11
186.2147672641
 21
216.0640306896
  0
LINE
  5
274
100
AcDbEntity
  8
0
100
AcDbLine
 62
7
  6
CONTINUOUS
 10
82.8595077314
 20
227.5248824327
 11
82.1033514967
 21
227.4710554481
  0
LINE
  5
275
100
AcDbEntity
  8
0
100
AcDbLine
 62
7
  6
CONTINUOUS
 10
176.5332460273
 20
220.6763105635
 11
177.281424205
 21
220.530486122
  0
LINE
  5
276
100
AcDbEntity
  8
0
100
AcDbLine
 62
7
  6
CONTINUOUS
 10
180.7915832517
 20
222.630877631
 11
181.5397612051
 21
222.4850537417
  0
LINE
  5
277
100
AcDbEntity
  8
0
100
AcDbLine
 62
7
  6
CONTINUOUS
 10
179.3400219268
 20
225.6390915256
 11
178.5515239205
 21
225.3188098312
  0
LINE
  5
278
100
AcDbEntity
  8
0
100
AcDbLine
 62
7
  6
CONTINUOUS
 10
82.0441257999
 20
226.4163603112
 11
82.6424794558
 21
226.5339882564
  0
LINE
  5
279
100
AcDbEntity
  8
0
100
AcDbLine
 62
7
  6
CONTINUOUS
 10
180.5272444661
 20
228.3699737192
 11
181.2754225878
 21
228.2241494157
  0
LINE
  5
27A
100
AcDbEntity
  8
0
100
AcDbLine
 62
7
  6
CONTINUOUS
 10
186.0086924793
 20
211.483040634
 11
178.8853150009
 21
214.8857776396
  0
LINE
  5
27B
100
AcDbEntity
  8
0
100
AcDbLine
 62
7
  6
CONTINUOUS
 10
179.5125332443
 20
213.3416358947
 11
185.8093303206
 21
210.2777409107
  0
LINE
  5
27C
100
AcDbEntity
  8
0
100
AcDbLine
 62
7
  6
CONTINUOUS
 10
182.408899645
 20
223.7375473801
 11
182.0146500897
 21
223.5774063086
  0
LINE
  5
27D
100
AcDbEntity
  8
0
100
AcDbLine
 62
7
  6
CONTINUOUS
 10
178.347686508
 20
221.863050568
 11
177.5591885017
 21
221.5427688736
  0
LINE
  5
27E
100
AcDbEntity
  8
0
100
AcDbLine
 62
7
  6
CONTINUOUS
 10
182.40666166
 20
222.6123173038
 11
182.8009112154
 21
222.7724583753
  0
LINE
  5
27F
100
AcDbEntity
  8
0
100
AcDbLine
 62
7
  6
CONTINUOUS
 10
177.9512000721
 20
220.5776798688
 11
178.7396980784
 21
220.8979615632
  0
LINE
  5
280
100
AcDbEntity
  8
0
100
AcDbLine
 62
7
  6
CONTINUOUS
 10
187.0435853233
 20
216.8504179677
 11
185.941477971
 21
217.302207698
  0
LINE
  5
281
100
AcDbEntity
  8
0
100
AcDbLine
 62
7
  6
CONTINUOUS
 10
177.0865372743
 20
221.5756456064
 11
176.53548346
 21
221.8015404155
  0
LINE
  5
282
100
AcDbEntity
  8
0
100
AcDbLine
 62
7
  6
CONTINUOUS
 10
181.0693474104
 20
223.6431603265
 11
180.5182939585
 21
223.8690546394
  0
LINE
  5
283
100
AcDbEntity
  8
0
100
AcDbLine
 62
7
  6
CONTINUOUS
 10
175.1287173038
 20
227.5263193776
 11
174.6157459625
 21
227.0930902808
  0
LINE
  5
284
100
AcDbEntity
  8
0
100
AcDbLine
 62
7
  6
CONTINUOUS
 10
178.8853150009
 20
214.8857776396
 11
177.899692355
 21
214.4854254655
  0
LINE
  5
285
100
AcDbEntity
  8
0
100
AcDbLine
 62
7
  6
CONTINUOUS
 10
182.1042404787
 20
229.010537108
 11
181.0021332806
 21
229.4623264586
  0
LINE
  5
286
100
AcDbEntity
  8
0
100
AcDbLine
 62
7
  6
CONTINUOUS
 10
179.8866004009
 20
223.1627377849
 11
180.7915832517
 21
222.630877631
  0
LINE
  5
287
100
AcDbEntity
  8
0
100
AcDbLine
 62
7
  6
CONTINUOUS
 10
175.9037900577
 20
221.0952229807
 11
176.5332460273
 21
220.6763105635
  0
LINE
  5
288
100
AcDbEntity
  8
0
100
AcDbLine
 62
7
  6
CONTINUOUS
 10
186.2147672641
 20
216.0640306896
 11
186.8442231647
 21
215.6451182444
  0
LINE
  5
289
100
AcDbEntity
  8
0
100
AcDbLine
 62
7
  6
CONTINUOUS
 10
175.2048820954
 20
226.2080719456
 11
175.52072879
 21
226.5612305799
  0
LINE
  5
28A
100
AcDbEntity
  8
0
100
AcDbLine
 62
7
  6
CONTINUOUS
 10
178.7396980784
 20
220.8979615632
 11
179.4497941365
 21
221.4112609498
  0
LINE
  5
28B
100
AcDbEntity
  8
0
100
AcDbLine
 62
7
  6
CONTINUOUS
 10
182.8009112154
 20
222.7724583753
 11
183.511006773
 21
223.285758202
  0
LINE
  5
28C
100
AcDbEntity
  8
0
100
AcDbLine
 62
7
  6
CONTINUOUS
 10
187.3482444896
 20
211.5774282398
 11
186.9539949343
 21
211.4172871683
  0
LINE
  5
28D
100
AcDbEntity
  8
0
100
AcDbLine
 62
7
  6
CONTINUOUS
 10
180.7221751233
 20
207.5367859568
 11
181.7077977692
 21
207.9371381309
  0
LINE
  5
28E
100
AcDbEntity
  8
0
100
AcDbLine
 62
7
  6
CONTINUOUS
 10
187.424408729
 20
210.2591805835
 11
187.8186582844
 21
210.419321655
  0
LINE
  5
28F
100
AcDbEntity
  8
0
100
AcDbLine
 62
7
  6
CONTINUOUS
 10
175.1959318811
 20
221.7071529849
 11
175.9037900577
 21
221.0952229807
  0
LINE
  5
290
100
AcDbEntity
  8
0
100
AcDbLine
 62
7
  6
CONTINUOUS
 10
176.53548346
 20
221.8015404155
 11
176.1815545098
 21
222.107505152
  0
LINE
  5
291
100
AcDbEntity
  8
RUNDUNGEN
100
AcDbLine
 62
7
  6
CONTINUOUS
 10
170.9740799603
 20
201.9588077437
 11
169.9408026932
 21
204.6063219941
  0
LINE
  5
292
100
AcDbEntity
  8
0
100
AcDbLine
 62
7
  6
CONTINUOUS
 10
174.6157459625
 20
227.0930902808
 11
174.1811770537
 21
226.4668434875
  0
LINE
  5
293
100
AcDbEntity
  8
0
100
AcDbLine
 62
7
  6
CONTINUOUS
 10
178.9793803417
 20
222.5693675346
 11
178.347686508
 21
221.863050568
  0
LINE
  5
294
100
AcDbEntity
  8
0
100
AcDbLine
 62
7
  6
CONTINUOUS
 10
187.6573784179
 20
208.5548968869
 11
186.8688804116
 21
208.2346151925
  0
LINE
  5
295
100
AcDbEntity
  8
0
100
AcDbLine
 62
7
  6
CONTINUOUS
 10
189.8615927775
 20
207.6513198596
 11
188.2845962127
 21
207.0107562465
  0
LINE
  5
296
100
AcDbEntity
  8
0
100
AcDbLine
 62
7
  6
CONTINUOUS
 10
187.4960982064
 20
206.6904745521
 11
183.5536077608
 21
205.0890659119
  0
LINE
  5
297
100
AcDbEntity
  8
0
100
AcDbLine
 62
7
  6
CONTINUOUS
 10
184.3398686967
 20
204.2841172582
 11
187.8881100011
 21
205.7253849951
  0
LINE
  5
298
100
AcDbEntity
  8
0
100
AcDbLine
 62
7
  6
CONTINUOUS
 10
188.6766080074
 20
206.0456666895
 11
190.2536045722
 21
206.6862303026
  0
LINE
  5
299
100
AcDbEntity
  8
RUNDUNGEN
100
AcDbLine
 62
7
  6
CONTINUOUS
 10
159.2113451969
 20
246.5544523579
 11
132.6492106198
 21
257.7711301884
  0
LINE
  5
29A
100
AcDbEntity
  8
0
100
AcDbLine
 62
7
  6
CONTINUOUS
 10
181.2754225878
 20
228.2241494157
 11
181.9048784883
 21
227.8052369705
  0
LINE
  5
29B
100
AcDbEntity
  8
0
100
AcDbLine
 62
7
  6
CONTINUOUS
 10
187.7514436725
 20
216.2384873902
 11
187.0435853233
 21
216.8504179677
  0
LINE
  5
29C
100
AcDbEntity
  8
0
100
AcDbLine
 62
7
  6
CONTINUOUS
 10
174.6851981284
 20
222.3991537029
 11
175.1959318811
 21
221.7071529849
  0
LINE
  5
29D
100
AcDbEntity
  8
RUNDUNGEN
100
AcDbLine
 62
7
  6
CONTINUOUS
 10
171.9482867039
 20
217.3407464919
 11
161.4412166474
 21
244.2624824006
  0
LINE
  5
29E
100
AcDbEntity
  8
0
100
AcDbLine
 62
7
  6
CONTINUOUS
 10
174.0221348788
 20
225.7276493199
 11
173.9414950017
 21
224.7954374411
  0
LINE
  5
29F
100
AcDbEntity
  8
0
100
AcDbLine
 62
7
  6
CONTINUOUS
 10
174.1811770537
 20
226.4668434875
 11
174.0221348788
 21
225.7276493199
  0
LINE
  5
2A0
100
AcDbEntity
  8
RUNDUNGEN
100
AcDbLine
 62
7
  6
CONTINUOUS
 10
170.0115215134
 20
209.761749722
 11
171.9058083543
 21
214.2475968467
  0
LINE
  5
2A1
100
AcDbEntity
  8
0
100
AcDbLine
 62
7
  6
CONTINUOUS
 10
174.9674375711
 20
225.661895468
 11
175.2048820954
 21
226.2080719456
  0
LINE
  5
2A2
100
AcDbEntity
  8
0
100
AcDbLine
 62
7
  6
CONTINUOUS
 10
179.4497941365
 20
221.4112609498
 11
179.8843629682
 21
222.037507933
  0
LINE
  5
2A3
100
AcDbEntity
  8
0
100
AcDbLine
 62
7
  6
CONTINUOUS
 10
182.8434684767
 20
224.3637943632
 11
182.408899645
 21
223.7375473801
  0
LINE
  5
2A4
100
AcDbEntity
  8
0
100
AcDbLine
 62
7
  6
CONTINUOUS
 10
187.8186582844
 20
210.419321655
 11
188.5287542906
 21
210.9326203772
  0
LINE
  5
2A5
100
AcDbEntity
  8
0
100
AcDbLine
 62
7
  6
CONTINUOUS
 10
183.0742440969
 20
201.7462530328
 11
183.8627421723
 21
202.0665347553
  0
LINE
  5
2A6
100
AcDbEntity
  8
0
100
AcDbLine
 62
7
  6
CONTINUOUS
 10
188.7505355905
 20
203.6021888534
 11
189.5390335968
 21
203.9224705478
  0
LINE
  5
2A7
100
AcDbEntity
  8
0
100
AcDbLine
 62
7
  6
CONTINUOUS
 10
182.8120986596
 20
228.3986069447
 11
182.1042404787
 21
229.010537108
  0
LINE
  5
2A8
100
AcDbEntity
  8
0
100
AcDbLine
 62
7
  6
CONTINUOUS
 10
180.5182939585
 20
223.8690546394
 11
179.6536310485
 21
224.8670206531
  0
LINE
  5
2A9
100
AcDbEntity
  8
0
100
AcDbLine
 62
7
  6
CONTINUOUS
 10
176.1815545098
 20
222.107505152
 11
175.5924184378
 21
222.9925237331
  0
LINE
  5
2AA
100
AcDbEntity
  8
0
100
AcDbLine
 62
7
  6
CONTINUOUS
 10
175.227301599
 20
217.6723402023
 11
175.6193131693
 21
216.7072511975
  0
LINE
  5
2AB
100
AcDbEntity
  8
0
100
AcDbLine
 62
7
  6
CONTINUOUS
 10
174.0579796607
 20
223.943296
 11
174.6851981284
 21
222.3991537029
  0
LINE
  5
2AC
100
AcDbEntity
  8
0
100
AcDbLine
 62
7
  6
CONTINUOUS
 10
177.899692355
 20
214.4854254655
 11
180.7221751233
 21
207.5367859568
  0
LINE
  5
2AD
100
AcDbEntity
  8
0
100
AcDbLine
 62
7
  6
CONTINUOUS
 10
181.7077977692
 20
207.9371381309
 11
179.5125332443
 21
213.3416358947
  0
LINE
  5
2AE
100
AcDbEntity
  8
0
100
AcDbLine
 62
7
  6
CONTINUOUS
 10
178.2580967575
 20
216.4299193845
 11
177.8660849628
 21
217.3950089415
  0
LINE
  5
2AF
100
AcDbEntity
  8
0
100
AcDbLine
 62
7
  6
CONTINUOUS
 10
175.5924184378
 20
222.9925237331
 11
175.1220046431
 21
224.1506303179
  0
LINE
  5
2B0
100
AcDbEntity
  8
0
100
AcDbLine
 62
7
  6
CONTINUOUS
 10
173.9414950017
 20
224.7954374411
 11
174.0579796607
 21
223.943296
  0
LINE
  5
2B1
100
AcDbEntity
  8
0
100
AcDbLine
 62
7
  6
CONTINUOUS
 10
174.9271176304
 20
225.1957896082
 11
174.9674375711
 21
225.661895468
  0
LINE
  5
2B2
100
AcDbEntity
  8
0
100
AcDbLine
 62
7
  6
CONTINUOUS
 10
179.1384224475
 20
223.3085616742
 11
178.9793803417
 21
222.5693675346
  0
LINE
  5
2B3
100
AcDbEntity
  8
0
100
AcDbLine
 62
7
  6
CONTINUOUS
 10
183.511006773
 20
223.285758202
 11
183.9858956576
 21
224.3781107689
  0
LINE
  5
2B4
100
AcDbEntity
  8
0
100
AcDbLine
 62
7
  6
CONTINUOUS
 10
183.826897054
 20
203.8508889035
 11
184.3398686967
 21
204.2841172582
  0
LINE
  5
2B5
100
AcDbEntity
  8
0
100
AcDbLine
 62
7
  6
CONTINUOUS
 10
186.8442231647
 20
215.6451182444
 11
187.4333594609
 21
214.7600991111
  0
LINE
  5
2B6
100
AcDbEntity
  8
0
100
AcDbLine
 62
7
  6
CONTINUOUS
 10
181.9048784883
 20
227.8052369705
 11
182.4940145041
 21
226.9202185275
  0
LINE
  5
2B7
100
AcDbEntity
  8
0
100
AcDbLine
 62
7
  6
CONTINUOUS
 10
188.4973839688
 20
214.9674342012
 11
187.7514436725
 21
216.2384873902
  0
LINE
  5
2B8
100
AcDbEntity
  8
0
100
AcDbLine
 62
7
  6
CONTINUOUS
 10
183.5580392364
 20
227.1275530654
 11
182.8120986596
 21
228.3986069447
  0
LINE
  5
2B9
100
AcDbEntity
  8
0
100
AcDbLine
 62
7
  6
CONTINUOUS
 10
175.52072879
 20
226.5612305799
 11
175.1287173038
 21
227.5263193776
  0
LINE
  5
2BA
100
AcDbEntity
  8
0
100
AcDbLine
 62
7
  6
CONTINUOUS
 10
178.5515239205
 20
225.3188098312
 11
178.8651330422
 21
224.5467389587
  0
LINE
  5
2BB
100
AcDbEntity
  8
0
100
AcDbLine
 62
7
  6
CONTINUOUS
 10
179.6536310485
 20
224.8670206531
 11
179.3400219268
 21
225.6390915256
  0
LINE
  5
2BC
100
AcDbEntity
  8
0
100
AcDbLine
 62
7
  6
CONTINUOUS
 10
186.8688804116
 20
208.2346151925
 11
187.4960982064
 21
206.6904745521
  0
LINE
  5
2BD
100
AcDbEntity
  8
0
100
AcDbLine
 62
7
  6
CONTINUOUS
 10
187.8881100011
 20
205.7253849951
 11
188.7505355905
 21
203.6021888534
  0
LINE
  5
2BE
100
AcDbEntity
  8
0
100
AcDbLine
 62
7
  6
CONTINUOUS
 10
189.5390335968
 20
203.9224705478
 11
188.6766080074
 21
206.0456666895
  0
LINE
  5
2BF
100
AcDbEntity
  8
0
100
AcDbLine
 62
7
  6
CONTINUOUS
 10
188.2845962127
 20
207.0107562465
 11
187.6573784179
 21
208.5548968869
  0
LINE
  5
2C0
100
AcDbEntity
  8
0
100
AcDbLine
 62
7
  6
CONTINUOUS
 10
182.800954821
 20
202.9844300482
 11
183.0742440969
 21
201.7462530328
  0
LINE
  5
2C1
100
AcDbEntity
  8
0
100
AcDbLine
 62
7
  6
CONTINUOUS
 10
178.8651330422
 20
224.5467389587
 11
179.1384224475
 21
223.3085616742
  0
LINE
  5
2C2
100
AcDbEntity
  8
0
100
AcDbLine
 62
7
  6
CONTINUOUS
 10
175.1220046431
 20
224.1506303179
 11
174.9271176304
 21
225.1957896082
  0
LINE
  5
2C3
100
AcDbEntity
  8
0
100
AcDbLine
 62
7
  6
CONTINUOUS
 10
182.7628724425
 20
203.6435537712
 11
182.800954821
 21
202.9844300482
  0
LINE
  5
2C4
100
AcDbEntity
  8
0
100
AcDbLine
 62
7
  6
CONTINUOUS
 10
179.8843629682
 20
222.037507933
 11
179.8866004009
 21
223.1627377849
  0
LINE
  5
2C5
100
AcDbEntity
  8
0
100
AcDbLine
 62
7
  6
CONTINUOUS
 10
183.9858956576
 20
224.3781107689
 11
184.066535539
 21
225.3103224885
  0
LINE
  5
2C6
100
AcDbEntity
  8
0
100
AcDbLine
 62
7
  6
CONTINUOUS
 10
183.0025105825
 20
225.1029885028
 11
182.8434684767
 21
224.3637943632
  0
LINE
  5
2C7
100
AcDbEntity
  8
0
100
AcDbLine
 62
7
  6
CONTINUOUS
 10
187.7828135456
 20
212.2036746707
 11
187.3482444896
 21
211.5774282398
  0
LINE
  5
2C8
100
AcDbEntity
  8
0
100
AcDbLine
 62
7
  6
CONTINUOUS
 10
183.5536077608
 20
205.0890659119
 11
182.9219145828
 21
204.3827479248
  0
LINE
  5
2C9
100
AcDbEntity
  8
0
100
AcDbLine
 62
7
  6
CONTINUOUS
 10
180.1352329729
 20
229.3350625341
 11
180.5272444661
 21
228.3699737192
  0
LINE
  5
2CA
100
AcDbEntity
  8
0
100
AcDbLine
 62
7
  6
CONTINUOUS
 10
185.0745779647
 20
217.1749430314
 11
185.4665893107
 21
216.2098545789
  0
LINE
  5
2CB
100
AcDbEntity
  8
0
100
AcDbLine
 62
7
  6
CONTINUOUS
 10
190.2536045722
 20
206.6862303026
 11
189.8615927775
 21
207.6513198596
  0
LINE
  5
2CC
100
AcDbEntity
  8
0
100
AcDbLine
 62
7
  6
CONTINUOUS
 10
182.4940145041
 20
226.9202185275
 11
182.8076236259
 21
226.148147655
  0
LINE
  5
2CD
100
AcDbEntity
  8
0
100
AcDbLine
 62
7
  6
CONTINUOUS
 10
187.4333594609
 20
214.7600991111
 11
187.7469683583
 21
213.9880287908
  0
LINE
  5
2CE
100
AcDbEntity
  8
0
100
AcDbLine
 62
7
  6
CONTINUOUS
 10
188.8109933148
 20
214.1953627765
 11
188.4973839688
 21
214.9674342012
  0
LINE
  5
2CF
100
AcDbEntity
  8
0
100
AcDbLine
 62
7
  6
CONTINUOUS
 10
183.7148439094
 20
226.7415173531
 11
183.5580392364
 21
227.1275530654
  0
LINE
  5
2D0
100
AcDbEntity
  8
0
100
AcDbLine
 62
7
  6
CONTINUOUS
 10
184.066535539
 20
225.3103224885
 11
183.7148439094
 21
226.7415173531
  0
LINE
  5
2D1
100
AcDbEntity
  8
0
100
AcDbLine
 62
7
  6
CONTINUOUS
 10
183.8627421723
 20
202.0665347553
 11
183.6678549482
 21
203.1116947639
  0
LINE
  5
2D2
100
AcDbEntity
  8
0
100
AcDbLine
 62
7
  6
CONTINUOUS
 10
182.8076236259
 20
226.148147655
 11
183.0025105825
 21
225.1029885028
  0
LINE
  5
2D3
100
AcDbEntity
  8
0
100
AcDbLine
 62
7
  6
CONTINUOUS
 10
189.0036429509
 20
212.0249734963
 11
189.084282608
 21
212.9571857682
  0
LINE
  5
2D4
100
AcDbEntity
  8
0
100
AcDbLine
 62
7
  6
CONTINUOUS
 10
182.9219145828
 20
204.3827479248
 11
182.7628724425
 21
203.6435537712
  0
LINE
  5
2D5
100
AcDbEntity
  8
0
100
AcDbLine
 62
7
  6
CONTINUOUS
 10
183.6678549482
 20
203.1116947639
 11
183.826897054
 21
203.8508889035
  0
LINE
  5
2D6
100
AcDbEntity
  8
0
100
AcDbLine
 62
7
  6
CONTINUOUS
 10
187.9418556514
 20
212.9428688103
 11
187.7828135456
 21
212.2036746707
  0
LINE
  5
2D7
100
AcDbEntity
  8
0
100
AcDbLine
 62
7
  6
CONTINUOUS
 10
188.5287542906
 20
210.9326203772
 11
189.0036429509
 21
212.0249734963
  0
LINE
  5
2D8
100
AcDbEntity
  8
RUNDUNGEN
100
AcDbLine
 62
7
  6
CONTINUOUS
 10
198.447291809
 20
200.0713278035
 11
189.4175135644
 21
222.2978605369
  0
LINE
  5
2D9
100
AcDbEntity
  8
0
100
AcDbLine
 62
7
  6
CONTINUOUS
 10
189.084282608
 20
212.9571857682
 11
188.8109933148
 21
214.1953627765
  0
LINE
  5
2DA
100
AcDbEntity
  8
0
100
AcDbLine
 62
7
  6
CONTINUOUS
 10
187.7469683583
 20
213.9880287908
 11
187.9418556514
 21
212.9428688103
  0
LINE
  5
2DB
100
AcDbEntity
  8
RUNDUNGEN
100
AcDbLine
 62
7
  6
CONTINUOUS
 10
199.5503475104
 20
181.7855446058
 11
199.5503475104
 21
194.425538296
  0
LINE
  5
2DC
100
AcDbEntity
  8
RUNDUNGEN
100
AcDbLine
 62
7
  6
CONTINUOUS
 10
320.2759917908
 20
181.7855446058
 11
279.2759917908
 21
181.7855446058
  0
LINE
  5
2DD
100
AcDbEntity
  8
RUNDUNGEN
100
AcDbLine
 62
7
  6
CONTINUOUS
 10
279.2759917908
 20
181.7855446058
 11
279.2759917908
 21
187.5978965499
  0
LINE
  5
2DE
100
AcDbEntity
  8
0
100
AcDbLine
 62
7
  6
CONTINUOUS
 10
305.7759917908
 20
205.2955446058
 11
306.6759917908
 21
205.2955446058
  0
LINE
  5
2DF
100
AcDbEntity
  8
0
100
AcDbLine
 62
7
  6
CONTINUOUS
 10
305.7759917908
 20
208.2941985147
 11
306.6759917908
 21
208.2941985147
  0
LINE
  5
2E0
100
AcDbEntity
  8
BEZUGSACHSEN
100
AcDbLine
 62
7
  6
CONTINUOUS
 10
288.2759917908
 20
216.3807077832
 11
288.2759917908
 21
254.7284447891
  0
LINE
  5
2E1
100
AcDbEntity
  8
0
100
AcDbLine
 62
7
  6
CONTINUOUS
 10
305.7759917908
 20
212.0025699475
 11
306.6759917908
 21
212.0025699475
  0
LINE
  5
2E2
100
AcDbEntity
  8
0
100
AcDbLine
 62
7
  6
CONTINUOUS
 10
305.7759917908
 20
212.7113463373
 11
306.6759917908
 21
212.7113463373
  0
LINE
  5
2E3
100
AcDbEntity
  8
0
100
AcDbLine
 62
7
  6
CONTINUOUS
 10
292.8759917908
 20
216.47916114
 11
292.8759917908
 21
222.4228703202
  0
LINE
  5
2E4
100
AcDbEntity
  8
0
100
AcDbLine
 62
7
  6
CONTINUOUS
 10
292.8759917908
 20
222.7148707169
 11
292.8759917908
 21
228.6585798972
  0
LINE
  5
2E5
100
AcDbEntity
  8
RUNDUNGEN
100
AcDbLine
 62
7
  6
CONTINUOUS
 10
293.7759917908
 20
194.5527315389
 11
293.7759917908
 21
258.0848532646
  0
LINE
  5
2E6
100
AcDbEntity
  8
RUNDUNGEN
100
AcDbLine
 62
7
  6
CONTINUOUS
 10
279.3966065493
 20
188.281930931
 11
282.0135461509
 21
195.4719133946
  0
LINE
  5
2E7
100
AcDbEntity
  8
BEZUGSACHSEN
100
AcDbLine
 62
7
  6
CONTINUOUS
 10
280.8143517452
 20
192.1771538433
 11
287.0095872538
 21
209.1984235115
  0
LINE
  5
2E8
100
AcDbEntity
  8
0
100
AcDbLine
 62
7
  6
CONTINUOUS
 10
305.7759917908
 20
213.1380046772
 11
306.6759917908
 21
213.1380046772
  0
LINE
  5
2E9
100
AcDbEntity
  8
0
100
AcDbLine
 62
7
  6
CONTINUOUS
 10
305.7759917908
 20
213.3463465488
 11
306.6759917908
 21
213.3463465488
  0
LINE
  5
2EA
100
AcDbEntity
  8
0
100
AcDbLine
 62
7
  6
CONTINUOUS
 10
305.7759917908
 20
213.424074691
 11
306.6759917908
 21
213.424074691
  0
LINE
  5
2EB
100
AcDbEntity
  8
0
100
AcDbLine
 62
7
  6
CONTINUOUS
 10
305.7759917908
 20
215.4019102802
 11
306.6759917908
 21
215.4019102802
  0
LINE
  5
2EC
100
AcDbEntity
  8
0
100
AcDbLine
 62
7
  6
CONTINUOUS
 10
305.7759917908
 20
216.3290035805
 11
306.6759917908
 21
216.3290035805
  0
LINE
  5
2ED
100
AcDbEntity
  8
0
100
AcDbLine
 62
7
  6
CONTINUOUS
 10
293.7759917908
 20
216.47916114
 11
292.8759917908
 21
216.47916114
  0
LINE
  5
2EE
100
AcDbEntity
  8
0
100
AcDbLine
 62
7
  6
CONTINUOUS
 10
305.7759917908
 20
216.5582362667
 11
306.6759917908
 21
216.5582362667
  0
LINE
  5
2EF
100
AcDbEntity
  8
0
100
AcDbLine
 62
7
  6
CONTINUOUS
 10
293.7759917908
 20
216.9579168865
 11
292.8759917908
 21
216.9579168865
  0
LINE
  5
2F0
100
AcDbEntity
  8
0
100
AcDbLine
 62
7
  6
CONTINUOUS
 10
305.7759917908
 20
217.1493850192
 11
306.6759917908
 21
217.1493850192
  0
LINE
  5
2F1
100
AcDbEntity
  8
0
100
AcDbLine
 62
7
  6
CONTINUOUS
 10
305.7759917908
 20
217.6498190954
 11
306.6759917908
 21
217.6498190954
  0
LINE
  5
2F2
100
AcDbEntity
  8
0
100
AcDbLine
 62
7
  6
CONTINUOUS
 10
305.7759917908
 20
218.0595394241
 11
306.6759917908
 21
218.0595394241
  0
LINE
  5
2F3
100
AcDbEntity
  8
0
100
AcDbLine
 62
7
  6
CONTINUOUS
 10
293.7759917908
 20
218.5525305893
 11
292.8759917908
 21
218.5525305893
  0
LINE
  5
2F4
100
AcDbEntity
  8
0
100
AcDbLine
 62
7
  6
CONTINUOUS
 10
293.7759917908
 20
219.0312863358
 11
292.8759917908
 21
219.0312863358
  0
LINE
  5
2F5
100
AcDbEntity
  8
0
100
AcDbLine
 62
7
  6
CONTINUOUS
 10
293.7759917908
 20
219.1533358816
 11
292.8759917908
 21
219.1533358816
  0
LINE
  5
2F6
100
AcDbEntity
  8
0
100
AcDbLine
 62
7
  6
CONTINUOUS
 10
293.7759917908
 20
219.6320916281
 11
292.8759917908
 21
219.6320916281
  0
LINE
  5
2F7
100
AcDbEntity
  8
0
100
AcDbLine
 62
7
  6
CONTINUOUS
 10
305.7759917908
 20
220.0373750133
 11
306.6759917908
 21
220.0373750133
  0
LINE
  5
2F8
100
AcDbEntity
  8
0
100
AcDbLine
 62
7
  6
CONTINUOUS
 10
305.7759917908
 20
220.9644678715
 11
306.6759917908
 21
220.9644678715
  0
LINE
  5
2F9
100
AcDbEntity
  8
0
100
AcDbLine
 62
7
  6
CONTINUOUS
 10
305.7759917908
 20
222.2005913877
 11
306.6759917908
 21
222.2005913877
  0
LINE
  5
2FA
100
AcDbEntity
  8
0
100
AcDbLine
 62
7
  6
CONTINUOUS
 10
293.7759917908
 20
222.4229090255
 11
292.8759917908
 21
222.4229090255
  0
LINE
  5
2FB
100
AcDbEntity
  8
0
100
AcDbLine
 62
7
  6
CONTINUOUS
 10
293.7759917908
 20
222.7148707169
 11
292.8759917908
 21
222.7148707169
  0
LINE
  5
2FC
100
AcDbEntity
  8
0
100
AcDbLine
 62
7
  6
CONTINUOUS
 10
293.7759917908
 20
223.1936264634
 11
292.8759917908
 21
223.1936264634
  0
LINE
  5
2FD
100
AcDbEntity
  8
RUNDUNGEN
100
AcDbLine
 62
7
  6
CONTINUOUS
 10
305.7759917908
 20
258.0838446849
 11
305.7759917908
 21
194.5527315389
  0
LINE
  5
2FE
100
AcDbEntity
  8
0
100
AcDbLine
 62
7
  6
CONTINUOUS
 10
293.7759917908
 20
225.3890454585
 11
292.8759917908
 21
225.3890454585
  0
LINE
  5
2FF
100
AcDbEntity
  8
0
100
AcDbLine
 62
7
  6
CONTINUOUS
 10
293.7759917908
 20
225.8678012051
 11
292.8759917908
 21
225.8678012051
  0
LINE
  5
300
100
AcDbEntity
  8
0
100
AcDbLine
 62
7
  6
CONTINUOUS
 10
305.7759917908
 20
225.9089628205
 11
306.6759917908
 21
225.9089628205
  0
LINE
  5
301
100
AcDbEntity
  8
0
100
AcDbLine
 62
7
  6
CONTINUOUS
 10
305.7759917908
 20
226.6177396524
 11
306.6759917908
 21
226.6177396524
  0
LINE
  5
302
100
AcDbEntity
  8
0
100
AcDbLine
 62
7
  6
CONTINUOUS
 10
305.7759917908
 20
227.1081986897
 11
306.6759917908
 21
227.1081986897
  0
LINE
  5
303
100
AcDbEntity
  8
0
100
AcDbLine
 62
7
  6
CONTINUOUS
 10
305.7759917908
 20
227.4710554481
 11
306.6759917908
 21
227.4710554481
  0
LINE
  5
304
100
AcDbEntity
  8
0
100
AcDbLine
 62
7
  6
CONTINUOUS
 10
305.7759917908
 20
227.5248824327
 11
306.6759917908
 21
227.5248824327
  0
LINE
  5
305
100
AcDbEntity
  8
0
100
AcDbLine
 62
7
  6
CONTINUOUS
 10
306.6759917908
 20
227.5248824327
 11
306.6759917908
 21
205.2955446058
  0
LINE
  5
306
100
AcDbEntity
  8
0
100
AcDbLine
 62
7
  6
CONTINUOUS
 10
293.7759917908
 20
228.6586186024
 11
292.8759917908
 21
228.6586186024
  0
LINE
  5
307
100
AcDbEntity
  8
RUNDUNGEN
100
AcDbLine
 62
7
  6
CONTINUOUS
 10
320.1553770324
 20
188.281930931
 11
317.5384374308
 21
195.4719133946
  0
LINE
  5
308
100
AcDbEntity
  8
BEZUGSACHSEN
100
AcDbLine
 62
7
  6
CONTINUOUS
 10
317.5384374308
 20
195.4719133946
 11
312.5423963279
 21
209.1984235115
  0
LINE
  5
309
100
AcDbEntity
  8
BEZUGSACHSEN
100
AcDbLine
 62
7
  6
CONTINUOUS
 10
311.2759917908
 20
216.3807077832
 11
311.2759917908
 21
254.7284447891
  0
LINE
  5
30A
100
AcDbEntity
  8
RUNDUNGEN
100
AcDbLine
 62
7
  6
CONTINUOUS
 10
311.2759917908
 20
243.3992387759
 11
311.2759917908
 21
254.7284447891
  0
LWPOLYLINE
  5
30B
100
AcDbEntity
  8
RUNDUNGEN
100
AcDbPolyline
 62
7
  6
CONTINUOUS
 90
15
 70
0
 10
311.2759900522
 20
254.7296471541
 10
311.2670431261
 20
254.9700065894
 10
311.2122465824
 20
255.3743589755
 10
311.1084755274
 20
255.7673444336
 10
310.9579223039
 20
256.1441571675
 10
310.7636293427
 20
256.4984848242
 10
310.5275774455
 20
256.8277178102
 10
310.2519992924
 20
257.1281240073
 10
309.940665346
 20
257.3948401662
 10
309.5984326345
 20
257.6230894019
 10
309.2302343353
 20
257.8094343273
 10
308.8421846943
 20
257.9505862224
 10
308.4396219648
 20
258.0446930572
 10
308.0277034666
 20
258.0903032827
 10
307.8509917618
 20
258.0948257723
  0
LINE
  5
30C
100
AcDbEntity
  8
RUNDUNGEN
100
AcDbLine
 62
7
  6
CONTINUOUS
 10
320.2759917908
 20
187.5978962065
 11
320.2759917908
 21
181.7855446058
  0
LWPOLYLINE
  5
30D
100
AcDbEntity
  8
BEZUGSACHSEN
100
AcDbPolyline
 62
7
  6
CONTINUOUS
 90
15
 70
0
 10
291.7009918199
 20
258.0948257723
 10
291.5241380007
 20
258.0902960412
 10
291.1121160096
 20
258.0446509248
 10
290.7094892656
 20
257.9504940429
 10
290.3214254842
 20
257.8092941471
 10
289.9532639459
 20
257.6229218319
 10
289.6111118655
 20
257.394683871
 10
289.2999059218
 20
257.1280482336
 10
289.0244397451
 20
256.8277591836
 10
288.7884577432
 20
256.4986492371
 10
288.5941781726
 20
256.1444047574
 10
288.4435748813
 20
255.7675465342
 10
288.3397592104
 20
255.3744704659
 10
288.2849442516
 20
254.9700584443
 10
288.275993531
 20
254.7296480826
  0
LINE
  5
30E
100
AcDbEntity
  8
BEZUGSACHSEN
100
AcDbLine
 62
7
  6
CONTINUOUS
 10
291.7009918123
 20
258.09487389
 11
293.7759917908
 21
258.09487389
  0
LINE
  5
30F
100
AcDbEntity
  8
RUNDUNGEN
100
AcDbLine
 62
7
  6
CONTINUOUS
 10
305.7759917908
 20
258.09487389
 11
307.8509917694
 21
258.09487389
  0
LINE
  5
310
100
AcDbEntity
  8
0
100
AcDbLine
 62
7
  6
CONTINUOUS
 10
297.2759917908
 20
261.5855446058
 11
302.2759917908
 21
261.5855446058
  0
LINE
  5
311
100
AcDbEntity
  8
RUNDUNGEN
100
AcDbLine
 62
7
  6
CONTINUOUS
 10
62.5503475104
 20
87.2545383817
 11
62.5503475104
 21
122.2545383817
  0
LINE
  5
312
100
AcDbEntity
  8
0
100
AcDbLine
 62
7
  6
CONTINUOUS
 10
73.0647921216
 20
98.7545383817
 11
73.0647921216
 21
97.8545383817
  0
LINE
  5
313
100
AcDbEntity
  8
0
100
AcDbLine
 62
7
  6
CONTINUOUS
 10
74.5641190761
 20
98.7545383817
 11
74.5641190761
 21
97.8545383817
  0
LINE
  5
314
100
AcDbEntity
  8
0
100
AcDbLine
 62
7
  6
CONTINUOUS
 10
75.0342819387
 20
98.7545383817
 11
75.0342819387
 21
97.8545383817
  0
LINE
  5
315
100
AcDbEntity
  8
0
100
AcDbLine
 62
7
  6
CONTINUOUS
 10
75.7575787675
 20
98.7545383817
 11
75.7575787675
 21
97.8545383817
  0
LINE
  5
316
100
AcDbEntity
  8
0
100
AcDbLine
 62
7
  6
CONTINUOUS
 10
75.938502058
 20
98.7545383817
 11
75.938502058
 21
97.8545383817
  0
LINE
  5
317
100
AcDbEntity
  8
0
100
AcDbLine
 62
7
  6
CONTINUOUS
 10
76.3133339754
 20
98.7545383817
 11
76.3133339754
 21
97.8545383817
  0
LINE
  5
318
100
AcDbEntity
  8
0
100
AcDbLine
 62
7
  6
CONTINUOUS
 10
77.8126609298
 20
98.7545383817
 11
77.8126609298
 21
97.8545383817
  0
LINE
  5
319
100
AcDbEntity
  8
0
100
AcDbLine
 62
7
  6
CONTINUOUS
 10
78.1874926684
 20
98.7545383817
 11
78.1874926684
 21
97.8545383817
  0
LINE
  5
31A
100
AcDbEntity
  8
0
100
AcDbLine
 62
7
  6
CONTINUOUS
 10
78.6872682008
 20
98.7545383817
 11
78.6872682008
 21
97.8545383817
  0
LINE
  5
31B
100
AcDbEntity
  8
0
100
AcDbLine
 62
7
  6
CONTINUOUS
 10
79.016620474
 20
110.7545383817
 11
79.016620474
 21
111.6545383817
  0
LINE
  5
31C
100
AcDbEntity
  8
0
100
AcDbLine
 62
7
  6
CONTINUOUS
 10
80.1865951552
 20
98.7545383817
 11
80.1865951552
 21
97.8545383817
  0
LINE
  5
31D
100
AcDbEntity
  8
0
100
AcDbLine
 62
7
  6
CONTINUOUS
 10
80.6567581966
 20
98.7545383817
 11
80.6567581966
 21
97.8545383817
  0
LINE
  5
31E
100
AcDbEntity
  8
0
100
AcDbLine
 62
7
  6
CONTINUOUS
 10
81.2222518257
 20
98.7545383817
 11
81.2222518257
 21
97.8545383817
  0
LINE
  5
31F
100
AcDbEntity
  8
0
100
AcDbLine
 62
7
  6
CONTINUOUS
 10
81.706620474
 20
110.7545383817
 11
81.706620474
 21
111.6545383817
  0
LINE
  5
320
100
AcDbEntity
  8
0
100
AcDbLine
 62
7
  6
CONTINUOUS
 10
82.1033514967
 20
98.7545383817
 11
82.1033514967
 21
97.8545383817
  0
LINE
  5
321
100
AcDbEntity
  8
0
100
AcDbLine
 62
7
  6
CONTINUOUS
 10
82.8595077314
 20
98.7545383817
 11
82.8595077314
 21
97.8545383817
  0
LINE
  5
322
100
AcDbEntity
  8
0
100
AcDbLine
 62
7
  6
CONTINUOUS
 10
83.710994996
 20
98.7545383817
 11
83.710994996
 21
97.8545383817
  0
LINE
  5
323
100
AcDbEntity
  8
0
100
AcDbLine
 62
7
  6
CONTINUOUS
 10
86.0780405303
 20
98.7545383817
 11
86.0780405303
 21
97.8545383817
  0
LINE
  5
324
100
AcDbEntity
  8
0
100
AcDbLine
 62
7
  6
CONTINUOUS
 10
86.8045839166
 20
98.7545383817
 11
86.8045839166
 21
97.8545383817
  0
LINE
  5
325
100
AcDbEntity
  8
0
100
AcDbLine
 62
7
  6
CONTINUOUS
 10
87.3108519595
 20
98.7545383817
 11
87.3108519595
 21
97.8545383817
  0
LINE
  5
326
100
AcDbEntity
  8
0
100
AcDbLine
 62
7
  6
CONTINUOUS
 10
87.6921765108
 20
98.7545383817
 11
87.6921765108
 21
97.8545383817
  0
LINE
  5
327
100
AcDbEntity
  8
0
100
AcDbLine
 62
7
  6
CONTINUOUS
 10
87.7578950066
 20
98.7545383817
 11
87.7578950066
 21
97.8545383817
  0
LWPOLYLINE
  5
328
100
AcDbEntity
  8
BEZUGSACHSEN
100
AcDbPolyline
 62
7
  6
CONTINUOUS
 90
46
 70
0
 10
89.8711429493
 20
96.6736938046
 10
89.8713106823
 20
96.6397962968
 10
89.8759156478
 20
96.4929364195
 10
89.886671062
 20
96.3479079888
 10
89.903369305
 20
96.2049371757
 10
89.9257989072
 20
96.0642338071
 10
89.9537455054
 20
95.9259918288
 10
89.9869927417
 20
95.7903897498
 10
90.0253230868
 20
95.6575911713
 10
90.0685186131
 20
95.5277452789
 10
90.1163616895
 20
95.4009874167
 10
90.1686356525
 20
95.2774395713
 10
90.2251253091
 20
95.1572111305
 10
90.2856178079
 20
95.0403987618
 10
90.3499030719
 20
94.9270872895
 10
90.4177731216
 20
94.8173520865
 10
90.4890234603
 20
94.7112576103
 10
90.5634533001
 20
94.6088582494
 10
90.6408656418
 20
94.5101991776
 10
90.7210683202
 20
94.4153159273
 10
90.8038733482
 20
94.3242361081
 10
90.8890981614
 20
94.236978751
 10
90.9765647947
 20
94.1535559703
 10
91.0661008085
 20
94.0739726603
 10
91.1575390669
 20
93.9982273735
 10
91.2507165068
 20
93.926313783
 10
91.3454735831
 20
93.8582212326
 10
91.4416637617
 20
93.7939286556
 10
91.5391671561
 20
93.7333986793
 10
91.6377779072
 20
93.6766449457
 10
91.7373914487
 20
93.6236168961
 10
91.8375979563
 20
93.5744121662
 10
91.938085751
 20
93.5290416854
 10
92.0384234554
 20
93.4875374525
 10
92.1380691717
 20
93.4499294155
 10
92.237029412
 20
93.4160149052
 10
92.3348063615
 20
93.3857606889
 10
92.4324774697
 20
93.3586757646
 10
92.5316600776
 20
93.3342939612
 10
92.6305902558
 20
93.3130286132
 10
92.7293271527
 20
93.2947680709
 10
92.8246881085
 20
93.2798605838
 10
92.9153740111
 20
93.26807469
 10
92.9989448117
 20
93.2591486048
 10
93.0721608442
 20
93.2526987848
 10
93.086630549
 20
93.2515590228
  0
LINE
  5
329
100
AcDbEntity
  8
0
100
AcDbLine
 62
7
  6
CONTINUOUS
 10
89.5194773339
 20
110.7545383817
 11
89.5194773339
 21
111.6545383817
  0
LINE
  5
32A
100
AcDbEntity
  8
BEZUGSACHSEN
100
AcDbLine
 62
7
  6
CONTINUOUS
 10
89.8711428796
 20
96.6736723327
 11
89.8711428796
 21
98.7545383817
  0
LINE
  5
32B
100
AcDbEntity
  8
BEZUGSACHSEN
100
AcDbLine
 62
7
  6
CONTINUOUS
 10
89.8711428796
 20
110.7545383817
 11
89.8711428796
 21
112.8354044308
  0
LINE
  5
32C
100
AcDbEntity
  8
BEZUGSACHSEN
100
AcDbLine
 62
7
  6
CONTINUOUS
 10
93.6528869763
 20
116.4412965945
 11
93.6520750914
 21
116.4408704189
  0
LINE
  5
32D
100
AcDbEntity
  8
BEZUGSACHSEN
100
AcDbLine
 62
7
  6
CONTINUOUS
 10
93.6520750914
 20
116.4408704189
 11
93.5707491303
 21
116.4001999692
  0
LWPOLYLINE
  5
32E
100
AcDbEntity
  8
BEZUGSACHSEN
100
AcDbPolyline
 62
7
  6
CONTINUOUS
 90
3
 70
0
 10
93.5707491303
 20
116.4001999692
 10
93.4557991829
 20
116.3499221363
 10
93.3468292656
 20
116.3107892714
  0
LINE
  5
32F
100
AcDbEntity
  8
BEZUGSACHSEN
100
AcDbLine
 62
7
  6
CONTINUOUS
 10
93.4553158445
 20
93.1593472154
 11
93.5704326672
 21
93.109027042
  0
LINE
  5
330
100
AcDbEntity
  8
BEZUGSACHSEN
100
AcDbLine
 62
7
  6
CONTINUOUS
 10
93.5704326672
 20
93.109027042
 11
93.6520837185
 21
93.0682018142
  0
LINE
  5
331
100
AcDbEntity
  8
BEZUGSACHSEN
100
AcDbLine
 62
7
  6
CONTINUOUS
 10
93.6528968945
 20
93.0677749648
 11
93.6520837185
 21
93.0682018142
  0
LINE
  5
332
100
AcDbEntity
  8
RUNDUNGEN
100
AcDbLine
 62
7
  6
CONTINUOUS
 10
168.7538657552
 20
93.1982874921
 11
168.85527693
 21
93.2263468302
  0
LINE
  5
333
100
AcDbEntity
  8
RUNDUNGEN
100
AcDbLine
 62
7
  6
CONTINUOUS
 10
65.5503475104
 20
84.2545383817
 11
196.5503475104
 21
84.2545383817
  0
LINE
  5
334
100
AcDbEntity
  8
RUNDUNGEN
100
AcDbLine
 62
7
  6
CONTINUOUS
 10
168.85527693
 20
93.2263468302
 11
168.9484590839
 21
93.2441244204
  0
LINE
  5
335
100
AcDbEntity
  8
RUNDUNGEN
100
AcDbLine
 62
7
  6
CONTINUOUS
 10
168.9484590839
 20
93.2441244204
 11
169.0162946459
 21
93.2517312543
  0
LWPOLYLINE
  5
336
100
AcDbEntity
  8
RUNDUNGEN
100
AcDbPolyline
 62
7
  6
CONTINUOUS
 90
46
 70
0
 10
169.0140672024
 20
93.2515592333
 10
169.0282805629
 20
93.2526784466
 10
169.1012116033
 20
93.2590967119
 10
169.1844243026
 20
93.2679693502
 10
169.274719042
 20
93.2796771649
 10
169.36969892
 20
93.2944843782
 10
169.4680771291
 20
93.3126241204
 10
169.5667153409
 20
93.3337607363
 10
169.6656302838
 20
93.3580001331
 10
169.7630302401
 20
93.3849239257
 10
169.8605321103
 20
93.4149956897
 10
169.9591995855
 20
93.448698675
 10
170.0585488958
 20
93.4860686101
 10
170.1585941159
 20
93.5273089866
 10
170.2587982798
 20
93.5723911081
 10
170.3587367317
 20
93.6212857228
 10
170.4580985513
 20
93.6739822113
 10
170.5564763962
 20
93.7303845833
 10
170.6537664973
 20
93.7905436876
 10
170.7497645443
 20
93.8544469114
 10
170.8443507795
 20
93.9221315178
 10
170.937378986
 20
93.9936184909
 10
171.0286910737
 20
94.0689192431
 10
171.1181251882
 20
94.1480407197
 10
171.205515424
 20
94.230985037
 10
171.2906906062
 20
94.3177480421
 10
171.3734740462
 20
94.4083184201
 10
171.4536844899
 20
94.5026780229
 10
171.5311352713
 20
94.6008001966
 10
171.6056355743
 20
94.7026504583
 10
171.6769897573
 20
94.8081847714
 10
171.7449984063
 20
94.9173499865
 10
171.8094584141
 20
95.0300830052
 10
171.8701631904
 20
95.1463099253
 10
171.9269040576
 20
95.2659475286
 10
171.9794695521
 20
95.3889008854
 10
172.0276458447
 20
95.5150624756
 10
172.071217611
 20
95.6443123272
 10
172.1099685235
 20
95.7765172653
 10
172.1436819107
 20
95.9115304319
 10
172.1721414401
 20
96.0491907171
 10
172.1951318785
 20
96.189322274
 10
172.212439901
 20
96.3317339933
 10
172.2238549749
 20
96.4762190642
 10
172.2291702989
 20
96.6225545144
 10
172.2295520714
 20
96.6736938083
  0
LWPOLYLINE
  5
337
100
AcDbEntity
  8
BEZUGSACHSEN
100
AcDbPolyline
 62
7
  6
CONTINUOUS
 90
5
 70
0
 10
93.0843956241
 20
93.251731624
 10
93.1519853384
 20
93.2441610796
 10
93.2449953294
 20
93.2264455108
 10
93.3463187458
 20
93.1984497657
 10
93.4553158445
 20
93.1593472154
  0
LINE
  5
338
100
AcDbEntity
  8
BEZUGSACHSEN
100
AcDbLine
 62
7
  6
CONTINUOUS
 10
93.4543288529
 20
93.2545383817
 11
131.0503475104
 21
93.2545383817
  0
LINE
  5
339
100
AcDbEntity
  8
RUNDUNGEN
100
AcDbLine
 62
7
  6
CONTINUOUS
 10
104.2217357484
 20
93.2545383817
 11
168.6463661678
 21
93.2545383817
  0
LINE
  5
33A
100
AcDbEntity
  8
0
100
AcDbLine
 62
7
  6
CONTINUOUS
 10
190.2536045722
 20
97.8545383817
 11
173.9414950017
 21
97.8545383817
  0
LINE
  5
33B
100
AcDbEntity
  8
0
100
AcDbLine
 62
7
  6
CONTINUOUS
 10
87.7578950066
 20
97.8545383817
 11
73.0647921216
 21
97.8545383817
  0
LINE
  5
33C
100
AcDbEntity
  8
RUNDUNGEN
100
AcDbLine
 62
7
  6
CONTINUOUS
 10
196.0496440923
 20
98.7545383817
 11
183.9287589428
 21
98.7545383817
  0
LINE
  5
33D
100
AcDbEntity
  8
RUNDUNGEN
100
AcDbLine
 62
7
  6
CONTINUOUS
 10
182.2637690252
 20
98.7545383817
 11
66.0510509285
 21
98.7545383817
  0
LINE
  5
33E
100
AcDbEntity
  8
RUNDUNGEN
100
AcDbLine
 62
7
  6
CONTINUOUS
 10
66.0510509285
 20
110.7545383817
 11
182.3369286569
 21
110.7545383817
  0
LINE
  5
33F
100
AcDbEntity
  8
RUNDUNGEN
100
AcDbLine
 62
7
  6
CONTINUOUS
 10
182.9110147225
 20
110.7545383817
 11
196.0496440923
 21
110.7545383817
  0
LINE
  5
340
100
AcDbEntity
  8
0
100
AcDbLine
 62
7
  6
CONTINUOUS
 10
79.016620474
 20
111.6545383817
 11
89.5194731381
 21
111.6545383817
  0
LINE
  5
341
100
AcDbEntity
  8
0
100
AcDbLine
 62
7
  6
CONTINUOUS
 10
171.9828420264
 20
111.6545383817
 11
190.4207633654
 21
111.6545383817
  0
LWPOLYLINE
  5
342
100
AcDbEntity
  8
BEZUGSACHSEN
100
AcDbPolyline
 62
7
  6
CONTINUOUS
 90
46
 70
0
 10
93.0866278184
 20
116.2575175302
 10
93.0724144578
 20
116.2563983169
 10
92.9994834175
 20
116.2499800516
 10
92.9162707181
 20
116.2411074132
 10
92.8259759788
 20
116.2293995985
 10
92.7309961008
 20
116.2145923853
 10
92.6326178916
 20
116.1964526431
 10
92.5339796798
 20
116.1753160272
 10
92.4350647369
 20
116.1510766303
 10
92.3376647807
 20
116.1241528378
 10
92.2401629105
 20
116.0940810738
 10
92.1414954352
 20
116.0603780884
 10
92.0421461249
 20
116.0230081533
 10
91.9421009049
 20
115.9817677769
 10
91.841896741
 20
115.9366856554
 10
91.741958289
 20
115.8877910407
 10
91.6425964695
 20
115.8350945522
 10
91.5442186246
 20
115.7786921802
 10
91.4469285234
 20
115.7185330759
 10
91.3509304765
 20
115.6546298521
 10
91.2563442413
 20
115.5869452457
 10
91.1633160347
 20
115.5154582726
 10
91.0720039471
 20
115.4401575204
 10
90.9825698325
 20
115.3610360437
 10
90.8951795968
 20
115.2780917265
 10
90.8100044146
 20
115.1913287214
 10
90.7272209746
 20
115.1007583434
 10
90.6470105309
 20
115.0063987406
 10
90.5695597494
 20
114.9082765669
 10
90.4950594464
 20
114.8064263052
 10
90.4237052634
 20
114.7008919921
 10
90.3556966145
 20
114.591726777
 10
90.2912366066
 20
114.4789937583
 10
90.2305318303
 20
114.3627668382
 10
90.1737909631
 20
114.2431292349
 10
90.1212254686
 20
114.1201758781
 10
90.073049176
 20
113.9940142879
 10
90.0294774097
 20
113.8647644363
 10
89.9907264973
 20
113.7325594982
 10
89.95701311
 20
113.5975463316
 10
89.9285535806
 20
113.4598860464
 10
89.9055631422
 20
113.3197544894
 10
89.8882551197
 20
113.1773427702
 10
89.8768400459
 20
113.0328576993
 10
89.8715247218
 20
112.8865222491
 10
89.8711429493
 20
112.8353829552
  0
LINE
  5
343
100
AcDbEntity
  8
BEZUGSACHSEN
100
AcDbLine
 62
7
  6
CONTINUOUS
 10
93.4543288529
 20
116.2545383817
 11
168.6463661678
 21
116.2545383817
  0
LINE
  5
344
100
AcDbEntity
  8
BEZUGSACHSEN
100
AcDbLine
 62
7
  6
CONTINUOUS
 10
93.2454180908
 20
116.2827299333
 11
93.1522359368
 21
116.2649523431
  0
LINE
  5
345
100
AcDbEntity
  8
BEZUGSACHSEN
100
AcDbLine
 62
7
  6
CONTINUOUS
 10
93.1522359368
 20
116.2649523431
 11
93.0844003749
 21
116.2573455092
  0
LWPOLYLINE
  5
346
100
AcDbEntity
  8
BEZUGSACHSEN
100
AcDbPolyline
 62
7
  6
CONTINUOUS
 90
5
 70
0
 10
169.0162993967
 20
116.2573451394
 10
168.9487096823
 20
116.2649156838
 10
168.8556996913
 20
116.2826312527
 10
168.754376275
 20
116.3106269978
 10
168.6453791763
 20
116.3497295481
  0
LINE
  5
347
100
AcDbEntity
  8
BEZUGSACHSEN
100
AcDbLine
 62
7
  6
CONTINUOUS
 10
93.3468292656
 20
116.3107892714
 11
93.2454180908
 21
116.2827299333
  0
LINE
  5
348
100
AcDbEntity
  8
RUNDUNGEN
100
AcDbLine
 62
7
  6
CONTINUOUS
 10
65.5503475104
 20
125.2545383817
 11
196.5503475104
 21
125.2545383817
  0
LINE
  5
349
100
AcDbEntity
  8
RUNDUNGEN
100
AcDbLine
 62
7
  6
CONTINUOUS
 10
168.4478080445
 20
93.067780169
 11
168.4486199294
 21
93.0682063445
  0
LINE
  5
34A
100
AcDbEntity
  8
RUNDUNGEN
100
AcDbLine
 62
7
  6
CONTINUOUS
 10
168.4486199294
 20
93.0682063445
 11
168.5299458905
 21
93.1088767943
  0
LWPOLYLINE
  5
34B
100
AcDbEntity
  8
RUNDUNGEN
100
AcDbPolyline
 62
7
  6
CONTINUOUS
 90
3
 70
0
 10
168.5299458905
 20
93.1088767943
 10
168.6448958378
 20
93.1591546271
 10
168.7538657552
 20
93.1982874921
  0
LINE
  5
34C
100
AcDbEntity
  8
BEZUGSACHSEN
100
AcDbLine
 62
7
  6
CONTINUOUS
 10
168.6453791763
 20
116.3497295481
 11
168.5302623535
 21
116.4000497215
  0
LINE
  5
34D
100
AcDbEntity
  8
BEZUGSACHSEN
100
AcDbLine
 62
7
  6
CONTINUOUS
 10
168.5302623535
 20
116.4000497215
 11
168.4486113023
 21
116.4408749493
  0
LINE
  5
34E
100
AcDbEntity
  8
BEZUGSACHSEN
100
AcDbLine
 62
7
  6
CONTINUOUS
 10
168.4477981262
 20
116.4413017986
 11
168.4486113023
 21
116.4408749493
  0
LWPOLYLINE
  5
34F
100
AcDbEntity
  8
BEZUGSACHSEN
100
AcDbPolyline
 62
7
  6
CONTINUOUS
 90
46
 70
0
 10
172.2295520714
 20
112.8353829589
 10
172.2293843384
 20
112.8692804666
 10
172.2247793729
 20
113.016140344
 10
172.2140239587
 20
113.1611687747
 10
172.1973257157
 20
113.3041395878
 10
172.1748961136
 20
113.4448429564
 10
172.1469495154
 20
113.5830849347
 10
172.113702279
 20
113.7186870137
 10
172.075371934
 20
113.8514855921
 10
172.0321764076
 20
113.9813314846
 10
171.9843333313
 20
114.1080893468
 10
171.9320593683
 20
114.2316371922
 10
171.8755697117
 20
114.351865633
 10
171.8150772129
 20
114.4686780017
 10
171.7507919489
 20
114.581989474
 10
171.6829218991
 20
114.691724677
 10
171.6116715604
 20
114.7978191531
 10
171.5372417207
 20
114.9002185141
 10
171.4598293789
 20
114.9988775859
 10
171.3796267005
 20
115.0937608362
 10
171.2968216725
 20
115.1848406554
 10
171.2115968594
 20
115.2720980125
 10
171.124130226
 20
115.3555207932
 10
171.0345942123
 20
115.4351041032
 10
170.9431559538
 20
115.51084939
 10
170.8499785139
 20
115.5827629805
 10
170.7552214376
 20
115.6508555309
 10
170.659031259
 20
115.7151481079
 10
170.5615278647
 20
115.7756780842
 10
170.4629171135
 20
115.8324318178
 10
170.3633035721
 20
115.8854598674
 10
170.2630970644
 20
115.9346645972
 10
170.1626092697
 20
115.9800350781
 10
170.0622715654
 20
116.021539311
 10
169.9626258491
 20
116.0591473479
 10
169.8636656087
 20
116.0930618583
 10
169.7658886592
 20
116.1233160746
 10
169.668217551
 20
116.1504009989
 10
169.5690349431
 20
116.1747828023
 10
169.470104765
 20
116.1960481503
 10
169.3713678681
 20
116.2143086926
 10
169.2760069123
 20
116.2292161797
 10
169.1853210097
 20
116.2410020735
 10
169.101750209
 20
116.2499281587
 10
169.0285341766
 20
116.2563779787
 10
169.0140644717
 20
116.2575177407
  0
LINE
  5
350
100
AcDbEntity
  8
0
100
AcDbLine
 62
7
  6
CONTINUOUS
 10
171.9828420264
 20
110.7545383817
 11
171.9828420264
 21
111.6545383817
  0
LINE
  5
351
100
AcDbEntity
  8
BEZUGSACHSEN
100
AcDbLine
 62
7
  6
CONTINUOUS
 10
172.2295521411
 20
112.8354044308
 11
172.2295521411
 21
111.6545383817
  0
LINE
  5
352
100
AcDbEntity
  8
RUNDUNGEN
100
AcDbLine
 62
7
  6
CONTINUOUS
 10
172.2295521411
 20
98.7545383817
 11
172.2295521411
 21
96.6736723327
  0
LINE
  5
353
100
AcDbEntity
  8
0
100
AcDbLine
 62
7
  6
CONTINUOUS
 10
173.9414950017
 20
98.7545383817
 11
173.9414950017
 21
97.8545383817
  0
LINE
  5
354
100
AcDbEntity
  8
0
100
AcDbLine
 62
7
  6
CONTINUOUS
 10
174.0221348788
 20
98.7545383817
 11
174.0221348788
 21
97.8545383817
  0
LINE
  5
355
100
AcDbEntity
  8
0
100
AcDbLine
 62
7
  6
CONTINUOUS
 10
174.1811770537
 20
98.7545383817
 11
174.1811770537
 21
97.8545383817
  0
LINE
  5
356
100
AcDbEntity
  8
0
100
AcDbLine
 62
7
  6
CONTINUOUS
 10
174.6157459625
 20
98.7545383817
 11
174.6157459625
 21
97.8545383817
  0
LINE
  5
357
100
AcDbEntity
  8
0
100
AcDbLine
 62
7
  6
CONTINUOUS
 10
175.1287173038
 20
98.7545383817
 11
175.1287173038
 21
97.8545383817
  0
LINE
  5
358
100
AcDbEntity
  8
0
100
AcDbLine
 62
7
  6
CONTINUOUS
 10
175.52072879
 20
98.7545383817
 11
175.52072879
 21
97.8545383817
  0
LINE
  5
359
100
AcDbEntity
  8
0
100
AcDbLine
 62
7
  6
CONTINUOUS
 10
175.5924184378
 20
98.7545383817
 11
175.5924184378
 21
97.8545383817
  0
LINE
  5
35A
100
AcDbEntity
  8
0
100
AcDbLine
 62
7
  6
CONTINUOUS
 10
176.1815545098
 20
98.7545383817
 11
176.1815545098
 21
97.8545383817
  0
LINE
  5
35B
100
AcDbEntity
  8
0
100
AcDbLine
 62
7
  6
CONTINUOUS
 10
176.53548346
 20
98.7545383817
 11
176.53548346
 21
97.8545383817
  0
LINE
  5
35C
100
AcDbEntity
  8
0
100
AcDbLine
 62
7
  6
CONTINUOUS
 10
177.0865372743
 20
98.7545383817
 11
177.0865372743
 21
97.8545383817
  0
LINE
  5
35D
100
AcDbEntity
  8
0
100
AcDbLine
 62
7
  6
CONTINUOUS
 10
177.5591885017
 20
98.7545383817
 11
177.5591885017
 21
97.8545383817
  0
LINE
  5
35E
100
AcDbEntity
  8
0
100
AcDbLine
 62
7
  6
CONTINUOUS
 10
178.347686508
 20
98.7545383817
 11
178.347686508
 21
97.8545383817
  0
LINE
  5
35F
100
AcDbEntity
  8
0
100
AcDbLine
 62
7
  6
CONTINUOUS
 10
178.5515239205
 20
98.7545383817
 11
178.5515239205
 21
97.8545383817
  0
LINE
  5
360
100
AcDbEntity
  8
0
100
AcDbLine
 62
7
  6
CONTINUOUS
 10
179.3400219268
 20
98.7545383817
 11
179.3400219268
 21
97.8545383817
  0
LINE
  5
361
100
AcDbEntity
  8
0
100
AcDbLine
 62
7
  6
CONTINUOUS
 10
179.6536310485
 20
98.7545383817
 11
179.6536310485
 21
97.8545383817
  0
LINE
  5
362
100
AcDbEntity
  8
0
100
AcDbLine
 62
7
  6
CONTINUOUS
 10
180.1352329729
 20
98.7545383817
 11
180.1352329729
 21
97.8545383817
  0
LINE
  5
363
100
AcDbEntity
  8
0
100
AcDbLine
 62
7
  6
CONTINUOUS
 10
181.0021332806
 20
98.7545383817
 11
181.0021332806
 21
97.8545383817
  0
LINE
  5
364
100
AcDbEntity
  8
0
100
AcDbLine
 62
7
  6
CONTINUOUS
 10
182.1042404787
 20
98.7545383817
 11
182.1042404787
 21
97.8545383817
  0
LINE
  5
365
100
AcDbEntity
  8
RUNDUNGEN
100
AcDbLine
 62
7
  6
CONTINUOUS
 10
182.5021311916
 20
110.7514019543
 11
182.5021311916
 21
111.6545383817
  0
LINE
  5
366
100
AcDbEntity
  8
RUNDUNGEN
100
AcDbLine
 62
7
  6
CONTINUOUS
 10
182.8120986596
 20
98.7623396246
 11
182.8120986596
 21
97.8545383817
  0
LINE
  5
367
100
AcDbEntity
  8
0
100
AcDbLine
 62
7
  6
CONTINUOUS
 10
183.1293498836
 20
110.7545383817
 11
183.1293498836
 21
111.6545383817
  0
LINE
  5
368
100
AcDbEntity
  8
0
100
AcDbLine
 62
7
  6
CONTINUOUS
 10
183.51241105
 20
110.7545383817
 11
183.51241105
 21
111.6545383817
  0
LINE
  5
369
100
AcDbEntity
  8
RUNDUNGEN
100
AcDbLine
 62
7
  6
CONTINUOUS
 10
183.5580392364
 20
98.7644890669
 11
183.5580392364
 21
97.8545383817
  0
LINE
  5
36A
100
AcDbEntity
  8
RUNDUNGEN
100
AcDbLine
 62
7
  6
CONTINUOUS
 10
183.7148439094
 20
98.7613699394
 11
183.7148439094
 21
97.8545383817
  0
LINE
  5
36B
100
AcDbEntity
  8
0
100
AcDbLine
 62
7
  6
CONTINUOUS
 10
184.066535539
 20
98.7545383817
 11
184.066535539
 21
97.8545383817
  0
LINE
  5
36C
100
AcDbEntity
  8
0
100
AcDbLine
 62
7
  6
CONTINUOUS
 10
184.5361159536
 20
110.7545383817
 11
184.5361159536
 21
111.6545383817
  0
LINE
  5
36D
100
AcDbEntity
  8
0
100
AcDbLine
 62
7
  6
CONTINUOUS
 10
185.0745779647
 20
98.7545383817
 11
185.0745779647
 21
97.8545383817
  0
LINE
  5
36E
100
AcDbEntity
  8
0
100
AcDbLine
 62
7
  6
CONTINUOUS
 10
185.4410988044
 20
110.7545383817
 11
185.4410988044
 21
111.6545383817
  0
LINE
  5
36F
100
AcDbEntity
  8
0
100
AcDbLine
 62
7
  6
CONTINUOUS
 10
185.941477971
 20
98.7545383817
 11
185.941477971
 21
97.8545383817
  0
LINE
  5
370
100
AcDbEntity
  8
0
100
AcDbLine
 62
7
  6
CONTINUOUS
 10
186.030234652
 20
110.7545383817
 11
186.030234652
 21
111.6545383817
  0
LINE
  5
371
100
AcDbEntity
  8
0
100
AcDbLine
 62
7
  6
CONTINUOUS
 10
187.0435853233
 20
98.7545383817
 11
187.0435853233
 21
97.8545383817
  0
LINE
  5
372
100
AcDbEntity
  8
0
100
AcDbLine
 62
7
  6
CONTINUOUS
 10
187.7514436725
 20
98.7545383817
 11
187.7514436725
 21
97.8545383817
  0
LINE
  5
373
100
AcDbEntity
  8
0
100
AcDbLine
 62
7
  6
CONTINUOUS
 10
187.9118898309
 20
110.7545383817
 11
187.9118898309
 21
111.6545383817
  0
LINE
  5
374
100
AcDbEntity
  8
0
100
AcDbLine
 62
7
  6
CONTINUOUS
 10
188.4973839688
 20
98.7545383817
 11
188.4973839688
 21
97.8545383817
  0
LINE
  5
375
100
AcDbEntity
  8
0
100
AcDbLine
 62
7
  6
CONTINUOUS
 10
188.8109933148
 20
98.7545383817
 11
188.8109933148
 21
97.8545383817
  0
LINE
  5
376
100
AcDbEntity
  8
0
100
AcDbLine
 62
7
  6
CONTINUOUS
 10
189.084282608
 20
98.7545383817
 11
189.084282608
 21
97.8545383817
  0
LINE
  5
377
100
AcDbEntity
  8
0
100
AcDbLine
 62
7
  6
CONTINUOUS
 10
189.7935450098
 20
110.7545383817
 11
189.7935450098
 21
111.6545383817
  0
LINE
  5
378
100
AcDbEntity
  8
0
100
AcDbLine
 62
7
  6
CONTINUOUS
 10
189.8615927775
 20
98.7545383817
 11
189.8615927775
 21
97.8545383817
  0
LINE
  5
379
100
AcDbEntity
  8
0
100
AcDbLine
 62
7
  6
CONTINUOUS
 10
190.2536045722
 20
98.7545383817
 11
190.2536045722
 21
97.8545383817
  0
LINE
  5
37A
100
AcDbEntity
  8
0
100
AcDbLine
 62
7
  6
CONTINUOUS
 10
190.4207633654
 20
110.7545383817
 11
190.4207633654
 21
111.6545383817
  0
LINE
  5
37B
100
AcDbEntity
  8
RUNDUNGEN
100
AcDbLine
 62
7
  6
CONTINUOUS
 10
199.5503475104
 20
87.2545383817
 11
199.5503475104
 21
122.2545383817
  0
ARC
  5
37C
100
AcDbEntity
  8
RUNDUNGEN
100
AcDbCircle
 62
7
  6
CONTINUOUS
 10
77.5503475104
 20
194.425538296
 40
15.0
100
AcDbArc
 50
157.89
 51
180.0
  0
ARC
  5
37D
100
AcDbEntity
  8
BEZUGSACHSEN
100
AcDbCircle
 62
7
  6
CONTINUOUS
 10
84.7452764898
 20
204.4489921034
 40
6.85
100
AcDbArc
 50
278.9995788007
 51
338.6828209993
  0
ARC
  5
37E
100
AcDbEntity
  8
BEZUGSACHSEN
100
AcDbCircle
 62
7
  6
CONTINUOUS
 10
85.7787418943
 20
207.0969884087
 40
6.85
100
AcDbArc
 50
338.6784927256
 51
22.8933014526
  0
ARC
  5
37F
100
AcDbEntity
  8
BEZUGSACHSEN
100
AcDbCircle
 62
7
  6
CONTINUOUS
 10
93.9811428796
 20
215.846460158
 40
4.11
100
AcDbArc
 50
158.6801914436
 51
202.8934001665
  0
ARC
  5
380
100
AcDbEntity
  8
RUNDUNGEN
100
AcDbCircle
 62
7
  6
CONTINUOUS
 10
65.5503475104
 20
191.4360325309
 40
3.0
100
AcDbArc
 50
99.0
 51
180.0
  0
ARC
  5
381
100
AcDbEntity
  8
BEZUGSACHSEN
100
AcDbCircle
 62
7
  6
CONTINUOUS
 10
104.4882129333
 20
242.7681960595
 40
4.11
100
AcDbArc
 50
112.893397112
 51
158.680191336
  0
ARC
  5
382
100
AcDbEntity
  8
RUNDUNGEN
100
AcDbCircle
 62
7
  6
CONTINUOUS
 10
131.0503475104
 20
198.5855446058
 40
63.0
100
AcDbArc
 50
22.11
 51
157.89
  0
ARC
  5
383
100
AcDbEntity
  8
RUNDUNGEN
100
AcDbCircle
 62
7
  6
CONTINUOUS
 10
131.0503475104
 20
215.7855446058
 40
25.0
100
AcDbArc
 50
343.8179829121
 51
1.1000788527
  0
ARC
  5
384
100
AcDbEntity
  8
BEZUGSACHSEN
100
AcDbCircle
 62
7
  6
CONTINUOUS
 10
131.0503475104
 20
215.7855446058
 40
25.0
100
AcDbArc
 50
1.1000788527
 51
343.8179829121
  0
ARC
  5
385
100
AcDbEntity
  8
RUNDUNGEN
100
AcDbCircle
 62
7
  6
CONTINUOUS
 10
184.5503475104
 20
194.425538296
 40
15.0
100
AcDbArc
 50
0.0
 51
22.11
  0
ARC
  5
386
100
AcDbEntity
  8
RUNDUNGEN
100
AcDbCircle
 62
7
  6
CONTINUOUS
 10
177.3554185309
 20
204.4489921034
 40
6.85
100
AcDbArc
 50
201.3171790007
 51
261.0004211993
  0
ARC
  5
387
100
AcDbEntity
  8
RUNDUNGEN
100
AcDbCircle
 62
7
  6
CONTINUOUS
 10
176.3219531265
 20
207.0969884087
 40
6.85
100
AcDbArc
 50
157.1066985474
 51
201.3215072744
  0
ARC
  5
388
100
AcDbEntity
  8
RUNDUNGEN
100
AcDbCircle
 62
7
  6
CONTINUOUS
 10
168.1195521411
 20
215.846460158
 40
4.11
100
AcDbArc
 50
337.1065998335
 51
21.3198085564
  0
ARC
  5
389
100
AcDbEntity
  8
RUNDUNGEN
100
AcDbCircle
 62
7
  6
CONTINUOUS
 10
196.5503475104
 20
191.4360325309
 40
3.0
100
AcDbArc
 50
0.0
 51
81.0
  0
ARC
  5
38A
100
AcDbEntity
  8
RUNDUNGEN
100
AcDbCircle
 62
7
  6
CONTINUOUS
 10
157.6124820875
 20
242.7681960595
 40
4.11
100
AcDbArc
 50
21.319808664
 51
67.106602888
  0
ARC
  5
38B
100
AcDbEntity
  8
RUNDUNGEN
100
AcDbCircle
 62
7
  6
CONTINUOUS
 10
131.0503475104
 20
253.9848821932
 40
4.1099541053
100
AcDbArc
 50
67.1065578588
 51
112.893442123
  0
ARC
  5
38C
100
AcDbEntity
  8
BEZUGSACHSEN
100
AcDbCircle
 62
7
  6
CONTINUOUS
 10
332.2759917908
 20
216.3807079758
 40
21.0
100
AcDbArc
 50
180.0000005254
 51
199.9995977362
  0
ARC
  5
38D
100
AcDbEntity
  8
BEZUGSACHSEN
100
AcDbCircle
 62
7
  6
CONTINUOUS
 10
267.2759917908
 20
216.3807079758
 40
21.0
100
AcDbArc
 50
340.0004022638
 51
359.9999994746
  0
ARC
  5
38E
100
AcDbEntity
  8
RUNDUNGEN
100
AcDbCircle
 62
7
  6
CONTINUOUS
 10
297.2759917908
 20
258.0855446058
 40
3.5
100
AcDbArc
 50
90.0
 51
180.0
  0
ARC
  5
38F
100
AcDbEntity
  8
RUNDUNGEN
100
AcDbCircle
 62
7
  6
CONTINUOUS
 10
302.2759917908
 20
258.0855446058
 40
3.5
100
AcDbArc
 50
0.0
 51
90.0
  0
ARC
  5
390
100
AcDbEntity
  8
RUNDUNGEN
100
AcDbCircle
 62
7
  6
CONTINUOUS
 10
318.2759917908
 20
187.5978906444
 40
2.0
100
AcDbArc
 50
0.0001593431
 51
20.0
  0
ARC
  5
391
100
AcDbEntity
  8
RUNDUNGEN
100
AcDbCircle
 62
7
  6
CONTINUOUS
 10
281.2759917908
 20
187.5978906444
 40
2.0
100
AcDbArc
 50
160.0004172764
 51
180.0000359986
  0
ARC
  5
392
100
AcDbEntity
  8
RUNDUNGEN
100
AcDbCircle
 62
7
  6
CONTINUOUS
 10
182.622526406
 20
293.9876852987
 40
195.2254377155
100
AcDbArc
 50
270.0556366623
 51
270.2745602347
  0
ARC
  5
393
100
AcDbEntity
  8
RUNDUNGEN
100
AcDbCircle
 62
7
  6
CONTINUOUS
 10
184.2595303935
 20
130.0868299065
 40
31.3301951082
100
AcDbArc
 50
268.7170254915
 51
269.0038424937
  0
ARC
  5
394
100
AcDbEntity
  8
RUNDUNGEN
100
AcDbCircle
 62
7
  6
CONTINUOUS
 10
182.9018760235
 20
85.3057047427
 40
25.448836958
100
AcDbArc
 50
89.9707377319
 51
90.9000267379
  0
ARC
  5
395
100
AcDbEntity
  8
RUNDUNGEN
100
AcDbCircle
 62
7
  6
CONTINUOUS
 10
182.2710372515
 20
117.5198891592
 40
18.7653513687
100
AcDbArc
 50
269.9856176306
 51
271.6522382919
  0
ARC
  5
396
100
AcDbEntity
  8
RUNDUNGEN
100
AcDbCircle
 62
7
  6
CONTINUOUS
 10
182.3365963164
 20
106.3846569937
 40
4.3698813881
100
AcDbArc
 50
87.8290670543
 51
90.0003417579
  0
ARC
  5
397
100
AcDbEntity
  8
RUNDUNGEN
100
AcDbCircle
 62
7
  6
CONTINUOUS
 10
66.0520527292
 20
107.2398495429
 40
3.5146889816
100
AcDbArc
 50
90.0163311614
 51
103.224883883
  0
ARC
  5
398
100
AcDbEntity
  8
RUNDUNGEN
100
AcDbCircle
 62
7
  6
CONTINUOUS
 10
196.0486422916
 20
107.2398495429
 40
3.5146889816
100
AcDbArc
 50
76.7751161169
 51
89.9836688386
  0
ARC
  5
399
100
AcDbEntity
  8
RUNDUNGEN
100
AcDbCircle
 62
7
  6
CONTINUOUS
 10
66.0520527292
 20
102.2692272206
 40
3.5146889816
100
AcDbArc
 50
256.7751161171
 51
269.9836688386
  0
ARC
  5
39A
100
AcDbEntity
  8
RUNDUNGEN
100
AcDbCircle
 62
7
  6
CONTINUOUS
 10
196.0486422916
 20
102.2692272206
 40
3.5146889816
100
AcDbArc
 50
270.0163311614
 51
283.224883883
  0
ARC
  5
39B
100
AcDbEntity
  8
RUNDUNGEN
100
AcDbCircle
 62
7
  6
CONTINUOUS
 10
66.0503475104
 20
107.2545383817
 40
3.5
100
AcDbArc
 50
103.2527202028
 51
180.0
  0
ARC
  5
39C
100
AcDbEntity
  8
RUNDUNGEN
100
AcDbCircle
 62
7
  6
CONTINUOUS
 10
196.0503475104
 20
107.2545383817
 40
3.5
100
AcDbArc
 50
0.0
 51
76.7472797971
  0
ARC
  5
39D
100
AcDbEntity
  8
RUNDUNGEN
100
AcDbCircle
 62
7
  6
CONTINUOUS
 10
66.0503475104
 20
102.2545383817
 40
3.5
100
AcDbArc
 50
180.0
 51
256.7472797972
  0
ARC
  5
39E
100
AcDbEntity
  8
RUNDUNGEN
100
AcDbCircle
 62
7
  6
CONTINUOUS
 10
196.0503475104
 20
102.2545383817
 40
3.5
100
AcDbArc
 50
283.2527202029
 51
360.0
  0
ARC
  5
39F
100
AcDbEntity
  8
RUNDUNGEN
100
AcDbCircle
 62
7
  6
CONTINUOUS
 10
183.9288479348
 20
102.1091682417
 40
3.3546313055
100
AcDbArc
 50
266.3424119555
 51
270.0531890863
  0
ARC
  5
3A0
100
AcDbEntity
  8
RUNDUNGEN
100
AcDbCircle
 62
7
  6
CONTINUOUS
 10
65.5503475104
 20
122.2545383817
 40
3.0
100
AcDbArc
 50
90.0
 51
180.0
  0
ARC
  5
3A1
100
AcDbEntity
  8
RUNDUNGEN
100
AcDbCircle
 62
7
  6
CONTINUOUS
 10
65.5503475104
 20
87.2545383817
 40
3.0
100
AcDbArc
 50
180.0
 51
270.0
  0
ARC
  5
3A2
100
AcDbEntity
  8
RUNDUNGEN
100
AcDbCircle
 62
7
  6
CONTINUOUS
 10
196.5503475104
 20
122.2545383817
 40
3.0
100
AcDbArc
 50
0.0
 51
90.0
  0
ARC
  5
3A3
100
AcDbEntity
  8
RUNDUNGEN
100
AcDbCircle
 62
7
  6
CONTINUOUS
 10
196.5503475104
 20
87.2545383817
 40
3.0
100
AcDbArc
 50
270.0
 51
360.0
  0
SPLINE
  5
3A4
100
AcDbEntity
  8
RUNDUNGEN
100
AcDbSpline
 62
7
  6
CONTINUOUS
 70
0
 71
3
 72
9
 73
5
 74
0
 42
0.0000001
 43
0.0000001
 44
0.0000000001
 40
0.0
 40
0.0
 40
0.0
 40
0.0
 40
0.3201079575
 40
1.0
 40
1.0
 40
1.0
 40
1.0
 10
293.8692024758
 20
194.425538296
 30
0.0
 10
293.854978942
 20
194.4351035024
 30
0.0
 10
293.8127446005
 20
194.466207685
 30
0.0
 10
293.7759917908
 20
194.5163257098
 30
0.0
 10
293.7759917908
 20
194.5527315389
 30
0.0
  0
SPLINE
  5
3A5
100
AcDbEntity
  8
RUNDUNGEN
100
AcDbSpline
 62
7
  6
CONTINUOUS
 70
0
 71
3
 72
9
 73
5
 74
0
 42
0.0000001
 43
0.0000001
 44
0.0000000001
 40
0.0
 40
0.0
 40
0.0
 40
0.0
 40
0.2014194633
 40
1.0
 40
1.0
 40
1.0
 40
1.0
 10
305.7759917908
 20
194.5527315389
 30
0.0
 10
305.7759917908
 20
194.5418715116
 30
0.0
 10
305.7650887562
 20
194.4876356143
 30
0.0
 10
305.7185107156
 20
194.449566157
 30
0.0
 10
305.6827811059
 20
194.425538296
 30
0.0
  0
SPLINE
  5
3A6
100
AcDbEntity
  8
RUNDUNGEN
100
AcDbSpline
 62
7
  6
CONTINUOUS
 70
0
 71
3
 72
15
 73
11
 74
0
 42
0.0000001
 43
0.0000001
 44
0.0000000001
 40
0.0
 40
0.0
 40
0.0
 40
0.0
 40
0.0285326285
 40
0.0657759772
 40
0.1615756745
 40
0.2784826082
 40
0.4096453333
 40
0.5503203458
 40
0.6971651204
 40
1.0
 40
1.0
 40
1.0
 40
1.0
 10
293.9128904055
 20
194.3990975527
 30
0.0
 10
293.950278483
 20
194.3785516193
 30
0.0
 10
294.0327878687
 20
194.3246638723
 30
0.0
 10
294.2270434945
 20
194.1810424844
 30
0.0
 10
294.5154518135
 20
193.9430251407
 30
0.0
 10
294.9037386629
 20
193.6060607097
 30
0.0
 10
295.3370140092
 20
193.2185622632
 30
0.0
 10
295.8002273792
 20
192.7974746729
 30
0.0
 10
296.4503993233
 20
192.2004630254
 30
0.0
 10
296.9437321482
 20
191.7436451864
 30
0.0
 10
297.2759917908
 20
191.4360325309
 30
0.0
  0
SPLINE
  5
3A7
100
AcDbEntity
  8
RUNDUNGEN
100
AcDbSpline
 62
7
  6
CONTINUOUS
 70
0
 71
3
 72
15
 73
11
 74
0
 42
0.0000001
 43
0.0000001
 44
0.0000000001
 40
0.0
 40
0.0
 40
0.0
 40
0.0
 40
0.3028397042
 40
0.4496880851
 40
0.5903649371
 40
0.7215266391
 40
0.8384313887
 40
0.9342272694
 40
0.9714682943
 40
1.0
 40
1.0
 40
1.0
 40
1.0
 10
302.2759917908
 20
191.4360325309
 30
0.0
 10
302.608256731
 20
191.7436500909
 30
0.0
 10
303.1015988486
 20
192.2004764601
 30
0.0
 10
303.7517820752
 20
192.7974985414
 30
0.0
 10
304.2150005438
 20
193.2185903673
 30
0.0
 10
304.6482746497
 20
193.6060871412
 30
0.0
 10
305.0365543142
 20
193.943043864
 30
0.0
 10
305.3249532834
 20
194.181052911
 30
0.0
 10
305.5192004609
 20
194.324668048
 30
0.0
 10
305.6017063074
 20
194.3785522835
 30
0.0
 10
305.6390931762
 20
194.3990975527
 30
0.0
  0
ELLIPSE
  5
3A8
100
AcDbEntity
  8
RUNDUNGEN
100
AcDbEllipse
 62
7
  6
CONTINUOUS
 10
302.2759917908
 20
194.5526201284
 30
0.0
 11
3.5
 21
-0.0
 31
0.0
 40
0.1583844403
 41
-0.2806120671
 42
-0.2313036024
  0
ELLIPSE
  5
3A9
100
AcDbEntity
  8
RUNDUNGEN
100
AcDbEllipse
 62
7
  6
CONTINUOUS
 10
297.2759917908
 20
194.5526201284
 30
0.0
 11
3.5
 21
0.0
 31
0.0
 40
0.1583844403
 41
-2.9102890512
 42
-2.8609805865
  0
ENDSEC
  0
SECTION
  2
OBJECTS
  0
DICTIONARY
  5
C
100
AcDbDictionary
280
0
281
1
  3
ACAD_GROUP
350
D
  3
ACAD_MLINESTYLE
350
17
  3
ACAD_LAYOUT
350
1A
  3
ACAD_PLOTSETTINGS
350
19
  3
ACAD_PLOTSTYLENAME
350
E
  0
DICTIONARY
  5
D
102
{ACAD_REACTORS
330
C
102
}
100
AcDbDictionary
280
0
281
1
  0
ACDBDICTIONARYWDFLT
  5
E
102
{ACAD_REACTORS
330
C
102
}
100
AcDbDictionary
281
1
  3
Normal
350
F
100
AcDbDictionaryWithDefault
340
F
  0
DICTIONARY
  5
17
102
{ACAD_REACTORS
330
C
102
}
100
AcDbDictionary
280
0
281
1
  3
Standard
350
18
  0
DICTIONARY
  5
19
102
{ACAD_REACTORS
330
C
102
}
100
AcDbDictionary
281
1
  0
DICTIONARY
  5
1A
102
{ACAD_REACTORS
330
C
102
}
100
AcDbDictionary
281
1
  3
Model
350
3AA
  3
Layout1
350
3AB
  0
ACDBPLACEHOLDER
  5
F
102
{ACAD_REACTORS
330
E
102
}
  0
MLINESTYLE
  5
18
102
{ACAD_REACTORS
330
17
102
}
100
AcDbMlineStyle
  2
STANDARD
 70
0
  3

 62
256
 51
90.0
 52
90.0
 71
2
 49
0.5
 62
256
  6
BYLAYER
 49
-0.5
 62
256
  6
BYLAYER
  0
LAYOUT
  5
3AA
102
{ACAD_REACTORS
330
1A
102
}
100
AcDbPlotSettings
  1

  2
none_device
  4
ISO_A3_(420.00_x_297.00_MM)
  6

 40
0.0
 41
0.0
 42
0.0
 43
0.0
 44
420.0
 45
297.0
 46
0.0
 47
0.0
 48
0.0
 49
0.0
140
0.0
141
0.0
142
1.0
143
1.0
 70
1024
 72
1
 73
0
 74
0
  7

 75
0
147
1.0
148
0.0
149
0.0
100
AcDbLayout
  1
Model
 70
0
 71
0
 10
0.0
 20
0.0
 11
420.0
 21
297.0
 12
0.0
 22
0.0
 32
0.0
 14
0.0
 24
0.0
 34
0.0
 15
0.0
 25
0.0
 35
0.0
146
0.0
 13
0.0
 23
0.0
 33
0.0
 16
1.0
 26
0.0
 36
0.0
 17
0.0
 27
1.0
 37
0.0
 76
0
330
209
345
0
346
0
  0
LAYOUT
  5
3AB
102
{ACAD_REACTORS
330
1A
102
}
100
AcDbPlotSettings
  1

  2
none_device
  4
ISO_A3_(420.00_x_297.00_MM)
  6

 40
0.0
 41
0.0
 42
0.0
 43
0.0
 44
420.0
 45
297.0
 46
0.0
 47
0.0
 48
0.0
 49
0.0
140
0.0
141
0.0
142
1.0
143
1.0
 70
0
 72
1
 73
0
 74
0
  7

 75
0
147
1.0
148
0.0
149
0.0
100
AcDbLayout
  1
Layout1
 70
0
 71
1
 10
0.0
 20
0.0
 11
420.0
 21
297.0
 12
0.0
 22
0.0
 32
0.0
 14
0.0
 24
0.0
 34
0.0
 15
0.0
 25
0.0
 35
0.0
146
0.0
 13
0.0
 23
0.0
 33
0.0
 16
1.0
 26
0.0
 36
0.0
 17
0.0
 27
1.0
 37
0.0
 76
0
330
20A
345
0
346
0
  0
ENDSEC
  0
EOF
