999
DXF file: 001-m34387-p-1.dxf
999
Pro/ENGINEER 2011490 by Parametric Technology Corporation
  0
SECTION
  2
HEADER
  9
$ACADVER
  1
AC1015
  9
$DWGCODEPAGE
  3
ANSI_1252
  9
$EXTMAX
 10
594.0
 20
420.0
 30
0.0
  9
$EXTMIN
 10
0.0
 20
0.0
 30
0.0
  9
$LIMMIN
 10
0.0
 20
0.0
  9
$LIMMAX
 10
594.0
 20
420.0
  9
$VIEWCTR
 10
297.0
 20
210.0
  9
$VIEWSIZE
 40
420.0
  9
$CLAYER
  8
0
  9
$LTSCALE
 40
32.67
  9
$CELTYPE
  6
BYLAYER
  9
$DIMSCALE
 40
1.0
  9
$DIMASZ
 40
3.5
  9
$DIMEXO
 40
3.7125
  9
$DIMDLI
 40
22.572
  9
$DIMEXE
 40
10.692
  9
$DIMCEN
 40
5.346
  9
$DIMLFAC
 40
1.0
  9
$DIMBLK
  1
_FILLED
  9
$DIMTXT
 40
3.5
  9
$DIMTOL
 70
1
  9
$DIMLIM
 70
0
  9
$DIMTFAC
 40
1.0
  9
$DIMTP
 40
0.005
  9
$DIMTM
 40
0.005
  9
$PDMODE
 70
3
  9
$PDSIZE
 40
0.3125
  9
$HANDSEED
  5
3B3
  9
$TILEMODE
 70
1
  9
$MEASUREMENT
 70
1
  9
$INSUNITS
 70
4
  0
ENDSEC
  0
SECTION
  2
CLASSES
  0
CLASS
  1
ACDBDICTIONARYWDFLT
  2
AcDbDictionaryWithDefault
  3
AutoCAD 2000
 90
0
280
0
281
0
  0
CLASS
  1
ACDBPLACEHOLDER
  2
AcDbPlaceHolder
  3
AutoCAD 2000
 90
0
280
0
281
0
  0
CLASS
  1
LAYOUT
  2
AcDbLayout
  3
AutoCAD 2000
 90
0
280
0
281
0
  0
ENDSEC
  0
SECTION
  2
TABLES
  0
TABLE
  2
VPORT
  5
8
100
AcDbSymbolTable
 70
2
  0
VPORT
  5
1F4
100
AcDbSymbolTableRecord
100
AcDbViewportTableRecord
  2
*ACTIVE
 70
0
 10
0.0
 20
0.0
 11
1.0
 21
1.0
 12
297.0
 22
210.0
 13
0.0
 23
0.0
 14
1.0
 24
1.0
 15
0.0
 25
0.0
 16
0.0
 26
0.0
 36
1.0
 17
0.0
 27
0.0
 37
0.0
 40
420.0
 41
1.4142857143
 42
50.0
 43
0.0
 44
0.0
 50
0.0
 51
0.0
 71
0
 72
100
 73
1
 74
1
 75
0
 76
0
 77
0
 78
0
  0
ENDTAB
  0
TABLE
  2
LTYPE
  5
5
100
AcDbSymbolTable
 70
6
  0
LTYPE
  5
14
100
AcDbSymbolTableRecord
100
AcDbLinetypeTableRecord
  2
BYBLOCK
 70
0
  3

 72
65
 73
0
 40
0.0
  0
LTYPE
  5
15
100
AcDbSymbolTableRecord
100
AcDbLinetypeTableRecord
  2
BYLAYER
 70
0
  3

 72
65
 73
0
 40
0.0
  0
LTYPE
  5
16
100
AcDbSymbolTableRecord
100
AcDbLinetypeTableRecord
  2
CONTINUOUS
 70
64
  3
Solid line
 72
65
 73
0
 40
0.0
  0
LTYPE
  5
1F5
100
AcDbSymbolTableRecord
100
AcDbLinetypeTableRecord
  2
CENTER
 70
64
  3
____ _ ____ _ ____ _ ____ _ ____ _ ____ _ ____
 72
65
 73
4
 40
0.6
 49
0.375
 74
0
 49
-0.075
 74
0
 49
0.075
 74
0
 49
-0.075
 74
0
  0
LTYPE
  5
1F6
100
AcDbSymbolTableRecord
100
AcDbLinetypeTableRecord
  2
HIDDEN
 70
64
  3
- - - - - - - - - - - - - - - - - - - -
 72
65
 73
2
 40
0.2
 49
0.1
 74
0
 49
-0.1
 74
0
  0
LTYPE
  5
1F7
100
AcDbSymbolTableRecord
100
AcDbLinetypeTableRecord
  2
PHANTOM
 70
64
  3
_____ _ _ _____ _ _ _____ _ _ _____
 72
65
 73
6
 40
0.8
 49
0.45
 74
0
 49
-0.05
 74
0
 49
0.1
 74
0
 49
-0.05
 74
0
 49
0.1
 74
0
 49
-0.05
 74
0
  0
LTYPE
  5
1F8
100
AcDbSymbolTableRecord
100
AcDbLinetypeTableRecord
  2
DOT
 70
64
  3
. . . . . . . . . . . . . . . . . . . .
 72
65
 73
2
 40
0.2
 49
0.1
 74
0
 49
-0.1
 74
0
  0
LTYPE
  5
1F9
100
AcDbSymbolTableRecord
100
AcDbLinetypeTableRecord
  2
DASHED
 70
64
  3
- - - - - - - - - - - - - - - - - - - -
 72
65
 73
2
 40
0.2
 49
0.1
 74
0
 49
-0.1
 74
0
  0
ENDTAB
  0
TABLE
  2
LAYER
  5
2
100
AcDbSymbolTable
 70
36
  0
LAYER
  5
10
100
AcDbSymbolTableRecord
100
AcDbLayerTableRecord
  2
0
 70
0
 62
7
  6
CONTINUOUS
370
-3
390
F
  0
LAYER
  5
1FA
100
AcDbSymbolTableRecord
100
AcDbLayerTableRecord
  2
DEFAULT_1
 70
0
 62
7
  6
CENTER
370
-3
390
F
  0
LAYER
  5
1FB
100
AcDbSymbolTableRecord
100
AcDbLayerTableRecord
  2
DEFAULT_2
 70
0
 62
8
  6
HIDDEN
370
-3
390
F
  0
LAYER
  5
1FC
100
AcDbSymbolTableRecord
100
AcDbLayerTableRecord
  2
DEFAULT_3
 70
0
 62
7
  6
PHANTOM
370
-3
390
F
  0
LAYER
  5
1FD
100
AcDbSymbolTableRecord
100
AcDbLayerTableRecord
  2
AUSFORMSCHRAEGEN
 70
0
 62
7
  6
CONTINUOUS
370
-3
390
F
  0
LAYER
  5
1FE
100
AcDbSymbolTableRecord
100
AcDbLayerTableRecord
  2
BEZUGSACHSEN
 70
0
 62
7
  6
CONTINUOUS
370
-3
390
F
  0
LAYER
  5
1FF
100
AcDbSymbolTableRecord
100
AcDbLayerTableRecord
  2
BEZUGSEBENEN
 70
0
 62
7
  6
CONTINUOUS
370
-3
390
F
  0
LAYER
  5
200
100
AcDbSymbolTableRecord
100
AcDbLayerTableRecord
  2
FLAECHEN
 70
0
 62
7
  6
CONTINUOUS
370
-3
390
F
  0
LAYER
  5
201
100
AcDbSymbolTableRecord
100
AcDbLayerTableRecord
  2
HILFEN
 70
0
 62
7
  6
CONTINUOUS
370
-3
390
F
  0
LAYER
  5
202
100
AcDbSymbolTableRecord
100
AcDbLayerTableRecord
  2
KURVEN
 70
0
 62
7
  6
CONTINUOUS
370
-3
390
F
  0
LAYER
  5
203
100
AcDbSymbolTableRecord
100
AcDbLayerTableRecord
  2
PLATZIERUNG
 70
0
 62
7
  6
CONTINUOUS
370
-3
390
F
  0
LAYER
  5
204
100
AcDbSymbolTableRecord
100
AcDbLayerTableRecord
  2
RUNDUNGEN
 70
0
 62
7
  6
CONTINUOUS
370
-3
390
F
  0
LAYER
  5
205
100
AcDbSymbolTableRecord
100
AcDbLayerTableRecord
  2
TEIL_STARTBEZUEGE
 70
0
 62
7
  6
CONTINUOUS
370
-3
390
F
  0
LAYER
  5
206
100
AcDbSymbolTableRecord
100
AcDbLayerTableRecord
  2
ZEICHNUNGSBEMASSUNGEN
 70
0
 62
7
  6
CONTINUOUS
370
-3
390
F
  0
ENDTAB
  0
TABLE
  2
STYLE
  5
3
100
AcDbSymbolTable
 70
1
  0
STYLE
  5
11
100
AcDbSymbolTableRecord
100
AcDbTextStyleTableRecord
  2
STANDARD
 70
0
 40
0.0
 41
0.7
 50
0.0
 71
0
 42
0.2
  3
txt
  4

  0
STYLE
  5
207
100
AcDbSymbolTableRecord
100
AcDbTextStyleTableRecord
  2
TEXTSTYLE_1
 70
0
 40
0.0
 41
0.8
 50
0.0
 71
0
 42
0.2
  3
gdt
  4

  0
ENDTAB
  0
TABLE
  2
VIEW
  5
6
100
AcDbSymbolTable
 70
0
  0
ENDTAB
  0
TABLE
  2
UCS
  5
7
100
AcDbSymbolTable
 70
0
  0
ENDTAB
  0
TABLE
  2
APPID
  5
9
100
AcDbSymbolTable
 70
1
  0
APPID
  5
208
100
AcDbSymbolTableRecord
100
AcDbRegAppTableRecord
  2
ACAD
 70
0
  0
ENDTAB
  0
TABLE
  2
BLOCK_RECORD
  5
1
100
AcDbSymbolTable
 70
0
  0
BLOCK_RECORD
  5
209
100
AcDbSymbolTableRecord
100
AcDbBlockTableRecord
  2
*Model_Space
  0
BLOCK_RECORD
  5
20A
100
AcDbSymbolTableRecord
100
AcDbBlockTableRecord
  2
*Paper_Space
  0
ENDTAB
  0
TABLE
  2
DIMSTYLE
  5
A
100
AcDbSymbolTable
 70
1
100
AcDbDimStyleTable
 71
0
  0
DIMSTYLE
105
20B
100
AcDbSymbolTableRecord
100
AcDbDimStyleTableRecord
  2
STANDARD
 70
0
  3

  4

 40
1.0
 41
3.5
 42
0.0625
 43
0.38
 44
0.18
 45
0.0
 46
0.0
 47
0.005
 48
0.005
140
3.5
141
0.09
142
0.0
143
25.4
144
1.0
145
0.0
146
1.0
147
0.09
 71
1.0
 72
0.0
 73
0
 74
0
 75
0
 76
0
 77
1
 78
8
170
0
171
2
172
0
173
0
174
0
175
0
176
0
177
0
178
5
270
2
271
3
272
3
273
2
274
2
275
0
280
0
281
0
282
0
283
1
284
8
285
0
286
0
287
3
288
0
340
11
  0
ENDTAB
  0
ENDSEC
  0
SECTION
  2
BLOCKS
  0
BLOCK
  5
20
100
AcDbEntity
  8
0
100
AcDbBlockBegin
  2
*Model_Space
 70
0
 10
0.0
 20
0.0
 30
0.0
  3
*Model_Space
  1

  0
ENDBLK
  5
21
100
AcDbEntity
  8
0
100
AcDbBlockEnd
  0
BLOCK
  5
1C
100
AcDbEntity
  8
0
100
AcDbBlockBegin
  2
*Paper_Space
 70
0
 10
0.0
 20
0.0
 30
0.0
  3
*Paper_Space
  1

  0
ENDBLK
  5
1D
100
AcDbEntity
  8
0
100
AcDbBlockEnd
  0
ENDSEC
  0
SECTION
  2
ENTITIES
  0
MTEXT
  5
20C
100
AcDbEntity
  8
0
100
AcDbMText
 62
5
  6
CONTINUOUS
  7
STANDARD
 71
1
 72
1
 10
465.9493670886
 20
229.9367088608
 30
0.0
 11
0.0
 21
1.0
 31
0.0
 44
0.9
  1
RUD ABA 31,5t
 40
9.0
 41
88.9285714286
  0
MTEXT
  5
20D
100
AcDbEntity
  8
0
100
AcDbMText
 62
5
  6
CONTINUOUS
  7
STANDARD
 71
2
 72
1
 10
193.2359391061
 20
207.4852044479
 30
0.0
 11
1.0
 21
0.0
 31
0.0
 44
0.9
  1
RUD ABA 31,5t
 40
9.0
 41
88.9285714286
  0
MTEXT
  5
20E
100
AcDbEntity
  8
0
100
AcDbMText
 62
5
  6
CONTINUOUS
  7
STANDARD
 71
2
 72
1
 10
191.0757738667
 20
84.4026513723
 30
0.0
 11
1.0
 21
0.0
 31
0.0
 44
0.9
  1
RUD ABA 31,5t
 40
9.0
 41
88.9285714286
  0
LINE
  5
20F
100
AcDbEntity
  8
0
100
AcDbLine
 62
7
  6
CONTINUOUS
 10
0.0
 20
0.0
 11
0.0
 21
420.0
  0
LINE
  5
210
100
AcDbEntity
  8
0
100
AcDbLine
 62
7
  6
CONTINUOUS
 10
0.0
 20
0.0
 11
594.0
 21
0.0
  0
LINE
  5
211
100
AcDbEntity
  8
0
100
AcDbLine
 62
7
  6
CONTINUOUS
 10
0.0
 20
420.0
 11
594.0
 21
420.0
  0
LINE
  5
212
100
AcDbEntity
  8
0
100
AcDbLine
 62
7
  6
CONTINUOUS
 10
594.0
 20
0.0
 11
594.0
 21
420.0
  0
LINE
  5
213
100
AcDbEntity
  8
RUNDUNGEN
100
AcDbLine
 62
7
  6
CONTINUOUS
 10
30.1048022639
 20
190.0272633366
 11
30.1048022639
 21
223.3809710257
  0
LINE
  5
214
100
AcDbEntity
  8
BEZUGSACHSEN
100
AcDbLine
 62
7
  6
CONTINUOUS
 10
30.1048022639
 20
212.523380055
 11
30.1048022639
 21
213.1938250375
  0
LINE
  5
215
100
AcDbEntity
  8
0
100
AcDbLine
 62
7
  6
CONTINUOUS
 10
57.0313531779
 20
248.6978455234
 11
57.4155829213
 21
247.7611397608
  0
LINE
  5
216
100
AcDbEntity
  8
0
100
AcDbLine
 62
7
  6
CONTINUOUS
 10
59.216692074
 20
247.3710753106
 11
59.1126401277
 21
248.9583466395
  0
LINE
  5
217
100
AcDbEntity
  8
0
100
AcDbLine
 62
7
  6
CONTINUOUS
 10
57.4155829213
 20
247.7611397608
 11
57.3275197955
 21
246.6422208478
  0
LINE
  5
218
100
AcDbEntity
  8
RUNDUNGEN
100
AcDbLine
 62
7
  6
CONTINUOUS
 10
53.5249817095
 20
297.719692084
 11
33.0083124176
 21
240.1714636972
  0
LINE
  5
219
100
AcDbEntity
  8
0
100
AcDbLine
 62
7
  6
CONTINUOUS
 10
59.1126401277
 20
248.9583466395
 11
58.2040913415
 21
250.5064744509
  0
LINE
  5
21A
100
AcDbEntity
  8
0
100
AcDbLine
 62
7
  6
CONTINUOUS
 10
72.4089192802
 20
257.8854319924
 11
72.3048676474
 21
259.4727042895
  0
LINE
  5
21B
100
AcDbEntity
  8
0
100
AcDbLine
 62
7
  6
CONTINUOUS
 10
70.2756067548
 20
258.4185680243
 11
70.0474543296
 21
256.9743653975
  0
LINE
  5
21C
100
AcDbEntity
  8
0
100
AcDbLine
 62
7
  6
CONTINUOUS
 10
56.1748301644
 20
249.452337205
 11
57.0313531779
 21
248.6978455234
  0
LINE
  5
21D
100
AcDbEntity
  8
0
100
AcDbLine
 62
7
  6
CONTINUOUS
 10
58.2040913415
 20
250.5064744509
 11
57.347568328
 21
251.2609661326
  0
LINE
  5
21E
100
AcDbEntity
  8
0
100
AcDbLine
 62
7
  6
CONTINUOUS
 10
69.3150315624
 20
260.7603311351
 11
70.0314656773
 21
259.6805566703
  0
LINE
  5
21F
100
AcDbEntity
  8
0
100
AcDbLine
 62
7
  6
CONTINUOUS
 10
72.3048676474
 20
259.4727042895
 11
71.5364080442
 21
261.3461158649
  0
LINE
  5
220
100
AcDbEntity
  8
0
100
AcDbLine
 62
7
  6
CONTINUOUS
 10
70.0314656773
 20
259.6805566703
 11
70.2756067548
 21
258.4185680243
  0
LINE
  5
221
100
AcDbEntity
  8
0
100
AcDbLine
 62
7
  6
CONTINUOUS
 10
76.7557384192
 20
275.2941432919
 11
76.9998794968
 21
274.0321546459
  0
LINE
  5
222
100
AcDbEntity
  8
0
100
AcDbLine
 62
7
  6
CONTINUOUS
 10
79.1331936253
 20
273.4990223365
 11
79.029141191
 21
275.0862927724
  0
LINE
  5
223
100
AcDbEntity
  8
0
100
AcDbLine
 62
7
  6
CONTINUOUS
 10
76.9998794968
 20
274.0321546459
 11
76.7717278732
 21
272.5879538804
  0
LINE
  5
224
100
AcDbEntity
  8
0
100
AcDbLine
 62
7
  6
CONTINUOUS
 10
72.0406783863
 20
256.1159475005
 11
72.4089192802
 21
257.8854319924
  0
LINE
  5
225
100
AcDbEntity
  8
0
100
AcDbLine
 62
7
  6
CONTINUOUS
 10
78.7649519299
 20
271.7295359833
 11
79.1331936253
 21
273.4990223365
  0
LINE
  5
226
100
AcDbEntity
  8
0
100
AcDbLine
 62
7
  6
CONTINUOUS
 10
63.1513634471
 20
278.4538095269
 11
59.7892266753
 21
270.6470152855
  0
LINE
  5
227
100
AcDbEntity
  8
0
100
AcDbLine
 62
7
  6
CONTINUOUS
 10
58.6685146852
 20
268.0447511588
 11
57.8279804923
 21
266.0930525984
  0
LINE
  5
228
100
AcDbEntity
  8
0
100
AcDbLine
 62
7
  6
CONTINUOUS
 10
54.4658437205
 20
258.286258357
 11
53.6253091267
 21
256.334558866
  0
LINE
  5
229
100
AcDbEntity
  8
0
100
AcDbLine
 62
7
  6
CONTINUOUS
 10
50.5433505529
 20
249.1783311216
 11
47.1812137811
 21
241.3715368802
  0
LINE
  5
22A
100
AcDbEntity
  8
0
100
AcDbLine
 62
7
  6
CONTINUOUS
 10
49.6827678274
 20
242.6078872765
 11
52.3444593048
 21
248.7882657407
  0
LINE
  5
22B
100
AcDbEntity
  8
0
100
AcDbLine
 62
7
  6
CONTINUOUS
 10
62.6229846922
 20
271.740296049
 11
65.1445872711
 21
277.59539173
  0
LINE
  5
22C
100
AcDbEntity
  8
0
100
AcDbLine
 62
7
  6
CONTINUOUS
 10
57.3275197955
 20
246.6422208478
 11
54.6658283181
 21
240.4618423836
  0
LINE
  5
22D
100
AcDbEntity
  8
0
100
AcDbLine
 62
7
  6
CONTINUOUS
 10
56.6590521421
 20
239.6034245867
 11
59.040565622
 21
245.1332370193
  0
LINE
  5
22E
100
AcDbEntity
  8
RUNDUNGEN
100
AcDbLine
 62
7
  6
CONTINUOUS
 10
30.1048022639
 20
190.0272633366
 11
350.1048022639
 21
190.0272633366
  0
LINE
  5
22F
100
AcDbEntity
  8
0
100
AcDbLine
 62
7
  6
CONTINUOUS
 10
47.1812137811
 20
241.3715368802
 11
62.7948022639
 21
234.6472633366
  0
LINE
  5
230
100
AcDbEntity
  8
0
100
AcDbLine
 62
7
  6
CONTINUOUS
 10
63.6353364569
 20
236.5989618969
 11
56.6590521421
 21
239.6034245867
  0
LINE
  5
231
100
AcDbEntity
  8
0
100
AcDbLine
 62
7
  6
CONTINUOUS
 10
54.6658283181
 20
240.4618423836
 11
49.6827678274
 21
242.6078872765
  0
LINE
  5
232
100
AcDbEntity
  8
0
100
AcDbLine
 62
7
  6
CONTINUOUS
 10
71.5364080442
 20
261.3461158649
 11
70.487769726
 21
262.5689600627
  0
LINE
  5
233
100
AcDbEntity
  8
0
100
AcDbLine
 62
7
  6
CONTINUOUS
 10
76.0393051059
 20
276.3739196179
 11
76.7557384192
 21
275.2941432919
  0
LINE
  5
234
100
AcDbEntity
  8
RUNDUNGEN
100
AcDbLine
 62
7
  6
CONTINUOUS
 10
85.9325187415
 20
274.435061924
 11
92.2417716143
 21
259.2031780701
  0
LINE
  5
235
100
AcDbEntity
  8
0
100
AcDbLine
 62
7
  6
CONTINUOUS
 10
79.029141191
 20
275.0862927724
 11
78.2606807862
 21
276.9597024864
  0
LINE
  5
236
100
AcDbEntity
  8
RUNDUNGEN
100
AcDbLine
 62
7
  6
CONTINUOUS
 10
113.196697507
 20
349.4410148918
 11
85.932518647
 21
283.6194645211
  0
LINE
  5
237
100
AcDbEntity
  8
0
100
AcDbLine
 62
7
  6
CONTINUOUS
 10
76.7717278732
 20
272.5879538804
 11
74.2501252944
 21
266.7328581993
  0
LINE
  5
238
100
AcDbEntity
  8
0
100
AcDbLine
 62
7
  6
CONTINUOUS
 10
70.0474543296
 20
256.9743653975
 11
69.4870979338
 21
255.6732324035
  0
LINE
  5
239
100
AcDbEntity
  8
0
100
AcDbLine
 62
7
  6
CONTINUOUS
 10
62.7948022639
 20
234.6472633366
 11
63.6353364569
 21
236.5989618969
  0
LINE
  5
23A
100
AcDbEntity
  8
0
100
AcDbLine
 62
7
  6
CONTINUOUS
 10
67.1375621272
 20
244.7310389215
 11
68.1181856195
 21
247.0080211957
  0
LINE
  5
23B
100
AcDbEntity
  8
0
100
AcDbLine
 62
7
  6
CONTINUOUS
 10
71.4803219905
 20
254.8148145065
 11
72.0406783863
 21
256.1159475005
  0
LINE
  5
23C
100
AcDbEntity
  8
0
100
AcDbLine
 62
7
  6
CONTINUOUS
 10
75.4028151581
 20
263.9227417419
 11
78.7649519299
 21
271.7295359833
  0
LINE
  5
23D
100
AcDbEntity
  8
0
100
AcDbLine
 62
7
  6
CONTINUOUS
 10
64.1840131129
 20
279.9371566019
 11
63.1513634471
 21
278.4538095269
  0
LINE
  5
23E
100
AcDbEntity
  8
0
100
AcDbLine
 62
7
  6
CONTINUOUS
 10
51.5759998179
 20
250.661677266
 11
50.5433505529
 21
249.1783311216
  0
LINE
  5
23F
100
AcDbEntity
  8
0
100
AcDbLine
 62
7
  6
CONTINUOUS
 10
65.1445872711
 20
277.59539173
 11
66.037146836
 21
278.75345323
  0
LINE
  5
240
100
AcDbEntity
  8
0
100
AcDbLine
 62
7
  6
CONTINUOUS
 10
55.1782173218
 20
249.8815465042
 11
56.1748301644
 21
249.452337205
  0
LINE
  5
241
100
AcDbEntity
  8
0
100
AcDbLine
 62
7
  6
CONTINUOUS
 10
57.347568328
 20
251.2609661326
 11
56.0187515147
 21
251.8332450646
  0
LINE
  5
242
100
AcDbEntity
  8
0
100
AcDbLine
 62
7
  6
CONTINUOUS
 10
70.487769726
 20
262.5689600627
 11
68.966839172
 21
263.6095919405
  0
LINE
  5
243
100
AcDbEntity
  8
0
100
AcDbLine
 62
7
  6
CONTINUOUS
 10
68.126304979
 20
261.6578933802
 11
69.3150315624
 21
260.7603311351
  0
LINE
  5
244
100
AcDbEntity
  8
0
100
AcDbLine
 62
7
  6
CONTINUOUS
 10
78.2606807862
 20
276.9597024864
 11
77.2120432696
 21
278.1825485455
  0
LINE
  5
245
100
AcDbEntity
  8
RUNDUNGEN
100
AcDbLine
 62
7
  6
CONTINUOUS
 10
92.24182133
 20
250.0186778151
 11
85.5022381351
 21
233.7478846613
  0
LINE
  5
246
100
AcDbEntity
  8
0
100
AcDbLine
 62
7
  6
CONTINUOUS
 10
70.4476730972
 20
253.3314693053
 11
71.4803219905
 21
254.8148145065
  0
LINE
  5
247
100
AcDbEntity
  8
RUNDUNGEN
100
AcDbLine
 62
7
  6
CONTINUOUS
 10
185.5126010755
 20
383.1995469519
 11
119.6910507087
 21
355.9353680935
  0
LINE
  5
248
100
AcDbEntity
  8
0
100
AcDbLine
 62
7
  6
CONTINUOUS
 10
53.6253091267
 20
256.334558866
 11
63.9236336135
 21
251.8993996478
  0
LINE
  5
249
100
AcDbEntity
  8
0
100
AcDbLine
 62
7
  6
CONTINUOUS
 10
64.7641682073
 20
253.8510991388
 11
54.4658437205
 21
258.286258357
  0
LINE
  5
24A
100
AcDbEntity
  8
0
100
AcDbLine
 62
7
  6
CONTINUOUS
 10
57.8279804923
 20
266.0930525984
 11
68.126304979
 21
261.6578933802
  0
LINE
  5
24B
100
AcDbEntity
  8
0
100
AcDbLine
 62
7
  6
CONTINUOUS
 10
77.2120432696
 20
278.1825485455
 11
75.691111914
 21
279.2231785621
  0
LINE
  5
24C
100
AcDbEntity
  8
0
100
AcDbLine
 62
7
  6
CONTINUOUS
 10
74.850577721
 20
277.2714800017
 11
76.0393051059
 21
276.3739196179
  0
LINE
  5
24D
100
AcDbEntity
  8
0
100
AcDbLine
 62
7
  6
CONTINUOUS
 10
69.4870979338
 20
255.6732324035
 11
68.5945383689
 21
254.5151709036
  0
LINE
  5
24E
100
AcDbEntity
  8
0
100
AcDbLine
 62
7
  6
CONTINUOUS
 10
52.3444593048
 20
248.7882657407
 11
53.0969303719
 21
249.6210453881
  0
LINE
  5
24F
100
AcDbEntity
  8
0
100
AcDbLine
 62
7
  6
CONTINUOUS
 10
65.4087766485
 20
280.952148469
 11
64.1840131129
 21
279.9371566019
  0
LINE
  5
250
100
AcDbEntity
  8
0
100
AcDbLine
 62
7
  6
CONTINUOUS
 10
63.9236336135
 20
251.8993996478
 11
65.7247427662
 21
251.5093351975
  0
LINE
  5
251
100
AcDbEntity
  8
0
100
AcDbLine
 62
7
  6
CONTINUOUS
 10
68.966839172
 20
263.6095919405
 11
58.6685146852
 21
268.0447511588
  0
LINE
  5
252
100
AcDbEntity
  8
0
100
AcDbLine
 62
7
  6
CONTINUOUS
 10
59.7892266753
 20
270.6470152855
 11
75.4028151581
 21
263.9227417419
  0
LINE
  5
253
100
AcDbEntity
  8
0
100
AcDbLine
 62
7
  6
CONTINUOUS
 10
74.2501252944
 20
266.7328581993
 11
62.6229846922
 21
271.740296049
  0
LINE
  5
254
100
AcDbEntity
  8
0
100
AcDbLine
 62
7
  6
CONTINUOUS
 10
66.037146836
 20
278.75345323
 11
67.1218218738
 21
279.4431632445
  0
LINE
  5
255
100
AcDbEntity
  8
0
100
AcDbLine
 62
7
  6
CONTINUOUS
 10
68.1181856195
 20
247.0080211957
 11
59.216692074
 21
247.3710753106
  0
LINE
  5
256
100
AcDbEntity
  8
0
100
AcDbLine
 62
7
  6
CONTINUOUS
 10
59.040565622
 20
245.1332370193
 11
67.1375621272
 21
244.7310389215
  0
LINE
  5
257
100
AcDbEntity
  8
0
100
AcDbLine
 62
7
  6
CONTINUOUS
 10
54.0415165112
 20
249.9854726195
 11
55.1782173218
 21
249.8815465042
  0
LINE
  5
258
100
AcDbEntity
  8
0
100
AcDbLine
 62
7
  6
CONTINUOUS
 10
56.0187515147
 20
251.8332450646
 11
54.8820507041
 21
251.9371711798
  0
LINE
  5
259
100
AcDbEntity
  8
0
100
AcDbLine
 62
7
  6
CONTINUOUS
 10
66.2330725877
 20
253.6041024601
 11
64.7641682073
 21
253.8510991388
  0
LINE
  5
25A
100
AcDbEntity
  8
0
100
AcDbLine
 62
7
  6
CONTINUOUS
 10
69.8675176956
 20
279.4175246942
 11
74.850577721
 21
277.2714800017
  0
LINE
  5
25B
100
AcDbEntity
  8
0
100
AcDbLine
 62
7
  6
CONTINUOUS
 10
75.691111914
 20
279.2231785621
 11
70.7080518886
 21
281.3692232546
  0
LINE
  5
25C
100
AcDbEntity
  8
0
100
AcDbLine
 62
7
  6
CONTINUOUS
 10
69.2229086727
 20
252.3164756145
 11
70.4476730972
 21
253.3314693053
  0
LINE
  5
25D
100
AcDbEntity
  8
RUNDUNGEN
100
AcDbLine
 62
7
  6
CONTINUOUS
 10
76.2927230566
 20
226.4878378202
 11
36.0097610086
 21
220.1076434216
  0
LINE
  5
25E
100
AcDbEntity
  8
RUNDUNGEN
100
AcDbLine
 62
7
  6
CONTINUOUS
 10
344.1998435192
 20
220.1076434216
 11
303.9168793416
 21
226.4878381575
  0
LINE
  5
25F
100
AcDbEntity
  8
0
100
AcDbLine
 62
7
  6
CONTINUOUS
 10
68.5945383689
 20
254.5151709036
 11
67.5098630984
 21
253.8254609893
  0
LINE
  5
260
100
AcDbEntity
  8
0
100
AcDbLine
 62
7
  6
CONTINUOUS
 10
53.132967725
 20
251.5336004309
 11
51.5759998179
 21
250.661677266
  0
LINE
  5
261
100
AcDbEntity
  8
0
100
AcDbLine
 62
7
  6
CONTINUOUS
 10
67.2979481254
 20
281.6810010705
 11
65.4087766485
 21
280.952148469
  0
LINE
  5
262
100
AcDbEntity
  8
0
100
AcDbLine
 62
7
  6
CONTINUOUS
 10
65.7247427662
 20
251.5093351975
 11
67.3337370795
 21
251.5876230631
  0
LINE
  5
263
100
AcDbEntity
  8
0
100
AcDbLine
 62
7
  6
CONTINUOUS
 10
317.6723089435
 20
262.8191055288
 11
316.5315109322
 21
262.780783866
  0
LINE
  5
264
100
AcDbEntity
  8
0
100
AcDbLine
 62
7
  6
CONTINUOUS
 10
315.9963724291
 20
261.0784256398
 11
317.9380812963
 21
261.0313558445
  0
LINE
  5
265
100
AcDbEntity
  8
0
100
AcDbLine
 62
7
  6
CONTINUOUS
 10
68.3986133152
 20
279.6645213729
 11
69.8675176956
 21
279.4175246942
  0
LINE
  5
266
100
AcDbEntity
  8
0
100
AcDbLine
 62
7
  6
CONTINUOUS
 10
70.7080518886
 20
281.3692232546
 11
68.9069426068
 21
281.7592899669
  0
LINE
  5
267
100
AcDbEntity
  8
0
100
AcDbLine
 62
7
  6
CONTINUOUS
 10
67.5098630984
 20
253.8254609893
 11
66.2330725877
 21
253.6041024601
  0
LINE
  5
268
100
AcDbEntity
  8
0
100
AcDbLine
 62
7
  6
CONTINUOUS
 10
313.4199590528
 20
291.4230806558
 11
314.900646537
 21
291.585109813
  0
LINE
  5
269
100
AcDbEntity
  8
0
100
AcDbLine
 62
7
  6
CONTINUOUS
 10
53.0969303719
 20
249.6210453881
 11
54.0415165112
 21
249.9854726195
  0
LINE
  5
26A
100
AcDbEntity
  8
0
100
AcDbLine
 62
7
  6
CONTINUOUS
 10
67.3337370795
 20
251.5876230631
 11
69.2229086727
 21
252.3164756145
  0
LINE
  5
26B
100
AcDbEntity
  8
0
100
AcDbLine
 62
7
  6
CONTINUOUS
 10
54.8820507041
 20
251.9371711798
 11
53.132967725
 21
251.5336004309
  0
LINE
  5
26C
100
AcDbEntity
  8
0
100
AcDbLine
 62
7
  6
CONTINUOUS
 10
312.9426196343
 20
303.3100243553
 11
311.4619323775
 21
303.1479945733
  0
LINE
  5
26D
100
AcDbEntity
  8
0
100
AcDbLine
 62
7
  6
CONTINUOUS
 10
68.9069426068
 20
281.7592899669
 11
67.2979481254
 21
281.6810010705
  0
LINE
  5
26E
100
AcDbEntity
  8
0
100
AcDbLine
 62
7
  6
CONTINUOUS
 10
306.0635375489
 20
288.3686651844
 11
307.2043361448
 21
288.4069859816
  0
LINE
  5
26F
100
AcDbEntity
  8
0
100
AcDbLine
 62
7
  6
CONTINUOUS
 10
305.4235865998
 20
275.3212684367
 11
309.8891564579
 21
274.6852251776
  0
LINE
  5
270
100
AcDbEntity
  8
0
100
AcDbLine
 62
7
  6
CONTINUOUS
 10
309.2834960184
 20
276.3492635588
 11
304.8179261604
 21
276.9853068179
  0
LINE
  5
271
100
AcDbEntity
  8
0
100
AcDbLine
 62
7
  6
CONTINUOUS
 10
316.5315109322
 20
262.780783866
 11
315.2695796246
 21
263.075272459
  0
LINE
  5
272
100
AcDbEntity
  8
0
100
AcDbLine
 62
7
  6
CONTINUOUS
 10
67.1218218738
 20
279.4431632445
 11
68.3986133152
 21
279.6645213729
  0
LINE
  5
273
100
AcDbEntity
  8
0
100
AcDbLine
 62
7
  6
CONTINUOUS
 10
306.5986753588
 20
290.071025315
 11
305.7977657807
 21
290.1564140032
  0
LINE
  5
274
100
AcDbEntity
  8
0
100
AcDbLine
 62
7
  6
CONTINUOUS
 10
314.2734207888
 20
261.5820114109
 11
315.9963724291
 21
261.0784256398
  0
LINE
  5
275
100
AcDbEntity
  8
0
100
AcDbLine
 62
7
  6
CONTINUOUS
 10
314.294985751
 20
293.2491491464
 11
312.6931662482
 21
293.419927475
  0
LINE
  5
276
100
AcDbEntity
  8
0
100
AcDbLine
 62
7
  6
CONTINUOUS
 10
304.8016068259
 20
288.6631529118
 11
306.0635375489
 21
288.3686651844
  0
LINE
  5
277
100
AcDbEntity
  8
0
100
AcDbLine
 62
7
  6
CONTINUOUS
 10
309.8800256933
 20
296.918783042
 11
308.5204705742
 21
296.4239454469
  0
LINE
  5
278
100
AcDbEntity
  8
0
100
AcDbLine
 62
7
  6
CONTINUOUS
 10
312.1580286763
 20
291.717567431
 11
313.4199590528
 21
291.4230806558
  0
LINE
  5
279
100
AcDbEntity
  8
0
100
AcDbLine
 62
7
  6
CONTINUOUS
 10
312.0675930444
 20
301.4839555672
 11
313.3295236808
 21
301.1894680779
  0
LINE
  5
27A
100
AcDbEntity
  8
0
100
AcDbLine
 62
7
  6
CONTINUOUS
 10
315.3110581843
 20
288.3424207867
 11
318.4170730528
 21
287.2115410578
  0
LINE
  5
27B
100
AcDbEntity
  8
0
100
AcDbLine
 62
7
  6
CONTINUOUS
 10
314.9747642627
 20
293.4965682905
 11
314.294985751
 21
293.2491491464
  0
LINE
  5
27C
100
AcDbEntity
  8
0
100
AcDbLine
 62
7
  6
CONTINUOUS
 10
307.9582304779
 20
290.5658629102
 11
306.5986753588
 21
290.071025315
  0
LINE
  5
27D
100
AcDbEntity
  8
0
100
AcDbLine
 62
7
  6
CONTINUOUS
 10
314.900646537
 20
291.585109813
 11
315.5804250487
 21
291.8325289572
  0
LINE
  5
27E
100
AcDbEntity
  8
0
100
AcDbLine
 62
7
  6
CONTINUOUS
 10
307.2043361448
 20
288.4069859816
 11
308.5638912639
 21
288.9018235768
  0
LINE
  5
27F
100
AcDbEntity
  8
0
100
AcDbLine
 62
7
  6
CONTINUOUS
 10
318.0301693746
 20
289.3320963236
 11
315.3110581843
 21
288.3424207867
  0
LINE
  5
280
100
AcDbEntity
  8
0
100
AcDbLine
 62
7
  6
CONTINUOUS
 10
318.4170730528
 20
287.2115410578
 11
305.1614087376
 21
282.3868738116
  0
LINE
  5
281
100
AcDbEntity
  8
0
100
AcDbLine
 62
7
  6
CONTINUOUS
 10
305.8882015422
 20
280.3900269925
 11
321.8629760955
 21
286.204369429
  0
LINE
  5
282
100
AcDbEntity
  8
0
100
AcDbLine
 62
7
  6
CONTINUOUS
 10
321.136183291
 20
288.2012162482
 11
318.0301693746
 21
289.3320963236
  0
LINE
  5
283
100
AcDbEntity
  8
0
100
AcDbLine
 62
7
  6
CONTINUOUS
 10
305.7977657807
 20
290.1564140032
 11
304.8757235994
 21
290.5746110427
  0
LINE
  5
284
100
AcDbEntity
  8
0
100
AcDbLine
 62
7
  6
CONTINUOUS
 10
312.6931662482
 20
293.419927475
 11
311.7711246515
 21
293.838123649
  0
LINE
  5
285
100
AcDbEntity
  8
0
100
AcDbLine
 62
7
  6
CONTINUOUS
 10
317.1443596597
 20
271.6724587703
 11
318.6485547664
 21
270.7123551192
  0
LINE
  5
286
100
AcDbEntity
  8
0
100
AcDbLine
 62
7
  6
CONTINUOUS
 10
315.2695796246
 20
263.075272459
 11
314.2264056628
 21
263.826277071
  0
LINE
  5
287
100
AcDbEntity
  8
0
100
AcDbLine
 62
7
  6
CONTINUOUS
 10
302.8435793174
 20
300.3880668966
 11
301.9450448778
 21
299.6841308005
  0
LINE
  5
288
100
AcDbEntity
  8
0
100
AcDbLine
 62
7
  6
CONTINUOUS
 10
325.1335437161
 20
277.2185587427
 11
316.29643449
 21
274.0021140275
  0
LINE
  5
289
100
AcDbEntity
  8
0
100
AcDbLine
 62
7
  6
CONTINUOUS
 10
318.6015395214
 20
272.9566207359
 11
324.0397609498
 21
274.9359714632
  0
LINE
  5
28A
100
AcDbEntity
  8
0
100
AcDbLine
 62
7
  6
CONTINUOUS
 10
314.7867032825
 20
302.4736307576
 11
312.9426196343
 21
303.3100243553
  0
LINE
  5
28B
100
AcDbEntity
  8
0
100
AcDbLine
 62
7
  6
CONTINUOUS
 10
303.7584327451
 20
289.4141574805
 11
304.8016068259
 21
288.6631529118
  0
LINE
  5
28C
100
AcDbEntity
  8
0
100
AcDbLine
 62
7
  6
CONTINUOUS
 10
312.6480932277
 20
262.8749234675
 11
314.2734207888
 21
261.5820114109
  0
LINE
  5
28D
100
AcDbEntity
  8
0
100
AcDbLine
 62
7
  6
CONTINUOUS
 10
302.8905945625
 20
298.1438012799
 11
303.4492399735
 21
298.7240279203
  0
LINE
  5
28E
100
AcDbEntity
  8
0
100
AcDbLine
 62
7
  6
CONTINUOUS
 10
308.5638912639
 20
288.9018235768
 11
309.8023148405
 21
289.7294688311
  0
LINE
  5
28F
100
AcDbEntity
  8
0
100
AcDbLine
 62
7
  6
CONTINUOUS
 10
315.5804250487
 20
291.8325289572
 11
316.8188478026
 21
292.6601749903
  0
LINE
  5
290
100
AcDbEntity
  8
0
100
AcDbLine
 62
7
  6
CONTINUOUS
 10
318.352086503
 20
263.0665243264
 11
317.6723089435
 21
262.8191055288
  0
LINE
  5
291
100
AcDbEntity
  8
0
100
AcDbLine
 62
7
  6
CONTINUOUS
 10
327.5525926075
 20
265.2845458053
 11
329.2520365063
 21
265.9030927993
  0
LINE
  5
292
100
AcDbEntity
  8
0
100
AcDbLine
 62
7
  6
CONTINUOUS
 10
317.9380812963
 20
261.0313558445
 11
319.2976364154
 21
261.5261934396
  0
LINE
  5
293
100
AcDbEntity
  8
0
100
AcDbLine
 62
7
  6
CONTINUOUS
 10
325.3650247365
 20
260.7193747084
 11
324.0054696175
 21
260.2245371132
  0
LINE
  5
294
100
AcDbEntity
  8
0
100
AcDbLine
 62
7
  6
CONTINUOUS
 10
310.6538335696
 20
292.6776710822
 11
312.1580286763
 21
291.717567431
  0
LINE
  5
295
100
AcDbEntity
  8
0
100
AcDbLine
 62
7
  6
CONTINUOUS
 10
320.2268663001
 20
271.6637105511
 11
318.6015395214
 21
272.9566207359
  0
LINE
  5
296
100
AcDbEntity
  8
0
100
AcDbLine
 62
7
  6
CONTINUOUS
 10
302.5941266754
 20
290.4979695458
 11
303.7584327451
 21
289.4141574805
  0
LINE
  5
297
100
AcDbEntity
  8
0
100
AcDbLine
 62
7
  6
CONTINUOUS
 10
304.8757235994
 20
290.5746110427
 11
304.2935707825
 21
291.1165166156
  0
LINE
  5
298
100
AcDbEntity
  8
RUNDUNGEN
100
AcDbLine
 62
7
  6
CONTINUOUS
 10
294.7073661603
 20
233.7478852226
 11
287.9677831472
 21
250.0186779375
  0
LINE
  5
299
100
AcDbEntity
  8
0
100
AcDbLine
 62
7
  6
CONTINUOUS
 10
301.9450448778
 20
299.6841308005
 11
301.1676428031
 21
298.6473870076
  0
LINE
  5
29A
100
AcDbEntity
  8
0
100
AcDbLine
 62
7
  6
CONTINUOUS
 10
309.0755220359
 20
291.7263156502
 11
307.9582304779
 21
290.5658629102
  0
LINE
  5
29B
100
AcDbEntity
  8
0
100
AcDbLine
 62
7
  6
CONTINUOUS
 10
329.0531934617
 20
259.0465865502
 11
326.3340822714
 21
258.0569110133
  0
LINE
  5
29C
100
AcDbEntity
  8
0
100
AcDbLine
 62
7
  6
CONTINUOUS
 10
324.9745271523
 20
257.5620734181
 11
318.1767508428
 21
255.0878851823
  0
LINE
  5
29D
100
AcDbEntity
  8
0
100
AcDbLine
 62
7
  6
CONTINUOUS
 10
319.462189773
 20
253.671263781
 11
325.5801882849
 21
255.8980331326
  0
LINE
  5
29E
100
AcDbEntity
  8
0
100
AcDbLine
 62
7
  6
CONTINUOUS
 10
326.9397434039
 20
256.3928707278
 11
329.6588545942
 21
257.3825462647
  0
LINE
  5
29F
100
AcDbEntity
  8
0
100
AcDbLine
 62
7
  6
CONTINUOUS
 10
317.1534907061
 20
249.438899391
 11
318.5130459442
 21
249.9337370295
  0
LINE
  5
2A0
100
AcDbEntity
  8
0
100
AcDbLine
 62
7
  6
CONTINUOUS
 10
326.9126408357
 20
252.2371498366
 11
328.2721959548
 21
252.7319874317
  0
LINE
  5
2A1
100
AcDbEntity
  8
RUNDUNGEN
100
AcDbLine
 62
7
  6
CONTINUOUS
 10
260.5185538191
 20
355.9353680935
 11
194.6970034523
 21
383.1995469519
  0
LINE
  5
2A2
100
AcDbEntity
  8
0
100
AcDbLine
 62
7
  6
CONTINUOUS
 10
313.3295236808
 20
301.1894680779
 11
314.3726976426
 21
300.4384634659
  0
LINE
  5
2A3
100
AcDbEntity
  8
0
100
AcDbLine
 62
7
  6
CONTINUOUS
 10
314.2264056628
 20
263.826277071
 11
313.4019888087
 21
265.0337976154
  0
LINE
  5
2A4
100
AcDbEntity
  8
0
100
AcDbLine
 62
7
  6
CONTINUOUS
 10
311.7025446718
 20
264.4152505348
 11
312.6480932277
 21
262.8749234675
  0
LINE
  5
2A5
100
AcDbEntity
  8
0
100
AcDbLine
 62
7
  6
CONTINUOUS
 10
302.453081062
 20
297.2307667099
 11
302.8905945625
 21
298.1438012799
  0
LINE
  5
2A6
100
AcDbEntity
  8
0
100
AcDbLine
 62
7
  6
CONTINUOUS
 10
309.8023148405
 20
289.7294688311
 11
310.5797167961
 21
290.7662129512
  0
LINE
  5
2A7
100
AcDbEntity
  8
0
100
AcDbLine
 62
7
  6
CONTINUOUS
 10
315.7521662183
 20
294.5333124107
 11
314.9747642627
 21
293.4965682905
  0
LINE
  5
2A8
100
AcDbEntity
  8
0
100
AcDbLine
 62
7
  6
CONTINUOUS
 10
313.237434996
 20
272.888729265
 11
312.1201443692
 21
271.7282747072
  0
LINE
  5
2A9
100
AcDbEntity
  8
0
100
AcDbLine
 62
7
  6
CONTINUOUS
 10
319.2506216464
 20
263.7704592297
 11
318.352086503
 21
263.0665243264
  0
LINE
  5
2AA
100
AcDbEntity
  8
0
100
AcDbLine
 62
7
  6
CONTINUOUS
 10
315.9510093496
 20
301.3898184217
 11
314.7867032825
 21
302.4736307576
  0
LINE
  5
2AB
100
AcDbEntity
  8
0
100
AcDbLine
 62
7
  6
CONTINUOUS
 10
311.7711246515
 20
293.838123649
 11
310.3645541141
 21
295.5875521466
  0
LINE
  5
2AC
100
AcDbEntity
  8
0
100
AcDbLine
 62
7
  6
CONTINUOUS
 10
301.7697092718
 20
291.7054915076
 11
302.5941266754
 21
290.4979695458
  0
LINE
  5
2AD
100
AcDbEntity
  8
0
100
AcDbLine
 62
7
  6
CONTINUOUS
 10
318.6485547664
 20
270.7123551192
 11
319.4729723136
 21
269.5048326704
  0
LINE
  5
2AE
100
AcDbEntity
  8
0
100
AcDbLine
 62
7
  6
CONTINUOUS
 10
304.2935707825
 20
291.1165166156
 11
303.3480212168
 21
292.6568465501
  0
LINE
  5
2AF
100
AcDbEntity
  8
0
100
AcDbLine
 62
7
  6
CONTINUOUS
 10
321.1724162124
 20
270.1233796644
 11
320.2268663001
 21
271.6637105511
  0
LINE
  5
2B0
100
AcDbEntity
  8
RUNDUNGEN
100
AcDbLine
 62
7
  6
CONTINUOUS
 10
294.2770858808
 20
283.6194645211
 11
267.0129070208
 21
349.4410148918
  0
LINE
  5
2B1
100
AcDbEntity
  8
0
100
AcDbLine
 62
7
  6
CONTINUOUS
 10
304.8179261604
 20
276.9853068179
 11
305.4235865998
 21
275.3212684367
  0
LINE
  5
2B2
100
AcDbEntity
  8
0
100
AcDbLine
 62
7
  6
CONTINUOUS
 10
300.6560123855
 20
295.8228947936
 11
300.8006520835
 21
294.3679542506
  0
LINE
  5
2B3
100
AcDbEntity
  8
0
100
AcDbLine
 62
7
  6
CONTINUOUS
 10
300.8512615268
 20
297.4015447571
 11
300.6560123855
 21
295.8228947936
  0
LINE
  5
2B4
100
AcDbEntity
  8
0
100
AcDbLine
 62
7
  6
CONTINUOUS
 10
302.3554564926
 20
296.4414418634
 11
302.453081062
 21
297.2307667099
  0
LINE
  5
2B5
100
AcDbEntity
  8
0
100
AcDbLine
 62
7
  6
CONTINUOUS
 10
301.1676428031
 20
298.6473870076
 11
300.8512615268
 21
297.4015447571
  0
LINE
  5
2B6
100
AcDbEntity
  8
0
100
AcDbLine
 62
7
  6
CONTINUOUS
 10
309.3919031932
 20
292.9721578574
 11
309.0755220359
 21
291.7263156502
  0
LINE
  5
2B7
100
AcDbEntity
  8
RUNDUNGEN
100
AcDbLine
 62
7
  6
CONTINUOUS
 10
287.9678322662
 20
259.2031765072
 11
294.2770858152
 21
274.4350619937
  0
LINE
  5
2B8
100
AcDbEntity
  8
0
100
AcDbLine
 62
7
  6
CONTINUOUS
 10
316.8188478026
 20
292.6601749903
 11
317.6938745008
 21
294.4862434809
  0
LINE
  5
2B9
100
AcDbEntity
  8
0
100
AcDbLine
 62
7
  6
CONTINUOUS
 10
312.1201443692
 20
271.7282747072
 11
311.1239855334
 21
270.2350136592
  0
LINE
  5
2BA
100
AcDbEntity
  8
0
100
AcDbLine
 62
7
  6
CONTINUOUS
 10
312.8469371737
 20
269.7314278881
 11
313.9642278006
 21
270.8918824459
  0
LINE
  5
2BB
100
AcDbEntity
  8
0
100
AcDbLine
 62
7
  6
CONTINUOUS
 10
319.2976364154
 20
261.5261934396
 11
320.75481606
 21
262.8103574829
  0
LINE
  5
2BC
100
AcDbEntity
  8
0
100
AcDbLine
 62
7
  6
CONTINUOUS
 10
318.5636548676
 20
252.9673289643
 11
319.462189773
 21
253.671263781
  0
LINE
  5
2BD
100
AcDbEntity
  8
0
100
AcDbLine
 62
7
  6
CONTINUOUS
 10
314.3726976426
 20
300.4384634659
 11
315.3182471217
 21
298.8981337693
  0
LINE
  5
2BE
100
AcDbEntity
  8
0
100
AcDbLine
 62
7
  6
CONTINUOUS
 10
317.1388230391
 20
299.1838732775
 11
315.9510093496
 21
301.3898184217
  0
LINE
  5
2BF
100
AcDbEntity
  8
0
100
AcDbLine
 62
7
  6
CONTINUOUS
 10
300.8006520835
 20
294.3679542506
 11
301.7697092718
 21
291.7054915076
  0
LINE
  5
2C0
100
AcDbEntity
  8
0
100
AcDbLine
 62
7
  6
CONTINUOUS
 10
305.1614087376
 20
282.3868738116
 11
305.8882015422
 21
280.3900269925
  0
LINE
  5
2C1
100
AcDbEntity
  8
0
100
AcDbLine
 62
7
  6
CONTINUOUS
 10
310.9757518673
 20
266.4120973539
 11
311.7025446718
 21
264.4152505348
  0
LINE
  5
2C2
100
AcDbEntity
  8
0
100
AcDbLine
 62
7
  6
CONTINUOUS
 10
313.4019888087
 20
265.0337976154
 11
312.6751960041
 21
267.0306444345
  0
LINE
  5
2C3
100
AcDbEntity
  8
0
100
AcDbLine
 62
7
  6
CONTINUOUS
 10
309.8891564579
 20
274.6852251776
 11
309.2834960184
 21
276.3492635588
  0
LINE
  5
2C4
100
AcDbEntity
  8
0
100
AcDbLine
 62
7
  6
CONTINUOUS
 10
303.3480212168
 20
292.6568465501
 11
302.6212284122
 21
294.6536933693
  0
LINE
  5
2C5
100
AcDbEntity
  8
0
100
AcDbLine
 62
7
  6
CONTINUOUS
 10
303.4492399735
 20
298.7240279203
 11
302.8435793174
 21
300.3880668966
  0
LINE
  5
2C6
100
AcDbEntity
  8
0
100
AcDbLine
 62
7
  6
CONTINUOUS
 10
313.9642278006
 20
270.8918824459
 11
313.237434996
 21
272.888729265
  0
LINE
  5
2C7
100
AcDbEntity
  8
0
100
AcDbLine
 62
7
  6
CONTINUOUS
 10
316.29643449
 20
274.0021140275
 11
317.1443596597
 21
271.6724587703
  0
LINE
  5
2C8
100
AcDbEntity
  8
0
100
AcDbLine
 62
7
  6
CONTINUOUS
 10
308.5204705742
 20
296.4239454469
 11
309.0049989951
 21
295.0927145515
  0
LINE
  5
2C9
100
AcDbEntity
  8
0
100
AcDbLine
 62
7
  6
CONTINUOUS
 10
319.4729723136
 20
269.5048326704
 11
320.1997651182
 21
267.5079858512
  0
LINE
  5
2CA
100
AcDbEntity
  8
0
100
AcDbLine
 62
7
  6
CONTINUOUS
 10
310.3645541141
 20
295.5875521466
 11
309.8800256933
 21
296.918783042
  0
LINE
  5
2CB
100
AcDbEntity
  8
0
100
AcDbLine
 62
7
  6
CONTINUOUS
 10
324.0054696175
 20
260.2245371132
 11
324.9745271523
 21
257.5620734181
  0
LINE
  5
2CC
100
AcDbEntity
  8
0
100
AcDbLine
 62
7
  6
CONTINUOUS
 10
325.5801882849
 20
255.8980331326
 11
326.9126408357
 21
252.2371498366
  0
LINE
  5
2CD
100
AcDbEntity
  8
0
100
AcDbLine
 62
7
  6
CONTINUOUS
 10
302.6212284122
 20
294.6536933693
 11
302.3554564926
 21
296.4414418634
  0
LINE
  5
2CE
100
AcDbEntity
  8
0
100
AcDbLine
 62
7
  6
CONTINUOUS
 10
312.6751960041
 20
267.0306444345
 11
312.5305560165
 21
268.4855856809
  0
LINE
  5
2CF
100
AcDbEntity
  8
0
100
AcDbLine
 62
7
  6
CONTINUOUS
 10
320.1997651182
 20
267.5079858512
 11
320.3444044127
 21
266.0530465092
  0
LINE
  5
2D0
100
AcDbEntity
  8
0
100
AcDbLine
 62
7
  6
CONTINUOUS
 10
316.7430791183
 20
252.681588439
 11
316.766586711
 21
251.5594556198
  0
LINE
  5
2D1
100
AcDbEntity
  8
0
100
AcDbLine
 62
7
  6
CONTINUOUS
 10
310.5797167961
 20
290.7662129512
 11
310.6538335696
 21
292.6776710822
  0
LINE
  5
2D2
100
AcDbEntity
  8
0
100
AcDbLine
 62
7
  6
CONTINUOUS
 10
317.6938745008
 20
294.4862434809
 11
317.8891236395
 21
296.0648931739
  0
LINE
  5
2D3
100
AcDbEntity
  8
0
100
AcDbLine
 62
7
  6
CONTINUOUS
 10
311.1239855334
 20
270.2350136592
 11
310.7099795442
 21
268.1998470491
  0
LINE
  5
2D4
100
AcDbEntity
  8
0
100
AcDbLine
 62
7
  6
CONTINUOUS
 10
316.0685473755
 20
295.7791546179
 11
315.7521662183
 21
294.5333124107
  0
LINE
  5
2D5
100
AcDbEntity
  8
0
100
AcDbLine
 62
7
  6
CONTINUOUS
 10
312.5305560165
 20
268.4855856809
 11
312.8469371737
 21
269.7314278881
  0
LINE
  5
2D6
100
AcDbEntity
  8
0
100
AcDbLine
 62
7
  6
CONTINUOUS
 10
320.75481606
 20
262.8103574829
 11
321.7509747768
 21
264.3036184876
  0
LINE
  5
2D7
100
AcDbEntity
  8
0
100
AcDbLine
 62
7
  6
CONTINUOUS
 10
320.0280232554
 20
264.807204302
 11
319.2506216464
 21
263.7704592297
  0
LINE
  5
2D8
100
AcDbEntity
  8
0
100
AcDbLine
 62
7
  6
CONTINUOUS
 10
318.1767508428
 20
255.0878851823
 11
317.059460335
 21
253.9274306678
  0
LINE
  5
2D9
100
AcDbEntity
  8
0
100
AcDbLine
 62
7
  6
CONTINUOUS
 10
321.899209017
 20
268.1265328452
 11
321.1724162124
 21
270.1233796644
  0
LINE
  5
2DA
100
AcDbEntity
  8
0
100
AcDbLine
 62
7
  6
CONTINUOUS
 10
328.2721959548
 20
252.7319874317
 11
326.9397434039
 21
256.3928707278
  0
LINE
  5
2DB
100
AcDbEntity
  8
0
100
AcDbLine
 62
7
  6
CONTINUOUS
 10
326.3340822714
 20
258.0569110133
 11
325.3650247365
 21
260.7193747084
  0
LINE
  5
2DC
100
AcDbEntity
  8
0
100
AcDbLine
 62
7
  6
CONTINUOUS
 10
311.4619323775
 20
303.1479945733
 11
312.0675930444
 21
301.4839555672
  0
LINE
  5
2DD
100
AcDbEntity
  8
0
100
AcDbLine
 62
7
  6
CONTINUOUS
 10
329.6588545942
 20
257.3825462647
 11
329.0531934617
 21
259.0465865502
  0
LINE
  5
2DE
100
AcDbEntity
  8
0
100
AcDbLine
 62
7
  6
CONTINUOUS
 10
315.3182471217
 20
298.8981337693
 11
315.8027755426
 21
297.5669028739
  0
LINE
  5
2DF
100
AcDbEntity
  8
0
100
AcDbLine
 62
7
  6
CONTINUOUS
 10
324.0397609498
 20
274.9359714632
 11
327.5525926075
 21
265.2845458053
  0
LINE
  5
2E0
100
AcDbEntity
  8
0
100
AcDbLine
 62
7
  6
CONTINUOUS
 10
329.2520365063
 20
265.9030927993
 11
325.1335437161
 21
277.2185587427
  0
LINE
  5
2E1
100
AcDbEntity
  8
0
100
AcDbLine
 62
7
  6
CONTINUOUS
 10
321.8629760955
 20
286.204369429
 11
321.136183291
 21
288.2012162482
  0
LINE
  5
2E2
100
AcDbEntity
  8
0
100
AcDbLine
 62
7
  6
CONTINUOUS
 10
317.3810874228
 20
298.5182573537
 11
317.1388230391
 21
299.1838732775
  0
LINE
  5
2E3
100
AcDbEntity
  8
0
100
AcDbLine
 62
7
  6
CONTINUOUS
 10
317.8891236395
 20
296.0648931739
 11
317.3810874228
 21
298.5182573537
  0
LINE
  5
2E4
100
AcDbEntity
  8
0
100
AcDbLine
 62
7
  6
CONTINUOUS
 10
316.766586711
 20
251.5594556198
 11
317.1534907061
 21
249.438899391
  0
LINE
  5
2E5
100
AcDbEntity
  8
0
100
AcDbLine
 62
7
  6
CONTINUOUS
 10
309.0049989951
 20
295.0927145515
 11
309.3919031932
 21
292.9721578574
  0
LINE
  5
2E6
100
AcDbEntity
  8
0
100
AcDbLine
 62
7
  6
CONTINUOUS
 10
310.7099795442
 20
268.1998470491
 11
310.9757518673
 21
266.4120973539
  0
LINE
  5
2E7
100
AcDbEntity
  8
0
100
AcDbLine
 62
7
  6
CONTINUOUS
 10
318.5130459442
 20
249.9337370295
 11
318.2472737104
 21
251.7214867571
  0
LINE
  5
2E8
100
AcDbEntity
  8
0
100
AcDbLine
 62
7
  6
CONTINUOUS
 10
315.8027755426
 20
297.5669028739
 11
316.0685473755
 21
295.7791546179
  0
LINE
  5
2E9
100
AcDbEntity
  8
0
100
AcDbLine
 62
7
  6
CONTINUOUS
 10
322.1649799835
 20
266.3387869695
 11
321.899209017
 21
268.1265328452
  0
LINE
  5
2EA
100
AcDbEntity
  8
0
100
AcDbLine
 62
7
  6
CONTINUOUS
 10
321.7509747768
 20
264.3036184876
 11
322.1649799835
 21
266.3387869695
  0
LINE
  5
2EB
100
AcDbEntity
  8
0
100
AcDbLine
 62
7
  6
CONTINUOUS
 10
317.059460335
 20
253.9274306678
 11
316.7430791183
 21
252.681588439
  0
LINE
  5
2EC
100
AcDbEntity
  8
0
100
AcDbLine
 62
7
  6
CONTINUOUS
 10
320.3444044127
 20
266.0530465092
 11
320.0280232554
 21
264.807204302
  0
LINE
  5
2ED
100
AcDbEntity
  8
0
100
AcDbLine
 62
7
  6
CONTINUOUS
 10
318.2472737104
 20
251.7214867571
 11
318.5636548676
 21
252.9673289643
  0
LINE
  5
2EE
100
AcDbEntity
  8
RUNDUNGEN
100
AcDbLine
 62
7
  6
CONTINUOUS
 10
347.2012921103
 20
240.1714636972
 11
326.6846228183
 21
297.719692084
  0
LINE
  5
2EF
100
AcDbEntity
  8
BEZUGSACHSEN
100
AcDbLine
 62
7
  6
CONTINUOUS
 10
350.1048022639
 20
213.1938250375
 11
350.1048022639
 21
212.523380055
  0
LINE
  5
2F0
100
AcDbEntity
  8
RUNDUNGEN
100
AcDbLine
 62
7
  6
CONTINUOUS
 10
350.1048022639
 20
190.0272633366
 11
350.1048022639
 21
223.3809710257
  0
LINE
  5
2F1
100
AcDbEntity
  8
RUNDUNGEN
100
AcDbLine
 62
7
  6
CONTINUOUS
 10
523.8966536059
 20
190.0272633366
 11
516.8966536059
 21
190.0272633366
  0
LINE
  5
2F2
100
AcDbEntity
  8
BEZUGSACHSEN
100
AcDbLine
 62
7
  6
CONTINUOUS
 10
415.8966536059
 20
190.0272633366
 11
516.8966536059
 21
190.0272633366
  0
LINE
  5
2F3
100
AcDbEntity
  8
BEZUGSACHSEN
100
AcDbLine
 62
7
  6
CONTINUOUS
 10
415.8966536059
 20
190.0272633366
 11
415.8966536059
 21
205.2639935295
  0
LINE
  5
2F4
100
AcDbEntity
  8
0
100
AcDbLine
 62
7
  6
CONTINUOUS
 10
485.8966536059
 20
234.6472633366
 11
487.8966536059
 21
234.6472633366
  0
LINE
  5
2F5
100
AcDbEntity
  8
0
100
AcDbLine
 62
7
  6
CONTINUOUS
 10
485.8966536059
 20
241.3715368802
 11
487.8966536059
 21
241.3715368802
  0
LINE
  5
2F6
100
AcDbEntity
  8
0
100
AcDbLine
 62
7
  6
CONTINUOUS
 10
485.8966536059
 20
249.1783311216
 11
487.8966536059
 21
249.1783311216
  0
LINE
  5
2F7
100
AcDbEntity
  8
0
100
AcDbLine
 62
7
  6
CONTINUOUS
 10
485.8966536059
 20
250.661677266
 11
487.8966536059
 21
250.661677266
  0
LINE
  5
2F8
100
AcDbEntity
  8
0
100
AcDbLine
 62
7
  6
CONTINUOUS
 10
485.8966536059
 20
251.5336004309
 11
487.8966536059
 21
251.5336004309
  0
LINE
  5
2F9
100
AcDbEntity
  8
0
100
AcDbLine
 62
7
  6
CONTINUOUS
 10
485.8966536059
 20
251.9371711798
 11
487.8966536059
 21
251.9371711798
  0
LINE
  5
2FA
100
AcDbEntity
  8
BEZUGSACHSEN
100
AcDbLine
 62
7
  6
CONTINUOUS
 10
437.8966536059
 20
376.1122290347
 11
437.8966536059
 21
281.048943919
  0
LINE
  5
2FB
100
AcDbEntity
  8
0
100
AcDbLine
 62
7
  6
CONTINUOUS
 10
485.8966536059
 20
256.334558866
 11
487.8966536059
 21
256.334558866
  0
LINE
  5
2FC
100
AcDbEntity
  8
0
100
AcDbLine
 62
7
  6
CONTINUOUS
 10
485.8966536059
 20
258.286258357
 11
487.8966536059
 21
258.286258357
  0
LINE
  5
2FD
100
AcDbEntity
  8
0
100
AcDbLine
 62
7
  6
CONTINUOUS
 10
485.8966536059
 20
258.4185680243
 11
487.8966536059
 21
258.4185680243
  0
LINE
  5
2FE
100
AcDbEntity
  8
0
100
AcDbLine
 62
7
  6
CONTINUOUS
 10
485.8966536059
 20
259.6805566703
 11
487.8966536059
 21
259.6805566703
  0
LINE
  5
2FF
100
AcDbEntity
  8
0
100
AcDbLine
 62
7
  6
CONTINUOUS
 10
485.8966536059
 20
260.7603311351
 11
487.8966536059
 21
260.7603311351
  0
LINE
  5
300
100
AcDbEntity
  8
0
100
AcDbLine
 62
7
  6
CONTINUOUS
 10
485.8966536059
 20
261.6578933802
 11
487.8966536059
 21
261.6578933802
  0
LINE
  5
301
100
AcDbEntity
  8
0
100
AcDbLine
 62
7
  6
CONTINUOUS
 10
485.8966536059
 20
266.0930525984
 11
487.8966536059
 21
266.0930525984
  0
LINE
  5
302
100
AcDbEntity
  8
0
100
AcDbLine
 62
7
  6
CONTINUOUS
 10
485.8966536059
 20
268.0447511588
 11
487.8966536059
 21
268.0447511588
  0
LINE
  5
303
100
AcDbEntity
  8
0
100
AcDbLine
 62
7
  6
CONTINUOUS
 10
453.8966536059
 20
268.7216694503
 11
451.8966536059
 21
268.7216694503
  0
LINE
  5
304
100
AcDbEntity
  8
0
100
AcDbLine
 62
7
  6
CONTINUOUS
 10
453.8966536059
 20
269.755141847
 11
451.8966536059
 21
269.755141847
  0
LINE
  5
305
100
AcDbEntity
  8
0
100
AcDbLine
 62
7
  6
CONTINUOUS
 10
451.8966536059
 20
268.7216694503
 11
451.8966536059
 21
283.0636180176
  0
LINE
  5
306
100
AcDbEntity
  8
0
100
AcDbLine
 62
7
  6
CONTINUOUS
 10
451.8966536059
 20
284.6845132573
 11
451.8966536059
 21
299.0264618246
  0
LINE
  5
307
100
AcDbEntity
  8
RUNDUNGEN
100
AcDbLine
 62
7
  6
CONTINUOUS
 10
453.8966536059
 20
220.281080918
 11
453.8966536059
 21
387.02636025
  0
LINE
  5
308
100
AcDbEntity
  8
BEZUGSACHSEN
100
AcDbLine
 62
7
  6
CONTINUOUS
 10
433.2529062612
 20
254.7131755932
 11
416.4997273981
 21
208.6841949628
  0
LINE
  5
309
100
AcDbEntity
  8
0
100
AcDbLine
 62
7
  6
CONTINUOUS
 10
485.8966536059
 20
270.6470152855
 11
487.8966536059
 21
270.6470152855
  0
LINE
  5
30A
100
AcDbEntity
  8
0
100
AcDbLine
 62
7
  6
CONTINUOUS
 10
453.8966536059
 20
273.4910819354
 11
451.8966536059
 21
273.4910819354
  0
LINE
  5
30B
100
AcDbEntity
  8
0
100
AcDbLine
 62
7
  6
CONTINUOUS
 10
453.8966536059
 20
274.4943119706
 11
451.8966536059
 21
274.4943119706
  0
LINE
  5
30C
100
AcDbEntity
  8
0
100
AcDbLine
 62
7
  6
CONTINUOUS
 10
453.8966536059
 20
275.5277843672
 11
451.8966536059
 21
275.5277843672
  0
LINE
  5
30D
100
AcDbEntity
  8
0
100
AcDbLine
 62
7
  6
CONTINUOUS
 10
485.8966536059
 20
278.4538095269
 11
487.8966536059
 21
278.4538095269
  0
LINE
  5
30E
100
AcDbEntity
  8
0
100
AcDbLine
 62
7
  6
CONTINUOUS
 10
485.8966536059
 20
279.9371566019
 11
487.8966536059
 21
279.9371566019
  0
LINE
  5
30F
100
AcDbEntity
  8
0
100
AcDbLine
 62
7
  6
CONTINUOUS
 10
485.8966536059
 20
280.952148469
 11
487.8966536059
 21
280.952148469
  0
LINE
  5
310
100
AcDbEntity
  8
0
100
AcDbLine
 62
7
  6
CONTINUOUS
 10
485.8966536059
 20
281.6810010705
 11
487.8966536059
 21
281.6810010705
  0
LINE
  5
311
100
AcDbEntity
  8
0
100
AcDbLine
 62
7
  6
CONTINUOUS
 10
485.8966536059
 20
281.7592899669
 11
487.8966536059
 21
281.7592899669
  0
LINE
  5
312
100
AcDbEntity
  8
0
100
AcDbLine
 62
7
  6
CONTINUOUS
 10
453.8966536059
 20
283.0644195296
 11
451.8966536059
 21
283.0644195296
  0
LINE
  5
313
100
AcDbEntity
  8
0
100
AcDbLine
 62
7
  6
CONTINUOUS
 10
453.8966536059
 20
284.6845132573
 11
451.8966536059
 21
284.6845132573
  0
LINE
  5
314
100
AcDbEntity
  8
0
100
AcDbLine
 62
7
  6
CONTINUOUS
 10
453.8966536059
 20
285.717985654
 11
451.8966536059
 21
285.717985654
  0
LINE
  5
315
100
AcDbEntity
  8
0
100
AcDbLine
 62
7
  6
CONTINUOUS
 10
453.8966536059
 20
290.4571557776
 11
451.8966536059
 21
290.4571557776
  0
LINE
  5
316
100
AcDbEntity
  8
0
100
AcDbLine
 62
7
  6
CONTINUOUS
 10
453.8966536059
 20
291.4906281743
 11
451.8966536059
 21
291.4906281743
  0
LINE
  5
317
100
AcDbEntity
  8
0
100
AcDbLine
 62
7
  6
CONTINUOUS
 10
453.8966536059
 20
299.0272633366
 11
451.8966536059
 21
299.0272633366
  0
LINE
  5
318
100
AcDbEntity
  8
RUNDUNGEN
100
AcDbLine
 62
7
  6
CONTINUOUS
 10
485.8966536059
 20
387.02636025
 11
485.8966536059
 21
220.281080918
  0
LINE
  5
319
100
AcDbEntity
  8
0
100
AcDbLine
 62
7
  6
CONTINUOUS
 10
487.8966536059
 20
281.7592899669
 11
487.8966536059
 21
234.6472633366
  0
LINE
  5
31A
100
AcDbEntity
  8
RUNDUNGEN
100
AcDbLine
 62
7
  6
CONTINUOUS
 10
523.2935798138
 20
208.6841949628
 11
506.5404009507
 21
254.7131755932
  0
LINE
  5
31B
100
AcDbEntity
  8
BEZUGSACHSEN
100
AcDbLine
 62
7
  6
CONTINUOUS
 10
518.5327921209
 20
221.7643516479
 11
514.2895291691
 21
233.4226207926
  0
LINE
  5
31C
100
AcDbEntity
  8
RUNDUNGEN
100
AcDbLine
 62
7
  6
CONTINUOUS
 10
501.8966536059
 20
376.1122290347
 11
501.8966536059
 21
281.048943919
  0
LINE
  5
31D
100
AcDbEntity
  8
RUNDUNGEN
100
AcDbLine
 62
7
  6
CONTINUOUS
 10
523.8966536059
 20
190.0272633366
 11
523.8966536059
 21
205.2639935295
  0
LINE
  5
31E
100
AcDbEntity
  8
BEZUGSACHSEN
100
AcDbLine
 62
7
  6
CONTINUOUS
 10
445.8966536059
 20
384.1129925617
 11
453.8966536059
 21
384.1129925617
  0
LINE
  5
31F
100
AcDbEntity
  8
RUNDUNGEN
100
AcDbLine
 62
7
  6
CONTINUOUS
 10
485.8966536059
 20
384.1129925617
 11
493.8966536059
 21
384.1129925617
  0
LINE
  5
320
100
AcDbEntity
  8
0
100
AcDbLine
 62
7
  6
CONTINUOUS
 10
460.8966536059
 20
394.0272633366
 11
478.8966536059
 21
394.0272633366
  0
LINE
  5
321
100
AcDbEntity
  8
BEZUGSACHSEN
100
AcDbLine
 62
7
  6
CONTINUOUS
 10
30.1048022639
 20
71.1102706702
 11
30.1048022639
 21
127.1102706702
  0
LINE
  5
322
100
AcDbEntity
  8
RUNDUNGEN
100
AcDbLine
 62
7
  6
CONTINUOUS
 10
30.1048022639
 20
33.1102706702
 11
30.1048022639
 21
123.7118927403
  0
LINE
  5
323
100
AcDbEntity
  8
0
100
AcDbLine
 62
7
  6
CONTINUOUS
 10
47.1812137811
 20
64.1102706702
 11
47.1812137811
 21
62.1102706702
  0
LINE
  5
324
100
AcDbEntity
  8
0
100
AcDbLine
 62
7
  6
CONTINUOUS
 10
50.5433505529
 20
64.1102706702
 11
50.5433505529
 21
62.1102706702
  0
LINE
  5
325
100
AcDbEntity
  8
0
100
AcDbLine
 62
7
  6
CONTINUOUS
 10
51.5759998179
 20
64.1102706702
 11
51.5759998179
 21
62.1102706702
  0
LINE
  5
326
100
AcDbEntity
  8
0
100
AcDbLine
 62
7
  6
CONTINUOUS
 10
53.132967725
 20
64.1102706702
 11
53.132967725
 21
62.1102706702
  0
LINE
  5
327
100
AcDbEntity
  8
0
100
AcDbLine
 62
7
  6
CONTINUOUS
 10
53.6029585964
 20
96.1102706702
 11
53.6029585964
 21
98.1102706702
  0
LINE
  5
328
100
AcDbEntity
  8
0
100
AcDbLine
 62
7
  6
CONTINUOUS
 10
53.6253091267
 20
64.1102706702
 11
53.6253091267
 21
62.1102706702
  0
LINE
  5
329
100
AcDbEntity
  8
0
100
AcDbLine
 62
7
  6
CONTINUOUS
 10
54.4658437205
 20
64.1102706702
 11
54.4658437205
 21
62.1102706702
  0
LINE
  5
32A
100
AcDbEntity
  8
0
100
AcDbLine
 62
7
  6
CONTINUOUS
 10
57.8279804923
 20
64.1102706702
 11
57.8279804923
 21
62.1102706702
  0
LINE
  5
32B
100
AcDbEntity
  8
0
100
AcDbLine
 62
7
  6
CONTINUOUS
 10
58.6685146852
 20
64.1102706702
 11
58.6685146852
 21
62.1102706702
  0
LINE
  5
32C
100
AcDbEntity
  8
0
100
AcDbLine
 62
7
  6
CONTINUOUS
 10
59.4129585964
 20
96.1102706702
 11
59.4129585964
 21
98.1102706702
  0
LINE
  5
32D
100
AcDbEntity
  8
0
100
AcDbLine
 62
7
  6
CONTINUOUS
 10
59.7892266753
 20
64.1102706702
 11
59.7892266753
 21
62.1102706702
  0
LINE
  5
32E
100
AcDbEntity
  8
0
100
AcDbLine
 62
7
  6
CONTINUOUS
 10
63.1513634471
 20
64.1102706702
 11
63.1513634471
 21
62.1102706702
  0
LINE
  5
32F
100
AcDbEntity
  8
0
100
AcDbLine
 62
7
  6
CONTINUOUS
 10
64.1840131129
 20
64.1102706702
 11
64.1840131129
 21
62.1102706702
  0
LINE
  5
330
100
AcDbEntity
  8
0
100
AcDbLine
 62
7
  6
CONTINUOUS
 10
65.4087766485
 20
64.1102706702
 11
65.4087766485
 21
62.1102706702
  0
LINE
  5
331
100
AcDbEntity
  8
0
100
AcDbLine
 62
7
  6
CONTINUOUS
 10
67.2979481254
 20
64.1102706702
 11
67.2979481254
 21
62.1102706702
  0
LINE
  5
332
100
AcDbEntity
  8
0
100
AcDbLine
 62
7
  6
CONTINUOUS
 10
68.9069426068
 20
64.1102706702
 11
68.9069426068
 21
62.1102706702
  0
LINE
  5
333
100
AcDbEntity
  8
0
100
AcDbLine
 62
7
  6
CONTINUOUS
 10
70.7080518886
 20
64.1102706702
 11
70.7080518886
 21
62.1102706702
  0
LINE
  5
334
100
AcDbEntity
  8
0
100
AcDbLine
 62
7
  6
CONTINUOUS
 10
75.691111914
 20
64.1102706702
 11
75.691111914
 21
62.1102706702
  0
LINE
  5
335
100
AcDbEntity
  8
0
100
AcDbLine
 62
7
  6
CONTINUOUS
 10
77.2120432696
 20
64.1102706702
 11
77.2120432696
 21
62.1102706702
  0
LINE
  5
336
100
AcDbEntity
  8
0
100
AcDbLine
 62
7
  6
CONTINUOUS
 10
78.2606807862
 20
64.1102706702
 11
78.2606807862
 21
62.1102706702
  0
LINE
  5
337
100
AcDbEntity
  8
0
100
AcDbLine
 62
7
  6
CONTINUOUS
 10
79.029141191
 20
64.1102706702
 11
79.029141191
 21
62.1102706702
  0
LWPOLYLINE
  5
338
100
AcDbEntity
  8
RUNDUNGEN
100
AcDbPolyline
 62
7
  6
CONTINUOUS
 90
33
 70
0
 10
85.0190748229
 20
56.086236422
 10
85.0249538107
 20
55.7795481545
 10
85.0579395912
 20
55.2985138071
 10
85.1188108568
 20
54.8267554449
 10
85.2062201547
 20
54.3657207123
 10
85.3187774133
 20
53.9167139238
 10
85.455061609
 20
53.4809006672
 10
85.6136322807
 20
53.0593103917
 10
85.7930377764
 20
52.6528459902
 10
85.9918315568
 20
52.2622739167
 10
86.2085811867
 20
51.8882355872
 10
86.4418457929
 20
51.5313005887
 10
86.6902079163
 20
51.1919198008
 10
86.9522773476
 20
50.8704386566
 10
87.22669074
 20
50.5671107608
 10
87.5121361942
 20
50.2820831522
 10
87.8073421692
 20
50.0154230048
 10
88.1110769228
 20
49.7671259487
 10
88.4220625398
 20
49.5371823456
 10
88.7394625603
 20
49.3252432243
 10
89.0629491112
 20
49.1307183846
 10
89.3902096735
 20
48.9541770487
 10
89.7197656788
 20
48.7954747524
 10
90.0487685427
 20
48.6548920692
 10
90.3740164708
 20
48.5324375467
 10
90.6954061793
 20
48.4267452909
 10
91.0166642456
 20
48.3355906872
 10
91.3260096664
 20
48.2608856098
 10
91.6180601975
 20
48.2015340629
 10
91.8847316704
 20
48.1562009928
 10
92.1129529997
 20
48.1234827245
 10
92.3189126787
 20
48.09810717
 10
92.5261120793
 20
48.0758510073
  0
LINE
  5
339
100
AcDbEntity
  8
0
100
AcDbLine
 62
7
  6
CONTINUOUS
 10
79.1048022639
 20
96.1102706702
 11
79.1048022639
 21
98.1102706702
  0
LINE
  5
33A
100
AcDbEntity
  8
0
100
AcDbLine
 62
7
  6
CONTINUOUS
 10
79.1331936253
 20
64.1102706702
 11
79.1331936253
 21
62.1102706702
  0
LINE
  5
33B
100
AcDbEntity
  8
RUNDUNGEN
100
AcDbLine
 62
7
  6
CONTINUOUS
 10
85.0190730388
 20
56.0862283729
 11
85.0190730388
 21
64.1102706702
  0
LINE
  5
33C
100
AcDbEntity
  8
BEZUGSACHSEN
100
AcDbLine
 62
7
  6
CONTINUOUS
 10
85.0190730388
 20
96.1102706702
 11
85.0190730388
 21
104.1343129676
  0
LINE
  5
33D
100
AcDbEntity
  8
BEZUGSACHSEN
100
AcDbLine
 62
7
  6
CONTINUOUS
 10
95.795566055
 20
113.2314974549
 11
95.7930352961
 21
113.2301135586
  0
LWPOLYLINE
  5
33E
100
AcDbEntity
  8
BEZUGSACHSEN
100
AcDbPolyline
 62
7
  6
CONTINUOUS
 90
5
 70
0
 10
95.7930357276
 20
113.2301127671
 10
95.3456914925
 20
112.9978262919
 10
94.7619639859
 20
112.7327303683
 10
94.1766604732
 20
112.5115842554
 10
93.5899359158
 20
112.3366031966
  0
LINE
  5
33F
100
AcDbEntity
  8
RUNDUNGEN
100
AcDbLine
 62
7
  6
CONTINUOUS
 10
95.7956475325
 20
46.9889993553
 11
95.7930260605
 21
46.9904328348
  0
LWPOLYLINE
  5
340
100
AcDbEntity
  8
RUNDUNGEN
100
AcDbPolyline
 62
7
  6
CONTINUOUS
 90
5
 70
0
 10
93.5921961843
 20
47.8833562155
 10
94.1790079724
 20
47.7081618071
 10
94.76386748
 20
47.4870178763
 10
95.3468436708
 20
47.222148888
 10
95.793026492
 20
46.9904336264
  0
LINE
  5
341
100
AcDbEntity
  8
RUNDUNGEN
100
AcDbLine
 62
7
  6
CONTINUOUS
 10
286.6070763826
 20
47.8806868861
 11
287.1975793506
 21
48.0087214262
  0
LINE
  5
342
100
AcDbEntity
  8
RUNDUNGEN
100
AcDbLine
 62
7
  6
CONTINUOUS
 10
287.1975793506
 20
48.0087214262
 11
287.6904584237
 21
48.0765497476
  0
LINE
  5
343
100
AcDbEntity
  8
RUNDUNGEN
100
AcDbLine
 62
7
  6
CONTINUOUS
 10
37.1048022639
 20
26.1102706702
 11
343.1048022639
 21
26.1102706702
  0
LINE
  5
344
100
AcDbEntity
  8
RUNDUNGEN
100
AcDbLine
 62
7
  6
CONTINUOUS
 10
92.5190929922
 20
48.0765550872
 11
93.0022476266
 21
48.01041604
  0
LINE
  5
345
100
AcDbEntity
  8
RUNDUNGEN
100
AcDbLine
 62
7
  6
CONTINUOUS
 10
93.0022476266
 20
48.01041604
 11
93.5921961843
 21
47.8833562155
  0
LWPOLYLINE
  5
346
100
AcDbEntity
  8
RUNDUNGEN
100
AcDbPolyline
 62
7
  6
CONTINUOUS
 90
33
 70
0
 10
287.6836399894
 20
48.0758657701
 10
287.8767974431
 20
48.0965197666
 10
288.0821858543
 20
48.1215800848
 10
288.3093750795
 20
48.1538101976
 10
288.5749204842
 20
48.1984683759
 10
288.8660598714
 20
48.2570220902
 10
289.1753919176
 20
48.3310156761
 10
289.4970262409
 20
48.4215122451
 10
289.8186922926
 20
48.5265088599
 10
290.1444893704
 20
48.6483532065
 10
290.4745795467
 20
48.7885686603
 10
290.8054136101
 20
48.9470649435
 10
291.1339109067
 20
49.1234727174
 10
291.4585572415
 20
49.3179141381
 10
291.7768998428
 20
49.5297167701
 10
292.0887409705
 20
49.7595297506
 10
292.3933219002
 20
50.0077529775
 10
292.689343512
 20
50.2743798114
 10
292.9755766278
 20
50.5594158535
 10
293.2507524091
 20
50.8627967256
 10
293.5135605282
 20
51.1843787051
 10
293.7626381343
 20
51.5239121064
 10
293.9965944526
 20
51.8810560307
 10
294.2140098881
 20
52.255363996
 10
294.4134401599
 20
52.6462710117
 10
294.5934482102
 20
53.0531405285
 10
294.7525812933
 20
53.4752106425
 10
294.8893800396
 20
53.911582782
 10
295.0023946341
 20
54.3612311216
 10
295.0901930522
 20
54.8229926675
 10
295.1513726424
 20
55.2955644921
 10
295.1845718516
 20
55.777498806
 10
295.1905297014
 20
56.0862364365
  0
LINE
  5
347
100
AcDbEntity
  8
RUNDUNGEN
100
AcDbLine
 62
7
  6
CONTINUOUS
 10
287.6836399894
 20
48.0758657701
 11
287.6904583852
 21
48.0765515289
  0
LINE
  5
348
100
AcDbEntity
  8
RUNDUNGEN
100
AcDbLine
 62
7
  6
CONTINUOUS
 10
92.5261120578
 20
48.0758492355
 11
92.5190929922
 21
48.0765550872
  0
LINE
  5
349
100
AcDbEntity
  8
RUNDUNGEN
100
AcDbLine
 62
7
  6
CONTINUOUS
 10
286.6826927742
 20
48.1102706702
 11
93.5269117536
 21
48.1102706702
  0
LINE
  5
34A
100
AcDbEntity
  8
0
100
AcDbLine
 62
7
  6
CONTINUOUS
 10
329.6588545942
 20
62.1102706702
 11
300.6560123855
 21
62.1102706702
  0
LINE
  5
34B
100
AcDbEntity
  8
0
100
AcDbLine
 62
7
  6
CONTINUOUS
 10
79.1331936253
 20
62.1102706702
 11
47.1812137811
 21
62.1102706702
  0
LINE
  5
34C
100
AcDbEntity
  8
RUNDUNGEN
100
AcDbLine
 62
7
  6
CONTINUOUS
 10
343.1048022639
 20
64.1102706702
 11
37.1048022639
 21
64.1102706702
  0
LINE
  5
34D
100
AcDbEntity
  8
RUNDUNGEN
100
AcDbLine
 62
7
  6
CONTINUOUS
 10
37.1048022639
 20
96.1102706702
 11
343.1048022639
 21
96.1102706702
  0
LINE
  5
34E
100
AcDbEntity
  8
0
100
AcDbLine
 62
7
  6
CONTINUOUS
 10
53.6029585964
 20
98.1102706702
 11
79.1035413556
 21
98.1102706702
  0
LINE
  5
34F
100
AcDbEntity
  8
0
100
AcDbLine
 62
7
  6
CONTINUOUS
 10
304.9942288914
 20
98.1102706702
 11
335.141462614
 21
98.1102706702
  0
LINE
  5
350
100
AcDbEntity
  8
BEZUGSACHSEN
100
AcDbLine
 62
7
  6
CONTINUOUS
 10
286.6826927742
 20
112.1102706702
 11
93.5269117536
 21
112.1102706702
  0
LINE
  5
351
100
AcDbEntity
  8
BEZUGSACHSEN
100
AcDbLine
 62
7
  6
CONTINUOUS
 10
93.0008047172
 20
112.209876379
 11
92.5190822802
 21
112.1439851704
  0
LWPOLYLINE
  5
352
100
AcDbEntity
  8
BEZUGSACHSEN
100
AcDbPolyline
 62
7
  6
CONTINUOUS
 90
33
 70
0
 10
92.5261920006
 20
112.1446983285
 10
92.3174160736
 20
112.1222623109
 10
92.1104341503
 20
112.0967253392
 10
91.8810109348
 20
112.0637625285
 10
91.6128746009
 20
112.0180442389
 10
91.3192991482
 20
111.9581668397
 10
91.0086547049
 20
111.8828487908
 10
90.6861987298
 20
111.7909731192
 10
90.3636983071
 20
111.6844625046
 10
90.0373951896
 20
111.5610753264
 10
89.7073352155
 20
111.4194124471
 10
89.3767816811
 20
111.2595012112
 10
89.0486162758
 20
111.0816373952
 10
88.7243294135
 20
110.8856822538
 10
88.4062549557
 20
110.6722221499
 10
88.0947161343
 20
110.4406621499
 10
87.7905498094
 20
110.1906502551
 10
87.4950466979
 20
109.9221845568
 10
87.2094484579
 20
109.6352667169
 10
86.9350366698
 20
109.32997076
 10
86.6731334538
 20
109.0064515953
 10
86.4251121321
 20
108.6649714646
 10
86.1923729659
 20
108.3058855583
 10
85.9763433962
 20
107.929655698
 10
85.7784739889
 20
107.536863509
 10
85.6002070405
 20
107.1281642212
 10
85.4429984236
 20
106.7043394421
 10
85.3083084181
 20
106.2663084993
 10
85.1975854301
 20
105.8151188176
 10
85.1122575346
 20
105.3519555128
 10
85.0537207793
 20
104.8781439973
 10
85.0233273112
 20
104.3951545879
 10
85.0190748229
 20
104.1343049582
  0
LINE
  5
353
100
AcDbEntity
  8
BEZUGSACHSEN
100
AcDbLine
 62
7
  6
CONTINUOUS
 10
92.5261919792
 20
112.1447000998
 11
92.5190822802
 21
112.1439851704
  0
LINE
  5
354
100
AcDbEntity
  8
BEZUGSACHSEN
100
AcDbLine
 62
7
  6
CONTINUOUS
 10
287.6835572961
 20
112.1446838448
 11
287.6904684113
 21
112.1439887981
  0
LINE
  5
355
100
AcDbEntity
  8
BEZUGSACHSEN
100
AcDbLine
 62
7
  6
CONTINUOUS
 10
287.6904684498
 20
112.1439905794
 11
287.1990224198
 21
112.2115688966
  0
LINE
  5
356
100
AcDbEntity
  8
BEZUGSACHSEN
100
AcDbLine
 62
7
  6
CONTINUOUS
 10
93.5899359158
 20
112.3366031966
 11
93.0008047172
 21
112.209876379
  0
LINE
  5
357
100
AcDbEntity
  8
BEZUGSACHSEN
100
AcDbLine
 62
7
  6
CONTINUOUS
 10
343.1048022639
 20
134.1102706702
 11
37.1048022639
 21
134.1102706702
  0
LINE
  5
358
100
AcDbEntity
  8
BEZUGSACHSEN
100
AcDbLine
 62
7
  6
CONTINUOUS
 10
287.1990224198
 20
112.2115688966
 11
286.6093357572
 21
112.3392694556
  0
LWPOLYLINE
  5
359
100
AcDbEntity
  8
BEZUGSACHSEN
100
AcDbPolyline
 62
7
  6
CONTINUOUS
 90
5
 70
0
 10
286.6093357572
 20
112.3392694556
 10
286.0221735126
 20
112.5152393109
 10
285.4364893709
 20
112.7373832614
 10
284.8523618615
 20
113.0035099839
 10
284.4165999068
 20
113.2300958146
  0
LINE
  5
35A
100
AcDbEntity
  8
RUNDUNGEN
100
AcDbLine
 62
7
  6
CONTINUOUS
 10
284.4140439814
 20
46.9890478124
 11
284.4166096717
 21
46.9904508687
  0
LWPOLYLINE
  5
35B
100
AcDbEntity
  8
RUNDUNGEN
100
AcDbPolyline
 62
7
  6
CONTINUOUS
 90
5
 70
0
 10
284.4166096717
 20
46.9904508687
 10
284.8512154214
 20
47.2164663491
 10
285.4345935077
 20
47.4823654063
 10
286.0198306945
 20
47.7045049135
 10
286.6070763826
 20
47.8806868861
  0
LINE
  5
35C
100
AcDbEntity
  8
BEZUGSACHSEN
100
AcDbLine
 62
7
  6
CONTINUOUS
 10
284.4141221248
 20
113.2314508171
 11
284.4165999068
 21
113.2300958146
  0
LWPOLYLINE
  5
35D
100
AcDbEntity
  8
BEZUGSACHSEN
100
AcDbPolyline
 62
7
  6
CONTINUOUS
 90
33
 70
0
 10
295.1905297015
 20
104.1343049437
 10
295.1862100845
 20
104.3972047947
 10
295.1556076371
 20
104.8810956224
 10
295.0967661223
 20
105.3557225118
 10
295.0110518454
 20
105.8196148629
 10
294.8998734984
 20
106.2714485328
 10
294.7646702247
 20
106.7100409012
 10
294.606899854
 20
107.1343480855
 10
294.4280304521
 20
107.5434550124
 10
294.2295241639
 20
107.9365845716
 10
294.012827972
 20
108.3130863564
 10
293.7793959042
 20
108.6723833103
 10
293.5306575849
 20
109.0140179885
 10
293.2680138923
 20
109.3376397117
 10
292.9928376975
 20
109.6429901402
 10
292.7064495909
 20
109.9299176666
 10
292.410128493
 20
110.1983510472
 10
292.105113522
 20
110.4482898466
 10
291.7927170531
 20
110.6797193042
 10
291.4736969499
 20
110.8930434795
 10
291.1482444299
 20
111.0889173818
 10
290.8188350159
 20
111.266649731
 10
290.486994992
 20
111.4263565667
 10
290.1558408741
 20
111.5676517721
 10
289.8289873284
 20
111.6904249663
 10
289.506213185
 20
111.7962345973
 10
289.18339086
 20
111.8874453778
 10
288.8727664021
 20
111.9620462
 10
288.5800852938
 20
112.0211239922
 10
288.3130603016
 20
112.0661649618
 10
288.0846836967
 20
112.0986340901
 10
287.878291224
 20
112.1238516139
 10
287.6835572961
 20
112.1446838448
  0
LINE
  5
35E
100
AcDbEntity
  8
BEZUGSACHSEN
100
AcDbLine
 62
7
  6
CONTINUOUS
 10
295.1905314891
 20
104.1343129639
 11
295.1905314891
 21
96.1102706702
  0
LINE
  5
35F
100
AcDbEntity
  8
RUNDUNGEN
100
AcDbLine
 62
7
  6
CONTINUOUS
 10
295.1905314891
 20
64.1102706702
 11
295.1905314891
 21
56.0862283765
  0
LINE
  5
360
100
AcDbEntity
  8
0
100
AcDbLine
 62
7
  6
CONTINUOUS
 10
300.6560123855
 20
64.1102706702
 11
300.6560123855
 21
62.1102706702
  0
LINE
  5
361
100
AcDbEntity
  8
0
100
AcDbLine
 62
7
  6
CONTINUOUS
 10
300.8512615268
 20
64.1102706702
 11
300.8512615268
 21
62.1102706702
  0
LINE
  5
362
100
AcDbEntity
  8
0
100
AcDbLine
 62
7
  6
CONTINUOUS
 10
301.1676428031
 20
64.1102706702
 11
301.1676428031
 21
62.1102706702
  0
LINE
  5
363
100
AcDbEntity
  8
0
100
AcDbLine
 62
7
  6
CONTINUOUS
 10
301.9450448778
 20
64.1102706702
 11
301.9450448778
 21
62.1102706702
  0
LINE
  5
364
100
AcDbEntity
  8
0
100
AcDbLine
 62
7
  6
CONTINUOUS
 10
302.8435793174
 20
64.1102706702
 11
302.8435793174
 21
62.1102706702
  0
LINE
  5
365
100
AcDbEntity
  8
0
100
AcDbLine
 62
7
  6
CONTINUOUS
 10
303.4492399735
 20
64.1102706702
 11
303.4492399735
 21
62.1102706702
  0
LINE
  5
366
100
AcDbEntity
  8
0
100
AcDbLine
 62
7
  6
CONTINUOUS
 10
304.2935707825
 20
64.1102706702
 11
304.2935707825
 21
62.1102706702
  0
LINE
  5
367
100
AcDbEntity
  8
0
100
AcDbLine
 62
7
  6
CONTINUOUS
 10
304.8757235994
 20
64.1102706702
 11
304.8757235994
 21
62.1102706702
  0
LINE
  5
368
100
AcDbEntity
  8
0
100
AcDbLine
 62
7
  6
CONTINUOUS
 10
304.9942288914
 20
96.1102706702
 11
304.9942288914
 21
98.1102706702
  0
LINE
  5
369
100
AcDbEntity
  8
0
100
AcDbLine
 62
7
  6
CONTINUOUS
 10
305.7977657807
 20
64.1102706702
 11
305.7977657807
 21
62.1102706702
  0
LINE
  5
36A
100
AcDbEntity
  8
0
100
AcDbLine
 62
7
  6
CONTINUOUS
 10
306.5986753588
 20
64.1102706702
 11
306.5986753588
 21
62.1102706702
  0
LINE
  5
36B
100
AcDbEntity
  8
0
100
AcDbLine
 62
7
  6
CONTINUOUS
 10
307.9582304779
 20
64.1102706702
 11
307.9582304779
 21
62.1102706702
  0
LINE
  5
36C
100
AcDbEntity
  8
0
100
AcDbLine
 62
7
  6
CONTINUOUS
 10
308.5204705742
 20
64.1102706702
 11
308.5204705742
 21
62.1102706702
  0
LINE
  5
36D
100
AcDbEntity
  8
0
100
AcDbLine
 62
7
  6
CONTINUOUS
 10
309.8800256933
 20
64.1102706702
 11
309.8800256933
 21
62.1102706702
  0
LINE
  5
36E
100
AcDbEntity
  8
0
100
AcDbLine
 62
7
  6
CONTINUOUS
 10
310.3645541141
 20
64.1102706702
 11
310.3645541141
 21
62.1102706702
  0
LINE
  5
36F
100
AcDbEntity
  8
0
100
AcDbLine
 62
7
  6
CONTINUOUS
 10
311.4619323775
 20
64.1102706702
 11
311.4619323775
 21
62.1102706702
  0
LINE
  5
370
100
AcDbEntity
  8
0
100
AcDbLine
 62
7
  6
CONTINUOUS
 10
312.9426196343
 20
64.1102706702
 11
312.9426196343
 21
62.1102706702
  0
LINE
  5
371
100
AcDbEntity
  8
0
100
AcDbLine
 62
7
  6
CONTINUOUS
 10
314.7867032825
 20
64.1102706702
 11
314.7867032825
 21
62.1102706702
  0
LINE
  5
372
100
AcDbEntity
  8
0
100
AcDbLine
 62
7
  6
CONTINUOUS
 10
315.9510093496
 20
64.1102706702
 11
315.9510093496
 21
62.1102706702
  0
LINE
  5
373
100
AcDbEntity
  8
0
100
AcDbLine
 62
7
  6
CONTINUOUS
 10
317.1388230391
 20
64.1102706702
 11
317.1388230391
 21
62.1102706702
  0
LINE
  5
374
100
AcDbEntity
  8
0
100
AcDbLine
 62
7
  6
CONTINUOUS
 10
317.3810874228
 20
64.1102706702
 11
317.3810874228
 21
62.1102706702
  0
LINE
  5
375
100
AcDbEntity
  8
0
100
AcDbLine
 62
7
  6
CONTINUOUS
 10
317.8891236395
 20
64.1102706702
 11
317.8891236395
 21
62.1102706702
  0
LINE
  5
376
100
AcDbEntity
  8
0
100
AcDbLine
 62
7
  6
CONTINUOUS
 10
318.0301693746
 20
64.1102706702
 11
318.0301693746
 21
62.1102706702
  0
LINE
  5
377
100
AcDbEntity
  8
0
100
AcDbLine
 62
7
  6
CONTINUOUS
 10
321.136183291
 20
64.1102706702
 11
321.136183291
 21
62.1102706702
  0
LINE
  5
378
100
AcDbEntity
  8
0
100
AcDbLine
 62
7
  6
CONTINUOUS
 10
321.8629760955
 20
64.1102706702
 11
321.8629760955
 21
62.1102706702
  0
LINE
  5
379
100
AcDbEntity
  8
0
100
AcDbLine
 62
7
  6
CONTINUOUS
 10
322.9071171282
 20
96.1102706702
 11
322.9071171282
 21
98.1102706702
  0
LINE
  5
37A
100
AcDbEntity
  8
0
100
AcDbLine
 62
7
  6
CONTINUOUS
 10
323.8761746631
 20
96.1102706702
 11
323.8761746631
 21
98.1102706702
  0
LINE
  5
37B
100
AcDbEntity
  8
0
100
AcDbLine
 62
7
  6
CONTINUOUS
 10
324.1853673152
 20
96.1102706702
 11
324.1853673152
 21
98.1102706702
  0
LINE
  5
37C
100
AcDbEntity
  8
0
100
AcDbLine
 62
7
  6
CONTINUOUS
 10
325.1335437161
 20
64.1102706702
 11
325.1335437161
 21
62.1102706702
  0
LINE
  5
37D
100
AcDbEntity
  8
0
100
AcDbLine
 62
7
  6
CONTINUOUS
 10
325.9083188366
 20
96.1102706702
 11
325.9083188366
 21
98.1102706702
  0
LINE
  5
37E
100
AcDbEntity
  8
0
100
AcDbLine
 62
7
  6
CONTINUOUS
 10
327.4125139433
 20
96.1102706702
 11
327.4125139433
 21
98.1102706702
  0
LINE
  5
37F
100
AcDbEntity
  8
0
100
AcDbLine
 62
7
  6
CONTINUOUS
 10
328.3580631625
 20
96.1102706702
 11
328.3580631625
 21
98.1102706702
  0
LINE
  5
380
100
AcDbEntity
  8
0
100
AcDbLine
 62
7
  6
CONTINUOUS
 10
329.2520365063
 20
64.1102706702
 11
329.2520365063
 21
62.1102706702
  0
LINE
  5
381
100
AcDbEntity
  8
0
100
AcDbLine
 62
7
  6
CONTINUOUS
 10
329.6588545942
 20
64.1102706702
 11
329.6588545942
 21
62.1102706702
  0
LINE
  5
382
100
AcDbEntity
  8
0
100
AcDbLine
 62
7
  6
CONTINUOUS
 10
331.2652343807
 20
96.1102706702
 11
331.2652343807
 21
98.1102706702
  0
LINE
  5
383
100
AcDbEntity
  8
0
100
AcDbLine
 62
7
  6
CONTINUOUS
 10
334.172405599
 20
96.1102706702
 11
334.172405599
 21
98.1102706702
  0
LINE
  5
384
100
AcDbEntity
  8
0
100
AcDbLine
 62
7
  6
CONTINUOUS
 10
335.141462614
 20
96.1102706702
 11
335.141462614
 21
98.1102706702
  0
LINE
  5
385
100
AcDbEntity
  8
RUNDUNGEN
100
AcDbLine
 62
7
  6
CONTINUOUS
 10
350.1048022639
 20
123.7118927403
 11
350.1048022639
 21
33.1102706702
  0
LINE
  5
386
100
AcDbEntity
  8
BEZUGSACHSEN
100
AcDbLine
 62
7
  6
CONTINUOUS
 10
350.1048022639
 20
123.7118927403
 11
350.1048022639
 21
127.1102706702
  0
ARC
  5
387
100
AcDbEntity
  8
RUNDUNGEN
100
AcDbCircle
 62
7
  6
CONTINUOUS
 10
80.1048022639
 20
223.3809710257
 40
50.0
100
AcDbArc
 50
160.3782077692
 51
180.0
  0
ARC
  5
388
100
AcDbEntity
  8
RUNDUNGEN
100
AcDbCircle
 62
7
  6
CONTINUOUS
 10
81.1552623532
 20
254.6108679305
 40
12.0
100
AcDbArc
 50
337.5000572258
 51
22.5005630633
  0
ARC
  5
389
100
AcDbEntity
  8
RUNDUNGEN
100
AcDbCircle
 62
7
  6
CONTINUOUS
 10
74.4157013257
 20
238.3401282933
 40
12.0
100
AcDbArc
 50
278.9990725669
 51
337.4997806491
  0
ARC
  5
38A
100
AcDbEntity
  8
RUNDUNGEN
100
AcDbCircle
 62
7
  6
CONTINUOUS
 10
97.0190730388
 20
279.0272633366
 40
12.0
100
AcDbArc
 50
157.5000000202
 51
202.5000011587
  0
ARC
  5
38B
100
AcDbEntity
  8
RUNDUNGEN
100
AcDbCircle
 62
7
  6
CONTINUOUS
 10
37.1048022639
 20
213.1938250375
 40
7.0
100
AcDbArc
 50
99.0
 51
180.0
  0
ARC
  5
38C
100
AcDbEntity
  8
RUNDUNGEN
100
AcDbCircle
 62
7
  6
CONTINUOUS
 10
124.2832518971
 20
344.8488137034
 40
12.0
100
AcDbArc
 50
112.5
 51
157.5
  0
ARC
  5
38D
100
AcDbEntity
  8
RUNDUNGEN
100
AcDbCircle
 62
7
  6
CONTINUOUS
 10
190.1048022639
 20
249.0272633366
 40
145.0
100
AcDbArc
 50
19.6217922308
 51
160.3782077692
  0
ARC
  5
38E
100
AcDbEntity
  8
RUNDUNGEN
100
AcDbCircle
 62
7
  6
CONTINUOUS
 10
190.1048022639
 20
279.0272633366
 40
65.0
100
AcDbArc
 50
338.404461273
 51
178.5519236669
  0
ARC
  5
38F
100
AcDbEntity
  8
BEZUGSACHSEN
100
AcDbCircle
 62
7
  6
CONTINUOUS
 10
190.1048022639
 20
279.0272633366
 40
65.0
100
AcDbArc
 50
1.4480763331
 51
338.404461273
  0
ARC
  5
390
100
AcDbEntity
  8
RUNDUNGEN
100
AcDbCircle
 62
7
  6
CONTINUOUS
 10
300.1048022639
 20
223.3809710257
 40
50.0
100
AcDbArc
 50
0.0
 51
19.6217922308
  0
ARC
  5
391
100
AcDbEntity
  8
RUNDUNGEN
100
AcDbCircle
 62
7
  6
CONTINUOUS
 10
299.0543421746
 20
254.6108679305
 40
12.0
100
AcDbArc
 50
157.4994450137
 51
202.4999421418
  0
ARC
  5
392
100
AcDbEntity
  8
RUNDUNGEN
100
AcDbCircle
 62
7
  6
CONTINUOUS
 10
305.7939032021
 20
238.3401282933
 40
12.0
100
AcDbArc
 50
202.5002164501
 51
261.0009171381
  0
ARC
  5
393
100
AcDbEntity
  8
RUNDUNGEN
100
AcDbCircle
 62
7
  6
CONTINUOUS
 10
283.1905314891
 20
279.0272633366
 40
12.0
100
AcDbArc
 50
337.4999992012
 51
22.4999999798
  0
ARC
  5
394
100
AcDbEntity
  8
RUNDUNGEN
100
AcDbCircle
 62
7
  6
CONTINUOUS
 10
343.1048022639
 20
213.1938074937
 40
7.0
100
AcDbArc
 50
0.0001435981
 51
81.0000224587
  0
ARC
  5
395
100
AcDbEntity
  8
RUNDUNGEN
100
AcDbCircle
 62
7
  6
CONTINUOUS
 10
255.9263526307
 20
344.8488137034
 40
12.0
100
AcDbArc
 50
22.5
 51
67.5
  0
ARC
  5
396
100
AcDbEntity
  8
RUNDUNGEN
100
AcDbCircle
 62
7
  6
CONTINUOUS
 10
190.1048022639
 20
372.1129925617
 40
12.0
100
AcDbArc
 50
67.5
 51
112.5
  0
ARC
  5
397
100
AcDbEntity
  8
BEZUGSACHSEN
100
AcDbCircle
 62
7
  6
CONTINUOUS
 10
360.8966536059
 20
281.0489440791
 40
77.0
100
AcDbArc
 50
339.9998278112
 51
359.9999998808
  0
ARC
  5
398
100
AcDbEntity
  8
BEZUGSACHSEN
100
AcDbCircle
 62
7
  6
CONTINUOUS
 10
425.8966536059
 20
205.2639935295
 40
10.0
100
AcDbArc
 50
160.0
 51
180.0
  0
ARC
  5
399
100
AcDbEntity
  8
BEZUGSACHSEN
100
AcDbCircle
 62
7
  6
CONTINUOUS
 10
445.8966536059
 20
376.1129925617
 40
8.0
100
AcDbArc
 50
90.0
 51
180.0
  0
ARC
  5
39A
100
AcDbEntity
  8
RUNDUNGEN
100
AcDbCircle
 62
7
  6
CONTINUOUS
 10
460.8966536059
 20
387.0272633366
 40
7.0
100
AcDbArc
 50
90.0
 51
180.0
  0
ARC
  5
39B
100
AcDbEntity
  8
RUNDUNGEN
100
AcDbCircle
 62
7
  6
CONTINUOUS
 10
578.8966536059
 20
281.0489440791
 40
77.0
100
AcDbArc
 50
180.0000001192
 51
200.0001721888
  0
ARC
  5
39C
100
AcDbEntity
  8
BEZUGSACHSEN
100
AcDbCircle
 62
7
  6
CONTINUOUS
 10
578.8966536059
 20
281.0489440791
 40
77.0
100
AcDbArc
 50
192.7668332446
 51
193.136912814
  0
ARC
  5
39D
100
AcDbEntity
  8
BEZUGSACHSEN
100
AcDbCircle
 62
7
  6
CONTINUOUS
 10
578.8966536059
 20
281.0489440791
 40
77.0
100
AcDbArc
 50
185.4313560939
 51
189.0328044858
  0
ARC
  5
39E
100
AcDbEntity
  8
RUNDUNGEN
100
AcDbCircle
 62
7
  6
CONTINUOUS
 10
513.8966536059
 20
205.2639935295
 40
10.0
100
AcDbArc
 50
0.0
 51
20.0
  0
ARC
  5
39F
100
AcDbEntity
  8
RUNDUNGEN
100
AcDbCircle
 62
7
  6
CONTINUOUS
 10
493.8966536059
 20
376.1129925617
 40
8.0
100
AcDbArc
 50
0.0
 51
90.0
  0
ARC
  5
3A0
100
AcDbEntity
  8
RUNDUNGEN
100
AcDbCircle
 62
7
  6
CONTINUOUS
 10
478.8966536059
 20
387.0272633366
 40
7.0
100
AcDbArc
 50
0.0
 51
90.0
  0
ARC
  5
3A1
100
AcDbEntity
  8
RUNDUNGEN
100
AcDbCircle
 62
7
  6
CONTINUOUS
 10
93.526915963
 20
32.010223355
 40
16.1000473152
100
AcDbArc
 50
90.0000150045
 51
90.7237270641
  0
ARC
  5
3A2
100
AcDbEntity
  8
BEZUGSACHSEN
100
AcDbCircle
 62
7
  6
CONTINUOUS
 10
93.526915963
 20
128.2103179859
 40
16.1000473156
100
AcDbArc
 50
269.2762729359
 51
269.9999849955
  0
ARC
  5
3A3
100
AcDbEntity
  8
RUNDUNGEN
100
AcDbCircle
 62
7
  6
CONTINUOUS
 10
286.6826885649
 20
32.0102233558
 40
16.1000473144
100
AcDbArc
 50
89.2762729358
 51
89.9999849955
  0
ARC
  5
3A4
100
AcDbEntity
  8
BEZUGSACHSEN
100
AcDbCircle
 62
7
  6
CONTINUOUS
 10
286.6826885649
 20
128.2103179842
 40
16.100047314
100
AcDbArc
 50
270.0000150045
 51
270.7237270642
  0
ARC
  5
3A5
100
AcDbEntity
  8
BEZUGSACHSEN
100
AcDbCircle
 62
7
  6
CONTINUOUS
 10
343.1048022639
 20
127.1102706702
 40
7.0
100
AcDbArc
 50
0.0
 51
90.0
  0
ARC
  5
3A6
100
AcDbEntity
  8
RUNDUNGEN
100
AcDbCircle
 62
7
  6
CONTINUOUS
 10
37.1048022639
 20
33.1102706702
 40
7.0
100
AcDbArc
 50
180.0
 51
270.0
  0
ARC
  5
3A7
100
AcDbEntity
  8
RUNDUNGEN
100
AcDbCircle
 62
7
  6
CONTINUOUS
 10
343.1048022639
 20
33.1102706702
 40
7.0
100
AcDbArc
 50
270.0
 51
360.0
  0
ARC
  5
3A8
100
AcDbEntity
  8
RUNDUNGEN
100
AcDbCircle
 62
7
  6
CONTINUOUS
 10
37.1048022639
 20
89.1102706702
 40
7.0
100
AcDbArc
 50
90.0
 51
180.0
  0
ARC
  5
3A9
100
AcDbEntity
  8
RUNDUNGEN
100
AcDbCircle
 62
7
  6
CONTINUOUS
 10
343.1048022639
 20
89.1102706702
 40
7.0
100
AcDbArc
 50
0.0
 51
90.0
  0
ARC
  5
3AA
100
AcDbEntity
  8
RUNDUNGEN
100
AcDbCircle
 62
7
  6
CONTINUOUS
 10
343.1048022639
 20
71.1102706702
 40
7.0
100
AcDbArc
 50
270.0
 51
360.0
  0
ARC
  5
3AB
100
AcDbEntity
  8
RUNDUNGEN
100
AcDbCircle
 62
7
  6
CONTINUOUS
 10
37.1048022639
 20
71.1102706702
 40
7.0
100
AcDbArc
 50
180.0
 51
270.0
  0
ARC
  5
3AC
100
AcDbEntity
  8
BEZUGSACHSEN
100
AcDbCircle
 62
7
  6
CONTINUOUS
 10
37.1048022639
 20
127.1102706702
 40
7.0
100
AcDbArc
 50
90.0
 51
180.0
  0
LINE
  5
3AD
100
AcDbEntity
  8
RUNDUNGEN
100
AcDbLine
 62
7
  6
CONTINUOUS
 10
460.8966536059
 20
213.1938250375
 11
453.9828352218
 21
220.1076434216
  0
LINE
  5
3AE
100
AcDbEntity
  8
RUNDUNGEN
100
AcDbLine
 62
7
  6
CONTINUOUS
 10
485.8104719901
 20
220.1076434216
 11
478.8966536059
 21
213.1938250375
  0
ELLIPSE
  5
3AF
100
AcDbEntity
  8
RUNDUNGEN
100
AcDbEllipse
 62
7
  6
CONTINUOUS
 10
478.8966536059
 20
220.281080918
 30
0.0
 11
7.0
 21
0.0
 31
0.0
 40
0.1583844403
 41
-0.1570796327
 42
0.0
  0
ELLIPSE
  5
3B0
100
AcDbEntity
  8
RUNDUNGEN
100
AcDbEllipse
 62
7
  6
CONTINUOUS
 10
460.8966536059
 20
220.281080918
 30
0.0
 11
7.0
 21
-0.0
 31
0.0
 40
0.1583844403
 41
3.1415926536
 42
3.2986722863
  0
ENDSEC
  0
SECTION
  2
OBJECTS
  0
DICTIONARY
  5
C
100
AcDbDictionary
280
0
281
1
  3
ACAD_GROUP
350
D
  3
ACAD_MLINESTYLE
350
17
  3
ACAD_LAYOUT
350
1A
  3
ACAD_PLOTSETTINGS
350
19
  3
ACAD_PLOTSTYLENAME
350
E
  0
DICTIONARY
  5
D
102
{ACAD_REACTORS
330
C
102
}
100
AcDbDictionary
280
0
281
1
  0
ACDBDICTIONARYWDFLT
  5
E
102
{ACAD_REACTORS
330
C
102
}
100
AcDbDictionary
281
1
  3
Normal
350
F
100
AcDbDictionaryWithDefault
340
F
  0
DICTIONARY
  5
17
102
{ACAD_REACTORS
330
C
102
}
100
AcDbDictionary
280
0
281
1
  3
Standard
350
18
  0
DICTIONARY
  5
19
102
{ACAD_REACTORS
330
C
102
}
100
AcDbDictionary
281
1
  0
DICTIONARY
  5
1A
102
{ACAD_REACTORS
330
C
102
}
100
AcDbDictionary
281
1
  3
Model
350
3B1
  3
Layout1
350
3B2
  0
ACDBPLACEHOLDER
  5
F
102
{ACAD_REACTORS
330
E
102
}
  0
MLINESTYLE
  5
18
102
{ACAD_REACTORS
330
17
102
}
100
AcDbMlineStyle
  2
STANDARD
 70
0
  3

 62
256
 51
90.0
 52
90.0
 71
2
 49
0.5
 62
256
  6
BYLAYER
 49
-0.5
 62
256
  6
BYLAYER
  0
LAYOUT
  5
3B1
102
{ACAD_REACTORS
330
1A
102
}
100
AcDbPlotSettings
  1

  2
none_device
  4
ISO_A2_(594.00_x_420.00_MM)
  6

 40
0.0
 41
0.0
 42
0.0
 43
0.0
 44
594.0
 45
420.0
 46
0.0
 47
0.0
 48
0.0
 49
0.0
140
0.0
141
0.0
142
1.0
143
1.0
 70
1024
 72
1
 73
0
 74
0
  7

 75
0
147
1.0
148
0.0
149
0.0
100
AcDbLayout
  1
Model
 70
0
 71
0
 10
0.0
 20
0.0
 11
594.0
 21
420.0
 12
0.0
 22
0.0
 32
0.0
 14
0.0
 24
0.0
 34
0.0
 15
0.0
 25
0.0
 35
0.0
146
0.0
 13
0.0
 23
0.0
 33
0.0
 16
1.0
 26
0.0
 36
0.0
 17
0.0
 27
1.0
 37
0.0
 76
0
330
209
345
0
346
0
  0
LAYOUT
  5
3B2
102
{ACAD_REACTORS
330
1A
102
}
100
AcDbPlotSettings
  1

  2
none_device
  4
ISO_A2_(594.00_x_420.00_MM)
  6

 40
0.0
 41
0.0
 42
0.0
 43
0.0
 44
594.0
 45
420.0
 46
0.0
 47
0.0
 48
0.0
 49
0.0
140
0.0
141
0.0
142
1.0
143
1.0
 70
0
 72
1
 73
0
 74
0
  7

 75
0
147
1.0
148
0.0
149
0.0
100
AcDbLayout
  1
Layout1
 70
0
 71
1
 10
0.0
 20
0.0
 11
594.0
 21
420.0
 12
0.0
 22
0.0
 32
0.0
 14
0.0
 24
0.0
 34
0.0
 15
0.0
 25
0.0
 35
0.0
146
0.0
 13
0.0
 23
0.0
 33
0.0
 16
1.0
 26
0.0
 36
0.0
 17
0.0
 27
1.0
 37
0.0
 76
0
330
20A
345
0
346
0
  0
ENDSEC
  0
EOF
