999
DXF file: ABA-20t-7902174-M34398-P-1.dxf
999
Pro/ENGINEER 2011490 by Parametric Technology Corporation
  0
SECTION
  2
HEADER
  9
$ACADVER
  1
AC1015
  9
$DWGCODEPAGE
  3
ANSI_1252
  9
$EXTMAX
 10
594.0
 20
420.0
 30
0.0
  9
$EXTMIN
 10
0.0
 20
0.0
 30
0.0
  9
$LIMMIN
 10
0.0
 20
0.0
  9
$LIMMAX
 10
594.0
 20
420.0
  9
$VIEWCTR
 10
297.0
 20
210.0
  9
$VIEWSIZE
 40
420.0
  9
$CLAYER
  8
0
  9
$LTSCALE
 40
32.67
  9
$CELTYPE
  6
BYLAYER
  9
$DIMSCALE
 40
1.0
  9
$DIMASZ
 40
3.5
  9
$DIMEXO
 40
3.7125
  9
$DIMDLI
 40
22.572
  9
$DIMEXE
 40
10.692
  9
$DIMCEN
 40
5.346
  9
$DIMLFAC
 40
1.0
  9
$DIMBLK
  1
_FILLED
  9
$DIMTXT
 40
3.5
  9
$DIMTOL
 70
1
  9
$DIMLIM
 70
0
  9
$DIMTFAC
 40
1.0
  9
$DIMTP
 40
0.005
  9
$DIMTM
 40
0.005
  9
$PDMODE
 70
3
  9
$PDSIZE
 40
0.3125
  9
$HANDSEED
  5
386
  9
$TILEMODE
 70
1
  9
$MEASUREMENT
 70
1
  9
$INSUNITS
 70
4
  0
ENDSEC
  0
SECTION
  2
CLASSES
  0
CLASS
  1
ACDBDICTIONARYWDFLT
  2
AcDbDictionaryWithDefault
  3
AutoCAD 2000
 90
0
280
0
281
0
  0
CLASS
  1
ACDBPLACEHOLDER
  2
AcDbPlaceHolder
  3
AutoCAD 2000
 90
0
280
0
281
0
  0
CLASS
  1
LAYOUT
  2
AcDbLayout
  3
AutoCAD 2000
 90
0
280
0
281
0
  0
ENDSEC
  0
SECTION
  2
TABLES
  0
TABLE
  2
VPORT
  5
8
100
AcDbSymbolTable
 70
2
  0
VPORT
  5
1F4
100
AcDbSymbolTableRecord
100
AcDbViewportTableRecord
  2
*ACTIVE
 70
0
 10
0.0
 20
0.0
 11
1.0
 21
1.0
 12
297.0
 22
210.0
 13
0.0
 23
0.0
 14
1.0
 24
1.0
 15
0.0
 25
0.0
 16
0.0
 26
0.0
 36
1.0
 17
0.0
 27
0.0
 37
0.0
 40
420.0
 41
1.4142857143
 42
50.0
 43
0.0
 44
0.0
 50
0.0
 51
0.0
 71
0
 72
100
 73
1
 74
1
 75
0
 76
0
 77
0
 78
0
  0
ENDTAB
  0
TABLE
  2
LTYPE
  5
5
100
AcDbSymbolTable
 70
6
  0
LTYPE
  5
14
100
AcDbSymbolTableRecord
100
AcDbLinetypeTableRecord
  2
BYBLOCK
 70
0
  3

 72
65
 73
0
 40
0.0
  0
LTYPE
  5
15
100
AcDbSymbolTableRecord
100
AcDbLinetypeTableRecord
  2
BYLAYER
 70
0
  3

 72
65
 73
0
 40
0.0
  0
LTYPE
  5
16
100
AcDbSymbolTableRecord
100
AcDbLinetypeTableRecord
  2
CONTINUOUS
 70
64
  3
Solid line
 72
65
 73
0
 40
0.0
  0
LTYPE
  5
1F5
100
AcDbSymbolTableRecord
100
AcDbLinetypeTableRecord
  2
CENTER
 70
64
  3
____ _ ____ _ ____ _ ____ _ ____ _ ____ _ ____
 72
65
 73
4
 40
0.6
 49
0.375
 74
0
 49
-0.075
 74
0
 49
0.075
 74
0
 49
-0.075
 74
0
  0
LTYPE
  5
1F6
100
AcDbSymbolTableRecord
100
AcDbLinetypeTableRecord
  2
HIDDEN
 70
64
  3
- - - - - - - - - - - - - - - - - - - -
 72
65
 73
2
 40
0.2
 49
0.1
 74
0
 49
-0.1
 74
0
  0
LTYPE
  5
1F7
100
AcDbSymbolTableRecord
100
AcDbLinetypeTableRecord
  2
PHANTOM
 70
64
  3
_____ _ _ _____ _ _ _____ _ _ _____
 72
65
 73
6
 40
0.8
 49
0.45
 74
0
 49
-0.05
 74
0
 49
0.1
 74
0
 49
-0.05
 74
0
 49
0.1
 74
0
 49
-0.05
 74
0
  0
LTYPE
  5
1F8
100
AcDbSymbolTableRecord
100
AcDbLinetypeTableRecord
  2
DOT
 70
64
  3
. . . . . . . . . . . . . . . . . . . .
 72
65
 73
2
 40
0.2
 49
0.1
 74
0
 49
-0.1
 74
0
  0
LTYPE
  5
1F9
100
AcDbSymbolTableRecord
100
AcDbLinetypeTableRecord
  2
DASHED
 70
64
  3
- - - - - - - - - - - - - - - - - - - -
 72
65
 73
2
 40
0.2
 49
0.1
 74
0
 49
-0.1
 74
0
  0
ENDTAB
  0
TABLE
  2
LAYER
  5
2
100
AcDbSymbolTable
 70
36
  0
LAYER
  5
10
100
AcDbSymbolTableRecord
100
AcDbLayerTableRecord
  2
0
 70
0
 62
7
  6
CONTINUOUS
370
-3
390
F
  0
LAYER
  5
1FA
100
AcDbSymbolTableRecord
100
AcDbLayerTableRecord
  2
DEFAULT_1
 70
0
 62
7
  6
CENTER
370
-3
390
F
  0
LAYER
  5
1FB
100
AcDbSymbolTableRecord
100
AcDbLayerTableRecord
  2
DEFAULT_2
 70
0
 62
8
  6
HIDDEN
370
-3
390
F
  0
LAYER
  5
1FC
100
AcDbSymbolTableRecord
100
AcDbLayerTableRecord
  2
DEFAULT_3
 70
0
 62
7
  6
PHANTOM
370
-3
390
F
  0
LAYER
  5
1FD
100
AcDbSymbolTableRecord
100
AcDbLayerTableRecord
  2
AUSFORMSCHRAEGEN
 70
0
 62
7
  6
CONTINUOUS
370
-3
390
F
  0
LAYER
  5
1FE
100
AcDbSymbolTableRecord
100
AcDbLayerTableRecord
  2
BESCHRIFTUNG
 70
0
 62
7
  6
CONTINUOUS
370
-3
390
F
  0
LAYER
  5
1FF
100
AcDbSymbolTableRecord
100
AcDbLayerTableRecord
  2
BEZUGSACHSEN
 70
0
 62
7
  6
CONTINUOUS
370
-3
390
F
  0
LAYER
  5
200
100
AcDbSymbolTableRecord
100
AcDbLayerTableRecord
  2
BEZUGSEBENEN
 70
0
 62
7
  6
CONTINUOUS
370
-3
390
F
  0
LAYER
  5
201
100
AcDbSymbolTableRecord
100
AcDbLayerTableRecord
  2
FLAECHEN
 70
0
 62
7
  6
CONTINUOUS
370
-3
390
F
  0
LAYER
  5
202
100
AcDbSymbolTableRecord
100
AcDbLayerTableRecord
  2
HILFEN
 70
0
 62
7
  6
CONTINUOUS
370
-3
390
F
  0
LAYER
  5
203
100
AcDbSymbolTableRecord
100
AcDbLayerTableRecord
  2
KURVEN
 70
0
 62
7
  6
CONTINUOUS
370
-3
390
F
  0
LAYER
  5
204
100
AcDbSymbolTableRecord
100
AcDbLayerTableRecord
  2
PLATZIERUNG
 70
0
 62
7
  6
CONTINUOUS
370
-3
390
F
  0
LAYER
  5
205
100
AcDbSymbolTableRecord
100
AcDbLayerTableRecord
  2
RUNDUNGEN
 70
0
 62
7
  6
CONTINUOUS
370
-3
390
F
  0
LAYER
  5
206
100
AcDbSymbolTableRecord
100
AcDbLayerTableRecord
  2
TEIL_STARTBEZUEGE
 70
0
 62
7
  6
CONTINUOUS
370
-3
390
F
  0
LAYER
  5
207
100
AcDbSymbolTableRecord
100
AcDbLayerTableRecord
  2
ZEICHNUNGSBEMASSUNGEN
 70
0
 62
7
  6
CONTINUOUS
370
-3
390
F
  0
ENDTAB
  0
TABLE
  2
STYLE
  5
3
100
AcDbSymbolTable
 70
1
  0
STYLE
  5
11
100
AcDbSymbolTableRecord
100
AcDbTextStyleTableRecord
  2
STANDARD
 70
0
 40
0.0
 41
0.7
 50
0.0
 71
0
 42
0.2
  3
txt
  4

  0
STYLE
  5
208
100
AcDbSymbolTableRecord
100
AcDbTextStyleTableRecord
  2
TEXTSTYLE_1
 70
0
 40
0.0
 41
0.8
 50
0.0
 71
0
 42
0.2
  3
gdt
  4

  0
ENDTAB
  0
TABLE
  2
VIEW
  5
6
100
AcDbSymbolTable
 70
0
  0
ENDTAB
  0
TABLE
  2
UCS
  5
7
100
AcDbSymbolTable
 70
0
  0
ENDTAB
  0
TABLE
  2
APPID
  5
9
100
AcDbSymbolTable
 70
1
  0
APPID
  5
209
100
AcDbSymbolTableRecord
100
AcDbRegAppTableRecord
  2
ACAD
 70
0
  0
ENDTAB
  0
TABLE
  2
BLOCK_RECORD
  5
1
100
AcDbSymbolTable
 70
0
  0
BLOCK_RECORD
  5
20A
100
AcDbSymbolTableRecord
100
AcDbBlockTableRecord
  2
*Model_Space
  0
BLOCK_RECORD
  5
20B
100
AcDbSymbolTableRecord
100
AcDbBlockTableRecord
  2
*Paper_Space
  0
ENDTAB
  0
TABLE
  2
DIMSTYLE
  5
A
100
AcDbSymbolTable
 70
1
100
AcDbDimStyleTable
 71
0
  0
DIMSTYLE
105
20C
100
AcDbSymbolTableRecord
100
AcDbDimStyleTableRecord
  2
STANDARD
 70
0
  3

  4

 40
1.0
 41
3.5
 42
0.0625
 43
0.38
 44
0.18
 45
0.0
 46
0.0
 47
0.005
 48
0.005
140
3.5
141
0.09
142
0.0
143
25.4
144
1.0
145
0.0
146
1.0
147
0.09
 71
1.0
 72
0.0
 73
0
 74
0
 75
0
 76
0
 77
1
 78
8
170
0
171
2
172
0
173
0
174
0
175
0
176
0
177
0
178
5
270
2
271
3
272
3
273
2
274
2
275
0
280
0
281
0
282
0
283
1
284
8
285
0
286
0
287
3
288
0
340
11
  0
ENDTAB
  0
ENDSEC
  0
SECTION
  2
BLOCKS
  0
BLOCK
  5
20
100
AcDbEntity
  8
0
100
AcDbBlockBegin
  2
*Model_Space
 70
0
 10
0.0
 20
0.0
 30
0.0
  3
*Model_Space
  1

  0
ENDBLK
  5
21
100
AcDbEntity
  8
0
100
AcDbBlockEnd
  0
BLOCK
  5
1C
100
AcDbEntity
  8
0
100
AcDbBlockBegin
  2
*Paper_Space
 70
0
 10
0.0
 20
0.0
 30
0.0
  3
*Paper_Space
  1

  0
ENDBLK
  5
1D
100
AcDbEntity
  8
0
100
AcDbBlockEnd
  0
ENDSEC
  0
SECTION
  2
ENTITIES
  0
MTEXT
  5
20D
100
AcDbEntity
  8
0
100
AcDbMText
 62
5
  6
CONTINUOUS
  7
STANDARD
 71
1
 72
1
 10
454.417721519
 20
234.8227848101
 30
0.0
 11
0.0
 21
1.0
 31
0.0
 44
0.9
  1
RUD ABA 20t
 40
8.0
 41
71.0476190476
  0
MTEXT
  5
20E
100
AcDbEntity
  8
0
100
AcDbMText
 62
5
  6
CONTINUOUS
  7
STANDARD
 71
2
 72
1
 10
189.95167769
 20
213.629813175
 30
0.0
 11
1.0
 21
0.0
 31
0.0
 44
0.9
  1
RUD ABA 20t
 40
8.0
 41
71.0476190476
  0
MTEXT
  5
20F
100
AcDbEntity
  8
0
100
AcDbMText
 62
5
  6
CONTINUOUS
  7
STANDARD
 71
1
 72
1
 10
146.5525769638
 20
97.1257726882
 30
0.0
 11
1.0
 21
0.0
 31
0.0
 44
0.9
  1
 RUD ABA 20t
 40
8.0
 41
77.3333333333
  0
LINE
  5
210
100
AcDbEntity
  8
0
100
AcDbLine
 62
7
  6
CONTINUOUS
 10
0.0
 20
0.0
 11
0.0
 21
420.0
  0
LINE
  5
211
100
AcDbEntity
  8
0
100
AcDbLine
 62
7
  6
CONTINUOUS
 10
0.0
 20
0.0
 11
594.0
 21
0.0
  0
LINE
  5
212
100
AcDbEntity
  8
0
100
AcDbLine
 62
7
  6
CONTINUOUS
 10
0.0
 20
420.0
 11
594.0
 21
420.0
  0
LINE
  5
213
100
AcDbEntity
  8
0
100
AcDbLine
 62
7
  6
CONTINUOUS
 10
594.0
 20
0.0
 11
594.0
 21
420.0
  0
LINE
  5
214
100
AcDbEntity
  8
0
100
AcDbLine
 62
7
  6
CONTINUOUS
 10
50.9226332194
 20
212.5341564599
 11
50.9226332194
 21
200.0921183442
  0
LINE
  5
215
100
AcDbEntity
  8
RUNDUNGEN
100
AcDbLine
 62
7
  6
CONTINUOUS
 10
50.9226332194
 20
212.5341564599
 11
50.9226332194
 21
230.6464999752
  0
LINE
  5
216
100
AcDbEntity
  8
0
100
AcDbLine
 62
7
  6
CONTINUOUS
 10
73.8290971114
 20
252.0329340017
 11
74.2206660103
 21
251.1642126849
  0
LINE
  5
217
100
AcDbEntity
  8
0
100
AcDbLine
 62
7
  6
CONTINUOUS
 10
75.9273919485
 20
250.8552855321
 11
75.7784238749
 21
252.3449645256
  0
LINE
  5
218
100
AcDbEntity
  8
0
100
AcDbLine
 62
7
  6
CONTINUOUS
 10
74.2206660103
 20
251.1642126849
 11
74.1738494609
 21
250.1088939057
  0
LINE
  5
219
100
AcDbEntity
  8
RUNDUNGEN
100
AcDbLine
 62
7
  6
CONTINUOUS
 10
75.9093643735
 20
300.9154235757
 11
54.7286565938
 21
249.7806715934
  0
LINE
  5
21A
100
AcDbEntity
  8
0
100
AcDbLine
 62
7
  6
CONTINUOUS
 10
75.7784238749
 20
252.3449645256
 11
74.8739853172
 21
253.7719274325
  0
LINE
  5
21B
100
AcDbEntity
  8
0
100
AcDbLine
 62
7
  6
CONTINUOUS
 10
87.9978854381
 20
261.1700176849
 11
87.8489176283
 21
262.6596975992
  0
LINE
  5
21C
100
AcDbEntity
  8
0
100
AcDbLine
 62
7
  6
CONTINUOUS
 10
85.9740749641
 20
261.6028280661
 11
85.8059576549
 21
260.2370295602
  0
LINE
  5
21D
100
AcDbEntity
  8
0
100
AcDbLine
 62
7
  6
CONTINUOUS
 10
78.6278949986
 20
280.2191650331
 11
75.716682318
 21
272.7676658062
  0
LINE
  5
21E
100
AcDbEntity
  8
0
100
AcDbLine
 62
7
  6
CONTINUOUS
 10
74.7462783225
 20
270.2838333228
 11
74.0184751523
 21
268.4209585161
  0
LINE
  5
21F
100
AcDbEntity
  8
0
100
AcDbLine
 62
7
  6
CONTINUOUS
 10
71.1072624717
 20
260.9694592892
 11
70.3794589545
 21
259.1065835942
  0
LINE
  5
220
100
AcDbEntity
  8
0
100
AcDbLine
 62
7
  6
CONTINUOUS
 10
67.7108474463
 20
252.2760429323
 11
64.7996347656
 21
244.8245437054
  0
LINE
  5
221
100
AcDbEntity
  8
0
100
AcDbLine
 62
7
  6
CONTINUOUS
 10
67.1128631142
 20
246.0680116327
 11
69.4175730374
 21
251.9671148912
  0
LINE
  5
222
100
AcDbEntity
  8
0
100
AcDbLine
 62
7
  6
CONTINUOUS
 10
78.3469957023
 20
273.8872523575
 11
80.5304052128
 21
279.4758767777
  0
LINE
  5
223
100
AcDbEntity
  8
0
100
AcDbLine
 62
7
  6
CONTINUOUS
 10
72.999142417
 20
252.7150569678
 11
73.8290971114
 21
252.0329340017
  0
LINE
  5
224
100
AcDbEntity
  8
0
100
AcDbLine
 62
7
  6
CONTINUOUS
 10
74.8739853172
 20
253.7719274325
 11
74.0440306228
 21
254.4540503986
  0
LINE
  5
225
100
AcDbEntity
  8
0
100
AcDbLine
 62
7
  6
CONTINUOUS
 10
84.995151974
 20
263.7746301124
 11
85.7038062557
 21
262.782028308
  0
LINE
  5
226
100
AcDbEntity
  8
0
100
AcDbLine
 62
7
  6
CONTINUOUS
 10
87.8489176283
 20
262.6596975992
 11
87.0657797193
 21
264.3971402762
  0
LINE
  5
227
100
AcDbEntity
  8
0
100
AcDbLine
 62
7
  6
CONTINUOUS
 10
85.7038062557
 20
262.782028308
 11
85.9740749641
 21
261.6028280661
  0
LINE
  5
228
100
AcDbEntity
  8
0
100
AcDbLine
 62
7
  6
CONTINUOUS
 10
93.8203114935
 20
276.0730179152
 11
93.6713429895
 21
277.562696053
  0
LINE
  5
229
100
AcDbEntity
  8
0
100
AcDbLine
 62
7
  6
CONTINUOUS
 10
91.7964996312
 20
276.5058247433
 11
91.6283830162
 21
275.140028014
  0
LINE
  5
22A
100
AcDbEntity
  8
0
100
AcDbLine
 62
7
  6
CONTINUOUS
 10
87.7084680911
 20
259.4937412181
 11
87.9978854381
 21
261.1700176849
  0
LINE
  5
22B
100
AcDbEntity
  8
0
100
AcDbLine
 62
7
  6
CONTINUOUS
 10
93.5308934524
 20
274.3967396718
 11
93.8203114935
 21
276.0730179152
  0
LINE
  5
22C
100
AcDbEntity
  8
0
100
AcDbLine
 62
7
  6
CONTINUOUS
 10
74.1738494609
 20
250.1088939057
 11
71.8691395378
 21
244.2097906472
  0
LINE
  5
22D
100
AcDbEntity
  8
0
100
AcDbLine
 62
7
  6
CONTINUOUS
 10
73.7716497519
 20
243.4665023918
 11
75.8337586762
 21
248.7446475294
  0
LINE
  5
22E
100
AcDbEntity
  8
0
100
AcDbLine
 62
7
  6
CONTINUOUS
 10
79.5514831389
 20
281.6476805138
 11
78.6278949986
 21
280.2191650331
  0
LINE
  5
22F
100
AcDbEntity
  8
0
100
AcDbLine
 62
7
  6
CONTINUOUS
 10
50.9226332194
 20
200.0921183442
 11
322.9226332194
 21
200.0921183442
  0
LINE
  5
230
100
AcDbEntity
  8
0
100
AcDbLine
 62
7
  6
CONTINUOUS
 10
87.0657797193
 20
264.3971402762
 11
86.0400401799
 21
265.5136235433
  0
LINE
  5
231
100
AcDbEntity
  8
0
100
AcDbLine
 62
7
  6
CONTINUOUS
 10
93.6713429895
 20
277.562696053
 11
92.8882043865
 21
279.3001369534
  0
LINE
  5
232
100
AcDbEntity
  8
BEZUGSACHSEN
100
AcDbLine
 62
7
  6
CONTINUOUS
 10
103.264053912
 20
262.6723429475
 11
98.6692072729
 21
273.7652840205
  0
LINE
  5
233
100
AcDbEntity
  8
0
100
AcDbLine
 62
7
  6
CONTINUOUS
 10
91.5262309229
 20
277.6850249852
 11
91.7964996312
 21
276.5058247433
  0
LINE
  5
234
100
AcDbEntity
  8
0
100
AcDbLine
 62
7
  6
CONTINUOUS
 10
91.6283830162
 20
275.140028014
 11
89.4449735057
 21
269.5514035938
  0
LINE
  5
235
100
AcDbEntity
  8
0
100
AcDbLine
 62
7
  6
CONTINUOUS
 10
85.8059576549
 20
260.2370295602
 11
85.3207553101
 21
258.9951124302
  0
LINE
  5
236
100
AcDbEntity
  8
0
100
AcDbLine
 62
7
  6
CONTINUOUS
 10
79.7026332194
 20
239.0021183442
 11
80.4304363895
 21
240.8649931509
  0
LINE
  5
237
100
AcDbEntity
  8
0
100
AcDbLine
 62
7
  6
CONTINUOUS
 10
83.4629494829
 20
248.6269712161
 11
84.3120534127
 21
250.8003257495
  0
LINE
  5
238
100
AcDbEntity
  8
0
100
AcDbLine
 62
7
  6
CONTINUOUS
 10
87.2232657463
 20
258.2518240881
 11
87.7084680911
 21
259.4937412181
  0
LINE
  5
239
100
AcDbEntity
  8
0
100
AcDbLine
 62
7
  6
CONTINUOUS
 10
90.6196807718
 20
266.9452404449
 11
93.5308934524
 21
274.3967396718
  0
LINE
  5
23A
100
AcDbEntity
  8
BEZUGSACHSEN
100
AcDbLine
 62
7
  6
CONTINUOUS
 10
98.6692072729
 20
281.4189526678
 11
121.812056769
 21
337.2907337931
  0
LINE
  5
23B
100
AcDbEntity
  8
0
100
AcDbLine
 62
7
  6
CONTINUOUS
 10
68.6344352394
 20
253.7045575248
 11
67.7108474463
 21
252.2760429323
  0
LINE
  5
23C
100
AcDbEntity
  8
0
100
AcDbLine
 62
7
  6
CONTINUOUS
 10
80.5304052128
 20
279.4758767777
 11
81.3326918992
 21
280.5939107552
  0
LINE
  5
23D
100
AcDbEntity
  8
0
100
AcDbLine
 62
7
  6
CONTINUOUS
 10
64.7996347656
 20
244.8245437054
 11
79.7026332194
 21
239.0021183442
  0
LINE
  5
23E
100
AcDbEntity
  8
0
100
AcDbLine
 62
7
  6
CONTINUOUS
 10
80.4304363895
 20
240.8649931509
 11
73.7716497519
 21
243.4665023918
  0
LINE
  5
23F
100
AcDbEntity
  8
0
100
AcDbLine
 62
7
  6
CONTINUOUS
 10
71.8691395378
 20
244.2097906472
 11
67.1128631142
 21
246.0680116327
  0
LINE
  5
240
100
AcDbEntity
  8
0
100
AcDbLine
 62
7
  6
CONTINUOUS
 10
83.848112591
 20
264.5806353427
 11
84.995151974
 21
263.7746301124
  0
LINE
  5
241
100
AcDbEntity
  8
0
100
AcDbLine
 62
7
  6
CONTINUOUS
 10
92.8882043865
 20
279.3001369534
 11
91.8624655411
 21
280.416621997
  0
LINE
  5
242
100
AcDbEntity
  8
0
100
AcDbLine
 62
7
  6
CONTINUOUS
 10
90.8175773353
 20
278.6776285662
 11
91.5262309229
 21
277.6850249852
  0
LINE
  5
243
100
AcDbEntity
  8
BEZUGSACHSEN
100
AcDbLine
 62
7
  6
CONTINUOUS
 10
98.0666838887
 20
238.6442787779
 11
103.2640557458
 21
251.191844404
  0
LINE
  5
244
100
AcDbEntity
  8
0
100
AcDbLine
 62
7
  6
CONTINUOUS
 10
86.2996782724
 20
256.8233103947
 11
87.2232657463
 21
258.2518240881
  0
LINE
  5
245
100
AcDbEntity
  8
0
100
AcDbLine
 62
7
  6
CONTINUOUS
 10
85.3207553101
 20
258.9951124302
 11
84.5184686237
 21
257.8770784527
  0
LINE
  5
246
100
AcDbEntity
  8
0
100
AcDbLine
 62
7
  6
CONTINUOUS
 10
69.4175730374
 20
251.9671148912
 11
70.0985596581
 21
252.7746709186
  0
LINE
  5
247
100
AcDbEntity
  8
0
100
AcDbLine
 62
7
  6
CONTINUOUS
 10
80.6708548609
 20
282.6418331155
 11
79.5514831389
 21
281.6476805138
  0
LINE
  5
248
100
AcDbEntity
  8
BEZUGSACHSEN
100
AcDbLine
 62
7
  6
CONTINUOUS
 10
183.0957988875
 20
365.8455442872
 11
127.2240177704
 21
342.7026947946
  0
LINE
  5
249
100
AcDbEntity
  8
RUNDUNGEN
100
AcDbLine
 62
7
  6
CONTINUOUS
 10
127.2240177704
 20
342.7026947946
 11
183.0957988957
 21
365.8455442906
  0
LINE
  5
24A
100
AcDbEntity
  8
0
100
AcDbLine
 62
7
  6
CONTINUOUS
 10
72.0478864216
 20
253.0867014425
 11
72.999142417
 21
252.7150569678
  0
LINE
  5
24B
100
AcDbEntity
  8
0
100
AcDbLine
 62
7
  6
CONTINUOUS
 10
74.0440306228
 20
254.4540503986
 11
72.7756895918
 21
254.9495762492
  0
LINE
  5
24C
100
AcDbEntity
  8
0
100
AcDbLine
 62
7
  6
CONTINUOUS
 10
70.3794589545
 20
259.1065835942
 11
80.2090963932
 21
255.2662604208
  0
LINE
  5
24D
100
AcDbEntity
  8
0
100
AcDbLine
 62
7
  6
CONTINUOUS
 10
80.9368999104
 20
257.1291361158
 11
71.1072624717
 21
260.9694592892
  0
LINE
  5
24E
100
AcDbEntity
  8
0
100
AcDbLine
 62
7
  6
CONTINUOUS
 10
86.0400401799
 20
265.5136235433
 11
84.5759157612
 21
266.4435101494
  0
LINE
  5
24F
100
AcDbEntity
  8
0
100
AcDbLine
 62
7
  6
CONTINUOUS
 10
81.3326918992
 20
280.5939107552
 11
82.3307635556
 21
281.2775854068
  0
LINE
  5
250
100
AcDbEntity
  8
0
100
AcDbLine
 62
7
  6
CONTINUOUS
 10
300.1010458832
 20
252.2823366221
 11
297.9604965244
 21
251.7790400155
  0
LINE
  5
251
100
AcDbEntity
  8
0
100
AcDbLine
 62
7
  6
CONTINUOUS
 10
298.6381656195
 20
250.1430020952
 11
300.4445450501
 21
250.5078831788
  0
LINE
  5
252
100
AcDbEntity
  8
0
100
AcDbLine
 62
7
  6
CONTINUOUS
 10
74.0184751523
 20
268.4209585161
 11
83.848112591
 21
264.5806353427
  0
LINE
  5
253
100
AcDbEntity
  8
0
100
AcDbLine
 62
7
  6
CONTINUOUS
 10
84.5759157612
 20
266.4435101494
 11
74.7462783225
 21
270.2838333228
  0
LINE
  5
254
100
AcDbEntity
  8
0
100
AcDbLine
 62
7
  6
CONTINUOUS
 10
75.716682318
 20
272.7676658062
 11
90.6196807718
 21
266.9452404449
  0
LINE
  5
255
100
AcDbEntity
  8
0
100
AcDbLine
 62
7
  6
CONTINUOUS
 10
91.8624655411
 20
280.416621997
 11
90.3983404283
 21
281.3465068266
  0
LINE
  5
256
100
AcDbEntity
  8
0
100
AcDbLine
 62
7
  6
CONTINUOUS
 10
89.6705372582
 20
279.4836320198
 11
90.8175773353
 21
278.6776285662
  0
LINE
  5
257
100
AcDbEntity
  8
0
100
AcDbLine
 62
7
  6
CONTINUOUS
 10
85.180305773
 20
255.8291560491
 11
86.2996782724
 21
256.8233103947
  0
LINE
  5
258
100
AcDbEntity
  8
0
100
AcDbLine
 62
7
  6
CONTINUOUS
 10
298.9163536048
 20
261.7586484597
 11
301.05690172
 21
262.2619467447
  0
LINE
  5
259
100
AcDbEntity
  8
0
100
AcDbLine
 62
7
  6
CONTINUOUS
 10
300.3792334004
 20
263.8979827927
 11
298.5728540502
 21
263.5331028391
  0
LINE
  5
25A
100
AcDbEntity
  8
0
100
AcDbLine
 62
7
  6
CONTINUOUS
 10
297.5001241871
 20
250.0549578681
 11
298.6381656195
 21
250.1430020952
  0
LINE
  5
25B
100
AcDbEntity
  8
0
100
AcDbLine
 62
7
  6
CONTINUOUS
 10
82.3265401187
 20
256.9440885623
 11
80.9368999104
 21
257.1291361158
  0
LINE
  5
25C
100
AcDbEntity
  8
0
100
AcDbLine
 62
7
  6
CONTINUOUS
 10
80.2090963932
 20
255.2662604208
 11
81.9158223313
 21
254.9573332679
  0
LINE
  5
25D
100
AcDbEntity
  8
0
100
AcDbLine
 62
7
  6
CONTINUOUS
 10
89.4449735057
 20
269.5514035938
 11
78.3469957023
 21
273.8872523575
  0
LINE
  5
25E
100
AcDbEntity
  8
0
100
AcDbLine
 62
7
  6
CONTINUOUS
 10
84.9142612788
 20
281.3418528318
 11
89.6705372582
 21
279.4836320198
  0
LINE
  5
25F
100
AcDbEntity
  8
0
100
AcDbLine
 62
7
  6
CONTINUOUS
 10
84.5184686237
 20
257.8770784527
 11
83.5203967452
 21
257.1934038879
  0
LINE
  5
260
100
AcDbEntity
  8
0
100
AcDbLine
 62
7
  6
CONTINUOUS
 10
70.0708923442
 20
254.5748296388
 11
68.6344352394
 21
253.7045575248
  0
LINE
  5
261
100
AcDbEntity
  8
0
100
AcDbLine
 62
7
  6
CONTINUOUS
 10
82.4243966544
 20
283.3882229653
 11
80.6708548609
 21
282.6418331155
  0
LINE
  5
262
100
AcDbEntity
  8
RUNDUNGEN
100
AcDbLine
 62
7
  6
CONTINUOUS
 10
55.9840264291
 20
224.7267885802
 11
86.5547545763
 21
229.5687162481
  0
LINE
  5
263
100
AcDbEntity
  8
0
100
AcDbLine
 62
7
  6
CONTINUOUS
 10
298.021388915
 20
266.7548036394
 11
299.4935991125
 21
266.9812661978
  0
LINE
  5
264
100
AcDbEntity
  8
0
100
AcDbLine
 62
7
  6
CONTINUOUS
 10
301.5172753812
 20
263.9860283437
 11
300.3792334004
 21
263.8979827927
  0
LINE
  5
265
100
AcDbEntity
  8
0
100
AcDbLine
 62
7
  6
CONTINUOUS
 10
84.3120534127
 20
250.8003257495
 11
75.9273919485
 21
250.8552855321
  0
LINE
  5
266
100
AcDbEntity
  8
0
100
AcDbLine
 62
7
  6
CONTINUOUS
 10
75.8337586762
 20
248.7446475294
 11
83.4629494829
 21
248.6269712161
  0
LINE
  5
267
100
AcDbEntity
  8
0
100
AcDbLine
 62
7
  6
CONTINUOUS
 10
70.9753309019
 20
253.1478667318
 11
72.0478864216
 21
253.0867014425
  0
LINE
  5
268
100
AcDbEntity
  8
0
100
AcDbLine
 62
7
  6
CONTINUOUS
 10
72.7756895918
 20
254.9495762492
 11
71.7031340721
 21
255.0107415386
  0
LINE
  5
269
100
AcDbEntity
  8
RUNDUNGEN
100
AcDbLine
 62
7
  6
CONTINUOUS
 10
317.8612400096
 20
224.7267885802
 11
287.2905118624
 21
229.5687162481
  0
LINE
  5
26A
100
AcDbEntity
  8
0
100
AcDbLine
 62
7
  6
CONTINUOUS
 10
90.3983404283
 20
281.3465068266
 11
85.6420644489
 21
283.2047276385
  0
LINE
  5
26B
100
AcDbEntity
  8
0
100
AcDbLine
 62
7
  6
CONTINUOUS
 10
296.890468642
 20
278.936820308
 11
295.4182583112
 21
278.7103580713
  0
LINE
  5
26C
100
AcDbEntity
  8
0
100
AcDbLine
 62
7
  6
CONTINUOUS
 10
81.9158223313
 20
254.9573332679
 11
83.4267638685
 21
255.0827662426
  0
LINE
  5
26D
100
AcDbEntity
  8
0
100
AcDbLine
 62
7
  6
CONTINUOUS
 10
295.8923801692
 20
250.1557022351
 11
297.5001241871
 21
250.0549578681
  0
LINE
  5
26E
100
AcDbEntity
  8
0
100
AcDbLine
 62
7
  6
CONTINUOUS
 10
85.6420644489
 20
283.2047276385
 11
83.9353383166
 21
283.513656915
  0
LINE
  5
26F
100
AcDbEntity
  8
0
100
AcDbLine
 62
7
  6
CONTINUOUS
 10
70.0985596581
 20
252.7746709186
 11
70.9753309019
 21
253.1478667318
  0
LINE
  5
270
100
AcDbEntity
  8
0
100
AcDbLine
 62
7
  6
CONTINUOUS
 10
83.4267638685
 20
255.0827662426
 11
85.180305773
 21
255.8291560491
  0
LINE
  5
271
100
AcDbEntity
  8
0
100
AcDbLine
 62
7
  6
CONTINUOUS
 10
303.1250195529
 20
263.8852829436
 11
301.5172753812
 21
263.9860283437
  0
LINE
  5
272
100
AcDbEntity
  8
0
100
AcDbLine
 62
7
  6
CONTINUOUS
 10
298.6803968187
 20
268.9445102044
 11
297.0726526471
 21
269.0452556045
  0
LINE
  5
273
100
AcDbEntity
  8
0
100
AcDbLine
 62
7
  6
CONTINUOUS
 10
83.5246210704
 20
281.5269003853
 11
84.9142612788
 21
281.3418528318
  0
LINE
  5
274
100
AcDbEntity
  8
0
100
AcDbLine
 62
7
  6
CONTINUOUS
 10
297.9604965244
 20
251.7790400155
 11
295.4133470282
 21
252.2573636369
  0
LINE
  5
275
100
AcDbEntity
  8
0
100
AcDbLine
 62
7
  6
CONTINUOUS
 10
71.7031340721
 20
255.0107415386
 11
70.0708923442
 21
254.5748296388
  0
LINE
  5
276
100
AcDbEntity
  8
0
100
AcDbLine
 62
7
  6
CONTINUOUS
 10
83.5203967452
 20
257.1934038879
 11
82.3265401187
 21
256.9440885623
  0
LINE
  5
277
100
AcDbEntity
  8
0
100
AcDbLine
 62
7
  6
CONTINUOUS
 10
301.05690172
 20
262.2619467447
 11
303.6040526939
 21
261.7836215418
  0
LINE
  5
278
100
AcDbEntity
  8
0
100
AcDbLine
 62
7
  6
CONTINUOUS
 10
296.7478138962
 20
266.9939664347
 11
298.021388915
 21
266.7548036394
  0
LINE
  5
279
100
AcDbEntity
  8
0
100
AcDbLine
 62
7
  6
CONTINUOUS
 10
83.9353383166
 20
283.513656915
 11
82.4243966544
 21
283.3882229653
  0
LINE
  5
27A
100
AcDbEntity
  8
0
100
AcDbLine
 62
7
  6
CONTINUOUS
 10
296.0959268853
 20
277.0743214089
 11
297.3695018072
 21
276.8351588477
  0
LINE
  5
27B
100
AcDbEntity
  8
0
100
AcDbLine
 62
7
  6
CONTINUOUS
 10
294.4832714469
 20
250.7220720043
 11
295.8923801692
 21
250.1557022351
  0
LINE
  5
27C
100
AcDbEntity
  8
0
100
AcDbLine
 62
7
  6
CONTINUOUS
 10
82.3307635556
 20
281.2775854068
 11
83.5246210704
 21
281.5269003853
  0
LINE
  5
27D
100
AcDbEntity
  8
0
100
AcDbLine
 62
7
  6
CONTINUOUS
 10
304.5341281581
 20
263.318913126
 11
303.1250195529
 21
263.8852829436
  0
LINE
  5
27E
100
AcDbEntity
  8
0
100
AcDbLine
 62
7
  6
CONTINUOUS
 10
298.7692801075
 20
278.1816605706
 11
296.890468642
 21
278.936820308
  0
LINE
  5
27F
100
AcDbEntity
  8
0
100
AcDbLine
 62
7
  6
CONTINUOUS
 10
297.0726526471
 20
269.0452556045
 11
284.9234792173
 21
274.7466254855
  0
LINE
  5
280
100
AcDbEntity
  8
0
100
AcDbLine
 62
7
  6
CONTINUOUS
 10
286.0077489746
 20
272.1289667321
 11
296.7478138962
 21
266.9939664347
  0
LINE
  5
281
100
AcDbEntity
  8
0
100
AcDbLine
 62
7
  6
CONTINUOUS
 10
295.4133470282
 20
252.2573636369
 11
294.3384075757
 21
252.9621508498
  0
LINE
  5
282
100
AcDbEntity
  8
0
100
AcDbLine
 62
7
  6
CONTINUOUS
 10
292.8030948057
 20
251.9428577027
 11
294.4832714469
 21
250.7220720043
  0
LINE
  5
283
100
AcDbEntity
  8
0
100
AcDbLine
 62
7
  6
CONTINUOUS
 10
303.6040526939
 20
261.7836215418
 11
304.6789921463
 21
261.078834329
  0
LINE
  5
284
100
AcDbEntity
  8
0
100
AcDbLine
 62
7
  6
CONTINUOUS
 10
284.9234792173
 20
274.7466254855
 11
283.2526332194
 21
274.0545384126
  0
LINE
  5
285
100
AcDbEntity
  8
0
100
AcDbLine
 62
7
  6
CONTINUOUS
 10
297.3695018072
 20
276.8351588477
 11
298.4444412597
 21
276.1303716348
  0
LINE
  5
286
100
AcDbEntity
  8
0
100
AcDbLine
 62
7
  6
CONTINUOUS
 10
306.214303936
 20
262.0981292635
 11
304.5341281581
 21
263.318913126
  0
LINE
  5
287
100
AcDbEntity
  8
0
100
AcDbLine
 62
7
  6
CONTINUOUS
 10
299.3487360604
 20
269.2213453826
 11
298.6803968187
 21
268.9445102044
  0
LINE
  5
288
100
AcDbEntity
  8
0
100
AcDbLine
 62
7
  6
CONTINUOUS
 10
288.131846982
 20
262.275074373
 11
289.8026929799
 21
262.967161446
  0
LINE
  5
289
100
AcDbEntity
  8
0
100
AcDbLine
 62
7
  6
CONTINUOUS
 10
299.4935991125
 20
266.9812661978
 11
300.1619383542
 21
267.258101376
  0
LINE
  5
28A
100
AcDbEntity
  8
0
100
AcDbLine
 62
7
  6
CONTINUOUS
 10
298.5728540502
 20
263.5331028391
 11
295.5653316752
 21
262.2873462822
  0
LINE
  5
28B
100
AcDbEntity
  8
0
100
AcDbLine
 62
7
  6
CONTINUOUS
 10
299.9797532433
 20
277.1496661013
 11
298.7692801075
 21
278.1816605706
  0
LINE
  5
28C
100
AcDbEntity
  8
RUNDUNGEN
100
AcDbLine
 62
7
  6
CONTINUOUS
 10
275.77858255
 20
238.6442787779
 11
270.5812106929
 21
251.191844404
  0
LINE
  5
28D
100
AcDbEntity
  8
0
100
AcDbLine
 62
7
  6
CONTINUOUS
 10
296.5771695354
 20
260.7897266932
 11
298.9163536048
 21
261.7586484597
  0
LINE
  5
28E
100
AcDbEntity
  8
0
100
AcDbLine
 62
7
  6
CONTINUOUS
 10
302.4402299526
 20
253.2512583886
 11
300.1010458832
 21
252.2823366221
  0
LINE
  5
28F
100
AcDbEntity
  8
RUNDUNGEN
100
AcDbLine
 62
7
  6
CONTINUOUS
 10
246.6212486683
 20
342.7026947946
 11
190.749467543
 21
365.8455442906
  0
LINE
  5
290
100
AcDbEntity
  8
0
100
AcDbLine
 62
7
  6
CONTINUOUS
 10
294.3384075757
 20
252.9621508498
 11
293.3265693278
 21
254.4597713749
  0
LINE
  5
291
100
AcDbEntity
  8
0
100
AcDbLine
 62
7
  6
CONTINUOUS
 10
291.6557233299
 20
253.7676843019
 11
292.8030948057
 21
251.9428577027
  0
LINE
  5
292
100
AcDbEntity
  8
RUNDUNGEN
100
AcDbLine
 62
7
  6
CONTINUOUS
 10
270.5812125268
 20
262.6723429475
 11
275.1760591658
 21
273.7652840205
  0
LINE
  5
293
100
AcDbEntity
  8
0
100
AcDbLine
 62
7
  6
CONTINUOUS
 10
300.1619383542
 20
267.258101376
 11
301.3630813789
 21
268.1389779792
  0
LINE
  5
294
100
AcDbEntity
  8
0
100
AcDbLine
 62
7
  6
CONTINUOUS
 10
295.5653316752
 20
262.2873462822
 11
294.0300190296
 21
261.2680520899
  0
LINE
  5
295
100
AcDbEntity
  8
0
100
AcDbLine
 62
7
  6
CONTINUOUS
 10
294.7076873493
 20
259.6320160419
 11
296.5771695354
 21
260.7897266932
  0
LINE
  5
296
100
AcDbEntity
  8
0
100
AcDbLine
 62
7
  6
CONTINUOUS
 10
300.4445450501
 20
250.5078831788
 11
303.452067425
 21
251.7536397357
  0
LINE
  5
297
100
AcDbEntity
  8
0
100
AcDbLine
 62
7
  6
CONTINUOUS
 10
305.8730142782
 20
249.6896493929
 11
304.5363376671
 21
249.1359798121
  0
LINE
  5
298
100
AcDbEntity
  8
0
100
AcDbLine
 62
7
  6
CONTINUOUS
 10
309.6306379031
 20
248.1793308909
 11
306.9572837447
 21
247.0719913415
  0
LINE
  5
299
100
AcDbEntity
  8
0
100
AcDbLine
 62
7
  6
CONTINUOUS
 10
305.6206071336
 20
246.5183217607
 11
298.937223376
 21
243.7499735658
  0
LINE
  5
29A
100
AcDbEntity
  8
0
100
AcDbLine
 62
7
  6
CONTINUOUS
 10
300.2832310108
 20
242.3907705328
 11
306.2982762288
 21
244.8822838404
  0
LINE
  5
29B
100
AcDbEntity
  8
0
100
AcDbLine
 62
7
  6
CONTINUOUS
 10
307.6349528399
 20
245.4359534212
 11
310.3083069982
 21
246.5432929706
  0
LINE
  5
29C
100
AcDbEntity
  8
0
100
AcDbLine
 62
7
  6
CONTINUOUS
 10
304.6789921463
 20
261.078834329
 11
305.6908296187
 21
259.5812156761
  0
LINE
  5
29D
100
AcDbEntity
  8
0
100
AcDbLine
 62
7
  6
CONTINUOUS
 10
298.4444412597
 20
276.1303716348
 11
299.4562790229
 21
274.6327522798
  0
LINE
  5
29E
100
AcDbEntity
  8
0
100
AcDbLine
 62
7
  6
CONTINUOUS
 10
307.3616753826
 20
260.2733026521
 11
306.214303936
 21
262.0981292635
  0
LINE
  5
29F
100
AcDbEntity
  8
RUNDUNGEN
100
AcDbLine
 62
7
  6
CONTINUOUS
 10
275.1760591658
 20
281.4189526678
 11
252.0332096698
 21
337.2907337931
  0
LINE
  5
2A0
100
AcDbEntity
  8
0
100
AcDbLine
 62
7
  6
CONTINUOUS
 10
283.2526332194
 20
274.0545384126
 11
288.131846982
 21
262.275074373
  0
LINE
  5
2A1
100
AcDbEntity
  8
0
100
AcDbLine
 62
7
  6
CONTINUOUS
 10
289.8026929799
 20
262.967161446
 11
286.0077489746
 21
272.1289667321
  0
LINE
  5
2A2
100
AcDbEntity
  8
0
100
AcDbLine
 62
7
  6
CONTINUOUS
 10
293.1630451577
 20
260.5255928819
 11
292.097435873
 21
259.3175082232
  0
LINE
  5
2A3
100
AcDbEntity
  8
0
100
AcDbLine
 62
7
  6
CONTINUOUS
 10
294.0300190296
 20
261.2680520899
 11
293.1630451577
 21
260.5255928819
  0
LINE
  5
2A4
100
AcDbEntity
  8
0
100
AcDbLine
 62
7
  6
CONTINUOUS
 10
303.452067425
 20
251.7536397357
 11
304.9873799903
 21
252.772932798
  0
LINE
  5
2A5
100
AcDbEntity
  8
0
100
AcDbLine
 62
7
  6
CONTINUOUS
 10
304.3097108951
 20
254.4089707183
 11
302.4402299526
 21
253.2512583886
  0
LINE
  5
2A6
100
AcDbEntity
  8
0
100
AcDbLine
 62
7
  6
CONTINUOUS
 10
298.1613424556
 20
238.0617303769
 11
299.4980191837
 21
238.6154000062
  0
LINE
  5
2A7
100
AcDbEntity
  8
0
100
AcDbLine
 62
7
  6
CONTINUOUS
 10
307.7891460667
 20
241.283005658
 11
309.1258226778
 21
241.8366752388
  0
LINE
  5
2A8
100
AcDbEntity
  8
0
100
AcDbLine
 62
7
  6
CONTINUOUS
 10
301.2626583731
 20
274.9976322335
 11
299.9797532433
 21
277.1496661013
  0
LINE
  5
2A9
100
AcDbEntity
  8
0
100
AcDbLine
 62
7
  6
CONTINUOUS
 10
304.5363376671
 20
249.1359798121
 11
305.6206071336
 21
246.5183217607
  0
LINE
  5
2AA
100
AcDbEntity
  8
0
100
AcDbLine
 62
7
  6
CONTINUOUS
 10
306.2982762288
 20
244.8822838404
 11
307.7891460667
 21
241.283005658
  0
LINE
  5
2AB
100
AcDbEntity
  8
0
100
AcDbLine
 62
7
  6
CONTINUOUS
 10
309.1258226778
 20
241.8366752388
 11
307.6349528399
 21
245.4359534212
  0
LINE
  5
2AC
100
AcDbEntity
  8
0
100
AcDbLine
 62
7
  6
CONTINUOUS
 10
306.9572837447
 20
247.0719913415
 11
305.8730142782
 21
249.6896493929
  0
LINE
  5
2AD
100
AcDbEntity
  8
0
100
AcDbLine
 62
7
  6
CONTINUOUS
 10
295.4182583112
 20
278.7103580713
 11
296.0959268853
 21
277.0743214089
  0
LINE
  5
2AE
100
AcDbEntity
  8
0
100
AcDbLine
 62
7
  6
CONTINUOUS
 10
310.3083069982
 20
246.5432929706
 11
309.6306379031
 21
248.1793308909
  0
LINE
  5
2AF
100
AcDbEntity
  8
0
100
AcDbLine
 62
7
  6
CONTINUOUS
 10
291.1766902181
 20
255.8693457158
 11
291.6557233299
 21
253.7676843019
  0
LINE
  5
2B0
100
AcDbEntity
  8
0
100
AcDbLine
 62
7
  6
CONTINUOUS
 10
297.6823093439
 20
240.1633917909
 11
298.1613424556
 21
238.0617303769
  0
LINE
  5
2B1
100
AcDbEntity
  8
0
100
AcDbLine
 62
7
  6
CONTINUOUS
 10
293.3265693278
 20
254.4597713749
 11
292.9830701609
 21
256.2342248182
  0
LINE
  5
2B2
100
AcDbEntity
  8
0
100
AcDbLine
 62
7
  6
CONTINUOUS
 10
297.609877379
 20
241.2834312015
 11
297.6823093439
 21
240.1633917909
  0
LINE
  5
2B3
100
AcDbEntity
  8
0
100
AcDbLine
 62
7
  6
CONTINUOUS
 10
291.5015294446
 20
257.9206339859
 11
291.1766902181
 21
255.8693457158
  0
LINE
  5
2B4
100
AcDbEntity
  8
0
100
AcDbLine
 62
7
  6
CONTINUOUS
 10
292.097435873
 20
259.3175082232
 11
291.5015294446
 21
257.9206339859
  0
LINE
  5
2B5
100
AcDbEntity
  8
0
100
AcDbLine
 62
7
  6
CONTINUOUS
 10
300.0801759582
 20
270.2910125491
 11
299.3487360604
 21
269.2213453826
  0
LINE
  5
2B6
100
AcDbEntity
  8
0
100
AcDbLine
 62
7
  6
CONTINUOUS
 10
293.2448073196
 20
257.4926816119
 11
294.7076873493
 21
259.6320160419
  0
LINE
  5
2B7
100
AcDbEntity
  8
0
100
AcDbLine
 62
7
  6
CONTINUOUS
 10
304.9873799903
 20
252.772932798
 11
305.8543544106
 21
253.5153933299
  0
LINE
  5
2B8
100
AcDbEntity
  8
0
100
AcDbLine
 62
7
  6
CONTINUOUS
 10
299.416256517
 20
241.648312164
 11
300.2832310108
 21
242.3907705328
  0
LINE
  5
2B9
100
AcDbEntity
  8
0
100
AcDbLine
 62
7
  6
CONTINUOUS
 10
299.4562790229
 20
274.6327522798
 11
299.9984137562
 21
273.3239232541
  0
LINE
  5
2BA
100
AcDbEntity
  8
0
100
AcDbLine
 62
7
  6
CONTINUOUS
 10
301.8047933003
 20
273.6888027397
 11
301.2626583731
 21
274.9976322335
  0
LINE
  5
2BB
100
AcDbEntity
  8
RUNDUNGEN
100
AcDbLine
 62
7
  6
CONTINUOUS
 10
297.9359020653
 20
300.9154235757
 11
319.1166098449
 21
249.7806715934
  0
LINE
  5
2BC
100
AcDbEntity
  8
0
100
AcDbLine
 62
7
  6
CONTINUOUS
 10
302.2838264413
 20
271.5871413379
 11
301.8047933003
 21
273.6888027397
  0
LINE
  5
2BD
100
AcDbEntity
  8
0
100
AcDbLine
 62
7
  6
CONTINUOUS
 10
299.4980191837
 20
238.6154000062
 11
299.1545193584
 21
240.3898553703
  0
LINE
  5
2BE
100
AcDbEntity
  8
0
100
AcDbLine
 62
7
  6
CONTINUOUS
 10
299.9984137562
 20
273.3239232541
 11
300.3419131169
 21
271.5494693428
  0
LINE
  5
2BF
100
AcDbEntity
  8
0
100
AcDbLine
 62
7
  6
CONTINUOUS
 10
302.157622869
 20
270.0014775218
 11
302.2838264413
 21
271.5871413379
  0
LINE
  5
2C0
100
AcDbEntity
  8
0
100
AcDbLine
 62
7
  6
CONTINUOUS
 10
292.9830701609
 20
256.2342248182
 11
293.2448073196
 21
257.4926816119
  0
LINE
  5
2C1
100
AcDbEntity
  8
0
100
AcDbLine
 62
7
  6
CONTINUOUS
 10
300.3419131169
 20
271.5494693428
 11
300.0801759582
 21
270.2910125491
  0
LINE
  5
2C2
100
AcDbEntity
  8
0
100
AcDbLine
 62
7
  6
CONTINUOUS
 10
297.8716145962
 20
242.5418880194
 11
297.609877379
 21
241.2834312015
  0
LINE
  5
2C3
100
AcDbEntity
  8
0
100
AcDbLine
 62
7
  6
CONTINUOUS
 10
299.1545193584
 20
240.3898553703
 11
299.416256517
 21
241.648312164
  0
LINE
  5
2C4
100
AcDbEntity
  8
0
100
AcDbLine
 62
7
  6
CONTINUOUS
 10
301.3630813789
 20
268.1389779792
 11
302.157622869
 21
270.0014775218
  0
LINE
  5
2C5
100
AcDbEntity
  8
0
100
AcDbLine
 62
7
  6
CONTINUOUS
 10
305.7725924024
 20
256.5483035668
 11
304.3097108951
 21
254.4089707183
  0
LINE
  5
2C6
100
AcDbEntity
  8
0
100
AcDbLine
 62
7
  6
CONTINUOUS
 10
305.8543544106
 20
253.5153933299
 11
306.919963849
 21
254.7234769555
  0
LINE
  5
2C7
100
AcDbEntity
  8
0
100
AcDbLine
 62
7
  6
CONTINUOUS
 10
298.937223376
 20
243.7499735658
 11
297.8716145962
 21
242.5418880194
  0
LINE
  5
2C8
100
AcDbEntity
  8
0
100
AcDbLine
 62
7
  6
CONTINUOUS
 10
307.8407085236
 20
258.1716412503
 11
307.3616753826
 21
260.2733026521
  0
LINE
  5
2C9
100
AcDbEntity
  8
0
100
AcDbLine
 62
7
  6
CONTINUOUS
 10
305.6908296187
 20
259.5812156761
 11
306.0343295611
 21
257.8067603605
  0
LINE
  5
2CA
100
AcDbEntity
  8
0
100
AcDbLine
 62
7
  6
CONTINUOUS
 10
307.5158701604
 20
256.1203511444
 11
307.8407085236
 21
258.1716412503
  0
LINE
  5
2CB
100
AcDbEntity
  8
0
100
AcDbLine
 62
7
  6
CONTINUOUS
 10
306.0343295611
 20
257.8067603605
 11
305.7725924024
 21
256.5483035668
  0
LINE
  5
2CC
100
AcDbEntity
  8
0
100
AcDbLine
 62
7
  6
CONTINUOUS
 10
306.919963849
 20
254.7234769555
 11
307.5158701604
 21
256.1203511444
  0
LINE
  5
2CD
100
AcDbEntity
  8
0
100
AcDbLine
 62
7
  6
CONTINUOUS
 10
322.9226332194
 20
200.0921183442
 11
322.9226332194
 21
212.5341564599
  0
LINE
  5
2CE
100
AcDbEntity
  8
RUNDUNGEN
100
AcDbLine
 62
7
  6
CONTINUOUS
 10
322.9226332194
 20
212.5341564599
 11
322.9226332194
 21
230.6464999752
  0
LINE
  5
2CF
100
AcDbEntity
  8
0
100
AcDbLine
 62
7
  6
CONTINUOUS
 10
413.4352164245
 20
200.0921183442
 11
503.4352164245
 21
200.0921183442
  0
LINE
  5
2D0
100
AcDbEntity
  8
0
100
AcDbLine
 62
7
  6
CONTINUOUS
 10
472.1852164245
 20
239.0021183442
 11
474.1852164245
 21
239.0021183442
  0
LINE
  5
2D1
100
AcDbEntity
  8
0
100
AcDbLine
 62
7
  6
CONTINUOUS
 10
413.4352164245
 20
213.2394685552
 11
413.4352164245
 21
200.0921183442
  0
LINE
  5
2D2
100
AcDbEntity
  8
BEZUGSACHSEN
100
AcDbLine
 62
7
  6
CONTINUOUS
 10
413.4352164245
 20
200.0921183442
 11
413.4352164245
 21
213.2394643827
  0
LINE
  5
2D3
100
AcDbEntity
  8
0
100
AcDbLine
 62
7
  6
CONTINUOUS
 10
472.1852164245
 20
244.8245437054
 11
474.1852164245
 21
244.8245437054
  0
LINE
  5
2D4
100
AcDbEntity
  8
0
100
AcDbLine
 62
7
  6
CONTINUOUS
 10
472.1852164245
 20
252.2760429323
 11
474.1852164245
 21
252.2760429323
  0
LINE
  5
2D5
100
AcDbEntity
  8
0
100
AcDbLine
 62
7
  6
CONTINUOUS
 10
472.1852164245
 20
253.7045575248
 11
474.1852164245
 21
253.7045575248
  0
LINE
  5
2D6
100
AcDbEntity
  8
0
100
AcDbLine
 62
7
  6
CONTINUOUS
 10
472.1852164245
 20
254.5748296388
 11
474.1852164245
 21
254.5748296388
  0
LINE
  5
2D7
100
AcDbEntity
  8
0
100
AcDbLine
 62
7
  6
CONTINUOUS
 10
472.1852164245
 20
255.0107415386
 11
474.1852164245
 21
255.0107415386
  0
LINE
  5
2D8
100
AcDbEntity
  8
0
100
AcDbLine
 62
7
  6
CONTINUOUS
 10
472.1852164245
 20
255.2662604208
 11
474.1852164245
 21
255.2662604208
  0
LINE
  5
2D9
100
AcDbEntity
  8
BEZUGSACHSEN
100
AcDbLine
 62
7
  6
CONTINUOUS
 10
432.4352164245
 20
274.6105383492
 11
432.4352164245
 21
360.6067489655
  0
LINE
  5
2DA
100
AcDbEntity
  8
0
100
AcDbLine
 62
7
  6
CONTINUOUS
 10
472.1852164245
 20
259.1065835942
 11
474.1852164245
 21
259.1065835942
  0
LINE
  5
2DB
100
AcDbEntity
  8
0
100
AcDbLine
 62
7
  6
CONTINUOUS
 10
472.1852164245
 20
260.9694592892
 11
474.1852164245
 21
260.9694592892
  0
LINE
  5
2DC
100
AcDbEntity
  8
0
100
AcDbLine
 62
7
  6
CONTINUOUS
 10
472.1852164245
 20
261.6028280661
 11
474.1852164245
 21
261.6028280661
  0
LINE
  5
2DD
100
AcDbEntity
  8
0
100
AcDbLine
 62
7
  6
CONTINUOUS
 10
472.1852164245
 20
262.782028308
 11
474.1852164245
 21
262.782028308
  0
LINE
  5
2DE
100
AcDbEntity
  8
0
100
AcDbLine
 62
7
  6
CONTINUOUS
 10
472.1852164245
 20
263.7746301124
 11
474.1852164245
 21
263.7746301124
  0
LINE
  5
2DF
100
AcDbEntity
  8
0
100
AcDbLine
 62
7
  6
CONTINUOUS
 10
472.1852164245
 20
264.5806353427
 11
474.1852164245
 21
264.5806353427
  0
LINE
  5
2E0
100
AcDbEntity
  8
0
100
AcDbLine
 62
7
  6
CONTINUOUS
 10
444.6852164245
 20
267.5550773639
 11
443.1852164245
 21
267.5550773639
  0
LINE
  5
2E1
100
AcDbEntity
  8
0
100
AcDbLine
 62
7
  6
CONTINUOUS
 10
444.6852164245
 20
268.2488834541
 11
443.1852164245
 21
268.2488834541
  0
LINE
  5
2E2
100
AcDbEntity
  8
0
100
AcDbLine
 62
7
  6
CONTINUOUS
 10
472.1852164245
 20
268.4209585161
 11
474.1852164245
 21
268.4209585161
  0
LINE
  5
2E3
100
AcDbEntity
  8
0
100
AcDbLine
 62
7
  6
CONTINUOUS
 10
443.1852164245
 20
267.5550773639
 11
443.1852164245
 21
276.3934829602
  0
LINE
  5
2E4
100
AcDbEntity
  8
0
100
AcDbLine
 62
7
  6
CONTINUOUS
 10
443.1852164245
 20
276.9705102571
 11
443.1852164245
 21
280.8202398901
  0
LINE
  5
2E5
100
AcDbEntity
  8
0
100
AcDbLine
 62
7
  6
CONTINUOUS
 10
443.1852164245
 20
280.8458866581
 11
443.1852164245
 21
285.8089158534
  0
LINE
  5
2E6
100
AcDbEntity
  8
RUNDUNGEN
100
AcDbLine
 62
7
  6
CONTINUOUS
 10
444.6852164245
 20
225.192218172
 11
444.6852164245
 21
367.0921183442
  0
LINE
  5
2E7
100
AcDbEntity
  8
BEZUGSACHSEN
100
AcDbLine
 62
7
  6
CONTINUOUS
 10
413.5558311829
 20
213.9235046694
 11
429.4196801328
 21
257.5090714448
  0
LINE
  5
2E8
100
AcDbEntity
  8
0
100
AcDbLine
 62
7
  6
CONTINUOUS
 10
472.1852164245
 20
270.2838333228
 11
474.1852164245
 21
270.2838333228
  0
LINE
  5
2E9
100
AcDbEntity
  8
0
100
AcDbLine
 62
7
  6
CONTINUOUS
 10
444.6852164245
 20
270.6039089593
 11
443.1852164245
 21
270.6039089593
  0
LINE
  5
2EA
100
AcDbEntity
  8
0
100
AcDbLine
 62
7
  6
CONTINUOUS
 10
444.6852164245
 20
271.2977150495
 11
443.1852164245
 21
271.2977150495
  0
LINE
  5
2EB
100
AcDbEntity
  8
0
100
AcDbLine
 62
7
  6
CONTINUOUS
 10
444.6852164245
 20
271.4304537648
 11
443.1852164245
 21
271.4304537648
  0
LINE
  5
2EC
100
AcDbEntity
  8
0
100
AcDbLine
 62
7
  6
CONTINUOUS
 10
444.6852164245
 20
272.124259855
 11
443.1852164245
 21
272.124259855
  0
LINE
  5
2ED
100
AcDbEntity
  8
0
100
AcDbLine
 62
7
  6
CONTINUOUS
 10
472.1852164245
 20
272.7676658062
 11
474.1852164245
 21
272.7676658062
  0
LINE
  5
2EE
100
AcDbEntity
  8
0
100
AcDbLine
 62
7
  6
CONTINUOUS
 10
444.6852164245
 20
276.3939963289
 11
443.1852164245
 21
276.3939963289
  0
LINE
  5
2EF
100
AcDbEntity
  8
0
100
AcDbLine
 62
7
  6
CONTINUOUS
 10
444.6852164245
 20
276.9705102571
 11
443.1852164245
 21
276.9705102571
  0
LINE
  5
2F0
100
AcDbEntity
  8
0
100
AcDbLine
 62
7
  6
CONTINUOUS
 10
444.6852164245
 20
277.6643163473
 11
443.1852164245
 21
277.6643163473
  0
LINE
  5
2F1
100
AcDbEntity
  8
0
100
AcDbLine
 62
7
  6
CONTINUOUS
 10
472.1852164245
 20
280.2191650331
 11
474.1852164245
 21
280.2191650331
  0
LINE
  5
2F2
100
AcDbEntity
  8
0
100
AcDbLine
 62
7
  6
CONTINUOUS
 10
444.6852164245
 20
280.8458866581
 11
443.1852164245
 21
280.8458866581
  0
LINE
  5
2F3
100
AcDbEntity
  8
0
100
AcDbLine
 62
7
  6
CONTINUOUS
 10
444.6852164245
 20
281.5396927482
 11
443.1852164245
 21
281.5396927482
  0
LINE
  5
2F4
100
AcDbEntity
  8
0
100
AcDbLine
 62
7
  6
CONTINUOUS
 10
472.1852164245
 20
281.6476805138
 11
474.1852164245
 21
281.6476805138
  0
LINE
  5
2F5
100
AcDbEntity
  8
0
100
AcDbLine
 62
7
  6
CONTINUOUS
 10
472.1852164245
 20
282.6418331155
 11
474.1852164245
 21
282.6418331155
  0
LINE
  5
2F6
100
AcDbEntity
  8
0
100
AcDbLine
 62
7
  6
CONTINUOUS
 10
472.1852164245
 20
283.3882229653
 11
474.1852164245
 21
283.3882229653
  0
LINE
  5
2F7
100
AcDbEntity
  8
0
100
AcDbLine
 62
7
  6
CONTINUOUS
 10
472.1852164245
 20
283.513656915
 11
474.1852164245
 21
283.513656915
  0
LINE
  5
2F8
100
AcDbEntity
  8
0
100
AcDbLine
 62
7
  6
CONTINUOUS
 10
444.6852164245
 20
285.8094292222
 11
443.1852164245
 21
285.8094292222
  0
LINE
  5
2F9
100
AcDbEntity
  8
RUNDUNGEN
100
AcDbLine
 62
7
  6
CONTINUOUS
 10
472.1852164245
 20
367.0921183442
 11
472.1852164245
 21
225.192218172
  0
LINE
  5
2FA
100
AcDbEntity
  8
0
100
AcDbLine
 62
7
  6
CONTINUOUS
 10
474.1852164245
 20
283.513656915
 11
474.1852164245
 21
239.0021183442
  0
LINE
  5
2FB
100
AcDbEntity
  8
RUNDUNGEN
100
AcDbLine
 62
7
  6
CONTINUOUS
 10
503.314601666
 20
213.9235046694
 11
499.0302312393
 21
225.6947156734
  0
LINE
  5
2FC
100
AcDbEntity
  8
BEZUGSACHSEN
100
AcDbLine
 62
7
  6
CONTINUOUS
 10
499.1881379075
 20
225.2608706681
 11
487.4507527162
 21
257.5090714448
  0
LINE
  5
2FD
100
AcDbEntity
  8
BEZUGSACHSEN
100
AcDbLine
 62
7
  6
CONTINUOUS
 10
484.4352164245
 20
274.6105383492
 11
484.4352164245
 21
337.1594175995
  0
LINE
  5
2FE
100
AcDbEntity
  8
RUNDUNGEN
100
AcDbLine
 62
7
  6
CONTINUOUS
 10
484.4352164245
 20
337.1594175995
 11
484.4352164245
 21
360.6067489655
  0
LINE
  5
2FF
100
AcDbEntity
  8
0
100
AcDbLine
 62
7
  6
CONTINUOUS
 10
503.4352164245
 20
213.2394685552
 11
503.4352164245
 21
200.0921183442
  0
LINE
  5
300
100
AcDbEntity
  8
RUNDUNGEN
100
AcDbLine
 62
7
  6
CONTINUOUS
 10
503.4352164245
 20
213.2394643827
 11
503.4352164245
 21
200.0921183442
  0
LINE
  5
301
100
AcDbEntity
  8
BEZUGSACHSEN
100
AcDbLine
 62
7
  6
CONTINUOUS
 10
438.4352164245
 20
366.6067489655
 11
444.6852164245
 21
366.6067489655
  0
LINE
  5
302
100
AcDbEntity
  8
RUNDUNGEN
100
AcDbLine
 62
7
  6
CONTINUOUS
 10
472.1852164245
 20
366.6067489655
 11
478.4352164245
 21
366.6067489655
  0
LINE
  5
303
100
AcDbEntity
  8
BEZUGSACHSEN
100
AcDbLine
 62
7
  6
CONTINUOUS
 10
464.1852164245
 20
375.0921183442
 11
452.6852164245
 21
375.0921183442
  0
LINE
  5
304
100
AcDbEntity
  8
BEZUGSACHSEN
100
AcDbLine
 62
7
  6
CONTINUOUS
 10
50.9226332194
 20
134.0602571003
 11
50.9226332194
 21
131.7794368714
  0
LINE
  5
305
100
AcDbEntity
  8
BEZUGSACHSEN
100
AcDbLine
 62
7
  6
CONTINUOUS
 10
50.9226332194
 20
100.8102571003
 11
50.9226332194
 21
89.3102571003
  0
LINE
  5
306
100
AcDbEntity
  8
RUNDUNGEN
100
AcDbLine
 62
7
  6
CONTINUOUS
 10
50.9226332194
 20
56.0602571003
 11
50.9226332194
 21
131.7794368714
  0
LINE
  5
307
100
AcDbEntity
  8
0
100
AcDbLine
 62
7
  6
CONTINUOUS
 10
64.7996347656
 20
81.3102571003
 11
64.7996347656
 21
79.3102571003
  0
LINE
  5
308
100
AcDbEntity
  8
0
100
AcDbLine
 62
7
  6
CONTINUOUS
 10
67.7108474463
 20
81.3102571003
 11
67.7108474463
 21
79.3102571003
  0
LINE
  5
309
100
AcDbEntity
  8
0
100
AcDbLine
 62
7
  6
CONTINUOUS
 10
68.6344352394
 20
81.3102571003
 11
68.6344352394
 21
79.3102571003
  0
LINE
  5
30A
100
AcDbEntity
  8
0
100
AcDbLine
 62
7
  6
CONTINUOUS
 10
70.0708923442
 20
81.3102571003
 11
70.0708923442
 21
79.3102571003
  0
LINE
  5
30B
100
AcDbEntity
  8
0
100
AcDbLine
 62
7
  6
CONTINUOUS
 10
70.3794589545
 20
81.3102571003
 11
70.3794589545
 21
79.3102571003
  0
LINE
  5
30C
100
AcDbEntity
  8
0
100
AcDbLine
 62
7
  6
CONTINUOUS
 10
71.1072624717
 20
81.3102571003
 11
71.1072624717
 21
79.3102571003
  0
LINE
  5
30D
100
AcDbEntity
  8
0
100
AcDbLine
 62
7
  6
CONTINUOUS
 10
72.7646647223
 20
108.8102571003
 11
72.7646647223
 21
110.3102571003
  0
LINE
  5
30E
100
AcDbEntity
  8
0
100
AcDbLine
 62
7
  6
CONTINUOUS
 10
74.0184751523
 20
81.3102571003
 11
74.0184751523
 21
79.3102571003
  0
LINE
  5
30F
100
AcDbEntity
  8
0
100
AcDbLine
 62
7
  6
CONTINUOUS
 10
74.7462783225
 20
81.3102571003
 11
74.7462783225
 21
79.3102571003
  0
LINE
  5
310
100
AcDbEntity
  8
0
100
AcDbLine
 62
7
  6
CONTINUOUS
 10
75.716682318
 20
81.3102571003
 11
75.716682318
 21
79.3102571003
  0
LINE
  5
311
100
AcDbEntity
  8
0
100
AcDbLine
 62
7
  6
CONTINUOUS
 10
76.6646647223
 20
108.8102571003
 11
76.6646647223
 21
110.3102571003
  0
LINE
  5
312
100
AcDbEntity
  8
0
100
AcDbLine
 62
7
  6
CONTINUOUS
 10
78.6278949986
 20
81.3102571003
 11
78.6278949986
 21
79.3102571003
  0
LINE
  5
313
100
AcDbEntity
  8
0
100
AcDbLine
 62
7
  6
CONTINUOUS
 10
79.5514831389
 20
81.3102571003
 11
79.5514831389
 21
79.3102571003
  0
LINE
  5
314
100
AcDbEntity
  8
0
100
AcDbLine
 62
7
  6
CONTINUOUS
 10
80.6708548609
 20
81.3102571003
 11
80.6708548609
 21
79.3102571003
  0
LINE
  5
315
100
AcDbEntity
  8
0
100
AcDbLine
 62
7
  6
CONTINUOUS
 10
82.4243966544
 20
81.3102571003
 11
82.4243966544
 21
79.3102571003
  0
LINE
  5
316
100
AcDbEntity
  8
0
100
AcDbLine
 62
7
  6
CONTINUOUS
 10
83.9353383166
 20
81.3102571003
 11
83.9353383166
 21
79.3102571003
  0
LINE
  5
317
100
AcDbEntity
  8
0
100
AcDbLine
 62
7
  6
CONTINUOUS
 10
85.6420644489
 20
81.3102571003
 11
85.6420644489
 21
79.3102571003
  0
LINE
  5
318
100
AcDbEntity
  8
0
100
AcDbLine
 62
7
  6
CONTINUOUS
 10
88.4097659512
 20
108.8102571003
 11
88.4097659512
 21
110.3102571003
  0
LINE
  5
319
100
AcDbEntity
  8
0
100
AcDbLine
 62
7
  6
CONTINUOUS
 10
90.3983404283
 20
81.3102571003
 11
90.3983404283
 21
79.3102571003
  0
LINE
  5
31A
100
AcDbEntity
  8
0
100
AcDbLine
 62
7
  6
CONTINUOUS
 10
91.8624655411
 20
81.3102571003
 11
91.8624655411
 21
79.3102571003
  0
LINE
  5
31B
100
AcDbEntity
  8
0
100
AcDbLine
 62
7
  6
CONTINUOUS
 10
92.8882043865
 20
81.3102571003
 11
92.8882043865
 21
79.3102571003
  0
LINE
  5
31C
100
AcDbEntity
  8
0
100
AcDbLine
 62
7
  6
CONTINUOUS
 10
93.6713429895
 20
81.3102571003
 11
93.6713429895
 21
79.3102571003
  0
LINE
  5
31D
100
AcDbEntity
  8
0
100
AcDbLine
 62
7
  6
CONTINUOUS
 10
93.8203114935
 20
81.3102571003
 11
93.8203114935
 21
79.3102571003
  0
LINE
  5
31E
100
AcDbEntity
  8
BEZUGSACHSEN
100
AcDbLine
 62
7
  6
CONTINUOUS
 10
97.908002598
 20
75.0602571003
 11
97.908002598
 21
81.3102571003
  0
LINE
  5
31F
100
AcDbEntity
  8
BEZUGSACHSEN
100
AcDbLine
 62
7
  6
CONTINUOUS
 10
97.908002598
 20
108.8102571003
 11
97.908002598
 21
115.0602571003
  0
LINE
  5
320
100
AcDbEntity
  8
BEZUGSACHSEN
100
AcDbLine
 62
7
  6
CONTINUOUS
 10
106.4775854869
 20
121.4258133123
 11
106.4746357788
 21
121.4245697103
  0
LWPOLYLINE
  5
321
100
AcDbEntity
  8
BEZUGSACHSEN
100
AcDbPolyline
 62
7
  6
CONTINUOUS
 90
7
 70
0
 10
106.4746357788
 20
121.4245697103
 10
106.2654503576
 20
121.3412226258
 10
105.9579222299
 20
121.2370847188
 10
105.654537396
 20
121.1568280921
 10
105.3527464483
 20
121.1003013557
 10
105.0489771198
 20
121.0679343866
 10
104.8124618213
 20
121.0602574376
  0
LINE
  5
322
100
AcDbEntity
  8
BEZUGSACHSEN
100
AcDbLine
 62
7
  6
CONTINUOUS
 10
106.4775718604
 20
68.6947066281
 11
106.4746357788
 21
68.6959444904
  0
LINE
  5
323
100
AcDbEntity
  8
RUNDUNGEN
100
AcDbLine
 62
7
  6
CONTINUOUS
 10
316.9226332194
 20
50.0602571003
 11
56.9226332194
 21
50.0602571003
  0
LWPOLYLINE
  5
324
100
AcDbEntity
  8
BEZUGSACHSEN
100
AcDbPolyline
 62
7
  6
CONTINUOUS
 90
7
 70
0
 10
104.8124618213
 20
69.060256763
 10
105.0489771198
 20
69.052579814
 10
105.3527464483
 20
69.020212845
 10
105.654537396
 20
68.9636861085
 10
105.9579222299
 20
68.8834294818
 10
106.2654503576
 20
68.7792915748
 10
106.4746357788
 20
68.6959444904
  0
LINE
  5
325
100
AcDbEntity
  8
BEZUGSACHSEN
100
AcDbLine
 62
7
  6
CONTINUOUS
 10
103.9080031446
 20
69.0602571003
 11
129.5201183646
 21
69.0602571003
  0
LINE
  5
326
100
AcDbEntity
  8
RUNDUNGEN
100
AcDbLine
 62
7
  6
CONTINUOUS
 10
129.5201183646
 20
69.0602571003
 11
269.9372632663
 21
69.0602571003
  0
LINE
  5
327
100
AcDbEntity
  8
0
100
AcDbLine
 62
7
  6
CONTINUOUS
 10
310.3083069982
 20
79.3102571003
 11
283.2526332194
 21
79.3102571003
  0
LINE
  5
328
100
AcDbEntity
  8
0
100
AcDbLine
 62
7
  6
CONTINUOUS
 10
93.8203114935
 20
79.3102571003
 11
64.7996347656
 21
79.3102571003
  0
LINE
  5
329
100
AcDbEntity
  8
RUNDUNGEN
100
AcDbLine
 62
7
  6
CONTINUOUS
 10
314.9226332194
 20
81.3102571003
 11
307.8407085236
 21
81.3102571003
  0
LINE
  5
32A
100
AcDbEntity
  8
RUNDUNGEN
100
AcDbLine
 62
7
  6
CONTINUOUS
 10
304.9856340875
 20
81.3102571003
 11
302.2838264413
 21
81.3102571003
  0
LINE
  5
32B
100
AcDbEntity
  8
RUNDUNGEN
100
AcDbLine
 62
7
  6
CONTINUOUS
 10
298.678240531
 20
81.3102571003
 11
58.9226332194
 21
81.3102571003
  0
LINE
  5
32C
100
AcDbEntity
  8
RUNDUNGEN
100
AcDbLine
 62
7
  6
CONTINUOUS
 10
301.8047933003
 20
81.3941037675
 11
301.2626583731
 21
81.3941037675
  0
LINE
  5
32D
100
AcDbEntity
  8
RUNDUNGEN
100
AcDbLine
 62
7
  6
CONTINUOUS
 10
58.9226332194
 20
108.8102571003
 11
314.9226332194
 21
108.8102571003
  0
LINE
  5
32E
100
AcDbEntity
  8
0
100
AcDbLine
 62
7
  6
CONTINUOUS
 10
72.7646647223
 20
110.3102571003
 11
88.4087152898
 21
110.3102571003
  0
LINE
  5
32F
100
AcDbEntity
  8
0
100
AcDbLine
 62
7
  6
CONTINUOUS
 10
284.847705498
 20
110.8102571003
 11
310.8410906036
 21
110.8102571003
  0
LINE
  5
330
100
AcDbEntity
  8
BEZUGSACHSEN
100
AcDbLine
 62
7
  6
CONTINUOUS
 10
103.9080031446
 20
121.0602571003
 11
269.9372632663
 21
121.0602571003
  0
LWPOLYLINE
  5
331
100
AcDbEntity
  8
BEZUGSACHSEN
100
AcDbPolyline
 62
7
  6
CONTINUOUS
 90
7
 70
0
 10
269.0328046175
 20
121.0602574376
 10
268.796289319
 20
121.0679343866
 10
268.4925199905
 20
121.1003013557
 10
268.1907290427
 20
121.1568280921
 10
267.8873442089
 20
121.2370847188
 10
267.5798160811
 20
121.3412226258
 10
267.3706306599
 20
121.4245697103
  0
LINE
  5
332
100
AcDbEntity
  8
BEZUGSACHSEN
100
AcDbLine
 62
7
  6
CONTINUOUS
 10
316.9226332194
 20
140.0602571003
 11
56.9226332194
 21
140.0602571003
  0
LINE
  5
333
100
AcDbEntity
  8
RUNDUNGEN
100
AcDbLine
 62
7
  6
CONTINUOUS
 10
267.3676809519
 20
68.6947008883
 11
267.3706306599
 21
68.6959444904
  0
LWPOLYLINE
  5
334
100
AcDbEntity
  8
RUNDUNGEN
100
AcDbPolyline
 62
7
  6
CONTINUOUS
 90
7
 70
0
 10
267.3706306599
 20
68.6959444904
 10
267.5798160811
 20
68.7792915748
 10
267.8873442089
 20
68.8834294818
 10
268.1907290427
 20
68.9636861085
 10
268.4925199905
 20
69.020212845
 10
268.796289319
 20
69.052579814
 10
269.0328046175
 20
69.060256763
  0
LINE
  5
335
100
AcDbEntity
  8
BEZUGSACHSEN
100
AcDbLine
 62
7
  6
CONTINUOUS
 10
267.3676945784
 20
121.4258075725
 11
267.3706306599
 21
121.4245697103
  0
LINE
  5
336
100
AcDbEntity
  8
BEZUGSACHSEN
100
AcDbLine
 62
7
  6
CONTINUOUS
 10
275.9372638407
 20
115.0602571003
 11
275.9372638407
 21
108.8102571003
  0
LINE
  5
337
100
AcDbEntity
  8
RUNDUNGEN
100
AcDbLine
 62
7
  6
CONTINUOUS
 10
275.9372638407
 20
81.3102571003
 11
275.9372638407
 21
75.0602571003
  0
LINE
  5
338
100
AcDbEntity
  8
0
100
AcDbLine
 62
7
  6
CONTINUOUS
 10
283.2526332194
 20
81.3102571003
 11
283.2526332194
 21
79.3102571003
  0
LINE
  5
339
100
AcDbEntity
  8
0
100
AcDbLine
 62
7
  6
CONTINUOUS
 10
284.847705498
 20
108.8102571003
 11
284.847705498
 21
110.8102571003
  0
LINE
  5
33A
100
AcDbEntity
  8
0
100
AcDbLine
 62
7
  6
CONTINUOUS
 10
284.9234792173
 20
81.3102571003
 11
284.9234792173
 21
79.3102571003
  0
LINE
  5
33B
100
AcDbEntity
  8
0
100
AcDbLine
 62
7
  6
CONTINUOUS
 10
295.4182583112
 20
81.3102571003
 11
295.4182583112
 21
79.3102571003
  0
LINE
  5
33C
100
AcDbEntity
  8
0
100
AcDbLine
 62
7
  6
CONTINUOUS
 10
296.890468642
 20
81.3102571003
 11
296.890468642
 21
79.3102571003
  0
LINE
  5
33D
100
AcDbEntity
  8
RUNDUNGEN
100
AcDbLine
 62
7
  6
CONTINUOUS
 10
298.7692801075
 20
81.3105642884
 11
298.7692801075
 21
79.3102571003
  0
LINE
  5
33E
100
AcDbEntity
  8
0
100
AcDbLine
 62
7
  6
CONTINUOUS
 10
299.5678745451
 20
108.8102571003
 11
299.5678745451
 21
110.8102571003
  0
LINE
  5
33F
100
AcDbEntity
  8
RUNDUNGEN
100
AcDbLine
 62
7
  6
CONTINUOUS
 10
299.9797532433
 20
81.3497080688
 11
299.9797532433
 21
79.3102571003
  0
LINE
  5
340
100
AcDbEntity
  8
0
100
AcDbLine
 62
7
  6
CONTINUOUS
 10
300.4608029797
 20
108.8102571003
 11
300.4608029797
 21
110.8102571003
  0
LINE
  5
341
100
AcDbEntity
  8
0
100
AcDbLine
 62
7
  6
CONTINUOUS
 10
301.0496175751
 20
108.8102571003
 11
301.0496175751
 21
110.8102571003
  0
LINE
  5
342
100
AcDbEntity
  8
RUNDUNGEN
100
AcDbLine
 62
7
  6
CONTINUOUS
 10
301.2626583731
 20
81.3941037675
 11
301.2626583731
 21
79.3102571003
  0
LINE
  5
343
100
AcDbEntity
  8
RUNDUNGEN
100
AcDbLine
 62
7
  6
CONTINUOUS
 10
301.8047933003
 20
81.3941037675
 11
301.8047933003
 21
79.3102571003
  0
LINE
  5
344
100
AcDbEntity
  8
RUNDUNGEN
100
AcDbLine
 62
7
  6
CONTINUOUS
 10
302.2838264413
 20
81.3497080688
 11
302.2838264413
 21
79.3102571003
  0
LINE
  5
345
100
AcDbEntity
  8
0
100
AcDbLine
 62
7
  6
CONTINUOUS
 10
302.4852580817
 20
108.8102571003
 11
302.4852580817
 21
110.8102571003
  0
LINE
  5
346
100
AcDbEntity
  8
0
100
AcDbLine
 62
7
  6
CONTINUOUS
 10
303.1250195529
 20
81.3102571003
 11
303.1250195529
 21
79.3102571003
  0
LINE
  5
347
100
AcDbEntity
  8
0
100
AcDbLine
 62
7
  6
CONTINUOUS
 10
303.7573166764
 20
108.8102571003
 11
303.7573166764
 21
110.8102571003
  0
LINE
  5
348
100
AcDbEntity
  8
0
100
AcDbLine
 62
7
  6
CONTINUOUS
 10
304.5341281581
 20
81.3102571003
 11
304.5341281581
 21
79.3102571003
  0
LINE
  5
349
100
AcDbEntity
  8
0
100
AcDbLine
 62
7
  6
CONTINUOUS
 10
304.5905945949
 20
108.8102571003
 11
304.5905945949
 21
110.8102571003
  0
LINE
  5
34A
100
AcDbEntity
  8
RUNDUNGEN
100
AcDbLine
 62
7
  6
CONTINUOUS
 10
306.214303936
 20
81.3497080688
 11
306.214303936
 21
79.3102571003
  0
LINE
  5
34B
100
AcDbEntity
  8
0
100
AcDbLine
 62
7
  6
CONTINUOUS
 10
307.2693786214
 20
108.8102571003
 11
307.2693786214
 21
110.8102571003
  0
LINE
  5
34C
100
AcDbEntity
  8
RUNDUNGEN
100
AcDbLine
 62
7
  6
CONTINUOUS
 10
307.3616753826
 20
81.3941037689
 11
307.3616753826
 21
79.3102571003
  0
LINE
  5
34D
100
AcDbEntity
  8
RUNDUNGEN
100
AcDbLine
 62
7
  6
CONTINUOUS
 10
307.8407085236
 20
81.3497080688
 11
307.8407085236
 21
79.3102571003
  0
LINE
  5
34E
100
AcDbEntity
  8
0
100
AcDbLine
 62
7
  6
CONTINUOUS
 10
309.6306379031
 20
81.3102571003
 11
309.6306379031
 21
79.3102571003
  0
LINE
  5
34F
100
AcDbEntity
  8
0
100
AcDbLine
 62
7
  6
CONTINUOUS
 10
309.948162648
 20
108.8102571003
 11
309.948162648
 21
110.8102571003
  0
LINE
  5
350
100
AcDbEntity
  8
0
100
AcDbLine
 62
7
  6
CONTINUOUS
 10
310.3083069982
 20
81.3102571003
 11
310.3083069982
 21
79.3102571003
  0
LINE
  5
351
100
AcDbEntity
  8
0
100
AcDbLine
 62
7
  6
CONTINUOUS
 10
310.8410906036
 20
108.8102571003
 11
310.8410906036
 21
110.8102571003
  0
LINE
  5
352
100
AcDbEntity
  8
RUNDUNGEN
100
AcDbLine
 62
7
  6
CONTINUOUS
 10
322.9226332194
 20
131.7794368714
 11
322.9226332194
 21
56.0602571003
  0
LINE
  5
353
100
AcDbEntity
  8
BEZUGSACHSEN
100
AcDbLine
 62
7
  6
CONTINUOUS
 10
322.9226332194
 20
89.3102571003
 11
322.9226332194
 21
100.8102571003
  0
LINE
  5
354
100
AcDbEntity
  8
BEZUGSACHSEN
100
AcDbLine
 62
7
  6
CONTINUOUS
 10
322.9226332194
 20
131.7794368714
 11
322.9226332194
 21
134.0602571003
  0
ARC
  5
355
100
AcDbEntity
  8
RUNDUNGEN
100
AcDbCircle
 62
7
  6
CONTINUOUS
 10
100.9226332194
 20
230.6464999752
 40
50.0
100
AcDbArc
 50
157.5
 51
180.0
  0
ARC
  5
356
100
AcDbEntity
  8
BEZUGSACHSEN
100
AcDbCircle
 62
7
  6
CONTINUOUS
 10
84.2082919554
 20
244.3840499659
 40
15.0
100
AcDbArc
 50
278.9997897925
 51
337.5019857539
  0
ARC
  5
357
100
AcDbEntity
  8
BEZUGSACHSEN
100
AcDbCircle
 62
7
  6
CONTINUOUS
 10
89.4058609243
 20
256.9320914621
 40
15.0
100
AcDbArc
 50
337.5000183047
 51
22.5
  0
ARC
  5
358
100
AcDbEntity
  8
BEZUGSACHSEN
100
AcDbCircle
 62
7
  6
CONTINUOUS
 10
107.908002598
 20
277.5921183442
 40
10.0
100
AcDbArc
 50
157.5
 51
202.5
  0
ARC
  5
359
100
AcDbEntity
  8
RUNDUNGEN
100
AcDbCircle
 62
7
  6
CONTINUOUS
 10
56.9226332194
 20
218.8006585366
 40
6.0
100
AcDbArc
 50
99.0
 51
180.0
  0
ARC
  5
35A
100
AcDbEntity
  8
BEZUGSACHSEN
100
AcDbCircle
 62
7
  6
CONTINUOUS
 10
131.0508520941
 20
333.4638994695
 40
10.0
100
AcDbArc
 50
112.5
 51
157.5
  0
ARC
  5
35B
100
AcDbEntity
  8
RUNDUNGEN
100
AcDbCircle
 62
7
  6
CONTINUOUS
 10
186.9226332194
 20
254.9322220164
 40
120.1598963278
100
AcDbArc
 50
22.5
 51
157.5
  0
ARC
  5
35C
100
AcDbEntity
  8
RUNDUNGEN
100
AcDbCircle
 62
7
  6
CONTINUOUS
 10
186.9226332194
 20
277.5921183442
 40
57.5
100
AcDbArc
 50
339.649388372
 51
182.3569674613
  0
ARC
  5
35D
100
AcDbEntity
  8
BEZUGSACHSEN
100
AcDbCircle
 62
7
  6
CONTINUOUS
 10
186.9226332194
 20
277.5921183442
 40
57.5
100
AcDbArc
 50
357.6430325387
 51
339.649388372
  0
ARC
  5
35E
100
AcDbEntity
  8
RUNDUNGEN
100
AcDbCircle
 62
7
  6
CONTINUOUS
 10
272.9226332194
 20
230.6464999752
 40
50.0
100
AcDbArc
 50
0.0
 51
22.5
  0
ARC
  5
35F
100
AcDbEntity
  8
RUNDUNGEN
100
AcDbCircle
 62
7
  6
CONTINUOUS
 10
289.6369744834
 20
244.3840499659
 40
15.0
100
AcDbArc
 50
202.4980142461
 51
261.0002102075
  0
ARC
  5
360
100
AcDbEntity
  8
RUNDUNGEN
100
AcDbCircle
 62
7
  6
CONTINUOUS
 10
316.9226332194
 20
218.8006585366
 40
6.0
100
AcDbArc
 50
0.0
 51
80.9999999951
  0
ARC
  5
361
100
AcDbEntity
  8
RUNDUNGEN
100
AcDbCircle
 62
7
  6
CONTINUOUS
 10
284.4394055145
 20
256.9320914621
 40
15.0
100
AcDbArc
 50
157.5
 51
202.4999816953
  0
ARC
  5
362
100
AcDbEntity
  8
RUNDUNGEN
100
AcDbCircle
 62
7
  6
CONTINUOUS
 10
265.9372638407
 20
277.5921183442
 40
10.0
100
AcDbArc
 50
337.5
 51
22.5
  0
ARC
  5
363
100
AcDbEntity
  8
RUNDUNGEN
100
AcDbCircle
 62
7
  6
CONTINUOUS
 10
242.7944143447
 20
333.4638994695
 40
10.0
100
AcDbArc
 50
22.5
 51
67.5
  0
ARC
  5
364
100
AcDbEntity
  8
RUNDUNGEN
100
AcDbCircle
 62
7
  6
CONTINUOUS
 10
186.9226332194
 20
356.6067489655
 40
10.0
100
AcDbArc
 50
67.5
 51
112.5
  0
ARC
  5
365
100
AcDbEntity
  8
BEZUGSACHSEN
100
AcDbCircle
 62
7
  6
CONTINUOUS
 10
534.4352164245
 20
274.6105383492
 40
50.0
100
AcDbArc
 50
179.999916538
 51
200.0005606279
  0
ARC
  5
366
100
AcDbEntity
  8
BEZUGSACHSEN
100
AcDbCircle
 62
7
  6
CONTINUOUS
 10
382.4352164245
 20
274.6105383492
 40
50.0
100
AcDbArc
 50
339.9994393721
 51
0.000083462
  0
ARC
  5
367
100
AcDbEntity
  8
RUNDUNGEN
100
AcDbCircle
 62
7
  6
CONTINUOUS
 10
452.6852164245
 20
367.0921183442
 40
8.0
100
AcDbArc
 50
90.0
 51
180.0
  0
ARC
  5
368
100
AcDbEntity
  8
RUNDUNGEN
100
AcDbCircle
 62
7
  6
CONTINUOUS
 10
464.1852164245
 20
367.0921183442
 40
8.0
100
AcDbArc
 50
0.0
 51
90.0
  0
ARC
  5
369
100
AcDbEntity
  8
BEZUGSACHSEN
100
AcDbCircle
 62
7
  6
CONTINUOUS
 10
438.4352164245
 20
360.6067489655
 40
6.0
100
AcDbArc
 50
90.0
 51
180.0
  0
ARC
  5
36A
100
AcDbEntity
  8
RUNDUNGEN
100
AcDbCircle
 62
7
  6
CONTINUOUS
 10
478.4352164245
 20
360.6067489655
 40
6.0
100
AcDbArc
 50
0.0
 51
90.0
  0
ARC
  5
36B
100
AcDbEntity
  8
RUNDUNGEN
100
AcDbCircle
 62
7
  6
CONTINUOUS
 10
501.4352164245
 20
213.2394643827
 40
2.0
100
AcDbArc
 50
0.000119532
 51
20.0
  0
ARC
  5
36C
100
AcDbEntity
  8
BEZUGSACHSEN
100
AcDbCircle
 62
7
  6
CONTINUOUS
 10
415.4352164245
 20
213.2394643827
 40
2.0
100
AcDbArc
 50
160.0
 51
179.999880468
  0
ARC
  5
36D
100
AcDbEntity
  8
RUNDUNGEN
100
AcDbCircle
 62
7
  6
CONTINUOUS
 10
58.9226332194
 20
100.8102571003
 40
8.0
100
AcDbArc
 50
90.0
 51
180.0
  0
ARC
  5
36E
100
AcDbEntity
  8
RUNDUNGEN
100
AcDbCircle
 62
7
  6
CONTINUOUS
 10
314.9226332194
 20
100.8102571003
 40
8.0
100
AcDbArc
 50
0.0
 51
90.0
  0
ARC
  5
36F
100
AcDbEntity
  8
RUNDUNGEN
100
AcDbCircle
 62
7
  6
CONTINUOUS
 10
314.9226332194
 20
89.3102571003
 40
8.0
100
AcDbArc
 50
270.0
 51
360.0
  0
ARC
  5
370
100
AcDbEntity
  8
RUNDUNGEN
100
AcDbCircle
 62
7
  6
CONTINUOUS
 10
58.9226332194
 20
89.3102571003
 40
8.0
100
AcDbArc
 50
180.0
 51
270.0
  0
ARC
  5
371
100
AcDbEntity
  8
BEZUGSACHSEN
100
AcDbCircle
 62
7
  6
CONTINUOUS
 10
103.908002598
 20
115.0602571003
 40
6.0
100
AcDbArc
 50
89.9999947803
 51
180.0
  0
ARC
  5
372
100
AcDbEntity
  8
BEZUGSACHSEN
100
AcDbCircle
 62
7
  6
CONTINUOUS
 10
269.9372638407
 20
115.0602571003
 40
6.0
100
AcDbArc
 50
0.0
 51
90.0000052197
  0
ARC
  5
373
100
AcDbEntity
  8
BEZUGSACHSEN
100
AcDbCircle
 62
7
  6
CONTINUOUS
 10
103.908002598
 20
75.0602571003
 40
6.0
100
AcDbArc
 50
180.0
 51
270.0000052197
  0
ARC
  5
374
100
AcDbEntity
  8
RUNDUNGEN
100
AcDbCircle
 62
7
  6
CONTINUOUS
 10
269.9372638407
 20
75.0602571003
 40
6.0
100
AcDbArc
 50
269.9999947803
 51
360.0
  0
ARC
  5
375
100
AcDbEntity
  8
RUNDUNGEN
100
AcDbCircle
 62
7
  6
CONTINUOUS
 10
316.9226332194
 20
56.0602571003
 40
6.0
100
AcDbArc
 50
270.0
 51
360.0
  0
ARC
  5
376
100
AcDbEntity
  8
RUNDUNGEN
100
AcDbCircle
 62
7
  6
CONTINUOUS
 10
56.9226332194
 20
56.0602571003
 40
6.0
100
AcDbArc
 50
180.0
 51
270.0
  0
ARC
  5
377
100
AcDbEntity
  8
BEZUGSACHSEN
100
AcDbCircle
 62
7
  6
CONTINUOUS
 10
316.9226332194
 20
134.0602571003
 40
6.0
100
AcDbArc
 50
0.0
 51
90.0
  0
ARC
  5
378
100
AcDbEntity
  8
BEZUGSACHSEN
100
AcDbCircle
 62
7
  6
CONTINUOUS
 10
56.9226332194
 20
134.0602571003
 40
6.0
100
AcDbArc
 50
90.0
 51
180.0
  0
SPLINE
  5
379
100
AcDbEntity
  8
RUNDUNGEN
100
AcDbSpline
 62
7
  6
CONTINUOUS
 70
0
 71
3
 72
13
 73
9
 74
0
 42
0.0000001
 43
0.0000001
 44
0.0000000001
 40
0.0
 40
0.0
 40
0.0
 40
0.0
 40
0.2966111413
 40
0.5793925709
 40
0.709518317
 40
0.827083226
 40
0.9263559355
 40
1.0
 40
1.0
 40
1.0
 40
1.0
 10
452.6852164245
 20
218.8006585366
 30
0.0
 10
451.9730548487
 20
219.4174085528
 30
0.0
 10
450.5818969396
 20
220.6220167088
 30
0.0
 10
448.8652378213
 20
222.082490418
 30
0.0
 10
447.5595339295
 20
223.147152233
 30
0.0
 10
446.6890210267
 20
223.8241458121
 30
0.0
 10
445.9367927007
 20
224.3564651071
 30
0.0
 10
445.4615794892
 20
224.639722272
 30
0.0
 10
445.244477877
 20
224.7267885802
 30
0.0
  0
SPLINE
  5
37A
100
AcDbEntity
  8
RUNDUNGEN
100
AcDbSpline
 62
7
  6
CONTINUOUS
 70
0
 71
3
 72
13
 73
9
 74
0
 42
0.0000001
 43
0.0000001
 44
0.0000000001
 40
0.0
 40
0.0
 40
0.0
 40
0.0
 40
0.0736445618
 40
0.1729178725
 40
0.2904832781
 40
0.4206091601
 40
0.7033896414
 40
1.0
 40
1.0
 40
1.0
 40
1.0
 10
471.625954972
 20
224.7267885802
 30
0.0
 10
471.4088518944
 20
224.6397216843
 30
0.0
 10
470.933635993
 20
224.3564620993
 30
0.0
 10
470.1814036174
 20
223.8241398376
 30
0.0
 10
469.3108880076
 20
223.1471433307
 30
0.0
 10
468.0051851471
 20
222.0824818649
 30
0.0
 10
466.2885298381
 20
220.6220115081
 30
0.0
 10
464.8973761184
 20
219.4174069231
 30
0.0
 10
464.1852164245
 20
218.8006585366
 30
0.0
  0
ELLIPSE
  5
37B
100
AcDbEntity
  8
RUNDUNGEN
100
AcDbEllipse
 62
7
  6
CONTINUOUS
 10
464.1852164245
 20
225.192218172
 30
0.0
 11
8.0
 21
0.0
 31
0.0
 40
0.1583844403
 41
-0.3761322365
 42
0.0
  0
ELLIPSE
  5
37C
100
AcDbEntity
  8
RUNDUNGEN
100
AcDbEllipse
 62
7
  6
CONTINUOUS
 10
452.6852164245
 20
225.192218172
 30
0.0
 11
8.0
 21
0.0
 31
0.0
 40
0.1583844403
 41
-3.1415926536
 42
-2.7654604171
  0
ELLIPSE
  5
37D
100
AcDbEntity
  8
RUNDUNGEN
100
AcDbEllipse
 62
7
  6
CONTINUOUS
 10
303.3347407287
 20
89.3102571003
 30
0.0
 11
10.5950872052
 21
0.0
 31
0.0
 40
0.7550669329
 41
-1.7157045233
 42
-1.6701485232
  0
ELLIPSE
  5
37E
100
AcDbEntity
  8
RUNDUNGEN
100
AcDbEllipse
 62
7
  6
CONTINUOUS
 10
303.697173193
 20
89.3102571003
 30
0.0
 11
25.3771597254
 21
0.0
 31
0.0
 40
0.3152441048
 41
-1.4714441304
 42
-1.4258881303
  0
ELLIPSE
  5
37F
100
AcDbEntity
  8
RUNDUNGEN
100
AcDbEllipse
 62
7
  6
CONTINUOUS
 10
308.891622811
 20
89.3102571003
 30
0.0
 11
10.5950872052
 21
-0.0
 31
0.0
 40
0.7550669329
 41
-1.7157045233
 42
-1.6701485232
  0
ELLIPSE
  5
380
100
AcDbEntity
  8
RUNDUNGEN
100
AcDbEllipse
 62
7
  6
CONTINUOUS
 10
298.6519708792
 20
89.3102571003
 30
0.0
 11
13.3864103912
 21
0.0
 31
0.0
 40
0.5976210027
 41
-1.5620329073
 42
-1.4714441304
  0
ELLIPSE
  5
381
100
AcDbEntity
  8
RUNDUNGEN
100
AcDbEllipse
 62
7
  6
CONTINUOUS
 10
297.1652854853
 20
89.3102571003
 30
0.0
 11
28.3748462549
 21
-0.0
 31
0.0
 40
0.2819398536
 41
-1.4714441304
 42
-1.4258881303
  0
ELLIPSE
  5
382
100
AcDbEntity
  8
RUNDUNGEN
100
AcDbEllipse
 62
7
  6
CONTINUOUS
 10
298.678240531
 20
89.3102571003
 30
0.0
 11
10.3887234596
 21
0.0
 31
0.0
 40
0.7700657382
 41
-1.5707963268
 42
-1.5620329073
  0
ELLIPSE
  5
383
100
AcDbEntity
  8
RUNDUNGEN
100
AcDbEllipse
 62
7
  6
CONTINUOUS
 10
304.9856340875
 20
89.3102571003
 30
0.0
 11
12.3871797612
 21
0.0
 31
0.0
 40
0.6458290066
 41
-1.5707963268
 42
-1.4714441304
  0
ENDSEC
  0
SECTION
  2
OBJECTS
  0
DICTIONARY
  5
C
100
AcDbDictionary
280
0
281
1
  3
ACAD_GROUP
350
D
  3
ACAD_MLINESTYLE
350
17
  3
ACAD_LAYOUT
350
1A
  3
ACAD_PLOTSETTINGS
350
19
  3
ACAD_PLOTSTYLENAME
350
E
  0
DICTIONARY
  5
D
102
{ACAD_REACTORS
330
C
102
}
100
AcDbDictionary
280
0
281
1
  0
ACDBDICTIONARYWDFLT
  5
E
102
{ACAD_REACTORS
330
C
102
}
100
AcDbDictionary
281
1
  3
Normal
350
F
100
AcDbDictionaryWithDefault
340
F
  0
DICTIONARY
  5
17
102
{ACAD_REACTORS
330
C
102
}
100
AcDbDictionary
280
0
281
1
  3
Standard
350
18
  0
DICTIONARY
  5
19
102
{ACAD_REACTORS
330
C
102
}
100
AcDbDictionary
281
1
  0
DICTIONARY
  5
1A
102
{ACAD_REACTORS
330
C
102
}
100
AcDbDictionary
281
1
  3
Model
350
384
  3
Layout1
350
385
  0
ACDBPLACEHOLDER
  5
F
102
{ACAD_REACTORS
330
E
102
}
  0
MLINESTYLE
  5
18
102
{ACAD_REACTORS
330
17
102
}
100
AcDbMlineStyle
  2
STANDARD
 70
0
  3

 62
256
 51
90.0
 52
90.0
 71
2
 49
0.5
 62
256
  6
BYLAYER
 49
-0.5
 62
256
  6
BYLAYER
  0
LAYOUT
  5
384
102
{ACAD_REACTORS
330
1A
102
}
100
AcDbPlotSettings
  1

  2
none_device
  4
ISO_A2_(594.00_x_420.00_MM)
  6

 40
0.0
 41
0.0
 42
0.0
 43
0.0
 44
594.0
 45
420.0
 46
0.0
 47
0.0
 48
0.0
 49
0.0
140
0.0
141
0.0
142
1.0
143
1.0
 70
1024
 72
1
 73
0
 74
0
  7

 75
0
147
1.0
148
0.0
149
0.0
100
AcDbLayout
  1
Model
 70
0
 71
0
 10
0.0
 20
0.0
 11
594.0
 21
420.0
 12
0.0
 22
0.0
 32
0.0
 14
0.0
 24
0.0
 34
0.0
 15
0.0
 25
0.0
 35
0.0
146
0.0
 13
0.0
 23
0.0
 33
0.0
 16
1.0
 26
0.0
 36
0.0
 17
0.0
 27
1.0
 37
0.0
 76
0
330
20A
345
0
346
0
  0
LAYOUT
  5
385
102
{ACAD_REACTORS
330
1A
102
}
100
AcDbPlotSettings
  1

  2
none_device
  4
ISO_A2_(594.00_x_420.00_MM)
  6

 40
0.0
 41
0.0
 42
0.0
 43
0.0
 44
594.0
 45
420.0
 46
0.0
 47
0.0
 48
0.0
 49
0.0
140
0.0
141
0.0
142
1.0
143
1.0
 70
0
 72
1
 73
0
 74
0
  7

 75
0
147
1.0
148
0.0
149
0.0
100
AcDbLayout
  1
Layout1
 70
0
 71
1
 10
0.0
 20
0.0
 11
594.0
 21
420.0
 12
0.0
 22
0.0
 32
0.0
 14
0.0
 24
0.0
 34
0.0
 15
0.0
 25
0.0
 35
0.0
146
0.0
 13
0.0
 23
0.0
 33
0.0
 16
1.0
 26
0.0
 36
0.0
 17
0.0
 27
1.0
 37
0.0
 76
0
330
20B
345
0
346
0
  0
ENDSEC
  0
EOF
