999
DXF file: 001-m33970-p1.dxf
999
Pro/ENGINEER 2011490 by Parametric Technology Corporation
  0
SECTION
  2
HEADER
  9
$ACADVER
  1
AC1015
  9
$DWGCODEPAGE
  3
ANSI_1252
  9
$EXTMAX
 10
420.0
 20
297.0
 30
0.0
  9
$EXTMIN
 10
0.0
 20
0.0
 30
0.0
  9
$LIMMIN
 10
0.0
 20
0.0
  9
$LIMMAX
 10
420.0
 20
297.0
  9
$VIEWCTR
 10
210.0
 20
148.5
  9
$VIEWSIZE
 40
297.0
  9
$CLAYER
  8
0
  9
$LTSCALE
 40
23.1
  9
$CELTYPE
  6
BYLAYER
  9
$DIMSCALE
 40
1.0
  9
$DIMASZ
 40
3.5
  9
$DIMEXO
 40
2.625
  9
$DIMDLI
 40
15.96
  9
$DIMEXE
 40
7.56
  9
$DIMCEN
 40
3.78
  9
$DIMLFAC
 40
1.0
  9
$DIMBLK
  1
_FILLED
  9
$DIMTXT
 40
3.5
  9
$DIMTOL
 70
1
  9
$DIMLIM
 70
0
  9
$DIMTFAC
 40
1.0
  9
$DIMTP
 40
0.005
  9
$DIMTM
 40
0.005
  9
$PDMODE
 70
3
  9
$PDSIZE
 40
0.3125
  9
$HANDSEED
  5
386
  9
$TILEMODE
 70
1
  9
$MEASUREMENT
 70
1
  9
$INSUNITS
 70
4
  0
ENDSEC
  0
SECTION
  2
CLASSES
  0
CLASS
  1
ACDBDICTIONARYWDFLT
  2
AcDbDictionaryWithDefault
  3
AutoCAD 2000
 90
0
280
0
281
0
  0
CLASS
  1
ACDBPLACEHOLDER
  2
AcDbPlaceHolder
  3
AutoCAD 2000
 90
0
280
0
281
0
  0
CLASS
  1
LAYOUT
  2
AcDbLayout
  3
AutoCAD 2000
 90
0
280
0
281
0
  0
ENDSEC
  0
SECTION
  2
TABLES
  0
TABLE
  2
VPORT
  5
8
100
AcDbSymbolTable
 70
2
  0
VPORT
  5
1F4
100
AcDbSymbolTableRecord
100
AcDbViewportTableRecord
  2
*ACTIVE
 70
0
 10
0.0
 20
0.0
 11
1.0
 21
1.0
 12
210.0
 22
148.5
 13
0.0
 23
0.0
 14
1.0
 24
1.0
 15
0.0
 25
0.0
 16
0.0
 26
0.0
 36
1.0
 17
0.0
 27
0.0
 37
0.0
 40
297.0
 41
1.4141414141
 42
50.0
 43
0.0
 44
0.0
 50
0.0
 51
0.0
 71
0
 72
100
 73
1
 74
1
 75
0
 76
0
 77
0
 78
0
  0
ENDTAB
  0
TABLE
  2
LTYPE
  5
5
100
AcDbSymbolTable
 70
6
  0
LTYPE
  5
14
100
AcDbSymbolTableRecord
100
AcDbLinetypeTableRecord
  2
BYBLOCK
 70
0
  3

 72
65
 73
0
 40
0.0
  0
LTYPE
  5
15
100
AcDbSymbolTableRecord
100
AcDbLinetypeTableRecord
  2
BYLAYER
 70
0
  3

 72
65
 73
0
 40
0.0
  0
LTYPE
  5
16
100
AcDbSymbolTableRecord
100
AcDbLinetypeTableRecord
  2
CONTINUOUS
 70
64
  3
Solid line
 72
65
 73
0
 40
0.0
  0
LTYPE
  5
1F5
100
AcDbSymbolTableRecord
100
AcDbLinetypeTableRecord
  2
CENTER
 70
64
  3
____ _ ____ _ ____ _ ____ _ ____ _ ____ _ ____
 72
65
 73
4
 40
0.6
 49
0.375
 74
0
 49
-0.075
 74
0
 49
0.075
 74
0
 49
-0.075
 74
0
  0
LTYPE
  5
1F6
100
AcDbSymbolTableRecord
100
AcDbLinetypeTableRecord
  2
HIDDEN
 70
64
  3
- - - - - - - - - - - - - - - - - - - -
 72
65
 73
2
 40
0.2
 49
0.1
 74
0
 49
-0.1
 74
0
  0
LTYPE
  5
1F7
100
AcDbSymbolTableRecord
100
AcDbLinetypeTableRecord
  2
PHANTOM
 70
64
  3
_____ _ _ _____ _ _ _____ _ _ _____
 72
65
 73
6
 40
0.8
 49
0.45
 74
0
 49
-0.05
 74
0
 49
0.1
 74
0
 49
-0.05
 74
0
 49
0.1
 74
0
 49
-0.05
 74
0
  0
LTYPE
  5
1F8
100
AcDbSymbolTableRecord
100
AcDbLinetypeTableRecord
  2
DOT
 70
64
  3
. . . . . . . . . . . . . . . . . . . .
 72
65
 73
2
 40
0.2
 49
0.1
 74
0
 49
-0.1
 74
0
  0
LTYPE
  5
1F9
100
AcDbSymbolTableRecord
100
AcDbLinetypeTableRecord
  2
DASHED
 70
64
  3
- - - - - - - - - - - - - - - - - - - -
 72
65
 73
2
 40
0.2
 49
0.1
 74
0
 49
-0.1
 74
0
  0
ENDTAB
  0
TABLE
  2
LAYER
  5
2
100
AcDbSymbolTable
 70
36
  0
LAYER
  5
10
100
AcDbSymbolTableRecord
100
AcDbLayerTableRecord
  2
0
 70
0
 62
7
  6
CONTINUOUS
370
-3
390
F
  0
LAYER
  5
1FA
100
AcDbSymbolTableRecord
100
AcDbLayerTableRecord
  2
DEFAULT_1
 70
0
 62
7
  6
CENTER
370
-3
390
F
  0
LAYER
  5
1FB
100
AcDbSymbolTableRecord
100
AcDbLayerTableRecord
  2
DEFAULT_2
 70
0
 62
8
  6
HIDDEN
370
-3
390
F
  0
LAYER
  5
1FC
100
AcDbSymbolTableRecord
100
AcDbLayerTableRecord
  2
DEFAULT_3
 70
0
 62
7
  6
PHANTOM
370
-3
390
F
  0
LAYER
  5
1FD
100
AcDbSymbolTableRecord
100
AcDbLayerTableRecord
  2
AUSFORMSCHRAEGEN
 70
0
 62
7
  6
CONTINUOUS
370
-3
390
F
  0
LAYER
  5
1FE
100
AcDbSymbolTableRecord
100
AcDbLayerTableRecord
  2
BEZUGSACHSEN
 70
0
 62
7
  6
CONTINUOUS
370
-3
390
F
  0
LAYER
  5
1FF
100
AcDbSymbolTableRecord
100
AcDbLayerTableRecord
  2
BEZUGSEBENEN
 70
0
 62
7
  6
CONTINUOUS
370
-3
390
F
  0
LAYER
  5
200
100
AcDbSymbolTableRecord
100
AcDbLayerTableRecord
  2
FLAECHEN
 70
0
 62
7
  6
CONTINUOUS
370
-3
390
F
  0
LAYER
  5
201
100
AcDbSymbolTableRecord
100
AcDbLayerTableRecord
  2
HILFEN
 70
0
 62
7
  6
CONTINUOUS
370
-3
390
F
  0
LAYER
  5
202
100
AcDbSymbolTableRecord
100
AcDbLayerTableRecord
  2
KURVEN
 70
0
 62
7
  6
CONTINUOUS
370
-3
390
F
  0
LAYER
  5
203
100
AcDbSymbolTableRecord
100
AcDbLayerTableRecord
  2
PLATZIERUNG
 70
0
 62
7
  6
CONTINUOUS
370
-3
390
F
  0
LAYER
  5
204
100
AcDbSymbolTableRecord
100
AcDbLayerTableRecord
  2
RUNDUNGEN
 70
0
 62
7
  6
CONTINUOUS
370
-3
390
F
  0
LAYER
  5
205
100
AcDbSymbolTableRecord
100
AcDbLayerTableRecord
  2
TEIL_STARTBEZUEGE
 70
0
 62
7
  6
CONTINUOUS
370
-3
390
F
  0
LAYER
  5
206
100
AcDbSymbolTableRecord
100
AcDbLayerTableRecord
  2
ZEICHNUNGSBEMASSUNGEN
 70
0
 62
7
  6
CONTINUOUS
370
-3
390
F
  0
ENDTAB
  0
TABLE
  2
STYLE
  5
3
100
AcDbSymbolTable
 70
1
  0
STYLE
  5
11
100
AcDbSymbolTableRecord
100
AcDbTextStyleTableRecord
  2
STANDARD
 70
0
 40
0.0
 41
0.7
 50
0.0
 71
0
 42
0.2
  3
txt
  4

  0
STYLE
  5
207
100
AcDbSymbolTableRecord
100
AcDbTextStyleTableRecord
  2
TEXTSTYLE_1
 70
0
 40
0.0
 41
0.8
 50
0.0
 71
0
 42
0.2
  3
gdt
  4

  0
ENDTAB
  0
TABLE
  2
VIEW
  5
6
100
AcDbSymbolTable
 70
0
  0
ENDTAB
  0
TABLE
  2
UCS
  5
7
100
AcDbSymbolTable
 70
0
  0
ENDTAB
  0
TABLE
  2
APPID
  5
9
100
AcDbSymbolTable
 70
1
  0
APPID
  5
208
100
AcDbSymbolTableRecord
100
AcDbRegAppTableRecord
  2
ACAD
 70
0
  0
ENDTAB
  0
TABLE
  2
BLOCK_RECORD
  5
1
100
AcDbSymbolTable
 70
0
  0
BLOCK_RECORD
  5
209
100
AcDbSymbolTableRecord
100
AcDbBlockTableRecord
  2
*Model_Space
  0
BLOCK_RECORD
  5
20A
100
AcDbSymbolTableRecord
100
AcDbBlockTableRecord
  2
*Paper_Space
  0
ENDTAB
  0
TABLE
  2
DIMSTYLE
  5
A
100
AcDbSymbolTable
 70
1
100
AcDbDimStyleTable
 71
0
  0
DIMSTYLE
105
20B
100
AcDbSymbolTableRecord
100
AcDbDimStyleTableRecord
  2
STANDARD
 70
0
  3

  4

 40
1.0
 41
3.5
 42
0.0625
 43
0.38
 44
0.18
 45
0.0
 46
0.0
 47
0.005
 48
0.005
140
3.5
141
0.09
142
0.0
143
25.4
144
1.0
145
0.0
146
1.0
147
0.09
 71
1.0
 72
0.0
 73
0
 74
0
 75
0
 76
0
 77
1
 78
8
170
0
171
2
172
0
173
0
174
0
175
0
176
0
177
0
178
5
270
2
271
3
272
3
273
2
274
2
275
0
280
0
281
0
282
0
283
1
284
8
285
0
286
0
287
3
288
0
340
11
  0
ENDTAB
  0
ENDSEC
  0
SECTION
  2
BLOCKS
  0
BLOCK
  5
20
100
AcDbEntity
  8
0
100
AcDbBlockBegin
  2
*Model_Space
 70
0
 10
0.0
 20
0.0
 30
0.0
  3
*Model_Space
  1

  0
ENDBLK
  5
21
100
AcDbEntity
  8
0
100
AcDbBlockEnd
  0
BLOCK
  5
1C
100
AcDbEntity
  8
0
100
AcDbBlockBegin
  2
*Paper_Space
 70
0
 10
0.0
 20
0.0
 30
0.0
  3
*Paper_Space
  1

  0
ENDBLK
  5
1D
100
AcDbEntity
  8
0
100
AcDbBlockEnd
  0
ENDSEC
  0
SECTION
  2
ENTITIES
  0
MTEXT
  5
20C
100
AcDbEntity
  8
0
100
AcDbMText
 62
5
  6
CONTINUOUS
  7
STANDARD
 71
1
 72
1
 10
271.7316318835
 20
200.938138459
 30
0.0
 11
0.0
 21
1.0
 31
0.0
 44
0.9
  1
RUD ABA 1,6t
 40
3.5
 41
32.3333333333
  0
MTEXT
  5
20D
100
AcDbEntity
  8
0
100
AcDbMText
 62
5
  6
CONTINUOUS
  7
STANDARD
 71
1
 72
1
 10
99.8018448267
 20
113.1504337793
 30
0.0
 11
1.0
 21
0.0
 31
0.0
 44
0.9
  1
RUD ABA 1,6t
 40
3.5
 41
32.3333333333
  0
MTEXT
  5
20E
100
AcDbEntity
  8
0
100
AcDbMText
 62
5
  6
CONTINUOUS
  7
STANDARD
 71
1
 72
1
 10
99.7868993284
 20
196.4620588847
 30
0.0
 11
1.0
 21
0.0
 31
0.0
 44
0.9
  1
RUD ABA 1,6t
 40
3.5
 41
32.3333333333
  0
LINE
  5
20F
100
AcDbEntity
  8
0
100
AcDbLine
 62
7
  6
CONTINUOUS
 10
0.0
 20
0.0
 11
0.0
 21
297.0
  0
LINE
  5
210
100
AcDbEntity
  8
0
100
AcDbLine
 62
7
  6
CONTINUOUS
 10
0.0
 20
0.0
 11
420.0
 21
0.0
  0
LINE
  5
211
100
AcDbEntity
  8
0
100
AcDbLine
 62
7
  6
CONTINUOUS
 10
0.0
 20
297.0
 11
420.0
 21
297.0
  0
LINE
  5
212
100
AcDbEntity
  8
0
100
AcDbLine
 62
7
  6
CONTINUOUS
 10
420.0
 20
0.0
 11
420.0
 21
297.0
  0
LINE
  5
213
100
AcDbEntity
  8
RUNDUNGEN
100
AcDbLine
 62
7
  6
CONTINUOUS
 10
63.4051192946
 20
191.2225
 11
63.4051192946
 21
199.0625854358
  0
LINE
  5
214
100
AcDbEntity
  8
0
100
AcDbLine
 62
7
  6
CONTINUOUS
 10
75.1634289708
 20
211.7179589525
 11
75.1333700477
 21
212.2785695074
  0
LINE
  5
215
100
AcDbEntity
  8
0
100
AcDbLine
 62
7
  6
CONTINUOUS
 10
74.5294256731
 20
211.8631793185
 11
74.4936500182
 21
211.4686643434
  0
LINE
  5
216
100
AcDbEntity
  8
RUNDUNGEN
100
AcDbLine
 62
7
  6
CONTINUOUS
 10
70.8604668225
 20
220.0450720604
 11
64.5469263069
 21
204.8028369212
  0
LINE
  5
217
100
AcDbEntity
  8
0
100
AcDbLine
 62
7
  6
CONTINUOUS
 10
74.3977566624
 20
212.1953708047
 11
74.5294256731
 21
211.8631793185
  0
LINE
  5
218
100
AcDbEntity
  8
0
100
AcDbLine
 62
7
  6
CONTINUOUS
 10
76.68251051
 20
222.6710437538
 11
75.4631882974
 21
219.9300123161
  0
LINE
  5
219
100
AcDbEntity
  8
0
100
AcDbLine
 62
7
  6
CONTINUOUS
 10
75.0567476568
 20
219.0163353881
 11
74.7519171037
 21
218.3310775287
  0
LINE
  5
21A
100
AcDbEntity
  8
0
100
AcDbLine
 62
7
  6
CONTINUOUS
 10
73.5325948912
 20
215.5900460911
 11
73.2277641927
 21
214.9047879049
  0
LINE
  5
21B
100
AcDbEntity
  8
0
100
AcDbLine
 62
7
  6
CONTINUOUS
 10
72.110052213
 20
212.3921758627
 11
70.8907300004
 21
209.6511444251
  0
LINE
  5
21C
100
AcDbEntity
  8
0
100
AcDbLine
 62
7
  6
CONTINUOUS
 10
71.7787586622
 20
210.0769720574
 11
72.7440553654
 21
212.24695517
  0
LINE
  5
21D
100
AcDbEntity
  8
0
100
AcDbLine
 62
7
  6
CONTINUOUS
 10
75.1333700477
 20
212.2785695074
 11
74.8192268373
 21
212.8287426187
  0
LINE
  5
21E
100
AcDbEntity
  8
0
100
AcDbLine
 62
7
  6
CONTINUOUS
 10
79.0318079433
 20
216.0167786553
 11
79.1126719919
 21
215.5703775984
  0
LINE
  5
21F
100
AcDbEntity
  8
0
100
AcDbLine
 62
7
  6
CONTINUOUS
 10
79.8633146922
 20
215.3732705017
 11
79.8332558838
 21
215.933881397
  0
LINE
  5
220
100
AcDbEntity
  8
0
100
AcDbLine
 62
7
  6
CONTINUOUS
 10
82.301959408
 20
220.8553340305
 11
82.2719003089
 21
221.4159442722
  0
LINE
  5
221
100
AcDbEntity
  8
0
100
AcDbLine
 62
7
  6
CONTINUOUS
 10
79.1126719919
 20
215.5703775984
 11
79.026091148
 21
215.0616527623
  0
LINE
  5
222
100
AcDbEntity
  8
0
100
AcDbLine
 62
7
  6
CONTINUOUS
 10
81.5513161263
 20
221.0524398202
 11
81.4647355731
 21
220.5437156375
  0
LINE
  5
223
100
AcDbEntity
  8
0
100
AcDbLine
 62
7
  6
CONTINUOUS
 10
79.7259289601
 20
214.7503364534
 11
79.8633146922
 21
215.3732705017
  0
LINE
  5
224
100
AcDbEntity
  8
0
100
AcDbLine
 62
7
  6
CONTINUOUS
 10
82.1645733852
 20
220.2323993287
 11
82.301959408
 21
220.8553340305
  0
LINE
  5
225
100
AcDbEntity
  8
0
100
AcDbLine
 62
7
  6
CONTINUOUS
 10
76.467856581
 20
220.3039539031
 11
77.3823482404
 21
222.3597274813
  0
LINE
  5
226
100
AcDbEntity
  8
0
100
AcDbLine
 62
7
  6
CONTINUOUS
 10
74.4936500182
 20
211.4686643434
 11
73.5283533151
 21
209.2986812309
  0
LINE
  5
227
100
AcDbEntity
  8
0
100
AcDbLine
 62
7
  6
CONTINUOUS
 10
74.2281910455
 20
208.9873649584
 11
75.0918775885
 21
210.9289288389
  0
LINE
  5
228
100
AcDbEntity
  8
0
100
AcDbLine
 62
7
  6
CONTINUOUS
 10
77.0531757865
 20
223.1902063602
 11
76.68251051
 21
222.6710437538
  0
LINE
  5
229
100
AcDbEntity
  8
0
100
AcDbLine
 62
7
  6
CONTINUOUS
 10
74.0986428409
 20
212.4652384753
 11
74.3977566624
 21
212.1953708047
  0
LINE
  5
22A
100
AcDbEntity
  8
0
100
AcDbLine
 62
7
  6
CONTINUOUS
 10
74.8192268373
 20
212.8287426187
 11
74.5201130158
 21
213.0986102893
  0
LINE
  5
22B
100
AcDbEntity
  8
0
100
AcDbLine
 62
7
  6
CONTINUOUS
 10
78.7834991656
 20
216.4008558602
 11
79.0318079433
 21
216.0167786553
  0
LINE
  5
22C
100
AcDbEntity
  8
0
100
AcDbLine
 62
7
  6
CONTINUOUS
 10
79.8332558838
 20
215.933881397
 11
79.5699178216
 21
216.5982643876
  0
LINE
  5
22D
100
AcDbEntity
  8
0
100
AcDbLine
 62
7
  6
CONTINUOUS
 10
81.4704520777
 20
221.498840877
 11
81.5513161263
 21
221.0524398202
  0
LINE
  5
22E
100
AcDbEntity
  8
0
100
AcDbLine
 62
7
  6
CONTINUOUS
 10
81.4647355731
 20
220.5437156375
 11
80.5502439137
 21
218.4879420593
  0
LINE
  5
22F
100
AcDbEntity
  8
0
100
AcDbLine
 62
7
  6
CONTINUOUS
 10
79.026091148
 20
215.0616527623
 11
78.8228706824
 21
214.6048139715
  0
LINE
  5
230
100
AcDbEntity
  8
0
100
AcDbLine
 62
7
  6
CONTINUOUS
 10
76.3727928757
 20
207.2125
 11
76.6776234288
 21
207.8977578594
  0
LINE
  5
231
100
AcDbEntity
  8
0
100
AcDbLine
 62
7
  6
CONTINUOUS
 10
77.9477506851
 20
210.7529988313
 11
78.3033864273
 21
211.5524665518
  0
LINE
  5
232
100
AcDbEntity
  8
0
100
AcDbLine
 62
7
  6
CONTINUOUS
 10
79.5227084945
 20
214.2934976627
 11
79.7259289601
 21
214.7503364534
  0
LINE
  5
233
100
AcDbEntity
  8
0
100
AcDbLine
 62
7
  6
CONTINUOUS
 10
80.9452511727
 20
217.4913678911
 11
82.1645733852
 21
220.2323993287
  0
LINE
  5
234
100
AcDbEntity
  8
0
100
AcDbLine
 62
7
  6
CONTINUOUS
 10
72.4807173441
 20
212.9113381424
 11
72.110052213
 21
212.3921758627
  0
LINE
  5
235
100
AcDbEntity
  8
0
100
AcDbLine
 62
7
  6
CONTINUOUS
 10
77.3823482404
 20
222.3597274813
 11
77.7022080371
 21
222.7646795731
  0
LINE
  5
236
100
AcDbEntity
  8
RUNDUNGEN
100
AcDbLine
 62
7
  6
CONTINUOUS
 10
63.4051192946
 20
191.2225
 11
163.4051192946
 21
191.2225
  0
LINE
  5
237
100
AcDbEntity
  8
0
100
AcDbLine
 62
7
  6
CONTINUOUS
 10
70.8907300004
 20
209.6511444251
 11
76.3727928757
 21
207.2125
  0
LINE
  5
238
100
AcDbEntity
  8
0
100
AcDbLine
 62
7
  6
CONTINUOUS
 10
79.5699178216
 20
216.5982643876
 11
79.2049693405
 21
217.0342276742
  0
LINE
  5
239
100
AcDbEntity
  8
BEZUGSACHSEN
100
AcDbLine
 62
7
  6
CONTINUOUS
 10
85.0114480544
 20
210.6033601606
 11
83.5737600467
 21
214.0742460472
  0
LINE
  5
23A
100
AcDbEntity
  8
0
100
AcDbLine
 62
7
  6
CONTINUOUS
 10
82.2719003089
 20
221.4159442722
 11
82.008561956
 21
222.0803266093
  0
LINE
  5
23B
100
AcDbEntity
  8
BEZUGSACHSEN
100
AcDbLine
 62
7
  6
CONTINUOUS
 10
83.5736757821
 20
216.3705505201
 11
91.4993090788
 21
235.5047219153
  0
LINE
  5
23C
100
AcDbEntity
  8
0
100
AcDbLine
 62
7
  6
CONTINUOUS
 10
79.1520434985
 20
213.7743357143
 11
79.5227084945
 21
214.2934976627
  0
LINE
  5
23D
100
AcDbEntity
  8
0
100
AcDbLine
 62
7
  6
CONTINUOUS
 10
78.8228706824
 20
214.6048139715
 11
78.5030108857
 21
214.1998618796
  0
LINE
  5
23E
100
AcDbEntity
  8
0
100
AcDbLine
 62
7
  6
CONTINUOUS
 10
72.7440553654
 20
212.24695517
 11
73.0131102637
 21
212.5376980542
  0
LINE
  5
23F
100
AcDbEntity
  8
0
100
AcDbLine
 62
7
  6
CONTINUOUS
 10
77.4896752049
 20
223.5432724066
 11
77.0531757865
 21
223.1902063602
  0
LINE
  5
240
100
AcDbEntity
  8
RUNDUNGEN
100
AcDbLine
 62
7
  6
CONTINUOUS
 10
93.1228973793
 20
237.1283102158
 11
112.2570689975
 21
245.0539436048
  0
LINE
  5
241
100
AcDbEntity
  8
0
100
AcDbLine
 62
7
  6
CONTINUOUS
 10
76.6776234288
 20
207.8977578594
 11
74.2281910455
 21
208.9873649584
  0
LINE
  5
242
100
AcDbEntity
  8
0
100
AcDbLine
 62
7
  6
CONTINUOUS
 10
73.5283533151
 20
209.2986812309
 11
71.7787586622
 21
210.0769720574
  0
LINE
  5
243
100
AcDbEntity
  8
0
100
AcDbLine
 62
7
  6
CONTINUOUS
 10
73.748723649
 20
212.6208967569
 11
74.0986428409
 21
212.4652384753
  0
LINE
  5
244
100
AcDbEntity
  8
0
100
AcDbLine
 62
7
  6
CONTINUOUS
 10
78.3677458677
 20
216.7226099029
 11
78.7834991656
 21
216.4008558602
  0
LINE
  5
245
100
AcDbEntity
  8
0
100
AcDbLine
 62
7
  6
CONTINUOUS
 10
82.008561956
 20
222.0803266093
 11
81.6436137656
 21
222.5162905494
  0
LINE
  5
246
100
AcDbEntity
  8
0
100
AcDbLine
 62
7
  6
CONTINUOUS
 10
81.2221435907
 20
221.8829187354
 11
81.4704520777
 21
221.498840877
  0
LINE
  5
247
100
AcDbEntity
  8
BEZUGSACHSEN
100
AcDbLine
 62
7
  6
CONTINUOUS
 10
84.2091447313
 20
204.8390786269
 11
85.0114478001
 21
206.7760095766
  0
LINE
  5
248
100
AcDbEntity
  8
0
100
AcDbLine
 62
7
  6
CONTINUOUS
 10
77.7022080371
 20
222.7646795731
 11
78.0879025572
 21
223.003536412
  0
LINE
  5
249
100
AcDbEntity
  8
0
100
AcDbLine
 62
7
  6
CONTINUOUS
 10
74.5201130158
 20
213.0986102893
 11
74.0535542021
 21
213.3061546163
  0
LINE
  5
24A
100
AcDbEntity
  8
0
100
AcDbLine
 62
7
  6
CONTINUOUS
 10
73.2277641927
 20
214.9047879049
 11
76.8435929567
 21
213.2963202791
  0
LINE
  5
24B
100
AcDbEntity
  8
0
100
AcDbLine
 62
7
  6
CONTINUOUS
 10
77.1484236552
 20
213.9815784653
 11
73.5325948912
 21
215.5900460911
  0
LINE
  5
24C
100
AcDbEntity
  8
0
100
AcDbLine
 62
7
  6
CONTINUOUS
 10
79.2049693405
 20
217.0342276742
 11
78.6725764209
 21
217.4078677623
  0
LINE
  5
24D
100
AcDbEntity
  8
0
100
AcDbLine
 62
7
  6
CONTINUOUS
 10
78.7155437587
 20
213.421269028
 11
79.1520434985
 21
213.7743357143
  0
LINE
  5
24E
100
AcDbEntity
  8
0
100
AcDbLine
 62
7
  6
CONTINUOUS
 10
78.1594538668
 20
223.7925663622
 11
77.4896752049
 21
223.5432724066
  0
LINE
  5
24F
100
AcDbEntity
  8
0
100
AcDbLine
 62
7
  6
CONTINUOUS
 10
74.7519171037
 20
218.3310775287
 11
78.3677458677
 21
216.7226099029
  0
LINE
  5
250
100
AcDbEntity
  8
0
100
AcDbLine
 62
7
  6
CONTINUOUS
 10
78.6725764209
 20
217.4078677623
 11
75.0567476568
 21
219.0163353881
  0
LINE
  5
251
100
AcDbEntity
  8
0
100
AcDbLine
 62
7
  6
CONTINUOUS
 10
75.4631882974
 20
219.9300123161
 11
80.9452511727
 21
217.4913678911
  0
LINE
  5
252
100
AcDbEntity
  8
0
100
AcDbLine
 62
7
  6
CONTINUOUS
 10
81.6436137656
 20
222.5162905494
 11
81.1112205552
 21
222.889929984
  0
LINE
  5
253
100
AcDbEntity
  8
0
100
AcDbLine
 62
7
  6
CONTINUOUS
 10
80.8063900021
 20
222.2046721246
 11
81.2221435907
 21
221.8829187354
  0
LINE
  5
254
100
AcDbEntity
  8
0
100
AcDbLine
 62
7
  6
CONTINUOUS
 10
78.5030108857
 20
214.1998618796
 11
78.1173162839
 21
213.9610050771
  0
LINE
  5
255
100
AcDbEntity
  8
0
100
AcDbLine
 62
7
  6
CONTINUOUS
 10
73.0338565296
 20
213.2125184702
 11
72.4807173441
 21
212.9113381424
  0
LINE
  5
256
100
AcDbEntity
  8
0
100
AcDbLine
 62
7
  6
CONTINUOUS
 10
150.7963065252
 20
217.426594725
 11
149.660847836
 21
217.1321609012
  0
LINE
  5
257
100
AcDbEntity
  8
0
100
AcDbLine
 62
7
  6
CONTINUOUS
 10
149.9717781841
 20
216.3815086379
 11
150.9539122032
 21
216.6124333038
  0
LINE
  5
258
100
AcDbEntity
  8
RUNDUNGEN
100
AcDbLine
 62
7
  6
CONTINUOUS
 10
65.0922503645
 20
199.393818627
 11
80.3718071535
 21
201.8138626774
  0
LINE
  5
259
100
AcDbEntity
  8
0
100
AcDbLine
 62
7
  6
CONTINUOUS
 10
75.0918775885
 20
210.9289288389
 11
77.9477506851
 21
210.7529988313
  0
LINE
  5
25A
100
AcDbEntity
  8
0
100
AcDbLine
 62
7
  6
CONTINUOUS
 10
73.34799974
 20
212.6623453588
 11
73.748723649
 21
212.6208967569
  0
LINE
  5
25B
100
AcDbEntity
  8
RUNDUNGEN
100
AcDbLine
 62
7
  6
CONTINUOUS
 10
161.7179882247
 20
199.393818627
 11
146.4384314357
 21
201.8138626774
  0
LINE
  5
25C
100
AcDbEntity
  8
0
100
AcDbLine
 62
7
  6
CONTINUOUS
 10
77.6657870405
 20
213.8882434912
 11
77.1484236552
 21
213.9815784653
  0
LINE
  5
25D
100
AcDbEntity
  8
0
100
AcDbLine
 62
7
  6
CONTINUOUS
 10
76.8435929567
 20
213.2963202791
 11
77.4775962545
 21
213.1510999131
  0
LINE
  5
25E
100
AcDbEntity
  8
0
100
AcDbLine
 62
7
  6
CONTINUOUS
 10
80.5502439137
 20
218.4879420593
 11
76.467856581
 21
220.3039539031
  0
LINE
  5
25F
100
AcDbEntity
  8
0
100
AcDbLine
 62
7
  6
CONTINUOUS
 10
79.0567955126
 20
222.9829628785
 11
80.8063900021
 21
222.2046721246
  0
LINE
  5
260
100
AcDbEntity
  8
0
100
AcDbLine
 62
7
  6
CONTINUOUS
 10
73.0131102637
 20
212.5376980542
 11
73.34799974
 21
212.6623453588
  0
LINE
  5
261
100
AcDbEntity
  8
0
100
AcDbLine
 62
7
  6
CONTINUOUS
 10
149.5953948192
 20
211.6524983295
 11
149.0732346325
 21
211.6121015665
  0
LINE
  5
262
100
AcDbEntity
  8
0
100
AcDbLine
 62
7
  6
CONTINUOUS
 10
148.8620048645
 20
210.8210520661
 11
149.7530003193
 21
210.8383373379
  0
LINE
  5
263
100
AcDbEntity
  8
0
100
AcDbLine
 62
7
  6
CONTINUOUS
 10
78.3033864273
 20
211.5524665518
 11
75.1634289708
 21
211.7179589525
  0
LINE
  5
264
100
AcDbEntity
  8
0
100
AcDbLine
 62
7
  6
CONTINUOUS
 10
74.0535542021
 20
213.3061546163
 11
73.6528302931
 21
213.3476032182
  0
LINE
  5
265
100
AcDbEntity
  8
0
100
AcDbLine
 62
7
  6
CONTINUOUS
 10
81.1112205552
 20
222.889929984
 11
79.3616260658
 21
223.6682207379
  0
LINE
  5
266
100
AcDbEntity
  8
0
100
AcDbLine
 62
7
  6
CONTINUOUS
 10
78.045765056
 20
213.1719750905
 11
78.7155437587
 21
213.421269028
  0
LINE
  5
267
100
AcDbEntity
  8
0
100
AcDbLine
 62
7
  6
CONTINUOUS
 10
148.5007172669
 20
215.5962866901
 11
149.0228774904
 21
215.6366839716
  0
LINE
  5
268
100
AcDbEntity
  8
0
100
AcDbLine
 62
7
  6
CONTINUOUS
 10
150.9539122032
 20
216.6124333038
 11
151.4760726414
 21
216.6528306743
  0
LINE
  5
269
100
AcDbEntity
  8
0
100
AcDbLine
 62
7
  6
CONTINUOUS
 10
77.4775962545
 20
213.1510999131
 11
78.045765056
 21
213.1719750905
  0
LINE
  5
26A
100
AcDbEntity
  8
0
100
AcDbLine
 62
7
  6
CONTINUOUS
 10
79.3616260658
 20
223.6682207379
 11
78.7276227319
 21
223.8134419027
  0
LINE
  5
26B
100
AcDbEntity
  8
0
100
AcDbLine
 62
7
  6
CONTINUOUS
 10
78.1173162839
 20
213.9610050771
 11
77.6657870405
 21
213.8882434912
  0
LINE
  5
26C
100
AcDbEntity
  8
0
100
AcDbLine
 62
7
  6
CONTINUOUS
 10
151.68730248
 20
217.4438797007
 11
150.7963065252
 21
217.426594725
  0
LINE
  5
26D
100
AcDbEntity
  8
0
100
AcDbLine
 62
7
  6
CONTINUOUS
 10
143.730528318
 20
217.1381845511
 11
145.7902162504
 21
216.9360028316
  0
LINE
  5
26E
100
AcDbEntity
  8
0
100
AcDbLine
 62
7
  6
CONTINUOUS
 10
78.5394321273
 20
223.0762978526
 11
79.0567955126
 21
222.9829628785
  0
LINE
  5
26F
100
AcDbEntity
  8
0
100
AcDbLine
 62
7
  6
CONTINUOUS
 10
149.0732346325
 20
211.6121015665
 11
148.4888885179
 21
211.7218346103
  0
LINE
  5
270
100
AcDbEntity
  8
0
100
AcDbLine
 62
7
  6
CONTINUOUS
 10
148.0621479571
 20
211.0174066848
 11
148.8620048645
 21
210.8210520661
  0
LINE
  5
271
100
AcDbEntity
  8
0
100
AcDbLine
 62
7
  6
CONTINUOUS
 10
73.6528302931
 20
213.3476032182
 11
73.0338565296
 21
213.2125184702
  0
LINE
  5
272
100
AcDbEntity
  8
0
100
AcDbLine
 62
7
  6
CONTINUOUS
 10
145.4792860802
 20
217.6866546654
 11
143.4195980589
 21
217.8888365996
  0
LINE
  5
273
100
AcDbEntity
  8
0
100
AcDbLine
 62
7
  6
CONTINUOUS
 10
151.4760726414
 20
216.6528306743
 11
152.0604188266
 21
216.5430971565
  0
LINE
  5
274
100
AcDbEntity
  8
0
100
AcDbLine
 62
7
  6
CONTINUOUS
 10
78.7276227319
 20
223.8134419027
 11
78.1594538668
 21
223.7925663622
  0
LINE
  5
275
100
AcDbEntity
  8
0
100
AcDbLine
 62
7
  6
CONTINUOUS
 10
152.4871593337
 20
217.2475250598
 11
151.68730248
 21
217.4438797007
  0
LINE
  5
276
100
AcDbEntity
  8
0
100
AcDbLine
 62
7
  6
CONTINUOUS
 10
149.2288127242
 20
223.8128666678
 11
148.0022149339
 21
223.3047932275
  0
LINE
  5
277
100
AcDbEntity
  8
0
100
AcDbLine
 62
7
  6
CONTINUOUS
 10
149.4486044007
 20
222.8485749658
 11
143.4689414078
 21
220.3717174558
  0
LINE
  5
278
100
AcDbEntity
  8
0
100
AcDbLine
 62
7
  6
CONTINUOUS
 10
143.8420577544
 20
219.4709349116
 11
151.048318108
 21
222.4558656841
  0
LINE
  5
279
100
AcDbEntity
  8
0
100
AcDbLine
 62
7
  6
CONTINUOUS
 10
78.0879025572
 20
223.003536412
 11
78.5394321273
 21
223.0762978526
  0
LINE
  5
27A
100
AcDbEntity
  8
0
100
AcDbLine
 62
7
  6
CONTINUOUS
 10
149.0228774904
 20
215.6366839716
 11
149.4538990054
 21
215.4634412959
  0
LINE
  5
27B
100
AcDbEntity
  8
0
100
AcDbLine
 62
7
  6
CONTINUOUS
 10
148.0022149339
 20
223.3047932275
 11
149.4486044007
 21
222.8485749658
  0
LINE
  5
27C
100
AcDbEntity
  8
0
100
AcDbLine
 62
7
  6
CONTINUOUS
 10
150.6752017614
 20
223.3566482282
 11
149.2288127242
 21
223.8128666678
  0
LINE
  5
27D
100
AcDbEntity
  8
0
100
AcDbLine
 62
7
  6
CONTINUOUS
 10
148.4888885179
 20
211.7218346103
 11
147.9956810045
 21
212.0452075668
  0
LINE
  5
27E
100
AcDbEntity
  8
0
100
AcDbLine
 62
7
  6
CONTINUOUS
 10
147.2912433806
 20
211.5775318876
 11
148.0621479571
 21
211.0174066848
  0
LINE
  5
27F
100
AcDbEntity
  8
0
100
AcDbLine
 62
7
  6
CONTINUOUS
 10
149.660847836
 20
217.1321609012
 11
148.5875751454
 21
216.6875967966
  0
LINE
  5
280
100
AcDbEntity
  8
0
100
AcDbLine
 62
7
  6
CONTINUOUS
 10
149.6651288439
 20
216.2544903223
 11
149.9717781841
 21
216.3815086379
  0
LINE
  5
281
100
AcDbEntity
  8
0
100
AcDbLine
 62
7
  6
CONTINUOUS
 10
148.0407432566
 20
215.4057592167
 11
148.5007172669
 21
215.5962866901
  0
LINE
  5
282
100
AcDbEntity
  8
0
100
AcDbLine
 62
7
  6
CONTINUOUS
 10
149.4538990054
 20
215.4634412959
 11
149.9471065189
 21
215.1400683394
  0
LINE
  5
283
100
AcDbEntity
  8
0
100
AcDbLine
 62
7
  6
CONTINUOUS
 10
150.651543693
 20
215.6077448388
 11
149.6651288439
 21
216.2544903223
  0
LINE
  5
284
100
AcDbEntity
  8
0
100
AcDbLine
 62
7
  6
CONTINUOUS
 10
152.0604188266
 20
216.5430971565
 11
152.55362634
 21
216.2197242
  0
LINE
  5
285
100
AcDbEntity
  8
0
100
AcDbLine
 62
7
  6
CONTINUOUS
 10
148.5875751454
 20
216.6875967966
 11
147.5764882384
 21
216.0929023222
  0
LINE
  5
286
100
AcDbEntity
  8
0
100
AcDbLine
 62
7
  6
CONTINUOUS
 10
150.0553688295
 20
211.8430258029
 11
149.5953948192
 21
211.6524983295
  0
LINE
  5
287
100
AcDbEntity
  8
0
100
AcDbLine
 62
7
  6
CONTINUOUS
 10
149.7530003193
 20
210.8383373379
 11
150.5196238845
 21
211.1558832158
  0
LINE
  5
288
100
AcDbEntity
  8
0
100
AcDbLine
 62
7
  6
CONTINUOUS
 10
153.1636576093
 20
210.8439683191
 11
152.5503589289
 21
210.5899316879
  0
LINE
  5
289
100
AcDbEntity
  8
0
100
AcDbLine
 62
7
  6
CONTINUOUS
 10
153.2580635141
 20
216.6874006993
 11
152.4871593337
 21
217.2475250598
  0
LINE
  5
28A
100
AcDbEntity
  8
0
100
AcDbLine
 62
7
  6
CONTINUOUS
 10
147.9956810045
 20
212.0452075668
 11
147.6557981611
 21
212.4320896811
  0
LINE
  5
28B
100
AcDbEntity
  8
0
100
AcDbLine
 62
7
  6
CONTINUOUS
 10
146.8269885269
 20
212.264674558
 11
147.2912433806
 21
211.5775318876
  0
LINE
  5
28C
100
AcDbEntity
  8
RUNDUNGEN
100
AcDbLine
 62
7
  6
CONTINUOUS
 10
142.6010938579
 20
204.8390786269
 11
141.7987907891
 21
206.7760095766
  0
LINE
  5
28D
100
AcDbEntity
  8
0
100
AcDbLine
 62
7
  6
CONTINUOUS
 10
147.5764882384
 20
216.0929023222
 11
146.9342369553
 21
215.4750954975
  0
LINE
  5
28E
100
AcDbEntity
  8
0
100
AcDbLine
 62
7
  6
CONTINUOUS
 10
147.6429552447
 20
215.0651014624
 11
148.0407432566
 21
215.4057592167
  0
LINE
  5
28F
100
AcDbEntity
  8
0
100
AcDbLine
 62
7
  6
CONTINUOUS
 10
154.8877440989
 20
210.1509977945
 11
153.6611463086
 21
209.6429243542
  0
LINE
  5
290
100
AcDbEntity
  8
0
100
AcDbLine
 62
7
  6
CONTINUOUS
 10
153.0478476282
 20
209.388887723
 11
149.9813539042
 21
208.1187044335
  0
LINE
  5
291
100
AcDbEntity
  8
0
100
AcDbLine
 62
7
  6
CONTINUOUS
 10
150.5989335219
 20
207.4950709598
 11
153.3587777984
 21
208.6382358891
  0
LINE
  5
292
100
AcDbEntity
  8
0
100
AcDbLine
 62
7
  6
CONTINUOUS
 10
153.9720764788
 20
208.8922725204
 11
155.1986742691
 21
209.4003459607
  0
LINE
  5
293
100
AcDbEntity
  8
0
100
AcDbLine
 62
7
  6
CONTINUOUS
 10
149.625361126
 20
205.5088054765
 11
150.2386598601
 21
205.76284213
  0
LINE
  5
294
100
AcDbEntity
  8
RUNDUNGEN
100
AcDbLine
 62
7
  6
CONTINUOUS
 10
133.68734121
 20
237.1283102158
 11
114.5531695917
 21
245.0539436048
  0
LINE
  5
295
100
AcDbEntity
  8
0
100
AcDbLine
 62
7
  6
CONTINUOUS
 10
149.9471065189
 20
215.1400683394
 11
150.2869893622
 21
214.7531862251
  0
LINE
  5
296
100
AcDbEntity
  8
0
100
AcDbLine
 62
7
  6
CONTINUOUS
 10
152.55362634
 20
216.2197242
 11
152.8935091834
 21
215.8328420857
  0
LINE
  5
297
100
AcDbEntity
  8
RUNDUNGEN
100
AcDbLine
 62
7
  6
CONTINUOUS
 10
143.2365628071
 20
216.3705505201
 11
135.3109295104
 21
235.5047219153
  0
LINE
  5
298
100
AcDbEntity
  8
0
100
AcDbLine
 62
7
  6
CONTINUOUS
 10
143.4195980589
 20
217.8888365996
 11
143.730528318
 21
217.1381845511
  0
LINE
  5
299
100
AcDbEntity
  8
RUNDUNGEN
100
AcDbLine
 62
7
  6
CONTINUOUS
 10
141.7987905348
 20
210.6033601606
 11
143.2364785425
 21
214.0742460472
  0
LINE
  5
29A
100
AcDbEntity
  8
0
100
AcDbLine
 62
7
  6
CONTINUOUS
 10
146.9342369553
 20
215.4750954975
 11
146.5074963945
 21
214.770667572
  0
LINE
  5
29B
100
AcDbEntity
  8
0
100
AcDbLine
 62
7
  6
CONTINUOUS
 10
147.3073533019
 20
214.5743129533
 11
147.6429552447
 21
215.0651014624
  0
LINE
  5
29C
100
AcDbEntity
  8
0
100
AcDbLine
 62
7
  6
CONTINUOUS
 10
150.4531568781
 20
212.1836840756
 11
150.0553688295
 21
211.8430258029
  0
LINE
  5
29D
100
AcDbEntity
  8
0
100
AcDbLine
 62
7
  6
CONTINUOUS
 10
154.042824671
 20
206.9868006521
 11
154.6561233514
 21
207.2408372833
  0
LINE
  5
29E
100
AcDbEntity
  8
0
100
AcDbLine
 62
7
  6
CONTINUOUS
 10
151.1157988891
 20
214.9206013038
 11
150.651543693
 21
215.6077448388
  0
LINE
  5
29F
100
AcDbEntity
  8
0
100
AcDbLine
 62
7
  6
CONTINUOUS
 10
143.4689414078
 20
220.3717174558
 11
143.8420577544
 21
219.4709349116
  0
LINE
  5
2A0
100
AcDbEntity
  8
0
100
AcDbLine
 62
7
  6
CONTINUOUS
 10
146.5160583567
 20
213.0153263918
 11
146.8269885269
 21
212.264674558
  0
LINE
  5
2A1
100
AcDbEntity
  8
0
100
AcDbLine
 62
7
  6
CONTINUOUS
 10
147.6557981611
 20
212.4320896811
 11
147.2204956382
 21
213.4830029357
  0
LINE
  5
2A2
100
AcDbEntity
  8
0
100
AcDbLine
 62
7
  6
CONTINUOUS
 10
145.7902162504
 20
216.9360028316
 11
145.4792860802
 21
217.6866546654
  0
LINE
  5
2A3
100
AcDbEntity
  8
0
100
AcDbLine
 62
7
  6
CONTINUOUS
 10
146.3584525142
 20
213.8294882481
 11
146.5160583567
 21
213.0153263918
  0
LINE
  5
2A4
100
AcDbEntity
  8
0
100
AcDbLine
 62
7
  6
CONTINUOUS
 10
147.2204956382
 20
213.4830029357
 11
147.187262135
 21
213.9969033656
  0
LINE
  5
2A5
100
AcDbEntity
  8
0
100
AcDbLine
 62
7
  6
CONTINUOUS
 10
149.3723359732
 20
206.9869976195
 11
149.405569463
 21
206.4730971841
  0
LINE
  5
2A6
100
AcDbEntity
  8
0
100
AcDbLine
 62
7
  6
CONTINUOUS
 10
146.5074963945
 20
214.770667572
 11
146.3584525142
 21
213.8294882481
  0
LINE
  5
2A7
100
AcDbEntity
  8
0
100
AcDbLine
 62
7
  6
CONTINUOUS
 10
147.187262135
 20
213.9969033656
 11
147.3073533019
 21
214.5743129533
  0
LINE
  5
2A8
100
AcDbEntity
  8
0
100
AcDbLine
 62
7
  6
CONTINUOUS
 10
150.5196238845
 20
211.1558832158
 11
151.1618752381
 21
211.7736895666
  0
LINE
  5
2A9
100
AcDbEntity
  8
0
100
AcDbLine
 62
7
  6
CONTINUOUS
 10
153.1550963789
 20
212.5993087959
 11
153.5528842128
 21
212.9399669797
  0
LINE
  5
2AA
100
AcDbEntity
  8
0
100
AcDbLine
 62
7
  6
CONTINUOUS
 10
150.2011452248
 20
207.1544135906
 11
150.5989335219
 21
207.4950709598
  0
LINE
  5
2AB
100
AcDbEntity
  8
0
100
AcDbLine
 62
7
  6
CONTINUOUS
 10
153.7223187103
 20
216.0002571643
 11
153.2580635141
 21
216.6874006993
  0
LINE
  5
2AC
100
AcDbEntity
  8
0
100
AcDbLine
 62
7
  6
CONTINUOUS
 10
150.2869893622
 20
214.7531862251
 11
150.7222918852
 21
213.7022729706
  0
LINE
  5
2AD
100
AcDbEntity
  8
0
100
AcDbLine
 62
7
  6
CONTINUOUS
 10
152.5503589289
 20
210.5899316879
 11
153.0478476282
 21
209.388887723
  0
LINE
  5
2AE
100
AcDbEntity
  8
0
100
AcDbLine
 62
7
  6
CONTINUOUS
 10
153.3587777984
 20
208.6382358891
 11
154.042824671
 21
206.9868006521
  0
LINE
  5
2AF
100
AcDbEntity
  8
0
100
AcDbLine
 62
7
  6
CONTINUOUS
 10
151.4267290593
 20
214.1699494699
 11
151.1157988891
 21
214.9206013038
  0
LINE
  5
2B0
100
AcDbEntity
  8
0
100
AcDbLine
 62
7
  6
CONTINUOUS
 10
154.6561233514
 20
207.2408372833
 11
153.9720764788
 21
208.8922725204
  0
LINE
  5
2B1
100
AcDbEntity
  8
0
100
AcDbLine
 62
7
  6
CONTINUOUS
 10
153.6611463086
 20
209.6429243542
 11
153.1636576093
 21
210.8439683191
  0
LINE
  5
2B2
100
AcDbEntity
  8
0
100
AcDbLine
 62
7
  6
CONTINUOUS
 10
152.8441658528
 20
213.3499614887
 11
153.1550963789
 21
212.5993087959
  0
LINE
  5
2B3
100
AcDbEntity
  8
0
100
AcDbLine
 62
7
  6
CONTINUOUS
 10
155.1986742691
 20
209.4003459607
 11
154.8877440989
 21
210.1509977945
  0
LINE
  5
2B4
100
AcDbEntity
  8
0
100
AcDbLine
 62
7
  6
CONTINUOUS
 10
152.8935091834
 20
215.8328420857
 11
153.26662553
 21
214.9320595415
  0
LINE
  5
2B5
100
AcDbEntity
  8
0
100
AcDbLine
 62
7
  6
CONTINUOUS
 10
149.405569463
 20
206.4730971841
 11
149.625361126
 21
205.5088054765
  0
LINE
  5
2B6
100
AcDbEntity
  8
0
100
AcDbLine
 62
7
  6
CONTINUOUS
 10
150.2386598601
 20
205.76284213
 11
150.0810540579
 21
206.5770040029
  0
LINE
  5
2B7
100
AcDbEntity
  8
0
100
AcDbLine
 62
7
  6
CONTINUOUS
 10
150.7222918852
 20
213.7022729706
 11
150.7555253883
 21
213.1883725407
  0
LINE
  5
2B8
100
AcDbEntity
  8
0
100
AcDbLine
 62
7
  6
CONTINUOUS
 10
151.4352910751
 20
212.4146083121
 11
151.5843345594
 21
213.3557884783
  0
LINE
  5
2B9
100
AcDbEntity
  8
0
100
AcDbLine
 62
7
  6
CONTINUOUS
 10
149.492427167
 20
207.5644072184
 11
149.3723359732
 21
206.9869976195
  0
LINE
  5
2BA
100
AcDbEntity
  8
0
100
AcDbLine
 62
7
  6
CONTINUOUS
 10
150.7555253883
 20
213.1883725407
 11
150.6354342214
 21
212.610962953
  0
LINE
  5
2BB
100
AcDbEntity
  8
0
100
AcDbLine
 62
7
  6
CONTINUOUS
 10
150.0810540579
 20
206.5770040029
 11
150.2011452248
 21
207.1544135906
  0
LINE
  5
2BC
100
AcDbEntity
  8
0
100
AcDbLine
 62
7
  6
CONTINUOUS
 10
150.6354342214
 20
212.610962953
 11
150.4531568781
 21
212.1836840756
  0
LINE
  5
2BD
100
AcDbEntity
  8
0
100
AcDbLine
 62
7
  6
CONTINUOUS
 10
151.1618752381
 20
211.7736895666
 11
151.4352910751
 21
212.4146083121
  0
LINE
  5
2BE
100
AcDbEntity
  8
0
100
AcDbLine
 62
7
  6
CONTINUOUS
 10
153.5528842128
 20
212.9399669797
 11
153.9796247199
 21
213.644394883
  0
LINE
  5
2BF
100
AcDbEntity
  8
0
100
AcDbLine
 62
7
  6
CONTINUOUS
 10
153.1797678662
 20
213.8407495239
 11
152.8441658528
 21
213.3499614887
  0
LINE
  5
2C0
100
AcDbEntity
  8
0
100
AcDbLine
 62
7
  6
CONTINUOUS
 10
149.9813539042
 20
208.1187044335
 11
149.492427167
 21
207.5644072184
  0
LINE
  5
2C1
100
AcDbEntity
  8
0
100
AcDbLine
 62
7
  6
CONTINUOUS
 10
153.9710627041
 20
215.3997360408
 11
153.7223187103
 21
216.0002571643
  0
LINE
  5
2C2
100
AcDbEntity
  8
0
100
AcDbLine
 62
7
  6
CONTINUOUS
 10
151.048318108
 20
222.4558656841
 11
150.6752017614
 21
223.3566482282
  0
LINE
  5
2C3
100
AcDbEntity
  8
0
100
AcDbLine
 62
7
  6
CONTINUOUS
 10
151.5843345594
 20
213.3557884783
 11
151.4267290593
 21
214.1699494699
  0
LINE
  5
2C4
100
AcDbEntity
  8
0
100
AcDbLine
 62
7
  6
CONTINUOUS
 10
153.26662553
 20
214.9320595415
 11
153.2998590331
 21
214.4181591116
  0
LINE
  5
2C5
100
AcDbEntity
  8
0
100
AcDbLine
 62
7
  6
CONTINUOUS
 10
153.9796247199
 20
213.644394883
 11
154.12866856
 21
214.5855741902
  0
LINE
  5
2C6
100
AcDbEntity
  8
0
100
AcDbLine
 62
7
  6
CONTINUOUS
 10
153.2998590331
 20
214.4181591116
 11
153.1797678662
 21
213.8407495239
  0
LINE
  5
2C7
100
AcDbEntity
  8
RUNDUNGEN
100
AcDbLine
 62
7
  6
CONTINUOUS
 10
162.2633122823
 20
204.8028369212
 11
155.9497717668
 21
220.0450720604
  0
LINE
  5
2C8
100
AcDbEntity
  8
0
100
AcDbLine
 62
7
  6
CONTINUOUS
 10
154.12866856
 20
214.5855741902
 11
153.9710627041
 21
215.3997360408
  0
LINE
  5
2C9
100
AcDbEntity
  8
RUNDUNGEN
100
AcDbLine
 62
7
  6
CONTINUOUS
 10
163.4051192946
 20
191.2225
 11
163.4051192946
 21
199.0625854358
  0
LINE
  5
2CA
100
AcDbEntity
  8
RUNDUNGEN
100
AcDbLine
 62
7
  6
CONTINUOUS
 10
288.4125389004
 20
191.2225
 11
258.4125389004
 21
191.2225
  0
LINE
  5
2CB
100
AcDbEntity
  8
RUNDUNGEN
100
AcDbLine
 62
7
  6
CONTINUOUS
 10
258.4125389004
 20
191.2225
 11
258.4125389004
 21
195.5461730193
  0
LINE
  5
2CC
100
AcDbEntity
  8
0
100
AcDbLine
 62
7
  6
CONTINUOUS
 10
277.9125389004
 20
207.2125
 11
278.5125389004
 21
207.2125
  0
LINE
  5
2CD
100
AcDbEntity
  8
0
100
AcDbLine
 62
7
  6
CONTINUOUS
 10
277.9125389004
 20
209.6511444251
 11
278.5125389004
 21
209.6511444251
  0
LINE
  5
2CE
100
AcDbEntity
  8
BEZUGSACHSEN
100
AcDbLine
 62
7
  6
CONTINUOUS
 10
265.4125389004
 20
217.5997563367
 11
265.4125389004
 21
242.8235011075
  0
LINE
  5
2CF
100
AcDbEntity
  8
0
100
AcDbLine
 62
7
  6
CONTINUOUS
 10
277.9125389004
 20
212.3921758627
 11
278.5125389004
 21
212.3921758627
  0
LINE
  5
2D0
100
AcDbEntity
  8
0
100
AcDbLine
 62
7
  6
CONTINUOUS
 10
277.9125389004
 20
212.9113381424
 11
278.5125389004
 21
212.9113381424
  0
LINE
  5
2D1
100
AcDbEntity
  8
0
100
AcDbLine
 62
7
  6
CONTINUOUS
 10
277.9125389004
 20
213.2125184702
 11
278.5125389004
 21
213.2125184702
  0
LINE
  5
2D2
100
AcDbEntity
  8
0
100
AcDbLine
 62
7
  6
CONTINUOUS
 10
277.9125389004
 20
213.3476032182
 11
278.5125389004
 21
213.3476032182
  0
LINE
  5
2D3
100
AcDbEntity
  8
0
100
AcDbLine
 62
7
  6
CONTINUOUS
 10
268.3125389004
 20
216.4994640724
 11
268.3125389004
 21
218.062425896
  0
LINE
  5
2D4
100
AcDbEntity
  8
0
100
AcDbLine
 62
7
  6
CONTINUOUS
 10
268.3125389004
 20
218.0665589625
 11
268.3125389004
 21
220.9723786891
  0
LINE
  5
2D5
100
AcDbEntity
  8
0
100
AcDbLine
 62
7
  6
CONTINUOUS
 10
268.3125389004
 20
221.1769764641
 11
268.3125389004
 21
225.6498910808
  0
LINE
  5
2D6
100
AcDbEntity
  8
RUNDUNGEN
100
AcDbLine
 62
7
  6
CONTINUOUS
 10
268.9125389004
 20
199.523913193
 11
268.9125389004
 21
245.9722648726
  0
LINE
  5
2D7
100
AcDbEntity
  8
RUNDUNGEN
100
AcDbLine
 62
7
  6
CONTINUOUS
 10
258.4728462796
 20
195.8881931626
 11
260.0421056218
 21
200.1996977706
  0
LINE
  5
2D8
100
AcDbEntity
  8
BEZUGSACHSEN
100
AcDbLine
 62
7
  6
CONTINUOUS
 10
260.042077572
 20
200.1996207044
 11
264.5079282122
 21
212.4694444969
  0
LINE
  5
2D9
100
AcDbEntity
  8
0
100
AcDbLine
 62
7
  6
CONTINUOUS
 10
277.9125389004
 20
214.9047879049
 11
278.5125389004
 21
214.9047879049
  0
LINE
  5
2DA
100
AcDbEntity
  8
0
100
AcDbLine
 62
7
  6
CONTINUOUS
 10
277.9125389004
 20
215.5900460911
 11
278.5125389004
 21
215.5900460911
  0
LINE
  5
2DB
100
AcDbEntity
  8
0
100
AcDbLine
 62
7
  6
CONTINUOUS
 10
277.9125389004
 20
216.0167786553
 11
278.5125389004
 21
216.0167786553
  0
LINE
  5
2DC
100
AcDbEntity
  8
0
100
AcDbLine
 62
7
  6
CONTINUOUS
 10
277.9125389004
 20
216.4008558602
 11
278.5125389004
 21
216.4008558602
  0
LINE
  5
2DD
100
AcDbEntity
  8
0
100
AcDbLine
 62
7
  6
CONTINUOUS
 10
268.9125389004
 20
216.4994640724
 11
268.3125389004
 21
216.4994640724
  0
LINE
  5
2DE
100
AcDbEntity
  8
0
100
AcDbLine
 62
7
  6
CONTINUOUS
 10
277.9125389004
 20
216.7226099029
 11
278.5125389004
 21
216.7226099029
  0
LINE
  5
2DF
100
AcDbEntity
  8
0
100
AcDbLine
 62
7
  6
CONTINUOUS
 10
268.9125389004
 20
216.8633414138
 11
268.3125389004
 21
216.8633414138
  0
LINE
  5
2E0
100
AcDbEntity
  8
0
100
AcDbLine
 62
7
  6
CONTINUOUS
 10
268.9125389004
 20
218.0665589625
 11
268.3125389004
 21
218.0665589625
  0
LINE
  5
2E1
100
AcDbEntity
  8
0
100
AcDbLine
 62
7
  6
CONTINUOUS
 10
277.9125389004
 20
218.3310775287
 11
278.5125389004
 21
218.3310775287
  0
LINE
  5
2E2
100
AcDbEntity
  8
0
100
AcDbLine
 62
7
  6
CONTINUOUS
 10
268.9125389004
 20
218.4304363039
 11
268.3125389004
 21
218.4304363039
  0
LINE
  5
2E3
100
AcDbEntity
  8
0
100
AcDbLine
 62
7
  6
CONTINUOUS
 10
268.9125389004
 20
218.5319652012
 11
268.3125389004
 21
218.5319652012
  0
LINE
  5
2E4
100
AcDbEntity
  8
0
100
AcDbLine
 62
7
  6
CONTINUOUS
 10
268.9125389004
 20
218.8958425425
 11
268.3125389004
 21
218.8958425425
  0
LINE
  5
2E5
100
AcDbEntity
  8
0
100
AcDbLine
 62
7
  6
CONTINUOUS
 10
277.9125389004
 20
219.0163353881
 11
278.5125389004
 21
219.0163353881
  0
LINE
  5
2E6
100
AcDbEntity
  8
0
100
AcDbLine
 62
7
  6
CONTINUOUS
 10
277.9125389004
 20
219.9300123161
 11
278.5125389004
 21
219.9300123161
  0
LINE
  5
2E7
100
AcDbEntity
  8
0
100
AcDbLine
 62
7
  6
CONTINUOUS
 10
268.9125389004
 20
220.9724230468
 11
268.3125389004
 21
220.9724230468
  0
LINE
  5
2E8
100
AcDbEntity
  8
0
100
AcDbLine
 62
7
  6
CONTINUOUS
 10
268.9125389004
 20
221.1769764641
 11
268.3125389004
 21
221.1769764641
  0
LINE
  5
2E9
100
AcDbEntity
  8
0
100
AcDbLine
 62
7
  6
CONTINUOUS
 10
268.9125389004
 20
221.5408538055
 11
268.3125389004
 21
221.5408538055
  0
LINE
  5
2EA
100
AcDbEntity
  8
RUNDUNGEN
100
AcDbLine
 62
7
  6
CONTINUOUS
 10
277.9125389004
 20
245.9722648726
 11
277.9125389004
 21
199.523913193
  0
LINE
  5
2EB
100
AcDbEntity
  8
0
100
AcDbLine
 62
7
  6
CONTINUOUS
 10
277.9125389004
 20
222.6710437538
 11
278.5125389004
 21
222.6710437538
  0
LINE
  5
2EC
100
AcDbEntity
  8
0
100
AcDbLine
 62
7
  6
CONTINUOUS
 10
277.9125389004
 20
223.1902063602
 11
278.5125389004
 21
223.1902063602
  0
LINE
  5
2ED
100
AcDbEntity
  8
0
100
AcDbLine
 62
7
  6
CONTINUOUS
 10
268.9125389004
 20
223.2094775929
 11
268.3125389004
 21
223.2094775929
  0
LINE
  5
2EE
100
AcDbEntity
  8
0
100
AcDbLine
 62
7
  6
CONTINUOUS
 10
277.9125389004
 20
223.5432724066
 11
278.5125389004
 21
223.5432724066
  0
LINE
  5
2EF
100
AcDbEntity
  8
0
100
AcDbLine
 62
7
  6
CONTINUOUS
 10
268.9125389004
 20
223.5733549342
 11
268.3125389004
 21
223.5733549342
  0
LINE
  5
2F0
100
AcDbEntity
  8
0
100
AcDbLine
 62
7
  6
CONTINUOUS
 10
277.9125389004
 20
223.7925663622
 11
278.5125389004
 21
223.7925663622
  0
LINE
  5
2F1
100
AcDbEntity
  8
0
100
AcDbLine
 62
7
  6
CONTINUOUS
 10
277.9125389004
 20
223.8134419027
 11
278.5125389004
 21
223.8134419027
  0
LINE
  5
2F2
100
AcDbEntity
  8
0
100
AcDbLine
 62
7
  6
CONTINUOUS
 10
278.5125389004
 20
223.8134419027
 11
278.5125389004
 21
207.2125
  0
LINE
  5
2F3
100
AcDbEntity
  8
0
100
AcDbLine
 62
7
  6
CONTINUOUS
 10
268.9125389004
 20
225.6499354385
 11
268.3125389004
 21
225.6499354385
  0
LINE
  5
2F4
100
AcDbEntity
  8
RUNDUNGEN
100
AcDbLine
 62
7
  6
CONTINUOUS
 10
288.3522315212
 20
195.8881931626
 11
286.782972179
 21
200.1996977706
  0
LINE
  5
2F5
100
AcDbEntity
  8
BEZUGSACHSEN
100
AcDbLine
 62
7
  6
CONTINUOUS
 10
286.782972179
 20
200.1996977706
 11
282.3171495886
 21
212.4694444969
  0
LWPOLYLINE
  5
2F6
100
AcDbEntity
  8
RUNDUNGEN
100
AcDbPolyline
 62
7
  6
CONTINUOUS
 90
15
 70
0
 10
281.4125376258
 20
242.8243859003
 10
281.4060489245
 20
242.9993719322
 10
281.3661019976
 20
243.2948347581
 10
281.2903871933
 20
243.5819748373
 10
281.1805078298
 20
243.8572868056
 10
281.0386804986
 20
244.1161732599
 10
280.866374831
 20
244.3566937371
 10
280.6652247165
 20
244.5761311057
 10
280.4379959718
 20
244.77093937
 10
280.1882205265
 20
244.9376468602
 10
279.919505894
 20
245.0737485952
 10
279.63630925
 20
245.1768492463
 10
279.3425213818
 20
245.2456020324
 10
279.0419220814
 20
245.2789476105
 10
278.9125388795
 20
245.282270319
  0
LINE
  5
2F7
100
AcDbEntity
  8
BEZUGSACHSEN
100
AcDbLine
 62
7
  6
CONTINUOUS
 10
281.4125389004
 20
217.5997563367
 11
281.4125389004
 21
234.8186113845
  0
LINE
  5
2F8
100
AcDbEntity
  8
RUNDUNGEN
100
AcDbLine
 62
7
  6
CONTINUOUS
 10
281.4125389004
 20
234.8186113845
 11
281.4125389004
 21
242.8235011075
  0
LINE
  5
2F9
100
AcDbEntity
  8
RUNDUNGEN
100
AcDbLine
 62
7
  6
CONTINUOUS
 10
288.4125389004
 20
195.5461755974
 11
288.4125389004
 21
191.2225
  0
LWPOLYLINE
  5
2FA
100
AcDbEntity
  8
BEZUGSACHSEN
100
AcDbPolyline
 62
7
  6
CONTINUOUS
 90
15
 70
0
 10
267.9125389213
 20
245.2822703191
 10
267.783050061
 20
245.2789422074
 10
267.4823742162
 20
245.2455707348
 10
267.1885396054
 20
245.1767810217
 10
266.9053332919
 20
245.0736451967
 10
266.6366466553
 20
244.9375237966
 10
266.3869312643
 20
244.770825255
 10
266.1597969019
 20
244.5760767433
 10
265.9587290814
 20
244.3567259064
 10
265.7864743509
 20
244.1162957536
 10
265.6446564554
 20
243.8574701711
 10
265.5347400758
 20
243.5821246205
 10
265.4589922859
 20
243.2949176385
 10
265.4190316926
 20
242.9994105543
 10
265.4125401762
 20
242.8243865875
  0
LINE
  5
2FB
100
AcDbEntity
  8
BEZUGSACHSEN
100
AcDbLine
 62
7
  6
CONTINUOUS
 10
267.9125389159
 20
245.2823050073
 11
268.9125389004
 21
245.2823050073
  0
LINE
  5
2FC
100
AcDbEntity
  8
RUNDUNGEN
100
AcDbLine
 62
7
  6
CONTINUOUS
 10
277.9125389004
 20
245.2823050073
 11
278.912538885
 21
245.2823050073
  0
LINE
  5
2FD
100
AcDbEntity
  8
0
100
AcDbLine
 62
7
  6
CONTINUOUS
 10
271.4125389004
 20
248.4725
 11
275.4125389004
 21
248.4725
  0
LINE
  5
2FE
100
AcDbEntity
  8
BEZUGSACHSEN
100
AcDbLine
 62
7
  6
CONTINUOUS
 10
63.4051192946
 20
113.7391078838
 11
63.4051192946
 21
109.7391078838
  0
LINE
  5
2FF
100
AcDbEntity
  8
RUNDUNGEN
100
AcDbLine
 62
7
  6
CONTINUOUS
 10
63.4051192946
 20
98.7391078838
 11
63.4051192946
 21
124.7391078838
  0
LINE
  5
300
100
AcDbEntity
  8
0
100
AcDbLine
 62
7
  6
CONTINUOUS
 10
70.8907300004
 20
107.2391078838
 11
70.8907300004
 21
106.6391078838
  0
LINE
  5
301
100
AcDbEntity
  8
0
100
AcDbLine
 62
7
  6
CONTINUOUS
 10
72.110052213
 20
107.2391078838
 11
72.110052213
 21
106.6391078838
  0
LINE
  5
302
100
AcDbEntity
  8
0
100
AcDbLine
 62
7
  6
CONTINUOUS
 10
72.4807173441
 20
107.2391078838
 11
72.4807173441
 21
106.6391078838
  0
LINE
  5
303
100
AcDbEntity
  8
0
100
AcDbLine
 62
7
  6
CONTINUOUS
 10
73.0338565296
 20
107.2391078838
 11
73.0338565296
 21
106.6391078838
  0
LINE
  5
304
100
AcDbEntity
  8
0
100
AcDbLine
 62
7
  6
CONTINUOUS
 10
73.2277641927
 20
107.2391078838
 11
73.2277641927
 21
106.6391078838
  0
LINE
  5
305
100
AcDbEntity
  8
0
100
AcDbLine
 62
7
  6
CONTINUOUS
 10
73.5325948912
 20
107.2391078838
 11
73.5325948912
 21
106.6391078838
  0
LINE
  5
306
100
AcDbEntity
  8
0
100
AcDbLine
 62
7
  6
CONTINUOUS
 10
74.1563710388
 20
116.2391078838
 11
74.1563710388
 21
116.8391078838
  0
LINE
  5
307
100
AcDbEntity
  8
0
100
AcDbLine
 62
7
  6
CONTINUOUS
 10
74.7519171037
 20
107.2391078838
 11
74.7519171037
 21
106.6391078838
  0
LINE
  5
308
100
AcDbEntity
  8
0
100
AcDbLine
 62
7
  6
CONTINUOUS
 10
75.0567476568
 20
107.2391078838
 11
75.0567476568
 21
106.6391078838
  0
LINE
  5
309
100
AcDbEntity
  8
0
100
AcDbLine
 62
7
  6
CONTINUOUS
 10
75.4631882974
 20
107.2391078838
 11
75.4631882974
 21
106.6391078838
  0
LINE
  5
30A
100
AcDbEntity
  8
0
100
AcDbLine
 62
7
  6
CONTINUOUS
 10
76.2063710388
 20
116.2391078838
 11
76.2063710388
 21
116.8391078838
  0
LINE
  5
30B
100
AcDbEntity
  8
0
100
AcDbLine
 62
7
  6
CONTINUOUS
 10
76.68251051
 20
107.2391078838
 11
76.68251051
 21
106.6391078838
  0
LINE
  5
30C
100
AcDbEntity
  8
0
100
AcDbLine
 62
7
  6
CONTINUOUS
 10
77.0531757865
 20
107.2391078838
 11
77.0531757865
 21
106.6391078838
  0
LINE
  5
30D
100
AcDbEntity
  8
0
100
AcDbLine
 62
7
  6
CONTINUOUS
 10
77.4896752049
 20
107.2391078838
 11
77.4896752049
 21
106.6391078838
  0
LINE
  5
30E
100
AcDbEntity
  8
0
100
AcDbLine
 62
7
  6
CONTINUOUS
 10
78.1594538668
 20
107.2391078838
 11
78.1594538668
 21
106.6391078838
  0
LINE
  5
30F
100
AcDbEntity
  8
0
100
AcDbLine
 62
7
  6
CONTINUOUS
 10
78.7276227319
 20
107.2391078838
 11
78.7276227319
 21
106.6391078838
  0
LINE
  5
310
100
AcDbEntity
  8
RUNDUNGEN
100
AcDbLine
 62
7
  6
CONTINUOUS
 10
64.0741081512
 20
115.4412824321
 11
64.2663514585
 21
115.6270803358
  0
LINE
  5
311
100
AcDbEntity
  8
RUNDUNGEN
100
AcDbLine
 62
7
  6
CONTINUOUS
 10
64.2663514585
 20
107.8511354318
 11
64.0741081512
 21
108.0369333356
  0
LINE
  5
312
100
AcDbEntity
  8
0
100
AcDbLine
 62
7
  6
CONTINUOUS
 10
79.3616260658
 20
107.2391078838
 11
79.3616260658
 21
106.6391078838
  0
LINE
  5
313
100
AcDbEntity
  8
0
100
AcDbLine
 62
7
  6
CONTINUOUS
 10
81.1112205552
 20
107.2391078838
 11
81.1112205552
 21
106.6391078838
  0
LINE
  5
314
100
AcDbEntity
  8
0
100
AcDbLine
 62
7
  6
CONTINUOUS
 10
81.6436137656
 20
107.2391078838
 11
81.6436137656
 21
106.6391078838
  0
LINE
  5
315
100
AcDbEntity
  8
0
100
AcDbLine
 62
7
  6
CONTINUOUS
 10
82.008561956
 20
107.2391078838
 11
82.008561956
 21
106.6391078838
  0
LINE
  5
316
100
AcDbEntity
  8
0
100
AcDbLine
 62
7
  6
CONTINUOUS
 10
82.0607179755
 20
116.2391078838
 11
82.0607179755
 21
116.8391078838
  0
LINE
  5
317
100
AcDbEntity
  8
0
100
AcDbLine
 62
7
  6
CONTINUOUS
 10
82.2719003089
 20
107.2391078838
 11
82.2719003089
 21
106.6391078838
  0
LINE
  5
318
100
AcDbEntity
  8
0
100
AcDbLine
 62
7
  6
CONTINUOUS
 10
82.301959408
 20
107.2391078838
 11
82.301959408
 21
106.6391078838
  0
LWPOLYLINE
  5
319
100
AcDbEntity
  8
BEZUGSACHSEN
100
AcDbPolyline
 62
7
  6
CONTINUOUS
 90
16
 70
0
 10
83.3453145437
 20
106.0769089229
 10
83.3577635199
 20
105.8272521921
 10
83.3961512276
 20
105.5743417164
 10
83.4568055771
 20
105.3371849391
 10
83.5371791685
 20
105.114456179
 10
83.6352251738
 20
104.9058395211
 10
83.7502389474
 20
104.7097349421
 10
83.8797948116
 20
104.5282315598
 10
84.0218946148
 20
104.3620894628
 10
84.1743255394
 20
104.2120215944
 10
84.3350504161
 20
104.0782655801
 10
84.5015700194
 20
103.961146092
 10
84.6718748268
 20
103.8603044625
 10
84.843015741
 20
103.7755943083
 10
85.0123544529
 20
103.7062092481
 10
85.035823982
 20
103.6976337795
  0
LINE
  5
31A
100
AcDbEntity
  8
BEZUGSACHSEN
100
AcDbLine
 62
7
  6
CONTINUOUS
 10
83.3453142873
 20
106.0768956705
 11
83.3453142873
 21
107.2391078838
  0
LINE
  5
31B
100
AcDbEntity
  8
BEZUGSACHSEN
100
AcDbLine
 62
7
  6
CONTINUOUS
 10
83.3453142873
 20
116.2391078838
 11
83.3453142873
 21
117.4013200972
  0
LINE
  5
31C
100
AcDbEntity
  8
BEZUGSACHSEN
100
AcDbLine
 62
7
  6
CONTINUOUS
 10
85.6710582955
 20
120.1923460183
 11
85.6484491852
 21
120.1724793507
  0
LINE
  5
31D
100
AcDbEntity
  8
BEZUGSACHSEN
100
AcDbLine
 62
7
  6
CONTINUOUS
 10
85.6482745726
 20
120.1723260972
 11
85.5565939254
 21
120.0947408902
  0
LINE
  5
31E
100
AcDbEntity
  8
BEZUGSACHSEN
100
AcDbLine
 62
7
  6
CONTINUOUS
 10
85.5566537787
 20
103.3834261812
 11
85.6482726418
 21
103.3058913675
  0
LINE
  5
31F
100
AcDbEntity
  8
BEZUGSACHSEN
100
AcDbLine
 62
7
  6
CONTINUOUS
 10
85.6482727398
 20
103.305891479
 11
85.6710582955
 21
103.2858697493
  0
LWPOLYLINE
  5
320
100
AcDbEntity
  8
BEZUGSACHSEN
100
AcDbPolyline
 62
7
  6
CONTINUOUS
 90
6
 70
0
 10
85.5565939254
 20
120.0947408902
 10
85.4344583794
 20
120.0008403118
 10
85.3215000807
 20
119.9241441703
 10
85.215490675
 20
119.8617705062
 10
85.1151550282
 20
119.8122611428
 10
85.0406178175
 20
119.7823083774
  0
LWPOLYLINE
  5
321
100
AcDbEntity
  8
BEZUGSACHSEN
100
AcDbPolyline
 62
7
  6
CONTINUOUS
 90
16
 70
0
 10
85.035882222
 20
119.780602999
 10
85.0129164054
 20
119.7722147334
 10
84.8440713577
 20
119.7030966642
 10
84.6733318668
 20
119.6186996168
 10
84.5033782597
 20
119.5182355861
 10
84.3371893569
 20
119.4015842387
 10
84.1767508336
 20
119.2683850468
 10
84.024543688
 20
119.1189604756
 10
83.8826055823
 20
118.9535679359
 10
83.7531415141
 20
118.7729433042
 10
83.6381160992
 20
118.5778428905
 10
83.539928779
 20
118.370356851
 10
83.459236079
 20
118.1488660373
 10
83.3980370221
 20
117.9130137827
 10
83.3588377522
 20
117.6614840648
 10
83.3453145438
 20
117.4013068322
  0
LINE
  5
322
100
AcDbEntity
  8
BEZUGSACHSEN
100
AcDbLine
 62
7
  6
CONTINUOUS
 10
85.0406189242
 20
119.7823053228
 11
85.035882222
 21
119.780602999
  0
LINE
  5
323
100
AcDbEntity
  8
BEZUGSACHSEN
100
AcDbLine
 62
7
  6
CONTINUOUS
 10
85.0406179582
 20
103.6959107907
 11
85.035823982
 21
103.6976337795
  0
LWPOLYLINE
  5
324
100
AcDbEntity
  8
BEZUGSACHSEN
100
AcDbPolyline
 62
7
  6
CONTINUOUS
 90
6
 70
0
 10
85.0406168514
 20
103.6959077361
 10
85.1151461018
 20
103.6659585764
 10
85.2154903856
 20
103.6164454182
 10
85.3215421139
 20
103.5540449625
 10
85.4345358106
 20
103.4773194582
 10
85.5566537787
 20
103.3834261812
  0
LINE
  5
325
100
AcDbEntity
  8
RUNDUNGEN
100
AcDbLine
 62
7
  6
CONTINUOUS
 10
161.4051192946
 20
96.7391078838
 11
65.4051192946
 21
96.7391078838
  0
LINE
  5
326
100
AcDbEntity
  8
BEZUGSACHSEN
100
AcDbLine
 62
7
  6
CONTINUOUS
 10
86.788810003
 20
103.7391078838
 11
94.0796059602
 21
103.7391078838
  0
LINE
  5
327
100
AcDbEntity
  8
RUNDUNGEN
100
AcDbLine
 62
7
  6
CONTINUOUS
 10
94.0796059602
 20
103.7391078838
 11
140.0214285862
 21
103.7391078838
  0
LINE
  5
328
100
AcDbEntity
  8
0
100
AcDbLine
 62
7
  6
CONTINUOUS
 10
155.1986742691
 20
106.6391078838
 11
143.4195980589
 21
106.6391078838
  0
LINE
  5
329
100
AcDbEntity
  8
0
100
AcDbLine
 62
7
  6
CONTINUOUS
 10
82.301959408
 20
106.6391078838
 11
70.8907300004
 21
106.6391078838
  0
LINE
  5
32A
100
AcDbEntity
  8
RUNDUNGEN
100
AcDbLine
 62
7
  6
CONTINUOUS
 10
160.8966034618
 20
107.2391078838
 11
65.9136351274
 21
107.2391078838
  0
LINE
  5
32B
100
AcDbEntity
  8
RUNDUNGEN
100
AcDbLine
 62
7
  6
CONTINUOUS
 10
65.9136351274
 20
116.2391078838
 11
160.8966034618
 21
116.2391078838
  0
LINE
  5
32C
100
AcDbEntity
  8
0
100
AcDbLine
 62
7
  6
CONTINUOUS
 10
74.1563710388
 20
116.8391078838
 11
82.0607179134
 21
116.8391078838
  0
LINE
  5
32D
100
AcDbEntity
  8
0
100
AcDbLine
 62
7
  6
CONTINUOUS
 10
142.8674244786
 20
116.8391078838
 11
156.0904284297
 21
116.8391078838
  0
LINE
  5
32E
100
AcDbEntity
  8
BEZUGSACHSEN
100
AcDbLine
 62
7
  6
CONTINUOUS
 10
86.788810003
 20
119.7391078838
 11
140.0214285862
 21
119.7391078838
  0
LWPOLYLINE
  5
32F
100
AcDbEntity
  8
RUNDUNGEN
100
AcDbPolyline
 62
7
  6
CONTINUOUS
 90
16
 70
0
 10
141.7743563672
 20
103.6976127686
 10
141.7973221838
 20
103.7060010343
 10
141.9661672316
 20
103.7751191035
 10
142.1369067224
 20
103.8595161508
 10
142.3068603295
 20
103.9599801815
 10
142.4730492323
 20
104.0766315289
 10
142.6334877556
 20
104.2098307208
 10
142.7856949012
 20
104.359255292
 10
142.9276330069
 20
104.5246478317
 10
143.0570970751
 20
104.7052724634
 10
143.17212249
 20
104.9003728772
 10
143.2703098102
 20
105.1078589166
 10
143.3510025102
 20
105.3293497303
 10
143.4122015671
 20
105.5652019849
 10
143.451400837
 20
105.8167317028
 10
143.4649240454
 20
106.0769089355
  0
LINE
  5
330
100
AcDbEntity
  8
RUNDUNGEN
100
AcDbLine
 62
7
  6
CONTINUOUS
 10
141.769619665
 20
103.6959104448
 11
141.7743563672
 21
103.6976127686
  0
LINE
  5
331
100
AcDbEntity
  8
RUNDUNGEN
100
AcDbLine
 62
7
  6
CONTINUOUS
 10
161.4051192946
 20
126.7391078838
 11
65.4051192946
 21
126.7391078838
  0
LINE
  5
332
100
AcDbEntity
  8
BEZUGSACHSEN
100
AcDbLine
 62
7
  6
CONTINUOUS
 10
141.769620631
 20
119.7823049769
 11
141.7744146072
 21
119.7805819881
  0
LWPOLYLINE
  5
333
100
AcDbEntity
  8
BEZUGSACHSEN
100
AcDbPolyline
 62
7
  6
CONTINUOUS
 90
6
 70
0
 10
141.7696217378
 20
119.7823080315
 10
141.6950924874
 20
119.8122571912
 10
141.5947482036
 20
119.8617703495
 10
141.4886964753
 20
119.9241708052
 10
141.3757027786
 20
120.0008963095
 10
141.2535848105
 20
120.0947895865
  0
LINE
  5
334
100
AcDbEntity
  8
RUNDUNGEN
100
AcDbLine
 62
7
  6
CONTINUOUS
 10
141.1389897695
 20
103.2857023577
 11
141.161789404
 21
103.3057364169
  0
LINE
  5
335
100
AcDbEntity
  8
RUNDUNGEN
100
AcDbLine
 62
7
  6
CONTINUOUS
 10
141.1619640166
 20
103.3058896704
 11
141.2536446638
 21
103.3834748774
  0
LWPOLYLINE
  5
336
100
AcDbEntity
  8
RUNDUNGEN
100
AcDbPolyline
 62
7
  6
CONTINUOUS
 90
6
 70
0
 10
141.2536446638
 20
103.3834748774
 10
141.3757802099
 20
103.4773754559
 10
141.4887385085
 20
103.5540715974
 10
141.5947479142
 20
103.6164452614
 10
141.6950835611
 20
103.6659546248
 10
141.7696207717
 20
103.6959073903
  0
LINE
  5
337
100
AcDbEntity
  8
BEZUGSACHSEN
100
AcDbLine
 62
7
  6
CONTINUOUS
 10
141.2535848105
 20
120.0947895865
 11
141.1619659474
 21
120.1723244002
  0
LINE
  5
338
100
AcDbEntity
  8
BEZUGSACHSEN
100
AcDbLine
 62
7
  6
CONTINUOUS
 10
141.161789404
 20
120.1724793507
 11
141.1391802937
 21
120.1923460183
  0
LWPOLYLINE
  5
339
100
AcDbEntity
  8
BEZUGSACHSEN
100
AcDbPolyline
 62
7
  6
CONTINUOUS
 90
16
 70
0
 10
143.4649240455
 20
117.4013068448
 10
143.4524750693
 20
117.6509635755
 10
143.4140873616
 20
117.9038740512
 10
143.3534330121
 20
118.1410308286
 10
143.2730594207
 20
118.3637595887
 10
143.1750134154
 20
118.5723762465
 10
143.0599996418
 20
118.7684808255
 10
142.9304437776
 20
118.9499842079
 10
142.7883439744
 20
119.1161263048
 10
142.6359130498
 20
119.2661941733
 10
142.4751881731
 20
119.3999501876
 10
142.3086685698
 20
119.5170696756
 10
142.1383637625
 20
119.6179113052
 10
141.9672228482
 20
119.7026214593
 10
141.7978841364
 20
119.7720065196
 10
141.7744146072
 20
119.7805819881
  0
LINE
  5
33A
100
AcDbEntity
  8
0
100
AcDbLine
 62
7
  6
CONTINUOUS
 10
142.8674244786
 20
116.2391078838
 11
142.8674244786
 21
116.8391078838
  0
LINE
  5
33B
100
AcDbEntity
  8
0
100
AcDbLine
 62
7
  6
CONTINUOUS
 10
143.4195980589
 20
107.2391078838
 11
143.4195980589
 21
106.6391078838
  0
LINE
  5
33C
100
AcDbEntity
  8
BEZUGSACHSEN
100
AcDbLine
 62
7
  6
CONTINUOUS
 10
143.4649243019
 20
117.4013200972
 11
143.4649243019
 21
116.8391078838
  0
LINE
  5
33D
100
AcDbEntity
  8
RUNDUNGEN
100
AcDbLine
 62
7
  6
CONTINUOUS
 10
143.4649243019
 20
106.6391078838
 11
143.4649243019
 21
106.0768956705
  0
LINE
  5
33E
100
AcDbEntity
  8
0
100
AcDbLine
 62
7
  6
CONTINUOUS
 10
143.4689414078
 20
107.2391078838
 11
143.4689414078
 21
106.6391078838
  0
LINE
  5
33F
100
AcDbEntity
  8
0
100
AcDbLine
 62
7
  6
CONTINUOUS
 10
148.0022149339
 20
107.2391078838
 11
148.0022149339
 21
106.6391078838
  0
LINE
  5
340
100
AcDbEntity
  8
0
100
AcDbLine
 62
7
  6
CONTINUOUS
 10
149.2288127242
 20
107.2391078838
 11
149.2288127242
 21
106.6391078838
  0
LINE
  5
341
100
AcDbEntity
  8
0
100
AcDbLine
 62
7
  6
CONTINUOUS
 10
150.657714326
 20
116.2391078838
 11
150.657714326
 21
116.8391078838
  0
LINE
  5
342
100
AcDbEntity
  8
0
100
AcDbLine
 62
7
  6
CONTINUOUS
 10
150.6752017614
 20
107.2391078838
 11
150.6752017614
 21
106.6391078838
  0
LINE
  5
343
100
AcDbEntity
  8
0
100
AcDbLine
 62
7
  6
CONTINUOUS
 10
151.048318108
 20
107.2391078838
 11
151.048318108
 21
106.6391078838
  0
LINE
  5
344
100
AcDbEntity
  8
0
100
AcDbLine
 62
7
  6
CONTINUOUS
 10
151.0880285216
 20
116.2391078838
 11
151.0880285216
 21
116.8391078838
  0
LINE
  5
345
100
AcDbEntity
  8
0
100
AcDbLine
 62
7
  6
CONTINUOUS
 10
151.2532427288
 20
116.2391078838
 11
151.2532427288
 21
116.8391078838
  0
LINE
  5
346
100
AcDbEntity
  8
0
100
AcDbLine
 62
7
  6
CONTINUOUS
 10
151.68730248
 20
107.2391078838
 11
151.68730248
 21
106.6391078838
  0
LINE
  5
347
100
AcDbEntity
  8
0
100
AcDbLine
 62
7
  6
CONTINUOUS
 10
152.0043688791
 20
116.2391078838
 11
152.0043688791
 21
116.8391078838
  0
LINE
  5
348
100
AcDbEntity
  8
RUNDUNGEN
100
AcDbLine
 62
7
  6
CONTINUOUS
 10
162.736130438
 20
108.0369333356
 11
162.5438871307
 21
107.8511354318
  0
LINE
  5
349
100
AcDbEntity
  8
RUNDUNGEN
100
AcDbLine
 62
7
  6
CONTINUOUS
 10
162.5438871307
 20
115.6270803358
 11
162.736130438
 21
115.4412824321
  0
LINE
  5
34A
100
AcDbEntity
  8
0
100
AcDbLine
 62
7
  6
CONTINUOUS
 10
152.4871593337
 20
107.2391078838
 11
152.4871593337
 21
106.6391078838
  0
LINE
  5
34B
100
AcDbEntity
  8
0
100
AcDbLine
 62
7
  6
CONTINUOUS
 10
152.6618447798
 20
116.2391078838
 11
152.6618447798
 21
116.8391078838
  0
LINE
  5
34C
100
AcDbEntity
  8
0
100
AcDbLine
 62
7
  6
CONTINUOUS
 10
153.0782305222
 20
116.2391078838
 11
153.0782305222
 21
116.8391078838
  0
LINE
  5
34D
100
AcDbEntity
  8
0
100
AcDbLine
 62
7
  6
CONTINUOUS
 10
153.2580635141
 20
107.2391078838
 11
153.2580635141
 21
106.6391078838
  0
LINE
  5
34E
100
AcDbEntity
  8
0
100
AcDbLine
 62
7
  6
CONTINUOUS
 10
153.7223187103
 20
107.2391078838
 11
153.7223187103
 21
106.6391078838
  0
LINE
  5
34F
100
AcDbEntity
  8
0
100
AcDbLine
 62
7
  6
CONTINUOUS
 10
153.9710627041
 20
107.2391078838
 11
153.9710627041
 21
106.6391078838
  0
LINE
  5
350
100
AcDbEntity
  8
0
100
AcDbLine
 62
7
  6
CONTINUOUS
 10
154.12866856
 20
107.2391078838
 11
154.12866856
 21
106.6391078838
  0
LINE
  5
351
100
AcDbEntity
  8
0
100
AcDbLine
 62
7
  6
CONTINUOUS
 10
154.3691724936
 20
116.2391078838
 11
154.3691724936
 21
116.8391078838
  0
LINE
  5
352
100
AcDbEntity
  8
0
100
AcDbLine
 62
7
  6
CONTINUOUS
 10
154.8877440989
 20
107.2391078838
 11
154.8877440989
 21
106.6391078838
  0
LINE
  5
353
100
AcDbEntity
  8
0
100
AcDbLine
 62
7
  6
CONTINUOUS
 10
155.1986742691
 20
107.2391078838
 11
155.1986742691
 21
106.6391078838
  0
LINE
  5
354
100
AcDbEntity
  8
0
100
AcDbLine
 62
7
  6
CONTINUOUS
 10
155.6601144649
 20
116.2391078838
 11
155.6601144649
 21
116.8391078838
  0
LINE
  5
355
100
AcDbEntity
  8
0
100
AcDbLine
 62
7
  6
CONTINUOUS
 10
156.0904284297
 20
116.2391078838
 11
156.0904284297
 21
116.8391078838
  0
LINE
  5
356
100
AcDbEntity
  8
RUNDUNGEN
100
AcDbLine
 62
7
  6
CONTINUOUS
 10
163.4051192946
 20
124.7391078838
 11
163.4051192946
 21
98.7391078838
  0
LINE
  5
357
100
AcDbEntity
  8
BEZUGSACHSEN
100
AcDbLine
 62
7
  6
CONTINUOUS
 10
163.4051192946
 20
109.7391078838
 11
163.4051192946
 21
113.7391078838
  0
ARC
  5
358
100
AcDbEntity
  8
RUNDUNGEN
100
AcDbCircle
 62
7
  6
CONTINUOUS
 10
78.4051192946
 20
199.0625854358
 40
15.0
100
AcDbArc
 50
157.5
 51
180.0
  0
ARC
  5
359
100
AcDbEntity
  8
BEZUGSACHSEN
100
AcDbCircle
 62
7
  6
CONTINUOUS
 10
79.5896700987
 20
206.7523099667
 40
5.0
100
AcDbArc
 50
278.9995907923
 51
337.502304799
  0
ARC
  5
35A
100
AcDbEntity
  8
BEZUGSACHSEN
100
AcDbCircle
 62
7
  6
CONTINUOUS
 10
80.3921571857
 20
208.6896851756
 40
5.0
100
AcDbArc
 50
337.4967945069
 51
22.5031978334
  0
ARC
  5
35B
100
AcDbEntity
  8
BEZUGSACHSEN
100
AcDbCircle
 62
7
  6
CONTINUOUS
 10
86.3453142873
 20
215.2225
 40
3.0
100
AcDbArc
 50
157.4999953894
 51
202.504209983
  0
ARC
  5
35C
100
AcDbEntity
  8
RUNDUNGEN
100
AcDbCircle
 62
7
  6
CONTINUOUS
 10
65.4051192946
 20
197.4184419458
 40
2.0
100
AcDbArc
 50
99.0
 51
180.0
  0
ARC
  5
35D
100
AcDbEntity
  8
BEZUGSACHSEN
100
AcDbCircle
 62
7
  6
CONTINUOUS
 10
94.2709476764
 20
234.3566716183
 40
3.0
100
AcDbArc
 50
112.5
 51
157.5
  0
ARC
  5
35E
100
AcDbEntity
  8
RUNDUNGEN
100
AcDbCircle
 62
7
  6
CONTINUOUS
 10
113.4051192946
 20
202.4225
 40
46.05
100
AcDbArc
 50
22.5
 51
157.5
  0
ARC
  5
35F
100
AcDbEntity
  8
RUNDUNGEN
100
AcDbCircle
 62
7
  6
CONTINUOUS
 10
113.4051192946
 20
215.2225
 40
17.5
100
AcDbArc
 50
349.1580046681
 51
6.4999427665
  0
ARC
  5
360
100
AcDbEntity
  8
BEZUGSACHSEN
100
AcDbCircle
 62
7
  6
CONTINUOUS
 10
113.4051192946
 20
215.2225
 40
17.5
100
AcDbArc
 50
6.4999427665
 51
349.1580046681
  0
ARC
  5
361
100
AcDbEntity
  8
RUNDUNGEN
100
AcDbCircle
 62
7
  6
CONTINUOUS
 10
148.4051192946
 20
199.0625854358
 40
15.0
100
AcDbArc
 50
0.0
 51
22.5
  0
ARC
  5
362
100
AcDbEntity
  8
RUNDUNGEN
100
AcDbCircle
 62
7
  6
CONTINUOUS
 10
147.2205684905
 20
206.7523099667
 40
5.0
100
AcDbArc
 50
202.497695201
 51
261.0004092077
  0
ARC
  5
363
100
AcDbEntity
  8
RUNDUNGEN
100
AcDbCircle
 62
7
  6
CONTINUOUS
 10
146.4180814035
 20
208.6896851756
 40
5.0
100
AcDbArc
 50
157.4968021666
 51
202.5032054931
  0
ARC
  5
364
100
AcDbEntity
  8
RUNDUNGEN
100
AcDbCircle
 62
7
  6
CONTINUOUS
 10
140.4649243019
 20
215.2225
 40
3.0
100
AcDbArc
 50
337.495790017
 51
22.5000046106
  0
ARC
  5
365
100
AcDbEntity
  8
RUNDUNGEN
100
AcDbCircle
 62
7
  6
CONTINUOUS
 10
161.4051192946
 20
197.4184343278
 40
2.0
100
AcDbArc
 50
0.0002182397
 51
81.000034136
  0
ARC
  5
366
100
AcDbEntity
  8
RUNDUNGEN
100
AcDbCircle
 62
7
  6
CONTINUOUS
 10
132.5392909129
 20
234.3566716183
 40
3.0
100
AcDbArc
 50
22.5
 51
67.5
  0
ARC
  5
367
100
AcDbEntity
  8
RUNDUNGEN
100
AcDbCircle
 62
7
  6
CONTINUOUS
 10
113.4051192946
 20
242.2823110467
 40
2.9999665217
100
AcDbArc
 50
67.4999558594
 51
112.5000441232
  0
ARC
  5
368
100
AcDbEntity
  8
BEZUGSACHSEN
100
AcDbCircle
 62
7
  6
CONTINUOUS
 10
296.4125389004
 20
217.5997466468
 40
15.0
100
AcDbArc
 50
179.9999629874
 51
200.0000353717
  0
ARC
  5
369
100
AcDbEntity
  8
BEZUGSACHSEN
100
AcDbCircle
 62
7
  6
CONTINUOUS
 10
250.4125389004
 20
217.5997466468
 40
15.0
100
AcDbArc
 50
339.9999646283
 51
0.0000370126
  0
ARC
  5
36A
100
AcDbEntity
  8
RUNDUNGEN
100
AcDbCircle
 62
7
  6
CONTINUOUS
 10
271.4125389004
 20
245.9725
 40
2.5
100
AcDbArc
 50
90.0
 51
180.0
  0
ARC
  5
36B
100
AcDbEntity
  8
RUNDUNGEN
100
AcDbCircle
 62
7
  6
CONTINUOUS
 10
275.4125389004
 20
245.9725
 40
2.5
100
AcDbArc
 50
0.0
 51
90.0
  0
ARC
  5
36C
100
AcDbEntity
  8
RUNDUNGEN
100
AcDbCircle
 62
7
  6
CONTINUOUS
 10
287.4125389004
 20
195.5461730193
 40
1.0
100
AcDbArc
 50
0.0001477148
 51
20.0
  0
ARC
  5
36D
100
AcDbEntity
  8
RUNDUNGEN
100
AcDbCircle
 62
7
  6
CONTINUOUS
 10
259.4125389004
 20
195.5461730193
 40
1.0
100
AcDbArc
 50
159.999999999
 51
179.9998522526
  0
ARC
  5
36E
100
AcDbEntity
  8
RUNDUNGEN
100
AcDbCircle
 62
7
  6
CONTINUOUS
 10
160.8942830022
 20
113.6989877433
 40
2.5401212004
100
AcDbArc
 50
71.0781661876
 51
89.9476589678
  0
ARC
  5
36F
100
AcDbEntity
  8
RUNDUNGEN
100
AcDbCircle
 62
7
  6
CONTINUOUS
 10
160.8942830022
 20
109.7792280243
 40
2.5401212004
100
AcDbArc
 50
270.0523410322
 51
288.9218338124
  0
ARC
  5
370
100
AcDbEntity
  8
RUNDUNGEN
100
AcDbCircle
 62
7
  6
CONTINUOUS
 10
65.9159555871
 20
109.7792280243
 40
2.5401212004
100
AcDbArc
 50
251.0781661876
 51
269.9476589678
  0
ARC
  5
371
100
AcDbEntity
  8
RUNDUNGEN
100
AcDbCircle
 62
7
  6
CONTINUOUS
 10
65.9159555871
 20
113.6989877433
 40
2.5401212004
100
AcDbArc
 50
90.0523410322
 51
108.9218338124
  0
ARC
  5
372
100
AcDbEntity
  8
RUNDUNGEN
100
AcDbCircle
 62
7
  6
CONTINUOUS
 10
160.9051192946
 20
113.7391078838
 40
2.5
100
AcDbArc
 50
0.0
 51
49.0418852347
  0
ARC
  5
373
100
AcDbEntity
  8
RUNDUNGEN
100
AcDbCircle
 62
7
  6
CONTINUOUS
 10
65.9051192946
 20
109.7391078838
 40
2.5
100
AcDbArc
 50
180.0
 51
229.0418852347
  0
ARC
  5
374
100
AcDbEntity
  8
RUNDUNGEN
100
AcDbCircle
 62
7
  6
CONTINUOUS
 10
65.9051192946
 20
113.7391078838
 40
2.5
100
AcDbArc
 50
137.0883503932
 51
180.0
  0
ARC
  5
375
100
AcDbEntity
  8
RUNDUNGEN
100
AcDbCircle
 62
7
  6
CONTINUOUS
 10
160.9051192946
 20
109.7391078838
 40
2.5
100
AcDbArc
 50
317.0883503932
 51
360.0
  0
ARC
  5
376
100
AcDbEntity
  8
RUNDUNGEN
100
AcDbCircle
 62
7
  6
CONTINUOUS
 10
65.4051192946
 20
124.7391078838
 40
2.0
100
AcDbArc
 50
89.9888674658
 51
180.0
  0
ARC
  5
377
100
AcDbEntity
  8
RUNDUNGEN
100
AcDbCircle
 62
7
  6
CONTINUOUS
 10
65.4051192946
 20
98.7391078838
 40
2.0
100
AcDbArc
 50
180.0
 51
270.0111316663
  0
ARC
  5
378
100
AcDbEntity
  8
RUNDUNGEN
100
AcDbCircle
 62
7
  6
CONTINUOUS
 10
161.4051192946
 20
124.7391078838
 40
2.0
100
AcDbArc
 50
0.0
 51
90.0094410936
  0
ARC
  5
379
100
AcDbEntity
  8
RUNDUNGEN
100
AcDbCircle
 62
7
  6
CONTINUOUS
 10
161.4051192946
 20
98.7391078838
 40
2.0
100
AcDbArc
 50
269.9888674658
 51
360.0
  0
SPLINE
  5
37A
100
AcDbEntity
  8
RUNDUNGEN
100
AcDbSpline
 62
7
  6
CONTINUOUS
 70
0
 71
3
 72
10
 73
6
 74
0
 42
0.0000001
 43
0.0000001
 44
0.0000000001
 40
0.0
 40
0.0
 40
0.0
 40
0.0
 40
0.3797257679
 40
0.6545162814
 40
1.0
 40
1.0
 40
1.0
 40
1.0
 10
277.9125389004
 20
199.523913193
 30
0.0
 10
277.9125389004
 20
199.4991117732
 30
0.0
 10
277.8847809291
 20
199.4590405919
 30
0.0
 10
277.8320370676
 20
199.4221791918
 30
0.0
 10
277.7957765212
 20
199.4032486965
 30
0.0
 10
277.7752765208
 20
199.393818627
 30
0.0
  0
SPLINE
  5
37B
100
AcDbEntity
  8
RUNDUNGEN
100
AcDbSpline
 62
7
  6
CONTINUOUS
 70
0
 71
3
 72
10
 73
6
 74
0
 42
0.0000001
 43
0.0000001
 44
0.0000000001
 40
0.0
 40
0.0
 40
0.0
 40
0.0
 40
0.5316591951
 40
0.7794745948
 40
1.0
 40
1.0
 40
1.0
 40
1.0
 10
271.4125389004
 20
197.4184419458
 30
0.0
 10
271.0818132491
 20
197.7142519611
 30
0.0
 10
270.5971989173
 20
198.1482832784
 30
0.0
 10
269.9679057581
 20
198.6964727776
 30
0.0
 10
269.6684272419
 20
198.9477922396
 30
0.0
 10
269.5245664484
 20
199.0625854358
 30
0.0
  0
SPLINE
  5
37C
100
AcDbEntity
  8
RUNDUNGEN
100
AcDbSpline
 62
7
  6
CONTINUOUS
 70
0
 71
3
 72
10
 73
6
 74
0
 42
0.0000001
 43
0.0000001
 44
0.0000000001
 40
0.0
 40
0.0
 40
0.0
 40
0.0
 40
0.3454836093
 40
0.6202738377
 40
1.0
 40
1.0
 40
1.0
 40
1.0
 10
269.04980128
 20
199.393818627
 30
0.0
 10
269.0293012863
 20
199.4032486934
 30
0.0
 10
268.993040744
 20
199.4221791453
 30
0.0
 10
268.940296912
 20
199.4590405796
 30
0.0
 10
268.9125389004
 20
199.4991117477
 30
0.0
 10
268.9125389004
 20
199.523913193
 30
0.0
  0
SPLINE
  5
37D
100
AcDbEntity
  8
RUNDUNGEN
100
AcDbSpline
 62
7
  6
CONTINUOUS
 70
0
 71
3
 72
10
 73
6
 74
0
 42
0.0000001
 43
0.0000001
 44
0.0000000001
 40
0.0
 40
0.0
 40
0.0
 40
0.0
 40
0.5855437441
 40
0.8176558686
 40
1.0
 40
1.0
 40
1.0
 40
1.0
 10
269.5245664484
 20
199.0625854358
 30
0.0
 10
269.4361070734
 20
199.1331712719
 30
0.0
 10
269.3114681722
 20
199.2306055799
 30
0.0
 10
269.151491872
 20
199.3390785821
 30
0.0
 10
269.0818184619
 20
199.3790906151
 30
0.0
 10
269.04980128
 20
199.393818627
 30
0.0
  0
SPLINE
  5
37E
100
AcDbEntity
  8
RUNDUNGEN
100
AcDbSpline
 62
7
  6
CONTINUOUS
 70
0
 71
3
 72
10
 73
6
 74
0
 42
0.0000001
 43
0.0000001
 44
0.0000000001
 40
0.0
 40
0.0
 40
0.0
 40
0.0
 40
0.2205248038
 40
0.4683398984
 40
1.0
 40
1.0
 40
1.0
 40
1.0
 10
277.3005113524
 20
199.0625854358
 30
0.0
 10
277.1566509512
 20
198.9477925527
 30
0.0
 10
276.8571729868
 20
198.6964736111
 30
0.0
 10
276.2278798044
 20
198.1482841372
 30
0.0
 10
275.7432651158
 20
197.7142524656
 30
0.0
 10
275.4125389004
 20
197.4184419458
 30
0.0
  0
SPLINE
  5
37F
100
AcDbEntity
  8
RUNDUNGEN
100
AcDbSpline
 62
7
  6
CONTINUOUS
 70
0
 71
3
 72
10
 73
6
 74
0
 42
0.0000001
 43
0.0000001
 44
0.0000000001
 40
0.0
 40
0.0
 40
0.0
 40
0.0
 40
0.1823441541
 40
0.41445627
 40
1.0
 40
1.0
 40
1.0
 40
1.0
 10
277.7752765208
 20
199.393818627
 30
0.0
 10
277.743259335
 20
199.3790906133
 30
0.0
 10
277.6735859236
 20
199.3390785767
 30
0.0
 10
277.5136096217
 20
199.2306055775
 30
0.0
 10
277.3889707253
 20
199.1331712702
 30
0.0
 10
277.3005113524
 20
199.0625854358
 30
0.0
  0
SPLINE
  5
380
100
AcDbEntity
  8
RUNDUNGEN
100
AcDbSpline
 62
7
  6
CONTINUOUS
 70
0
 71
3
 72
9
 73
5
 74
0
 42
0.0000001
 43
0.0000001
 44
0.0000000001
 40
0.0
 40
0.0
 40
0.0
 40
0.0
 40
0.23964455
 40
1.0
 40
1.0
 40
1.0
 40
1.0
 10
64.2663514585
 20
115.6270803358
 30
0.0
 10
64.3240132719
 20
115.6771310264
 30
0.0
 10
64.5743156893
 20
115.8745699829
 30
0.0
 10
64.8631878724
 20
116.0229766608
 30
0.0
 10
65.0922503645
 20
116.1018455042
 30
0.0
  0
SPLINE
  5
381
100
AcDbEntity
  8
RUNDUNGEN
100
AcDbSpline
 62
7
  6
CONTINUOUS
 70
0
 71
3
 72
9
 73
5
 74
0
 42
0.0000001
 43
0.0000001
 44
0.0000000001
 40
0.0
 40
0.0
 40
0.0
 40
0.0
 40
0.2608423663
 40
1.0
 40
1.0
 40
1.0
 40
1.0
 10
161.7179882247
 20
116.1018455042
 30
0.0
 10
161.7965797481
 20
116.0747855413
 30
0.0
 10
162.0926427089
 20
115.9563863484
 30
0.0
 10
162.3660108404
 20
115.7814776857
 30
0.0
 10
162.5438871307
 20
115.6270803358
 30
0.0
  0
SPLINE
  5
382
100
AcDbEntity
  8
RUNDUNGEN
100
AcDbSpline
 62
7
  6
CONTINUOUS
 70
0
 71
3
 72
9
 73
5
 74
0
 42
0.0000001
 43
0.0000001
 44
0.0000000001
 40
0.0
 40
0.0
 40
0.0
 40
0.0
 40
0.23964455
 40
1.0
 40
1.0
 40
1.0
 40
1.0
 10
162.5438871307
 20
107.8511354318
 30
0.0
 10
162.4862253174
 20
107.8010847412
 30
0.0
 10
162.2359228999
 20
107.6036457848
 30
0.0
 10
161.9470507169
 20
107.4552391068
 30
0.0
 10
161.7179882247
 20
107.3763702634
 30
0.0
  0
SPLINE
  5
383
100
AcDbEntity
  8
RUNDUNGEN
100
AcDbSpline
 62
7
  6
CONTINUOUS
 70
0
 71
3
 72
9
 73
5
 74
0
 42
0.0000001
 43
0.0000001
 44
0.0000000001
 40
0.0
 40
0.0
 40
0.0
 40
0.0
 40
0.2608423663
 40
1.0
 40
1.0
 40
1.0
 40
1.0
 10
65.0922503645
 20
107.3763702634
 30
0.0
 10
65.0136588411
 20
107.4034302264
 30
0.0
 10
64.7175958803
 20
107.5218294192
 30
0.0
 10
64.4442277488
 20
107.6967380819
 30
0.0
 10
64.2663514585
 20
107.8511354318
 30
0.0
  0
ENDSEC
  0
SECTION
  2
OBJECTS
  0
DICTIONARY
  5
C
100
AcDbDictionary
280
0
281
1
  3
ACAD_GROUP
350
D
  3
ACAD_MLINESTYLE
350
17
  3
ACAD_LAYOUT
350
1A
  3
ACAD_PLOTSETTINGS
350
19
  3
ACAD_PLOTSTYLENAME
350
E
  0
DICTIONARY
  5
D
102
{ACAD_REACTORS
330
C
102
}
100
AcDbDictionary
280
0
281
1
  0
ACDBDICTIONARYWDFLT
  5
E
102
{ACAD_REACTORS
330
C
102
}
100
AcDbDictionary
281
1
  3
Normal
350
F
100
AcDbDictionaryWithDefault
340
F
  0
DICTIONARY
  5
17
102
{ACAD_REACTORS
330
C
102
}
100
AcDbDictionary
280
0
281
1
  3
Standard
350
18
  0
DICTIONARY
  5
19
102
{ACAD_REACTORS
330
C
102
}
100
AcDbDictionary
281
1
  0
DICTIONARY
  5
1A
102
{ACAD_REACTORS
330
C
102
}
100
AcDbDictionary
281
1
  3
Model
350
384
  3
Layout1
350
385
  0
ACDBPLACEHOLDER
  5
F
102
{ACAD_REACTORS
330
E
102
}
  0
MLINESTYLE
  5
18
102
{ACAD_REACTORS
330
17
102
}
100
AcDbMlineStyle
  2
STANDARD
 70
0
  3

 62
256
 51
90.0
 52
90.0
 71
2
 49
0.5
 62
256
  6
BYLAYER
 49
-0.5
 62
256
  6
BYLAYER
  0
LAYOUT
  5
384
102
{ACAD_REACTORS
330
1A
102
}
100
AcDbPlotSettings
  1

  2
none_device
  4
ISO_A3_(420.00_x_297.00_MM)
  6

 40
0.0
 41
0.0
 42
0.0
 43
0.0
 44
420.0
 45
297.0
 46
0.0
 47
0.0
 48
0.0
 49
0.0
140
0.0
141
0.0
142
1.0
143
1.0
 70
1024
 72
1
 73
0
 74
0
  7

 75
0
147
1.0
148
0.0
149
0.0
100
AcDbLayout
  1
Model
 70
0
 71
0
 10
0.0
 20
0.0
 11
420.0
 21
297.0
 12
0.0
 22
0.0
 32
0.0
 14
0.0
 24
0.0
 34
0.0
 15
0.0
 25
0.0
 35
0.0
146
0.0
 13
0.0
 23
0.0
 33
0.0
 16
1.0
 26
0.0
 36
0.0
 17
0.0
 27
1.0
 37
0.0
 76
0
330
209
345
0
346
0
  0
LAYOUT
  5
385
102
{ACAD_REACTORS
330
1A
102
}
100
AcDbPlotSettings
  1

  2
none_device
  4
ISO_A3_(420.00_x_297.00_MM)
  6

 40
0.0
 41
0.0
 42
0.0
 43
0.0
 44
420.0
 45
297.0
 46
0.0
 47
0.0
 48
0.0
 49
0.0
140
0.0
141
0.0
142
1.0
143
1.0
 70
0
 72
1
 73
0
 74
0
  7

 75
0
147
1.0
148
0.0
149
0.0
100
AcDbLayout
  1
Layout1
 70
0
 71
1
 10
0.0
 20
0.0
 11
420.0
 21
297.0
 12
0.0
 22
0.0
 32
0.0
 14
0.0
 24
0.0
 34
0.0
 15
0.0
 25
0.0
 35
0.0
146
0.0
 13
0.0
 23
0.0
 33
0.0
 16
1.0
 26
0.0
 36
0.0
 17
0.0
 27
1.0
 37
0.0
 76
0
330
20A
345
0
346
0
  0
ENDSEC
  0
EOF
