999
DXF file: ABA-10t-7900355-M33974-P2.dxf
999
Pro/ENGINEER 2011490 by Parametric Technology Corporation
  0
SECTION
  2
HEADER
  9
$ACADVER
  1
AC1015
  9
$DWGCODEPAGE
  3
ANSI_1252
  9
$EXTMAX
 10
420.0
 20
297.0
 30
0.0
  9
$EXTMIN
 10
0.0
 20
0.0
 30
0.0
  9
$LIMMIN
 10
0.0
 20
0.0
  9
$LIMMAX
 10
420.0
 20
297.0
  9
$VIEWCTR
 10
210.0
 20
148.5
  9
$VIEWSIZE
 40
297.0
  9
$CLAYER
  8
0
  9
$LTSCALE
 40
23.1
  9
$CELTYPE
  6
BYLAYER
  9
$DIMSCALE
 40
1.0
  9
$DIMASZ
 40
3.5
  9
$DIMEXO
 40
2.625
  9
$DIMDLI
 40
15.96
  9
$DIMEXE
 40
7.56
  9
$DIMCEN
 40
3.78
  9
$DIMLFAC
 40
1.0
  9
$DIMBLK
  1
_FILLED
  9
$DIMTXT
 40
3.5
  9
$DIMTOL
 70
1
  9
$DIMLIM
 70
0
  9
$DIMTFAC
 40
1.0
  9
$DIMTP
 40
0.005
  9
$DIMTM
 40
0.005
  9
$PDMODE
 70
3
  9
$PDSIZE
 40
0.3125
  9
$HANDSEED
  5
368
  9
$TILEMODE
 70
1
  9
$MEASUREMENT
 70
1
  9
$INSUNITS
 70
4
  0
ENDSEC
  0
SECTION
  2
CLASSES
  0
CLASS
  1
ACDBDICTIONARYWDFLT
  2
AcDbDictionaryWithDefault
  3
AutoCAD 2000
 90
0
280
0
281
0
  0
CLASS
  1
ACDBPLACEHOLDER
  2
AcDbPlaceHolder
  3
AutoCAD 2000
 90
0
280
0
281
0
  0
CLASS
  1
LAYOUT
  2
AcDbLayout
  3
AutoCAD 2000
 90
0
280
0
281
0
  0
ENDSEC
  0
SECTION
  2
TABLES
  0
TABLE
  2
VPORT
  5
8
100
AcDbSymbolTable
 70
2
  0
VPORT
  5
1F4
100
AcDbSymbolTableRecord
100
AcDbViewportTableRecord
  2
*ACTIVE
 70
0
 10
0.0
 20
0.0
 11
1.0
 21
1.0
 12
210.0
 22
148.5
 13
0.0
 23
0.0
 14
1.0
 24
1.0
 15
0.0
 25
0.0
 16
0.0
 26
0.0
 36
1.0
 17
0.0
 27
0.0
 37
0.0
 40
297.0
 41
1.4141414141
 42
50.0
 43
0.0
 44
0.0
 50
0.0
 51
0.0
 71
0
 72
100
 73
1
 74
1
 75
0
 76
0
 77
0
 78
0
  0
ENDTAB
  0
TABLE
  2
LTYPE
  5
5
100
AcDbSymbolTable
 70
6
  0
LTYPE
  5
14
100
AcDbSymbolTableRecord
100
AcDbLinetypeTableRecord
  2
BYBLOCK
 70
0
  3

 72
65
 73
0
 40
0.0
  0
LTYPE
  5
15
100
AcDbSymbolTableRecord
100
AcDbLinetypeTableRecord
  2
BYLAYER
 70
0
  3

 72
65
 73
0
 40
0.0
  0
LTYPE
  5
16
100
AcDbSymbolTableRecord
100
AcDbLinetypeTableRecord
  2
CONTINUOUS
 70
64
  3
Solid line
 72
65
 73
0
 40
0.0
  0
LTYPE
  5
1F5
100
AcDbSymbolTableRecord
100
AcDbLinetypeTableRecord
  2
CENTER
 70
64
  3
____ _ ____ _ ____ _ ____ _ ____ _ ____ _ ____
 72
65
 73
4
 40
0.6
 49
0.375
 74
0
 49
-0.075
 74
0
 49
0.075
 74
0
 49
-0.075
 74
0
  0
LTYPE
  5
1F6
100
AcDbSymbolTableRecord
100
AcDbLinetypeTableRecord
  2
HIDDEN
 70
64
  3
- - - - - - - - - - - - - - - - - - - -
 72
65
 73
2
 40
0.2
 49
0.1
 74
0
 49
-0.1
 74
0
  0
LTYPE
  5
1F7
100
AcDbSymbolTableRecord
100
AcDbLinetypeTableRecord
  2
PHANTOM
 70
64
  3
_____ _ _ _____ _ _ _____ _ _ _____
 72
65
 73
6
 40
0.8
 49
0.45
 74
0
 49
-0.05
 74
0
 49
0.1
 74
0
 49
-0.05
 74
0
 49
0.1
 74
0
 49
-0.05
 74
0
  0
LTYPE
  5
1F8
100
AcDbSymbolTableRecord
100
AcDbLinetypeTableRecord
  2
DOT
 70
64
  3
. . . . . . . . . . . . . . . . . . . .
 72
65
 73
2
 40
0.2
 49
0.1
 74
0
 49
-0.1
 74
0
  0
LTYPE
  5
1F9
100
AcDbSymbolTableRecord
100
AcDbLinetypeTableRecord
  2
DASHED
 70
64
  3
- - - - - - - - - - - - - - - - - - - -
 72
65
 73
2
 40
0.2
 49
0.1
 74
0
 49
-0.1
 74
0
  0
ENDTAB
  0
TABLE
  2
LAYER
  5
2
100
AcDbSymbolTable
 70
36
  0
LAYER
  5
10
100
AcDbSymbolTableRecord
100
AcDbLayerTableRecord
  2
0
 70
0
 62
7
  6
CONTINUOUS
370
-3
390
F
  0
LAYER
  5
1FA
100
AcDbSymbolTableRecord
100
AcDbLayerTableRecord
  2
DEFAULT_1
 70
0
 62
7
  6
CENTER
370
-3
390
F
  0
LAYER
  5
1FB
100
AcDbSymbolTableRecord
100
AcDbLayerTableRecord
  2
DEFAULT_2
 70
0
 62
8
  6
HIDDEN
370
-3
390
F
  0
LAYER
  5
1FC
100
AcDbSymbolTableRecord
100
AcDbLayerTableRecord
  2
DEFAULT_3
 70
0
 62
7
  6
PHANTOM
370
-3
390
F
  0
LAYER
  5
1FD
100
AcDbSymbolTableRecord
100
AcDbLayerTableRecord
  2
AUSFORMSCHRAEGEN
 70
0
 62
7
  6
CONTINUOUS
370
-3
390
F
  0
LAYER
  5
1FE
100
AcDbSymbolTableRecord
100
AcDbLayerTableRecord
  2
BEZUGSACHSEN
 70
0
 62
7
  6
CONTINUOUS
370
-3
390
F
  0
LAYER
  5
1FF
100
AcDbSymbolTableRecord
100
AcDbLayerTableRecord
  2
BEZUGSEBENEN
 70
0
 62
7
  6
CONTINUOUS
370
-3
390
F
  0
LAYER
  5
200
100
AcDbSymbolTableRecord
100
AcDbLayerTableRecord
  2
FLAECHEN
 70
0
 62
7
  6
CONTINUOUS
370
-3
390
F
  0
LAYER
  5
201
100
AcDbSymbolTableRecord
100
AcDbLayerTableRecord
  2
HILFEN
 70
0
 62
7
  6
CONTINUOUS
370
-3
390
F
  0
LAYER
  5
202
100
AcDbSymbolTableRecord
100
AcDbLayerTableRecord
  2
KURVEN
 70
0
 62
7
  6
CONTINUOUS
370
-3
390
F
  0
LAYER
  5
203
100
AcDbSymbolTableRecord
100
AcDbLayerTableRecord
  2
PLATZIERUNG
 70
0
 62
7
  6
CONTINUOUS
370
-3
390
F
  0
LAYER
  5
204
100
AcDbSymbolTableRecord
100
AcDbLayerTableRecord
  2
RUNDUNGEN
 70
0
 62
7
  6
CONTINUOUS
370
-3
390
F
  0
LAYER
  5
205
100
AcDbSymbolTableRecord
100
AcDbLayerTableRecord
  2
TEIL_STARTBEZUEGE
 70
0
 62
7
  6
CONTINUOUS
370
-3
390
F
  0
LAYER
  5
206
100
AcDbSymbolTableRecord
100
AcDbLayerTableRecord
  2
ZEICHNUNGSBEMASSUNGEN
 70
0
 62
7
  6
CONTINUOUS
370
-3
390
F
  0
ENDTAB
  0
TABLE
  2
STYLE
  5
3
100
AcDbSymbolTable
 70
1
  0
STYLE
  5
11
100
AcDbSymbolTableRecord
100
AcDbTextStyleTableRecord
  2
STANDARD
 70
0
 40
0.0
 41
0.7
 50
0.0
 71
0
 42
0.2
  3
txt
  4

  0
STYLE
  5
207
100
AcDbSymbolTableRecord
100
AcDbTextStyleTableRecord
  2
TEXTSTYLE_1
 70
0
 40
0.0
 41
0.8
 50
0.0
 71
0
 42
0.2
  3
gdt
  4

  0
ENDTAB
  0
TABLE
  2
VIEW
  5
6
100
AcDbSymbolTable
 70
0
  0
ENDTAB
  0
TABLE
  2
UCS
  5
7
100
AcDbSymbolTable
 70
0
  0
ENDTAB
  0
TABLE
  2
APPID
  5
9
100
AcDbSymbolTable
 70
1
  0
APPID
  5
208
100
AcDbSymbolTableRecord
100
AcDbRegAppTableRecord
  2
ACAD
 70
0
  0
ENDTAB
  0
TABLE
  2
BLOCK_RECORD
  5
1
100
AcDbSymbolTable
 70
0
  0
BLOCK_RECORD
  5
209
100
AcDbSymbolTableRecord
100
AcDbBlockTableRecord
  2
*Model_Space
  0
BLOCK_RECORD
  5
20A
100
AcDbSymbolTableRecord
100
AcDbBlockTableRecord
  2
*Paper_Space
  0
ENDTAB
  0
TABLE
  2
DIMSTYLE
  5
A
100
AcDbSymbolTable
 70
1
100
AcDbDimStyleTable
 71
0
  0
DIMSTYLE
105
20B
100
AcDbSymbolTableRecord
100
AcDbDimStyleTableRecord
  2
STANDARD
 70
0
  3

  4

 40
1.0
 41
3.5
 42
0.0625
 43
0.38
 44
0.18
 45
0.0
 46
0.0
 47
0.005
 48
0.005
140
3.5
141
0.09
142
0.0
143
25.4
144
1.0
145
0.0
146
1.0
147
0.09
 71
1.0
 72
0.0
 73
0
 74
0
 75
0
 76
0
 77
1
 78
8
170
0
171
2
172
0
173
0
174
0
175
0
176
0
177
0
178
5
270
2
271
3
272
3
273
2
274
2
275
0
280
0
281
0
282
0
283
1
284
8
285
0
286
0
287
3
288
0
340
11
  0
ENDTAB
  0
ENDSEC
  0
SECTION
  2
BLOCKS
  0
BLOCK
  5
20
100
AcDbEntity
  8
0
100
AcDbBlockBegin
  2
*Model_Space
 70
0
 10
0.0
 20
0.0
 30
0.0
  3
*Model_Space
  1

  0
ENDBLK
  5
21
100
AcDbEntity
  8
0
100
AcDbBlockEnd
  0
BLOCK
  5
1C
100
AcDbEntity
  8
0
100
AcDbBlockBegin
  2
*Paper_Space
 70
0
 10
0.0
 20
0.0
 30
0.0
  3
*Paper_Space
  1

  0
ENDBLK
  5
1D
100
AcDbEntity
  8
0
100
AcDbBlockEnd
  0
ENDSEC
  0
SECTION
  2
ENTITIES
  0
MTEXT
  5
20C
100
AcDbEntity
  8
0
100
AcDbMText
 62
5
  6
CONTINUOUS
  7
STANDARD
 71
1
 72
1
 10
120.7259196513
 20
72.7566696624
 30
0.0
 11
1.0
 21
0.0
 31
0.0
 44
0.9
  1
RUD ABA 10t
 40
7.0
 41
60.6666666667
  0
MTEXT
  5
20D
100
AcDbEntity
  8
0
100
AcDbMText
 62
5
  6
CONTINUOUS
  7
STANDARD
 71
1
 72
1
 10
118.3344168228
 20
154.6199061718
 30
0.0
 11
1.0
 21
0.0
 31
0.0
 44
0.9
  1
RUD ABA 10t
 40
7.0
 41
60.6666666667
  0
MTEXT
  5
20E
100
AcDbEntity
  8
0
100
AcDbMText
 62
5
  6
CONTINUOUS
  7
STANDARD
 71
1
 72
1
 10
346.8270632595
 20
165.9058043671
 30
0.0
 11
0.0
 21
1.0
 31
0.0
 44
0.9
  1
RUD ABA 10t
 40
7.0
 41
60.6666666667
  0
LINE
  5
20F
100
AcDbEntity
  8
0
100
AcDbLine
 62
7
  6
CONTINUOUS
 10
0.0
 20
0.0
 11
0.0
 21
297.0
  0
LINE
  5
210
100
AcDbEntity
  8
0
100
AcDbLine
 62
7
  6
CONTINUOUS
 10
0.0
 20
0.0
 11
420.0
 21
0.0
  0
LINE
  5
211
100
AcDbEntity
  8
0
100
AcDbLine
 62
7
  6
CONTINUOUS
 10
0.0
 20
297.0
 11
420.0
 21
297.0
  0
LINE
  5
212
100
AcDbEntity
  8
0
100
AcDbLine
 62
7
  6
CONTINUOUS
 10
420.0
 20
0.0
 11
420.0
 21
297.0
  0
LINE
  5
213
100
AcDbEntity
  8
RUNDUNGEN
100
AcDbLine
 62
7
  6
CONTINUOUS
 10
34.6955757261
 20
144.9220591286
 11
34.6955757261
 21
165.5164921051
  0
LINE
  5
214
100
AcDbEntity
  8
0
100
AcDbLine
 62
7
  6
CONTINUOUS
 10
62.2357933965
 20
190.8446299467
 11
62.1475121894
 21
192.151622116
  0
LINE
  5
215
100
AcDbEntity
  8
RUNDUNGEN
100
AcDbLine
 62
7
  6
CONTINUOUS
 10
51.4506557898
 20
209.945080981
 11
36.2179850759
 21
173.1701607524
  0
LINE
  5
216
100
AcDbEntity
  8
0
100
AcDbLine
 62
7
  6
CONTINUOUS
 10
60.4339398605
 20
191.9336940902
 11
60.7518930924
 21
191.1629181923
  0
LINE
  5
217
100
AcDbEntity
  8
0
100
AcDbLine
 62
7
  6
CONTINUOUS
 10
60.7518930924
 20
191.1629181923
 11
60.6811975192
 21
190.2413135884
  0
LINE
  5
218
100
AcDbEntity
  8
0
100
AcDbLine
 62
7
  6
CONTINUOUS
 10
65.4253558607
 20
216.448549602
 11
62.6692889344
 21
210.0139482082
  0
LINE
  5
219
100
AcDbEntity
  8
0
100
AcDbLine
 62
7
  6
CONTINUOUS
 10
61.750600178
 20
207.8690815883
 11
61.0615834464
 21
206.2604312398
  0
LINE
  5
21A
100
AcDbEntity
  8
0
100
AcDbLine
 62
7
  6
CONTINUOUS
 10
58.3055165202
 20
199.8258298459
 11
57.6164994601
 21
198.2171787304
  0
LINE
  5
21B
100
AcDbEntity
  8
0
100
AcDbLine
 62
7
  6
CONTINUOUS
 10
55.0901048872
 20
192.318794375
 11
52.3340379609
 21
185.8841929812
  0
LINE
  5
21C
100
AcDbEntity
  8
0
100
AcDbLine
 62
7
  6
CONTINUOUS
 10
54.3921186556
 20
186.9064461812
 11
56.5740048627
 21
192.0005053623
  0
LINE
  5
21D
100
AcDbEntity
  8
0
100
AcDbLine
 62
7
  6
CONTINUOUS
 10
62.1475121894
 20
192.151622116
 11
61.3967693847
 21
193.425065009
  0
LINE
  5
21E
100
AcDbEntity
  8
0
100
AcDbLine
 62
7
  6
CONTINUOUS
 10
71.1219623512
 20
200.9994872445
 11
71.3250797624
 21
199.9606031287
  0
LINE
  5
21F
100
AcDbEntity
  8
0
100
AcDbLine
 62
7
  6
CONTINUOUS
 10
73.0827923699
 20
199.5250338474
 11
72.9945114194
 21
200.8320268146
  0
LINE
  5
220
100
AcDbEntity
  8
0
100
AcDbLine
 62
7
  6
CONTINUOUS
 10
78.5949268795
 20
212.3942381692
 11
78.506645272
 21
213.7012296023
  0
LINE
  5
221
100
AcDbEntity
  8
0
100
AcDbLine
 62
7
  6
CONTINUOUS
 10
71.3250797624
 20
199.9606031287
 11
71.1395478483
 21
198.770889622
  0
LINE
  5
222
100
AcDbEntity
  8
0
100
AcDbLine
 62
7
  6
CONTINUOUS
 10
76.8372129579
 20
212.8298043823
 11
76.6516817009
 21
211.6400924098
  0
LINE
  5
223
100
AcDbEntity
  8
0
100
AcDbLine
 62
7
  6
CONTINUOUS
 10
72.7824247959
 20
198.0672129618
 11
73.0827923699
 21
199.5250338474
  0
LINE
  5
224
100
AcDbEntity
  8
0
100
AcDbLine
 62
7
  6
CONTINUOUS
 10
78.2945586484
 20
210.9364157495
 11
78.5949268795
 21
212.3942381692
  0
LINE
  5
225
100
AcDbEntity
  8
0
100
AcDbLine
 62
7
  6
CONTINUOUS
 10
65.0011824217
 20
210.9189219785
 11
67.0682326165
 21
215.7448730239
  0
LINE
  5
226
100
AcDbEntity
  8
0
100
AcDbLine
 62
7
  6
CONTINUOUS
 10
60.6811975192
 20
190.2413135884
 11
58.4993113121
 21
185.1472544073
  0
LINE
  5
227
100
AcDbEntity
  8
0
100
AcDbLine
 62
7
  6
CONTINUOUS
 10
60.1421880679
 20
184.4435778291
 11
62.0944020859
 21
189.0014203553
  0
LINE
  5
228
100
AcDbEntity
  8
0
100
AcDbLine
 62
7
  6
CONTINUOUS
 10
66.273349701
 20
217.6718131521
 11
65.4253558607
 21
216.448549602
  0
LINE
  5
229
100
AcDbEntity
  8
0
100
AcDbLine
 62
7
  6
CONTINUOUS
 10
59.727337495
 20
192.553640515
 11
60.4339398605
 21
191.9336940902
  0
LINE
  5
22A
100
AcDbEntity
  8
0
100
AcDbLine
 62
7
  6
CONTINUOUS
 10
61.3967693847
 20
193.425065009
 11
60.6901670192
 21
194.0450114338
  0
LINE
  5
22B
100
AcDbEntity
  8
0
100
AcDbLine
 62
7
  6
CONTINUOUS
 10
70.5301959981
 20
201.887541805
 11
71.1219623512
 21
200.9994872445
  0
LINE
  5
22C
100
AcDbEntity
  8
0
100
AcDbLine
 62
7
  6
CONTINUOUS
 10
72.9945114194
 20
200.8320268146
 11
72.3586048598
 21
202.3735786514
  0
LINE
  5
22D
100
AcDbEntity
  8
0
100
AcDbLine
 62
7
  6
CONTINUOUS
 10
76.6340955466
 20
213.8686884981
 11
76.8372129579
 21
212.8298043823
  0
LINE
  5
22E
100
AcDbEntity
  8
BEZUGSACHSEN
100
AcDbLine
 62
7
  6
CONTINUOUS
 10
80.5003612556
 20
202.3243069692
 11
98.6342102425
 21
246.1032911313
  0
LINE
  5
22F
100
AcDbEntity
  8
0
100
AcDbLine
 62
7
  6
CONTINUOUS
 10
76.6516817009
 20
211.6400924098
 11
74.5846315062
 21
206.8141413644
  0
LINE
  5
230
100
AcDbEntity
  8
0
100
AcDbLine
 62
7
  6
CONTINUOUS
 10
71.1395478483
 20
198.770889622
 11
70.6802031416
 21
197.698455545
  0
LINE
  5
231
100
AcDbEntity
  8
0
100
AcDbLine
 62
7
  6
CONTINUOUS
 10
65.2032407486
 20
180.3720591286
 11
65.8922574802
 21
181.9807094771
  0
LINE
  5
232
100
AcDbEntity
  8
0
100
AcDbLine
 62
7
  6
CONTINUOUS
 10
68.7631604189
 20
188.6834190067
 11
69.5670134914
 21
190.5601782579
  0
LINE
  5
233
100
AcDbEntity
  8
0
100
AcDbLine
 62
7
  6
CONTINUOUS
 10
72.3230800891
 20
196.9947788847
 11
72.7824247959
 21
198.0672129618
  0
LINE
  5
234
100
AcDbEntity
  8
0
100
AcDbLine
 62
7
  6
CONTINUOUS
 10
75.5384917221
 20
204.5018143556
 11
78.2945586484
 21
210.9364157495
  0
LINE
  5
235
100
AcDbEntity
  8
0
100
AcDbLine
 62
7
  6
CONTINUOUS
 10
55.9380983989
 20
193.5420571581
 11
55.0901048872
 21
192.318794375
  0
LINE
  5
236
100
AcDbEntity
  8
0
100
AcDbLine
 62
7
  6
CONTINUOUS
 10
67.0682326165
 20
215.7448730239
 11
67.8013894587
 21
216.7000261371
  0
LINE
  5
237
100
AcDbEntity
  8
RUNDUNGEN
100
AcDbLine
 62
7
  6
CONTINUOUS
 10
34.6955757261
 20
144.9220591286
 11
262.6955757261
 21
144.9220591286
  0
LINE
  5
238
100
AcDbEntity
  8
0
100
AcDbLine
 62
7
  6
CONTINUOUS
 10
72.3586048598
 20
202.3735786514
 11
71.4930255223
 21
203.3789127238
  0
LINE
  5
239
100
AcDbEntity
  8
BEZUGSACHSEN
100
AcDbLine
 62
7
  6
CONTINUOUS
 10
83.8230789317
 20
189.0980612107
 11
80.5005526563
 21
197.119349206
  0
LINE
  5
23A
100
AcDbEntity
  8
0
100
AcDbLine
 62
7
  6
CONTINUOUS
 10
78.506645272
 20
213.7012296023
 11
77.8707380552
 21
215.242779905
  0
LINE
  5
23B
100
AcDbEntity
  8
0
100
AcDbLine
 62
7
  6
CONTINUOUS
 10
71.4750868819
 20
195.771516879
 11
72.3230800891
 21
196.9947788847
  0
LINE
  5
23C
100
AcDbEntity
  8
0
100
AcDbLine
 62
7
  6
CONTINUOUS
 10
70.6802031416
 20
197.698455545
 11
69.9470462993
 21
196.7433024318
  0
LINE
  5
23D
100
AcDbEntity
  8
0
100
AcDbLine
 62
7
  6
CONTINUOUS
 10
56.5740048627
 20
192.0005053623
 11
57.1923260211
 21
192.6875511069
  0
LINE
  5
23E
100
AcDbEntity
  8
0
100
AcDbLine
 62
7
  6
CONTINUOUS
 10
67.2803193359
 20
218.5096868357
 11
66.273349701
 21
217.6718131521
  0
LINE
  5
23F
100
AcDbEntity
  8
RUNDUNGEN
100
AcDbLine
 62
7
  6
CONTINUOUS
 10
102.3143437235
 20
249.7834246123
 11
146.0714607614
 21
267.9082159397
  0
LINE
  5
240
100
AcDbEntity
  8
0
100
AcDbLine
 62
7
  6
CONTINUOUS
 10
52.3340379609
 20
185.8841929812
 11
65.2032407486
 21
180.3720591286
  0
LINE
  5
241
100
AcDbEntity
  8
0
100
AcDbLine
 62
7
  6
CONTINUOUS
 10
65.8922574802
 20
181.9807094771
 11
60.1421880679
 21
184.4435778291
  0
LINE
  5
242
100
AcDbEntity
  8
0
100
AcDbLine
 62
7
  6
CONTINUOUS
 10
58.4993113121
 20
185.1472544073
 11
54.3921186556
 21
186.9064461812
  0
LINE
  5
243
100
AcDbEntity
  8
0
100
AcDbLine
 62
7
  6
CONTINUOUS
 10
69.5497811686
 20
202.6247684266
 11
70.5301959981
 21
201.887541805
  0
LINE
  5
244
100
AcDbEntity
  8
0
100
AcDbLine
 62
7
  6
CONTINUOUS
 10
76.0423298507
 20
214.7567445927
 11
76.6340955466
 21
213.8686884981
  0
LINE
  5
245
100
AcDbEntity
  8
BEZUGSACHSEN
100
AcDbLine
 62
7
  6
CONTINUOUS
 10
82.1233047148
 20
176.1914908872
 11
83.8230819793
 21
180.2951162121
  0
LINE
  5
246
100
AcDbEntity
  8
0
100
AcDbLine
 62
7
  6
CONTINUOUS
 10
67.8013894587
 20
216.7000261371
 11
68.6935234098
 21
217.2697924519
  0
LINE
  5
247
100
AcDbEntity
  8
0
100
AcDbLine
 62
7
  6
CONTINUOUS
 10
58.9058983501
 20
192.9054791326
 11
59.727337495
 21
192.553640515
  0
LINE
  5
248
100
AcDbEntity
  8
0
100
AcDbLine
 62
7
  6
CONTINUOUS
 10
60.6901670192
 20
194.0450114338
 11
59.5949150816
 21
194.5141294811
  0
LINE
  5
249
100
AcDbEntity
  8
0
100
AcDbLine
 62
7
  6
CONTINUOUS
 10
57.6164994601
 20
198.2171787304
 11
66.1046971822
 21
194.5815159172
  0
LINE
  5
24A
100
AcDbEntity
  8
0
100
AcDbLine
 62
7
  6
CONTINUOUS
 10
66.7937142423
 20
196.1901670327
 11
58.3055165202
 21
199.8258298459
  0
LINE
  5
24B
100
AcDbEntity
  8
0
100
AcDbLine
 62
7
  6
CONTINUOUS
 10
71.4930255223
 20
203.3789127238
 11
70.2387979001
 21
204.233418775
  0
LINE
  5
24C
100
AcDbEntity
  8
0
100
AcDbLine
 62
7
  6
CONTINUOUS
 10
77.8707380552
 20
215.242779905
 11
77.0051593749
 21
216.2481155115
  0
LINE
  5
24D
100
AcDbEntity
  8
0
100
AcDbLine
 62
7
  6
CONTINUOUS
 10
70.468116518
 20
194.9336416922
 11
71.4750868819
 21
195.771516879
  0
LINE
  5
24E
100
AcDbEntity
  8
0
100
AcDbLine
 62
7
  6
CONTINUOUS
 10
68.8349145561
 20
219.1130016598
 11
67.2803193359
 21
218.5096868357
  0
LINE
  5
24F
100
AcDbEntity
  8
0
100
AcDbLine
 62
7
  6
CONTINUOUS
 10
234.1309205966
 20
194.6140553784
 11
231.8644565695
 21
194.0811530891
  0
LINE
  5
250
100
AcDbEntity
  8
0
100
AcDbLine
 62
7
  6
CONTINUOUS
 10
232.5819885527
 20
192.348877644
 11
234.4946255968
 21
192.7352223208
  0
LINE
  5
251
100
AcDbEntity
  8
0
100
AcDbLine
 62
7
  6
CONTINUOUS
 10
61.0615834464
 20
206.2604312398
 11
69.5497811686
 21
202.6247684266
  0
LINE
  5
252
100
AcDbEntity
  8
0
100
AcDbLine
 62
7
  6
CONTINUOUS
 10
70.2387979001
 20
204.233418775
 11
61.750600178
 21
207.8690815883
  0
LINE
  5
253
100
AcDbEntity
  8
0
100
AcDbLine
 62
7
  6
CONTINUOUS
 10
77.0051593749
 20
216.2481155115
 11
75.7509310956
 21
217.1026200286
  0
LINE
  5
254
100
AcDbEntity
  8
0
100
AcDbLine
 62
7
  6
CONTINUOUS
 10
75.061914364
 20
215.4939696802
 11
76.0423298507
 21
214.7567445927
  0
LINE
  5
255
100
AcDbEntity
  8
0
100
AcDbLine
 62
7
  6
CONTINUOUS
 10
69.9470462993
 20
196.7433024318
 11
69.0549121565
 21
196.1735361991
  0
LINE
  5
256
100
AcDbEntity
  8
0
100
AcDbLine
 62
7
  6
CONTINUOUS
 10
57.218881155
 20
194.262652179
 11
55.9380983989
 21
193.5420571581
  0
LINE
  5
257
100
AcDbEntity
  8
RUNDUNGEN
100
AcDbLine
 62
7
  6
CONTINUOUS
 10
37.226272331
 20
163.5203709438
 11
73.2974219029
 21
169.2334797806
  0
LINE
  5
258
100
AcDbEntity
  8
RUNDUNGEN
100
AcDbLine
 62
7
  6
CONTINUOUS
 10
260.1648791213
 20
163.5203709438
 11
224.0937295494
 21
169.2334797806
  0
LINE
  5
259
100
AcDbEntity
  8
0
100
AcDbLine
 62
7
  6
CONTINUOUS
 10
68.0038010967
 20
195.9891566826
 11
66.7937142423
 21
196.1901670327
  0
LINE
  5
25A
100
AcDbEntity
  8
0
100
AcDbLine
 62
7
  6
CONTINUOUS
 10
66.1046971822
 20
194.5815159172
 11
67.5885974863
 21
194.2632276715
  0
LINE
  5
25B
100
AcDbEntity
  8
0
100
AcDbLine
 62
7
  6
CONTINUOUS
 10
62.6692889344
 20
210.0139482082
 11
75.5384917221
 21
204.5018143556
  0
LINE
  5
25C
100
AcDbEntity
  8
0
100
AcDbLine
 62
7
  6
CONTINUOUS
 10
74.5846315062
 20
206.8141413644
 11
65.0011824217
 21
210.9189219785
  0
LINE
  5
25D
100
AcDbEntity
  8
0
100
AcDbLine
 62
7
  6
CONTINUOUS
 10
57.1923260211
 20
192.6875511069
 11
57.9696239598
 21
192.989209286
  0
LINE
  5
25E
100
AcDbEntity
  8
0
100
AcDbLine
 62
7
  6
CONTINUOUS
 10
232.8765401265
 20
204.6477983153
 11
235.1430036579
 21
205.1807003993
  0
LINE
  5
25F
100
AcDbEntity
  8
0
100
AcDbLine
 62
7
  6
CONTINUOUS
 10
234.4254720853
 20
206.9129748532
 11
232.512834921
 21
206.5266318684
  0
LINE
  5
260
100
AcDbEntity
  8
0
100
AcDbLine
 62
7
  6
CONTINUOUS
 10
231.3770035065
 20
192.2556543447
 11
232.5819885527
 21
192.348877644
  0
LINE
  5
261
100
AcDbEntity
  8
0
100
AcDbLine
 62
7
  6
CONTINUOUS
 10
69.5670134914
 20
190.5601782579
 11
62.2357933965
 21
190.8446299467
  0
LINE
  5
262
100
AcDbEntity
  8
0
100
AcDbLine
 62
7
  6
CONTINUOUS
 10
62.0944020859
 20
189.0014203553
 11
68.7631604189
 21
188.6834190067
  0
LINE
  5
263
100
AcDbEntity
  8
0
100
AcDbLine
 62
7
  6
CONTINUOUS
 10
57.9696239598
 20
192.989209286
 11
58.9058983501
 21
192.9054791326
  0
LINE
  5
264
100
AcDbEntity
  8
0
100
AcDbLine
 62
7
  6
CONTINUOUS
 10
59.5949150816
 20
194.5141294811
 11
58.6586406913
 21
194.5978596344
  0
LINE
  5
265
100
AcDbEntity
  8
0
100
AcDbLine
 62
7
  6
CONTINUOUS
 10
70.954722091
 20
217.2531612898
 11
75.061914364
 21
215.4939696802
  0
LINE
  5
266
100
AcDbEntity
  8
0
100
AcDbLine
 62
7
  6
CONTINUOUS
 10
75.7509310956
 20
217.1026200286
 11
71.6437388226
 21
218.8618116383
  0
LINE
  5
267
100
AcDbEntity
  8
0
100
AcDbLine
 62
7
  6
CONTINUOUS
 10
68.9135212019
 20
194.3303269091
 11
70.468116518
 21
194.9336416922
  0
LINE
  5
268
100
AcDbEntity
  8
0
100
AcDbLine
 62
7
  6
CONTINUOUS
 10
235.6304579174
 20
207.0061990586
 11
234.4254720853
 21
206.9129748532
  0
LINE
  5
269
100
AcDbEntity
  8
0
100
AcDbLine
 62
7
  6
CONTINUOUS
 10
67.5885974863
 20
194.2632276715
 11
68.9135212019
 21
194.3303269091
  0
LINE
  5
26A
100
AcDbEntity
  8
0
100
AcDbLine
 62
7
  6
CONTINUOUS
 10
229.6746863111
 20
192.362324851
 11
231.3770035065
 21
192.2556543447
  0
LINE
  5
26B
100
AcDbEntity
  8
0
100
AcDbLine
 62
7
  6
CONTINUOUS
 10
69.0549121565
 20
196.1735361991
 11
68.0038010967
 21
195.9891566826
  0
LINE
  5
26C
100
AcDbEntity
  8
0
100
AcDbLine
 62
7
  6
CONTINUOUS
 10
69.7446352366
 20
217.4541716399
 11
70.954722091
 21
217.2531612898
  0
LINE
  5
26D
100
AcDbEntity
  8
0
100
AcDbLine
 62
7
  6
CONTINUOUS
 10
231.8644565695
 20
194.0811530891
 11
229.1674743395
 21
194.5876143853
  0
LINE
  5
26E
100
AcDbEntity
  8
0
100
AcDbLine
 62
7
  6
CONTINUOUS
 10
71.6437388226
 20
218.8618116383
 11
70.1598384085
 21
219.1801017466
  0
LINE
  5
26F
100
AcDbEntity
  8
0
100
AcDbLine
 62
7
  6
CONTINUOUS
 10
58.6586406913
 20
194.5978596344
 11
57.218881155
 21
194.262652179
  0
LINE
  5
270
100
AcDbEntity
  8
0
100
AcDbLine
 62
7
  6
CONTINUOUS
 10
237.3327750703
 20
206.8995279541
 11
235.6304579174
 21
207.0061990586
  0
LINE
  5
271
100
AcDbEntity
  8
0
100
AcDbLine
 62
7
  6
CONTINUOUS
 10
70.1598384085
 20
219.1801017466
 11
68.8349145561
 21
219.1130016598
  0
LINE
  5
272
100
AcDbEntity
  8
0
100
AcDbLine
 62
7
  6
CONTINUOUS
 10
235.1430036579
 20
205.1807003993
 11
237.8399866314
 21
204.6742394111
  0
LINE
  5
273
100
AcDbEntity
  8
0
100
AcDbLine
 62
7
  6
CONTINUOUS
 10
228.1826888405
 20
192.9620104889
 11
229.6746863111
 21
192.362324851
  0
LINE
  5
274
100
AcDbEntity
  8
0
100
AcDbLine
 62
7
  6
CONTINUOUS
 10
68.6935234098
 20
217.2697924519
 11
69.7446352366
 21
217.4541716399
  0
LINE
  5
275
100
AcDbEntity
  8
0
100
AcDbLine
 62
7
  6
CONTINUOUS
 10
233.888624179
 20
215.2144437467
 11
231.0580138937
 21
214.0419665768
  0
LINE
  5
276
100
AcDbEntity
  8
0
100
AcDbLine
 62
7
  6
CONTINUOUS
 10
234.3958357401
 20
212.9891552037
 11
220.596613449
 21
207.2733301805
  0
LINE
  5
277
100
AcDbEntity
  8
0
100
AcDbLine
 62
7
  6
CONTINUOUS
 10
221.4576511718
 20
205.1946012323
 11
238.087482757
 21
212.0829030149
  0
LINE
  5
278
100
AcDbEntity
  8
0
100
AcDbLine
 62
7
  6
CONTINUOUS
 10
232.512834921
 20
206.5266318684
 11
229.3283994651
 21
205.2075955141
  0
LINE
  5
279
100
AcDbEntity
  8
0
100
AcDbLine
 62
7
  6
CONTINUOUS
 10
231.0580138937
 20
214.0419665768
 11
234.3958357401
 21
212.9891552037
  0
LINE
  5
27A
100
AcDbEntity
  8
0
100
AcDbLine
 62
7
  6
CONTINUOUS
 10
237.2264450342
 20
214.1616319631
 11
233.888624179
 21
215.2144437467
  0
LINE
  5
27B
100
AcDbEntity
  8
0
100
AcDbLine
 62
7
  6
CONTINUOUS
 10
238.824772417
 20
206.2998422648
 11
237.3327750703
 21
206.8995279541
  0
LINE
  5
27C
100
AcDbEntity
  8
0
100
AcDbLine
 62
7
  6
CONTINUOUS
 10
229.1674743395
 20
194.5876143853
 11
228.0293031545
 21
195.3338596695
  0
LINE
  5
27D
100
AcDbEntity
  8
0
100
AcDbLine
 62
7
  6
CONTINUOUS
 10
226.4036786898
 20
194.2546061195
 11
228.1826888405
 21
192.9620104889
  0
LINE
  5
27E
100
AcDbEntity
  8
0
100
AcDbLine
 62
7
  6
CONTINUOUS
 10
230.3997569941
 20
203.6218811508
 11
232.8765401265
 21
204.6477983153
  0
LINE
  5
27F
100
AcDbEntity
  8
0
100
AcDbLine
 62
7
  6
CONTINUOUS
 10
237.8399866314
 20
204.6742394111
 11
238.9781578163
 21
203.9279941268
  0
LINE
  5
280
100
AcDbEntity
  8
0
100
AcDbLine
 62
7
  6
CONTINUOUS
 10
229.3283994651
 20
205.2075955141
 11
227.7027745163
 21
204.1283423443
  0
LINE
  5
281
100
AcDbEntity
  8
0
100
AcDbLine
 62
7
  6
CONTINUOUS
 10
228.4203060888
 20
202.3960678905
 11
230.3997569941
 21
203.6218811508
  0
LINE
  5
282
100
AcDbEntity
  8
0
100
AcDbLine
 62
7
  6
CONTINUOUS
 10
236.6077037289
 20
195.6399725429
 11
234.1309205966
 21
194.6140553784
  0
LINE
  5
283
100
AcDbEntity
  8
0
100
AcDbLine
 62
7
  6
CONTINUOUS
 10
234.4946255968
 20
192.7352223208
 11
237.6790610526
 21
194.0542586751
  0
LINE
  5
284
100
AcDbEntity
  8
0
100
AcDbLine
 62
7
  6
CONTINUOUS
 10
240.2424165442
 20
191.8688571357
 11
238.8271118971
 21
191.282618756
  0
LINE
  5
285
100
AcDbEntity
  8
0
100
AcDbLine
 62
7
  6
CONTINUOUS
 10
240.6037824748
 20
205.0072465957
 11
238.824772417
 21
206.2998422648
  0
LINE
  5
286
100
AcDbEntity
  8
RUNDUNGEN
100
AcDbLine
 62
7
  6
CONTINUOUS
 10
215.2678467374
 20
176.1914908872
 11
213.568069473
 21
180.2951162121
  0
LINE
  5
287
100
AcDbEntity
  8
0
100
AcDbLine
 62
7
  6
CONTINUOUS
 10
227.7027745163
 20
204.1283423443
 11
226.7848023866
 21
203.3422085697
  0
LINE
  5
288
100
AcDbEntity
  8
0
100
AcDbLine
 62
7
  6
CONTINUOUS
 10
238.5871541386
 20
196.8657855979
 11
236.6077037289
 21
195.6399725429
  0
LINE
  5
289
100
AcDbEntity
  8
0
100
AcDbLine
 62
7
  6
CONTINUOUS
 10
244.2210768529
 20
190.2696963689
 11
241.3904665676
 21
189.097219199
  0
LINE
  5
28A
100
AcDbEntity
  8
0
100
AcDbLine
 62
7
  6
CONTINUOUS
 10
239.9751619205
 20
188.5109808193
 11
232.8986379419
 21
185.5797886129
  0
LINE
  5
28B
100
AcDbEntity
  8
0
100
AcDbLine
 62
7
  6
CONTINUOUS
 10
234.3238216752
 20
184.1406344427
 11
240.6926930825
 21
186.7787073566
  0
LINE
  5
28C
100
AcDbEntity
  8
0
100
AcDbLine
 62
7
  6
CONTINUOUS
 10
242.1079977295
 20
187.3649457363
 11
244.9386080148
 21
188.5374229063
  0
LINE
  5
28D
100
AcDbEntity
  8
0
100
AcDbLine
 62
7
  6
CONTINUOUS
 10
232.0771161462
 20
179.556944866
 11
233.4924209171
 21
180.143183297
  0
LINE
  5
28E
100
AcDbEntity
  8
0
100
AcDbLine
 62
7
  6
CONTINUOUS
 10
242.2712627884
 20
182.9677029634
 11
243.6865674355
 21
183.5539413431
  0
LINE
  5
28F
100
AcDbEntity
  8
RUNDUNGEN
100
AcDbLine
 62
7
  6
CONTINUOUS
 10
195.0768077288
 20
249.7834246123
 11
151.3196906909
 21
267.9082159397
  0
LINE
  5
290
100
AcDbEntity
  8
0
100
AcDbLine
 62
7
  6
CONTINUOUS
 10
228.0293031545
 20
195.3338596695
 11
226.9579458308
 21
196.9195735372
  0
LINE
  5
291
100
AcDbEntity
  8
0
100
AcDbLine
 62
7
  6
CONTINUOUS
 10
225.1888147742
 20
196.1867754599
 11
226.4036786898
 21
194.2546061195
  0
LINE
  5
292
100
AcDbEntity
  8
RUNDUNGEN
100
AcDbLine
 62
7
  6
CONTINUOUS
 10
216.8907901966
 20
202.3243069692
 11
198.7569412098
 21
246.1032911313
  0
LINE
  5
293
100
AcDbEntity
  8
RUNDUNGEN
100
AcDbLine
 62
7
  6
CONTINUOUS
 10
213.5680725206
 20
189.0980612107
 11
216.890598796
 21
197.119349206
  0
LINE
  5
294
100
AcDbEntity
  8
0
100
AcDbLine
 62
7
  6
CONTINUOUS
 10
226.8713738821
 20
200.1308912499
 11
228.4203060888
 21
202.3960678905
  0
LINE
  5
295
100
AcDbEntity
  8
0
100
AcDbLine
 62
7
  6
CONTINUOUS
 10
226.7848023866
 20
203.3422085697
 11
225.6565099976
 21
202.0630606031
  0
LINE
  5
296
100
AcDbEntity
  8
0
100
AcDbLine
 62
7
  6
CONTINUOUS
 10
239.3046861217
 20
195.1335101528
 11
240.2226590374
 21
195.9196448337
  0
LINE
  5
297
100
AcDbEntity
  8
0
100
AcDbLine
 62
7
  6
CONTINUOUS
 10
237.6790610526
 20
194.0542586751
 11
239.3046861217
 21
195.1335101528
  0
LINE
  5
298
100
AcDbEntity
  8
0
100
AcDbLine
 62
7
  6
CONTINUOUS
 10
220.596613449
 20
207.2733301805
 11
221.4576511718
 21
205.1946012323
  0
LINE
  5
299
100
AcDbEntity
  8
0
100
AcDbLine
 62
7
  6
CONTINUOUS
 10
225.0255502498
 20
200.584017293
 11
224.6816032441
 21
198.4120640158
  0
LINE
  5
29A
100
AcDbEntity
  8
0
100
AcDbLine
 62
7
  6
CONTINUOUS
 10
226.59424042
 20
198.798407586
 11
226.8713738821
 21
200.1308912499
  0
LINE
  5
29B
100
AcDbEntity
  8
0
100
AcDbLine
 62
7
  6
CONTINUOUS
 10
225.6565099976
 20
202.0630606031
 11
225.0255502498
 21
200.584017293
  0
LINE
  5
29C
100
AcDbEntity
  8
0
100
AcDbLine
 62
7
  6
CONTINUOUS
 10
240.2226590374
 20
195.9196448337
 11
241.3509513839
 21
197.198792202
  0
LINE
  5
29D
100
AcDbEntity
  8
0
100
AcDbLine
 62
7
  6
CONTINUOUS
 10
232.8986379419
 20
185.5797886129
 11
231.7703454715
 21
184.3006411933
  0
LINE
  5
29E
100
AcDbEntity
  8
0
100
AcDbLine
 62
7
  6
CONTINUOUS
 10
233.405849503
 20
183.3545000698
 11
234.3238216752
 21
184.1406344427
  0
LINE
  5
29F
100
AcDbEntity
  8
0
100
AcDbLine
 62
7
  6
CONTINUOUS
 10
238.9781578163
 20
203.9279941268
 11
240.0495155506
 21
202.3422792679
  0
LINE
  5
2A0
100
AcDbEntity
  8
0
100
AcDbLine
 62
7
  6
CONTINUOUS
 10
241.8186463594
 20
203.0750772425
 11
240.6037824748
 21
205.0072465957
  0
LINE
  5
2A1
100
AcDbEntity
  8
0
100
AcDbLine
 62
7
  6
CONTINUOUS
 10
238.8271118971
 20
191.282618756
 11
239.9751619205
 21
188.5109808193
  0
LINE
  5
2A2
100
AcDbEntity
  8
0
100
AcDbLine
 62
7
  6
CONTINUOUS
 10
240.6926930825
 20
186.7787073566
 11
242.2712627884
 21
182.9677029634
  0
LINE
  5
2A3
100
AcDbEntity
  8
0
100
AcDbLine
 62
7
  6
CONTINUOUS
 10
243.6865674355
 20
183.5539413431
 11
242.1079977295
 21
187.3649457363
  0
LINE
  5
2A4
100
AcDbEntity
  8
0
100
AcDbLine
 62
7
  6
CONTINUOUS
 10
241.3904665676
 20
189.097219199
 11
240.2424165442
 21
191.8688571357
  0
LINE
  5
2A5
100
AcDbEntity
  8
0
100
AcDbLine
 62
7
  6
CONTINUOUS
 10
224.6816032441
 20
198.4120640158
 11
225.1888147742
 21
196.1867754599
  0
LINE
  5
2A6
100
AcDbEntity
  8
0
100
AcDbLine
 62
7
  6
CONTINUOUS
 10
231.5699046161
 20
181.7822334219
 11
232.0771161462
 21
179.556944866
  0
LINE
  5
2A7
100
AcDbEntity
  8
0
100
AcDbLine
 62
7
  6
CONTINUOUS
 10
226.9579458308
 20
196.9195735372
 11
226.59424042
 21
198.798407586
  0
LINE
  5
2A8
100
AcDbEntity
  8
0
100
AcDbLine
 62
7
  6
CONTINUOUS
 10
233.4924209171
 20
180.143183297
 11
233.1287160408
 21
182.0220164059
  0
LINE
  5
2A9
100
AcDbEntity
  8
0
100
AcDbLine
 62
7
  6
CONTINUOUS
 10
231.4932119474
 20
182.9681575037
 11
231.5699046161
 21
181.7822334219
  0
LINE
  5
2AA
100
AcDbEntity
  8
0
100
AcDbLine
 62
7
  6
CONTINUOUS
 10
231.7703454715
 20
184.3006411933
 11
231.4932119474
 21
182.9681575037
  0
LINE
  5
2AB
100
AcDbEntity
  8
0
100
AcDbLine
 62
7
  6
CONTINUOUS
 10
233.1287160408
 20
182.0220164059
 11
233.405849503
 21
183.3545000698
  0
LINE
  5
2AC
100
AcDbEntity
  8
0
100
AcDbLine
 62
7
  6
CONTINUOUS
 10
240.1360870887
 20
199.1309625464
 11
238.5871541386
 21
196.8657855979
  0
LINE
  5
2AD
100
AcDbEntity
  8
0
100
AcDbLine
 62
7
  6
CONTINUOUS
 10
244.9386080148
 20
188.5374229063
 11
244.2210768529
 21
190.2696963689
  0
LINE
  5
2AE
100
AcDbEntity
  8
0
100
AcDbLine
 62
7
  6
CONTINUOUS
 10
238.087482757
 20
212.0829030149
 11
237.2264450342
 21
214.1616319631
  0
LINE
  5
2AF
100
AcDbEntity
  8
0
100
AcDbLine
 62
7
  6
CONTINUOUS
 10
240.0495155506
 20
202.3422792679
 11
240.4132205508
 21
200.4634462103
  0
LINE
  5
2B0
100
AcDbEntity
  8
0
100
AcDbLine
 62
7
  6
CONTINUOUS
 10
241.9819110077
 20
198.6778354608
 11
242.3258579205
 21
200.8497886994
  0
LINE
  5
2B1
100
AcDbEntity
  8
0
100
AcDbLine
 62
7
  6
CONTINUOUS
 10
240.4132205508
 20
200.4634462103
 11
240.1360870887
 21
199.1309625464
  0
LINE
  5
2B2
100
AcDbEntity
  8
0
100
AcDbLine
 62
7
  6
CONTINUOUS
 10
241.3509513839
 20
197.198792202
 11
241.9819110077
 21
198.6778354608
  0
LINE
  5
2B3
100
AcDbEntity
  8
RUNDUNGEN
100
AcDbLine
 62
7
  6
CONTINUOUS
 10
261.1731663764
 20
173.1701607524
 11
245.9404956625
 21
209.945080981
  0
LINE
  5
2B4
100
AcDbEntity
  8
0
100
AcDbLine
 62
7
  6
CONTINUOUS
 10
242.3258579205
 20
200.8497886994
 11
241.8186463594
 21
203.0750772425
  0
LINE
  5
2B5
100
AcDbEntity
  8
RUNDUNGEN
100
AcDbLine
 62
7
  6
CONTINUOUS
 10
262.6955757261
 20
144.9220591286
 11
262.6955757261
 21
165.5164921051
  0
LINE
  5
2B6
100
AcDbEntity
  8
RUNDUNGEN
100
AcDbLine
 62
7
  6
CONTINUOUS
 10
385.6104123444
 20
144.9220591286
 11
315.6104123444
 21
144.9220591286
  0
LINE
  5
2B7
100
AcDbEntity
  8
RUNDUNGEN
100
AcDbLine
 62
7
  6
CONTINUOUS
 10
315.6104123444
 20
144.9220591286
 11
315.6104123444
 21
154.6787924722
  0
LINE
  5
2B8
100
AcDbEntity
  8
0
100
AcDbLine
 62
7
  6
CONTINUOUS
 10
360.6104123444
 20
180.3720591286
 11
362.1104123444
 21
180.3720591286
  0
LINE
  5
2B9
100
AcDbEntity
  8
0
100
AcDbLine
 62
7
  6
CONTINUOUS
 10
360.6104123444
 20
185.8841929812
 11
362.1104123444
 21
185.8841929812
  0
LINE
  5
2BA
100
AcDbEntity
  8
BEZUGSACHSEN
100
AcDbLine
 62
7
  6
CONTINUOUS
 10
331.6104123444
 20
205.3388564504
 11
331.6104123444
 21
262.9662353917
  0
LINE
  5
2BB
100
AcDbEntity
  8
RUNDUNGEN
100
AcDbLine
 62
7
  6
CONTINUOUS
 10
315.791334482
 20
155.7048529022
 11
319.40638437
 21
165.6371208396
  0
LINE
  5
2BC
100
AcDbEntity
  8
BEZUGSACHSEN
100
AcDbLine
 62
7
  6
CONTINUOUS
 10
319.3206016714
 20
165.4014348122
 11
329.4996540719
 21
193.368151434
  0
LINE
  5
2BD
100
AcDbEntity
  8
0
100
AcDbLine
 62
7
  6
CONTINUOUS
 10
360.6104123444
 20
192.318794375
 11
362.1104123444
 21
192.318794375
  0
LINE
  5
2BE
100
AcDbEntity
  8
0
100
AcDbLine
 62
7
  6
CONTINUOUS
 10
360.6104123444
 20
193.5420571581
 11
362.1104123444
 21
193.5420571581
  0
LINE
  5
2BF
100
AcDbEntity
  8
0
100
AcDbLine
 62
7
  6
CONTINUOUS
 10
360.6104123444
 20
194.262652179
 11
362.1104123444
 21
194.262652179
  0
LINE
  5
2C0
100
AcDbEntity
  8
0
100
AcDbLine
 62
7
  6
CONTINUOUS
 10
360.6104123444
 20
194.5978596344
 11
362.1104123444
 21
194.5978596344
  0
LINE
  5
2C1
100
AcDbEntity
  8
0
100
AcDbLine
 62
7
  6
CONTINUOUS
 10
339.6104123444
 20
199.6484812105
 11
339.6104123444
 21
211.3715090354
  0
LINE
  5
2C2
100
AcDbEntity
  8
0
100
AcDbLine
 62
7
  6
CONTINUOUS
 10
339.6104123444
 20
212.2466732944
 11
339.6104123444
 21
223.9697011193
  0
LINE
  5
2C3
100
AcDbEntity
  8
RUNDUNGEN
100
AcDbLine
 62
7
  6
CONTINUOUS
 10
340.6104123444
 20
164.0698546204
 11
340.6104123444
 21
268.9222798591
  0
LINE
  5
2C4
100
AcDbEntity
  8
0
100
AcDbLine
 62
7
  6
CONTINUOUS
 10
360.6104123444
 20
198.2171787304
 11
362.1104123444
 21
198.2171787304
  0
LINE
  5
2C5
100
AcDbEntity
  8
0
100
AcDbLine
 62
7
  6
CONTINUOUS
 10
340.6104123444
 20
199.6484812105
 11
339.6104123444
 21
199.6484812105
  0
LINE
  5
2C6
100
AcDbEntity
  8
0
100
AcDbLine
 62
7
  6
CONTINUOUS
 10
360.6104123444
 20
199.8258298459
 11
362.1104123444
 21
199.8258298459
  0
LINE
  5
2C7
100
AcDbEntity
  8
0
100
AcDbLine
 62
7
  6
CONTINUOUS
 10
360.6104123444
 20
199.9606031287
 11
362.1104123444
 21
199.9606031287
  0
LINE
  5
2C8
100
AcDbEntity
  8
0
100
AcDbLine
 62
7
  6
CONTINUOUS
 10
340.6104123444
 20
200.5540315565
 11
339.6104123444
 21
200.5540315565
  0
LINE
  5
2C9
100
AcDbEntity
  8
0
100
AcDbLine
 62
7
  6
CONTINUOUS
 10
360.6104123444
 20
200.9994872445
 11
362.1104123444
 21
200.9994872445
  0
LINE
  5
2CA
100
AcDbEntity
  8
0
100
AcDbLine
 62
7
  6
CONTINUOUS
 10
360.6104123444
 20
201.887541805
 11
362.1104123444
 21
201.887541805
  0
LINE
  5
2CB
100
AcDbEntity
  8
0
100
AcDbLine
 62
7
  6
CONTINUOUS
 10
360.6104123444
 20
202.6247684266
 11
362.1104123444
 21
202.6247684266
  0
LINE
  5
2CC
100
AcDbEntity
  8
0
100
AcDbLine
 62
7
  6
CONTINUOUS
 10
340.6104123444
 20
203.6642783002
 11
339.6104123444
 21
203.6642783002
  0
LINE
  5
2CD
100
AcDbEntity
  8
0
100
AcDbLine
 62
7
  6
CONTINUOUS
 10
340.6104123444
 20
204.5698286462
 11
339.6104123444
 21
204.5698286462
  0
LINE
  5
2CE
100
AcDbEntity
  8
0
100
AcDbLine
 62
7
  6
CONTINUOUS
 10
340.6104123444
 20
204.7065925334
 11
339.6104123444
 21
204.7065925334
  0
LINE
  5
2CF
100
AcDbEntity
  8
0
100
AcDbLine
 62
7
  6
CONTINUOUS
 10
340.6104123444
 20
205.6121428794
 11
339.6104123444
 21
205.6121428794
  0
LINE
  5
2D0
100
AcDbEntity
  8
0
100
AcDbLine
 62
7
  6
CONTINUOUS
 10
360.6104123444
 20
206.2604312398
 11
362.1104123444
 21
206.2604312398
  0
LINE
  5
2D1
100
AcDbEntity
  8
0
100
AcDbLine
 62
7
  6
CONTINUOUS
 10
360.6104123444
 20
207.8690815883
 11
362.1104123444
 21
207.8690815883
  0
LINE
  5
2D2
100
AcDbEntity
  8
0
100
AcDbLine
 62
7
  6
CONTINUOUS
 10
360.6104123444
 20
210.0139482082
 11
362.1104123444
 21
210.0139482082
  0
LINE
  5
2D3
100
AcDbEntity
  8
0
100
AcDbLine
 62
7
  6
CONTINUOUS
 10
340.6104123444
 20
211.3720591286
 11
339.6104123444
 21
211.3720591286
  0
LINE
  5
2D4
100
AcDbEntity
  8
0
100
AcDbLine
 62
7
  6
CONTINUOUS
 10
340.6104123444
 20
212.2466732944
 11
339.6104123444
 21
212.2466732944
  0
LINE
  5
2D5
100
AcDbEntity
  8
0
100
AcDbLine
 62
7
  6
CONTINUOUS
 10
340.6104123444
 20
213.1522236404
 11
339.6104123444
 21
213.1522236404
  0
LINE
  5
2D6
100
AcDbEntity
  8
RUNDUNGEN
100
AcDbLine
 62
7
  6
CONTINUOUS
 10
360.6104123444
 20
268.921523262
 11
360.6104123444
 21
164.0698546204
  0
LINE
  5
2D7
100
AcDbEntity
  8
0
100
AcDbLine
 62
7
  6
CONTINUOUS
 10
360.6104123444
 20
216.448549602
 11
362.1104123444
 21
216.448549602
  0
LINE
  5
2D8
100
AcDbEntity
  8
0
100
AcDbLine
 62
7
  6
CONTINUOUS
 10
340.6104123444
 20
217.3047846173
 11
339.6104123444
 21
217.3047846173
  0
LINE
  5
2D9
100
AcDbEntity
  8
0
100
AcDbLine
 62
7
  6
CONTINUOUS
 10
360.6104123444
 20
217.6718131521
 11
362.1104123444
 21
217.6718131521
  0
LINE
  5
2DA
100
AcDbEntity
  8
0
100
AcDbLine
 62
7
  6
CONTINUOUS
 10
340.6104123444
 20
218.2103349633
 11
339.6104123444
 21
218.2103349633
  0
LINE
  5
2DB
100
AcDbEntity
  8
0
100
AcDbLine
 62
7
  6
CONTINUOUS
 10
360.6104123444
 20
218.5096868357
 11
362.1104123444
 21
218.5096868357
  0
LINE
  5
2DC
100
AcDbEntity
  8
0
100
AcDbLine
 62
7
  6
CONTINUOUS
 10
360.6104123444
 20
219.1130016598
 11
362.1104123444
 21
219.1130016598
  0
LINE
  5
2DD
100
AcDbEntity
  8
0
100
AcDbLine
 62
7
  6
CONTINUOUS
 10
360.6104123444
 20
219.1801017466
 11
362.1104123444
 21
219.1801017466
  0
LINE
  5
2DE
100
AcDbEntity
  8
0
100
AcDbLine
 62
7
  6
CONTINUOUS
 10
362.1104123444
 20
219.1801017466
 11
362.1104123444
 21
180.3720591286
  0
LINE
  5
2DF
100
AcDbEntity
  8
0
100
AcDbLine
 62
7
  6
CONTINUOUS
 10
340.6104123444
 20
223.9702512125
 11
339.6104123444
 21
223.9702512125
  0
LINE
  5
2E0
100
AcDbEntity
  8
RUNDUNGEN
100
AcDbLine
 62
7
  6
CONTINUOUS
 10
376.4658974267
 20
180.3321216626
 11
376.561581788
 21
180.0692310404
  0
LINE
  5
2E1
100
AcDbEntity
  8
RUNDUNGEN
100
AcDbLine
 62
7
  6
CONTINUOUS
 10
385.4294902068
 20
155.7048529022
 11
381.6566947426
 21
166.0705232481
  0
LINE
  5
2E2
100
AcDbEntity
  8
BEZUGSACHSEN
100
AcDbLine
 62
7
  6
CONTINUOUS
 10
381.8144403188
 20
165.6371208396
 11
371.7211706169
 21
193.368151434
  0
LINE
  5
2E3
100
AcDbEntity
  8
BEZUGSACHSEN
100
AcDbLine
 62
7
  6
CONTINUOUS
 10
369.6104123444
 20
205.3388564504
 11
369.6104123444
 21
244.6374156162
  0
LINE
  5
2E4
100
AcDbEntity
  8
RUNDUNGEN
100
AcDbLine
 62
7
  6
CONTINUOUS
 10
369.6104123444
 20
244.6374156162
 11
369.6104123444
 21
262.9662353917
  0
LWPOLYLINE
  5
2E5
100
AcDbEntity
  8
RUNDUNGEN
100
AcDbPolyline
 62
7
  6
CONTINUOUS
 90
15
 70
0
 10
369.6104094555
 20
262.9682203544
 10
369.5963319727
 20
263.3517634064
 10
369.5078814855
 20
264.0087930008
 10
369.3396165576
 20
264.6473644011
 10
369.095068518
 20
265.2597833651
 10
368.7791509316
 20
265.8357982424
 10
368.3950374125
 20
266.3711583453
 10
367.9462614591
 20
266.8598049661
 10
367.4389842352
 20
267.2937025756
 10
366.8811372076
 20
267.6649783088
 10
366.2808058089
 20
267.9679664912
 10
365.6480207349
 20
268.1972474804
 10
364.9915398037
 20
268.3497758356
 10
364.319841556
 20
268.4231632547
 10
364.0404122964
 20
268.4301043515
  0
LINE
  5
2E6
100
AcDbEntity
  8
RUNDUNGEN
100
AcDbLine
 62
7
  6
CONTINUOUS
 10
385.6104123444
 20
144.9220591286
 11
385.6104123444
 21
154.6787924722
  0
LWPOLYLINE
  5
2E7
100
AcDbEntity
  8
BEZUGSACHSEN
100
AcDbPolyline
 62
7
  6
CONTINUOUS
 90
15
 70
0
 10
337.1804123924
 20
268.4301043515
 10
336.9007646911
 20
268.4231524522
 10
336.2289040065
 20
268.3497110483
 10
335.572316963
 20
268.1971031864
 10
334.9395031575
 20
267.9677439198
 10
334.339224978
 20
267.6647089157
 10
333.7815040064
 20
267.2934482247
 10
333.2744341512
 20
266.8596803286
 10
332.8258403883
 20
266.3712236676
 10
332.4418405258
 20
265.8360630221
 10
332.1259437678
 20
265.260180772
 10
331.8813113597
 20
264.6476769553
 10
331.712974462
 20
264.0089504845
 10
331.6244975471
 20
263.3518303713
 10
331.6104152362
 20
262.9682221236
  0
LINE
  5
2E8
100
AcDbEntity
  8
BEZUGSACHSEN
100
AcDbLine
 62
7
  6
CONTINUOUS
 10
337.1804123798
 20
268.4301848596
 11
340.6104123444
 21
268.4301848596
  0
LINE
  5
2E9
100
AcDbEntity
  8
RUNDUNGEN
100
AcDbLine
 62
7
  6
CONTINUOUS
 10
360.6104123444
 20
268.4301848596
 11
364.040412309
 21
268.4301848596
  0
LINE
  5
2EA
100
AcDbEntity
  8
0
100
AcDbLine
 62
7
  6
CONTINUOUS
 10
346.6104123444
 20
274.9220591286
 11
354.6104123444
 21
274.9220591286
  0
LINE
  5
2EB
100
AcDbEntity
  8
BEZUGSACHSEN
100
AcDbLine
 62
7
  6
CONTINUOUS
 10
34.6955757261
 20
73.4640819502
 11
34.6955757261
 21
65.4640819502
  0
LINE
  5
2EC
100
AcDbEntity
  8
RUNDUNGEN
100
AcDbLine
 62
7
  6
CONTINUOUS
 10
34.6955757261
 20
37.4640819502
 11
34.6955757261
 21
101.4640819502
  0
LINE
  5
2ED
100
AcDbEntity
  8
0
100
AcDbLine
 62
7
  6
CONTINUOUS
 10
52.3340379609
 20
59.4640819502
 11
52.3340379609
 21
57.9640819502
  0
LINE
  5
2EE
100
AcDbEntity
  8
0
100
AcDbLine
 62
7
  6
CONTINUOUS
 10
55.0901048872
 20
59.4640819502
 11
55.0901048872
 21
57.9640819502
  0
LINE
  5
2EF
100
AcDbEntity
  8
0
100
AcDbLine
 62
7
  6
CONTINUOUS
 10
55.9380983989
 20
59.4640819502
 11
55.9380983989
 21
57.9640819502
  0
LINE
  5
2F0
100
AcDbEntity
  8
0
100
AcDbLine
 62
7
  6
CONTINUOUS
 10
57.218881155
 20
59.4640819502
 11
57.218881155
 21
57.9640819502
  0
LINE
  5
2F1
100
AcDbEntity
  8
0
100
AcDbLine
 62
7
  6
CONTINUOUS
 10
57.6164994601
 20
59.4640819502
 11
57.6164994601
 21
57.9640819502
  0
LINE
  5
2F2
100
AcDbEntity
  8
0
100
AcDbLine
 62
7
  6
CONTINUOUS
 10
58.295600154
 20
79.4640819502
 11
58.295600154
 21
80.4640819502
  0
LINE
  5
2F3
100
AcDbEntity
  8
0
100
AcDbLine
 62
7
  6
CONTINUOUS
 10
58.3055165202
 20
59.4640819502
 11
58.3055165202
 21
57.9640819502
  0
LINE
  5
2F4
100
AcDbEntity
  8
0
100
AcDbLine
 62
7
  6
CONTINUOUS
 10
61.0615834464
 20
59.4640819502
 11
61.0615834464
 21
57.9640819502
  0
LINE
  5
2F5
100
AcDbEntity
  8
0
100
AcDbLine
 62
7
  6
CONTINUOUS
 10
61.750600178
 20
59.4640819502
 11
61.750600178
 21
57.9640819502
  0
LINE
  5
2F6
100
AcDbEntity
  8
0
100
AcDbLine
 62
7
  6
CONTINUOUS
 10
62.6692889344
 20
59.4640819502
 11
62.6692889344
 21
57.9640819502
  0
LINE
  5
2F7
100
AcDbEntity
  8
0
100
AcDbLine
 62
7
  6
CONTINUOUS
 10
63.385600154
 20
79.4640819502
 11
63.385600154
 21
80.4640819502
  0
LINE
  5
2F8
100
AcDbEntity
  8
0
100
AcDbLine
 62
7
  6
CONTINUOUS
 10
65.4253558607
 20
59.4640819502
 11
65.4253558607
 21
57.9640819502
  0
LINE
  5
2F9
100
AcDbEntity
  8
0
100
AcDbLine
 62
7
  6
CONTINUOUS
 10
66.273349701
 20
59.4640819502
 11
66.273349701
 21
57.9640819502
  0
LINE
  5
2FA
100
AcDbEntity
  8
0
100
AcDbLine
 62
7
  6
CONTINUOUS
 10
67.2803193359
 20
59.4640819502
 11
67.2803193359
 21
57.9640819502
  0
LINE
  5
2FB
100
AcDbEntity
  8
0
100
AcDbLine
 62
7
  6
CONTINUOUS
 10
68.8349145561
 20
59.4640819502
 11
68.8349145561
 21
57.9640819502
  0
LINE
  5
2FC
100
AcDbEntity
  8
0
100
AcDbLine
 62
7
  6
CONTINUOUS
 10
70.1598384085
 20
59.4640819502
 11
70.1598384085
 21
57.9640819502
  0
LINE
  5
2FD
100
AcDbEntity
  8
0
100
AcDbLine
 62
7
  6
CONTINUOUS
 10
71.6437388226
 20
59.4640819502
 11
71.6437388226
 21
57.9640819502
  0
LINE
  5
2FE
100
AcDbEntity
  8
0
100
AcDbLine
 62
7
  6
CONTINUOUS
 10
75.7509310956
 20
59.4640819502
 11
75.7509310956
 21
57.9640819502
  0
LINE
  5
2FF
100
AcDbEntity
  8
0
100
AcDbLine
 62
7
  6
CONTINUOUS
 10
77.0051593749
 20
59.4640819502
 11
77.0051593749
 21
57.9640819502
  0
LINE
  5
300
100
AcDbEntity
  8
0
100
AcDbLine
 62
7
  6
CONTINUOUS
 10
77.8707380552
 20
59.4640819502
 11
77.8707380552
 21
57.9640819502
  0
LWPOLYLINE
  5
301
100
AcDbEntity
  8
BEZUGSACHSEN
100
AcDbPolyline
 62
7
  6
CONTINUOUS
 90
16
 70
0
 10
79.9827424332
 20
55.6434312949
 10
80.008809772
 20
55.103997051
 10
80.092628202
 20
54.5400532581
 10
80.2261716747
 20
54.0110571338
 10
80.4037280475
 20
53.5141354557
 10
80.6207448443
 20
53.0485329438
 10
80.8756745534
 20
52.6106270305
 10
81.1630950879
 20
52.2051495435
 10
81.4785431173
 20
51.8338123259
 10
81.8170397717
 20
51.4982470328
 10
82.1740009799
 20
51.1989907499
 10
82.5438431714
 20
50.9367419233
 10
82.9222275873
 20
50.7105808101
 10
83.3022899702
 20
50.5203207834
 10
83.6778464271
 20
50.3642055233
 10
83.7212529231
 20
50.3480378965
  0
LINE
  5
302
100
AcDbEntity
  8
0
100
AcDbLine
 62
7
  6
CONTINUOUS
 10
78.506645272
 20
59.4640819502
 11
78.506645272
 21
57.9640819502
  0
LINE
  5
303
100
AcDbEntity
  8
0
100
AcDbLine
 62
7
  6
CONTINUOUS
 10
78.5949268795
 20
59.4640819502
 11
78.5949268795
 21
57.9640819502
  0
LINE
  5
304
100
AcDbEntity
  8
0
100
AcDbLine
 62
7
  6
CONTINUOUS
 10
79.0655757261
 20
79.4640819502
 11
79.0655757261
 21
80.4640819502
  0
LINE
  5
305
100
AcDbEntity
  8
BEZUGSACHSEN
100
AcDbLine
 62
7
  6
CONTINUOUS
 10
79.9827418694
 20
55.6433980864
 11
79.9827418694
 21
59.4640819502
  0
LINE
  5
306
100
AcDbEntity
  8
BEZUGSACHSEN
100
AcDbLine
 62
7
  6
CONTINUOUS
 10
79.9827418694
 20
79.4640819502
 11
79.9827418694
 21
83.284765814
  0
LINE
  5
307
100
AcDbEntity
  8
BEZUGSACHSEN
100
AcDbLine
 62
7
  6
CONTINUOUS
 10
85.29270806
 20
89.610127586
 11
85.1957373458
 21
89.5249192376
  0
LINE
  5
308
100
AcDbEntity
  8
BEZUGSACHSEN
100
AcDbLine
 62
7
  6
CONTINUOUS
 10
85.1953623858
 20
89.524590151
 11
84.9788332699
 21
89.3412711212
  0
LWPOLYLINE
  5
309
100
AcDbEntity
  8
BEZUGSACHSEN
100
AcDbPolyline
 62
7
  6
CONTINUOUS
 90
6
 70
0
 10
84.9788332699
 20
89.3412711212
 10
84.689103234
 20
89.1181419168
 10
84.4186772982
 20
88.933869074
 10
84.1622078437
 20
88.7820435559
 10
83.9162428164
 20
88.6594394864
 10
83.7308350042
 20
88.5836553735
  0
LINE
  5
30A
100
AcDbEntity
  8
BEZUGSACHSEN
100
AcDbLine
 62
7
  6
CONTINUOUS
 10
84.978963567
 20
49.5867866688
 11
85.195358551
 21
49.4035771198
  0
LINE
  5
30B
100
AcDbEntity
  8
BEZUGSACHSEN
100
AcDbLine
 62
7
  6
CONTINUOUS
 10
85.1953587644
 20
49.4035773626
 11
85.29270806
 21
49.3180363144
  0
LWPOLYLINE
  5
30C
100
AcDbEntity
  8
BEZUGSACHSEN
100
AcDbPolyline
 62
7
  6
CONTINUOUS
 90
15
 70
0
 10
83.679104894
 20
88.5644324436
 10
83.3046611421
 20
88.4089241282
 10
82.9255162151
 20
88.2193806143
 10
82.5479404045
 20
87.9940868035
 10
82.1788573526
 20
87.7329117396
 10
81.8225517391
 20
87.4349313592
 10
81.4845619701
 20
87.1008348444
 10
81.169478474
 20
86.7312086705
 10
80.8822656469
 20
86.3277421913
 10
80.6273069242
 20
85.8921356977
 10
80.4099631948
 20
85.4291214323
 10
80.2316720299
 20
84.9350331939
 10
80.0968764262
 20
84.4090221571
 10
80.0111940485
 20
83.8482361482
 10
79.9827424338
 20
83.2847325137
  0
LINE
  5
30D
100
AcDbEntity
  8
BEZUGSACHSEN
100
AcDbLine
 62
7
  6
CONTINUOUS
 10
83.7308377241
 20
88.5836480221
 11
83.679104894
 21
88.5644324436
  0
LINE
  5
30E
100
AcDbEntity
  8
BEZUGSACHSEN
100
AcDbLine
 62
7
  6
CONTINUOUS
 10
83.7308357716
 20
50.3445165933
 11
83.7212529231
 21
50.3480378965
  0
LWPOLYLINE
  5
30F
100
AcDbEntity
  8
BEZUGSACHSEN
100
AcDbPolyline
 62
7
  6
CONTINUOUS
 90
6
 70
0
 10
83.7308330516
 20
50.3445092419
 10
83.9162223735
 20
50.2687335893
 10
84.162206189
 20
50.1461212478
 10
84.4187687406
 20
49.9942366015
 10
84.6892721817
 20
49.8098994717
 10
84.978963567
 20
49.5867866688
  0
LINE
  5
310
100
AcDbEntity
  8
RUNDUNGEN
100
AcDbLine
 62
7
  6
CONTINUOUS
 10
37.6955757261
 20
34.4640819502
 11
259.6955757261
 21
34.4640819502
  0
LINE
  5
311
100
AcDbEntity
  8
BEZUGSACHSEN
100
AcDbLine
 62
7
  6
CONTINUOUS
 10
87.7779530908
 20
50.4640819502
 11
104.4458904418
 21
50.4640819502
  0
LINE
  5
312
100
AcDbEntity
  8
RUNDUNGEN
100
AcDbLine
 62
7
  6
CONTINUOUS
 10
104.4458904418
 20
50.4640819502
 11
209.6131886939
 21
50.4640819502
  0
LINE
  5
313
100
AcDbEntity
  8
0
100
AcDbLine
 62
7
  6
CONTINUOUS
 10
244.9386080148
 20
57.9640819502
 11
220.596613449
 21
57.9640819502
  0
LINE
  5
314
100
AcDbEntity
  8
0
100
AcDbLine
 62
7
  6
CONTINUOUS
 10
78.5949268795
 20
57.9640819502
 11
52.3340379609
 21
57.9640819502
  0
LINE
  5
315
100
AcDbEntity
  8
RUNDUNGEN
100
AcDbLine
 62
7
  6
CONTINUOUS
 10
256.6955757261
 20
59.4640819502
 11
40.6955757261
 21
59.4640819502
  0
LINE
  5
316
100
AcDbEntity
  8
RUNDUNGEN
100
AcDbLine
 62
7
  6
CONTINUOUS
 10
40.6955757261
 20
79.4640819502
 11
234.8976202884
 21
79.4640819502
  0
LINE
  5
317
100
AcDbEntity
  8
RUNDUNGEN
100
AcDbLine
 62
7
  6
CONTINUOUS
 10
236.5083532923
 20
79.4640819502
 11
256.6955757261
 21
79.4640819502
  0
LINE
  5
318
100
AcDbEntity
  8
0
100
AcDbLine
 62
7
  6
CONTINUOUS
 10
58.295600154
 20
80.4640819502
 11
63.3669286299
 21
80.4640819502
  0
LINE
  5
319
100
AcDbEntity
  8
0
100
AcDbLine
 62
7
  6
CONTINUOUS
 10
63.385600154
 20
80.4640819502
 11
79.0655684831
 21
80.4640819502
  0
LINE
  5
31A
100
AcDbEntity
  8
0
100
AcDbLine
 62
7
  6
CONTINUOUS
 10
217.5495920645
 20
80.9640819502
 11
249.1129882641
 21
80.9640819502
  0
LINE
  5
31B
100
AcDbEntity
  8
BEZUGSACHSEN
100
AcDbLine
 62
7
  6
CONTINUOUS
 10
87.7779530908
 20
88.4640819502
 11
209.6131886939
 21
88.4640819502
  0
LINE
  5
31C
100
AcDbEntity
  8
RUNDUNGEN
100
AcDbLine
 62
7
  6
CONTINUOUS
 10
213.6603137282
 20
50.3445158783
 11
213.7120465582
 21
50.3637314569
  0
LINE
  5
31D
100
AcDbEntity
  8
RUNDUNGEN
100
AcDbLine
 62
7
  6
CONTINUOUS
 10
37.6955757261
 20
104.4640819502
 11
259.6955757261
 21
104.4640819502
  0
LINE
  5
31E
100
AcDbEntity
  8
BEZUGSACHSEN
100
AcDbLine
 62
7
  6
CONTINUOUS
 10
213.6603156807
 20
88.5836473071
 11
213.6698985292
 21
88.5801260039
  0
LWPOLYLINE
  5
31F
100
AcDbEntity
  8
RUNDUNGEN
100
AcDbPolyline
 62
7
  6
CONTINUOUS
 90
15
 70
0
 10
213.7120465582
 20
50.3637314569
 10
214.0864903101
 20
50.5192397722
 10
214.4656352372
 20
50.7087832861
 10
214.8432110477
 20
50.9340770969
 10
215.2122940996
 20
51.1952521609
 10
215.5685997131
 20
51.4932325413
 10
215.9065894822
 20
51.827329056
 10
216.2216729782
 20
52.1969552299
 10
216.5088858054
 20
52.6004217091
 10
216.7638445281
 20
53.0360282028
 10
216.9811882575
 20
53.4990424681
 10
217.1594794224
 20
53.9931307065
 10
217.294275026
 20
54.5191417433
 10
217.3799574037
 20
55.0799277522
 10
217.4084090185
 20
55.6434313867
  0
LWPOLYLINE
  5
320
100
AcDbEntity
  8
BEZUGSACHSEN
100
AcDbPolyline
 62
7
  6
CONTINUOUS
 90
6
 70
0
 10
213.6603184007
 20
88.5836546585
 10
213.4749290787
 20
88.6594303111
 10
213.2289452633
 20
88.7820426526
 10
212.9723827117
 20
88.9339272989
 10
212.7018792706
 20
89.1182644287
 10
212.4121878853
 20
89.3413772316
  0
LINE
  5
321
100
AcDbEntity
  8
RUNDUNGEN
100
AcDbLine
 62
7
  6
CONTINUOUS
 10
212.1957890665
 20
49.4035737494
 11
212.4123181824
 21
49.5868927792
  0
LWPOLYLINE
  5
322
100
AcDbEntity
  8
RUNDUNGEN
100
AcDbPolyline
 62
7
  6
CONTINUOUS
 90
6
 70
0
 10
212.4123181824
 20
49.5868927792
 10
212.7020482183
 20
49.8100219836
 10
212.9724741541
 20
49.9942948264
 10
213.2289436086
 20
50.1461203445
 10
213.4749086359
 20
50.268724414
 10
213.6603164481
 20
50.3445085269
  0
LINE
  5
323
100
AcDbEntity
  8
BEZUGSACHSEN
100
AcDbLine
 62
7
  6
CONTINUOUS
 10
212.4121878853
 20
89.3413772316
 11
212.1957929013
 21
89.5245867806
  0
LINE
  5
324
100
AcDbEntity
  8
RUNDUNGEN
100
AcDbLine
 62
7
  6
CONTINUOUS
 10
212.0979680682
 20
49.3176187086
 11
212.1954141065
 21
49.4032446628
  0
LINE
  5
325
100
AcDbEntity
  8
BEZUGSACHSEN
100
AcDbLine
 62
7
  6
CONTINUOUS
 10
212.1954141065
 20
89.5249192376
 11
212.0984433923
 21
89.610127586
  0
LWPOLYLINE
  5
326
100
AcDbEntity
  8
BEZUGSACHSEN
100
AcDbPolyline
 62
7
  6
CONTINUOUS
 90
16
 70
0
 10
217.4084090191
 20
83.2847326055
 10
217.3823416803
 20
83.8241668494
 10
217.2985232503
 20
84.3881106423
 10
217.1649797776
 20
84.9171067666
 10
216.9874234048
 20
85.4140284447
 10
216.770406608
 20
85.8796309566
 10
216.5154768989
 20
86.3175368699
 10
216.2280563644
 20
86.723014357
 10
215.912608335
 20
87.0943515745
 10
215.5741116806
 20
87.4299168676
 10
215.2171504724
 20
87.7291731505
 10
214.8473082808
 20
87.9914219771
 10
214.468923865
 20
88.2175830903
 10
214.0888614821
 20
88.407843117
 10
213.7133050251
 20
88.5639583771
 10
213.6698985292
 20
88.5801260039
  0
LINE
  5
327
100
AcDbEntity
  8
BEZUGSACHSEN
100
AcDbLine
 62
7
  6
CONTINUOUS
 10
217.4084095829
 20
83.284765814
 11
217.4084095829
 21
79.4640819502
  0
LINE
  5
328
100
AcDbEntity
  8
RUNDUNGEN
100
AcDbLine
 62
7
  6
CONTINUOUS
 10
217.4084095829
 20
59.4640819502
 11
217.4084095829
 21
55.6433980864
  0
LINE
  5
329
100
AcDbEntity
  8
0
100
AcDbLine
 62
7
  6
CONTINUOUS
 10
217.5495920645
 20
79.4640819502
 11
217.5495920645
 21
80.9640819502
  0
LINE
  5
32A
100
AcDbEntity
  8
0
100
AcDbLine
 62
7
  6
CONTINUOUS
 10
220.596613449
 20
59.4640819502
 11
220.596613449
 21
57.9640819502
  0
LINE
  5
32B
100
AcDbEntity
  8
0
100
AcDbLine
 62
7
  6
CONTINUOUS
 10
231.0580138937
 20
59.4640819502
 11
231.0580138937
 21
57.9640819502
  0
LINE
  5
32C
100
AcDbEntity
  8
0
100
AcDbLine
 62
7
  6
CONTINUOUS
 10
233.888624179
 20
59.4640819502
 11
233.888624179
 21
57.9640819502
  0
LINE
  5
32D
100
AcDbEntity
  8
RUNDUNGEN
100
AcDbLine
 62
7
  6
CONTINUOUS
 10
235.4240830502
 20
79.4454412312
 11
235.4240830502
 21
80.9640819502
  0
LINE
  5
32E
100
AcDbEntity
  8
RUNDUNGEN
100
AcDbLine
 62
7
  6
CONTINUOUS
 10
236.5083532923
 20
79.461868752
 11
236.5083532923
 21
80.9640819502
  0
LINE
  5
32F
100
AcDbEntity
  8
0
100
AcDbLine
 62
7
  6
CONTINUOUS
 10
237.2233424438
 20
79.4640819502
 11
237.2233424438
 21
80.9640819502
  0
LINE
  5
330
100
AcDbEntity
  8
0
100
AcDbLine
 62
7
  6
CONTINUOUS
 10
237.2264450342
 20
59.4640819502
 11
237.2264450342
 21
57.9640819502
  0
LINE
  5
331
100
AcDbEntity
  8
0
100
AcDbLine
 62
7
  6
CONTINUOUS
 10
238.087482757
 20
59.4640819502
 11
238.087482757
 21
57.9640819502
  0
LINE
  5
332
100
AcDbEntity
  8
0
100
AcDbLine
 62
7
  6
CONTINUOUS
 10
238.824772417
 20
59.4640819502
 11
238.824772417
 21
57.9640819502
  0
LINE
  5
333
100
AcDbEntity
  8
0
100
AcDbLine
 62
7
  6
CONTINUOUS
 10
238.9666202018
 20
79.4640819502
 11
238.9666202018
 21
80.9640819502
  0
LINE
  5
334
100
AcDbEntity
  8
0
100
AcDbLine
 62
7
  6
CONTINUOUS
 10
240.5112627811
 20
79.4640819502
 11
240.5112627811
 21
80.9640819502
  0
LINE
  5
335
100
AcDbEntity
  8
0
100
AcDbLine
 62
7
  6
CONTINUOUS
 10
240.6037824748
 20
59.4640819502
 11
240.6037824748
 21
57.9640819502
  0
LINE
  5
336
100
AcDbEntity
  8
0
100
AcDbLine
 62
7
  6
CONTINUOUS
 10
241.5231002535
 20
79.4640819502
 11
241.5231002535
 21
80.9640819502
  0
LINE
  5
337
100
AcDbEntity
  8
0
100
AcDbLine
 62
7
  6
CONTINUOUS
 10
241.8186463594
 20
59.4640819502
 11
241.8186463594
 21
57.9640819502
  0
LINE
  5
338
100
AcDbEntity
  8
0
100
AcDbLine
 62
7
  6
CONTINUOUS
 10
242.3258579205
 20
59.4640819502
 11
242.3258579205
 21
57.9640819502
  0
LINE
  5
339
100
AcDbEntity
  8
0
100
AcDbLine
 62
7
  6
CONTINUOUS
 10
244.2210768529
 20
59.4640819502
 11
244.2210768529
 21
57.9640819502
  0
LINE
  5
33A
100
AcDbEntity
  8
0
100
AcDbLine
 62
7
  6
CONTINUOUS
 10
244.7759094286
 20
79.4640819502
 11
244.7759094286
 21
80.9640819502
  0
LINE
  5
33B
100
AcDbEntity
  8
0
100
AcDbLine
 62
7
  6
CONTINUOUS
 10
244.9386080148
 20
59.4640819502
 11
244.9386080148
 21
57.9640819502
  0
LINE
  5
33C
100
AcDbEntity
  8
0
100
AcDbLine
 62
7
  6
CONTINUOUS
 10
248.0287186037
 20
79.4640819502
 11
248.0287186037
 21
80.9640819502
  0
LINE
  5
33D
100
AcDbEntity
  8
0
100
AcDbLine
 62
7
  6
CONTINUOUS
 10
249.1129882641
 20
79.4640819502
 11
249.1129882641
 21
80.9640819502
  0
LINE
  5
33E
100
AcDbEntity
  8
BEZUGSACHSEN
100
AcDbLine
 62
7
  6
CONTINUOUS
 10
262.6955757261
 20
65.4640819502
 11
262.6955757261
 21
73.4640819502
  0
LINE
  5
33F
100
AcDbEntity
  8
RUNDUNGEN
100
AcDbLine
 62
7
  6
CONTINUOUS
 10
262.6955757261
 20
37.4640819502
 11
262.6955757261
 21
101.4640819502
  0
ARC
  5
340
100
AcDbEntity
  8
RUNDUNGEN
100
AcDbCircle
 62
7
  6
CONTINUOUS
 10
54.6955757261
 20
165.5164921051
 40
20.0
100
AcDbArc
 50
157.5
 51
180.0
  0
ARC
  5
341
100
AcDbEntity
  8
BEZUGSACHSEN
100
AcDbCircle
 62
7
  6
CONTINUOUS
 10
71.4985071145
 20
180.5919086152
 40
11.5
100
AcDbArc
 50
278.999588585
 51
337.5023822037
  0
ARC
  5
342
100
AcDbEntity
  8
BEZUGSACHSEN
100
AcDbCircle
 62
7
  6
CONTINUOUS
 10
73.1987197557
 20
184.6965850326
 40
11.5
100
AcDbArc
 50
337.4967139249
 51
22.5033257095
  0
ARC
  5
343
100
AcDbEntity
  8
BEZUGSACHSEN
100
AcDbCircle
 62
7
  6
CONTINUOUS
 10
86.7827418694
 20
199.7220591286
 40
6.8
100
AcDbArc
 50
157.4999954357
 51
202.5042187656
  0
ARC
  5
344
100
AcDbEntity
  8
RUNDUNGEN
100
AcDbCircle
 62
7
  6
CONTINUOUS
 10
37.6955757261
 20
160.557305922
 40
3.0
100
AcDbArc
 50
99.0
 51
180.0
  0
ARC
  5
345
100
AcDbEntity
  8
BEZUGSACHSEN
100
AcDbCircle
 62
7
  6
CONTINUOUS
 10
104.9165910636
 20
243.5010437912
 40
6.8
100
AcDbArc
 50
112.5
 51
157.5
  0
ARC
  5
346
100
AcDbEntity
  8
RUNDUNGEN
100
AcDbCircle
 62
7
  6
CONTINUOUS
 10
148.6955757261
 20
169.6649162715
 40
105.2571428571
100
AcDbArc
 50
22.5
 51
157.5
  0
ARC
  5
347
100
AcDbEntity
  8
BEZUGSACHSEN
100
AcDbCircle
 62
7
  6
CONTINUOUS
 10
148.6955757261
 20
199.7220591286
 40
40.0
100
AcDbArc
 50
270.0
 51
348.3976406717
  0
CIRCLE
  5
348
100
AcDbEntity
  8
RUNDUNGEN
100
AcDbCircle
 62
7
  6
CONTINUOUS
 10
148.6955757261
 20
199.7220591286
 40
40.0
  0
ARC
  5
349
100
AcDbEntity
  8
RUNDUNGEN
100
AcDbCircle
 62
7
  6
CONTINUOUS
 10
242.6955757261
 20
165.5164921051
 40
20.0
100
AcDbArc
 50
0.0
 51
22.5
  0
ARC
  5
34A
100
AcDbEntity
  8
RUNDUNGEN
100
AcDbCircle
 62
7
  6
CONTINUOUS
 10
225.8926443377
 20
180.5919086152
 40
11.5
100
AcDbArc
 50
202.4976177963
 51
261.000411415
  0
ARC
  5
34B
100
AcDbEntity
  8
RUNDUNGEN
100
AcDbCircle
 62
7
  6
CONTINUOUS
 10
224.1924316965
 20
184.6965850326
 40
11.5
100
AcDbArc
 50
157.4966742905
 51
202.5032860751
  0
ARC
  5
34C
100
AcDbEntity
  8
RUNDUNGEN
100
AcDbCircle
 62
7
  6
CONTINUOUS
 10
210.6084095829
 20
199.7220591286
 40
6.8
100
AcDbArc
 50
337.4957812344
 51
22.5000045643
  0
ARC
  5
34D
100
AcDbEntity
  8
RUNDUNGEN
100
AcDbCircle
 62
7
  6
CONTINUOUS
 10
259.6955757261
 20
160.557305922
 40
3.0
100
AcDbArc
 50
0.0
 51
81.0
  0
ARC
  5
34E
100
AcDbEntity
  8
RUNDUNGEN
100
AcDbCircle
 62
7
  6
CONTINUOUS
 10
148.6955757261
 20
261.5730581224
 40
6.8570635167
100
AcDbArc
 50
67.4999484554
 51
112.5000515259
  0
ARC
  5
34F
100
AcDbEntity
  8
RUNDUNGEN
100
AcDbCircle
 62
7
  6
CONTINUOUS
 10
192.4745603887
 20
243.5010437912
 40
6.8
100
AcDbArc
 50
22.5
 51
67.5
  0
ARC
  5
350
100
AcDbEntity
  8
RUNDUNGEN
100
AcDbCircle
 62
7
  6
CONTINUOUS
 10
404.6104123444
 20
205.3388564504
 40
35.0
100
AcDbArc
 50
182.6207445601
 51
184.8659706964
  0
ARC
  5
351
100
AcDbEntity
  8
BEZUGSACHSEN
100
AcDbCircle
 62
7
  6
CONTINUOUS
 10
404.6104123444
 20
205.3388564504
 40
35.0
100
AcDbArc
 50
179.9999617927
 51
200.0000336717
  0
ARC
  5
352
100
AcDbEntity
  8
BEZUGSACHSEN
100
AcDbCircle
 62
7
  6
CONTINUOUS
 10
296.6104123444
 20
205.3388564504
 40
35.0
100
AcDbArc
 50
339.9999663283
 51
0.0000382073
  0
ARC
  5
353
100
AcDbEntity
  8
RUNDUNGEN
100
AcDbCircle
 62
7
  6
CONTINUOUS
 10
346.6104123444
 20
268.9220591286
 40
6.0
100
AcDbArc
 50
90.0
 51
180.0
  0
ARC
  5
354
100
AcDbEntity
  8
RUNDUNGEN
100
AcDbCircle
 62
7
  6
CONTINUOUS
 10
354.6104123444
 20
268.9220591286
 40
6.0
100
AcDbArc
 50
0.0
 51
90.0
  0
ARC
  5
355
100
AcDbEntity
  8
RUNDUNGEN
100
AcDbCircle
 62
7
  6
CONTINUOUS
 10
382.6104123444
 20
154.6787924722
 40
3.0
100
AcDbArc
 50
0.0
 51
20.0
  0
ARC
  5
356
100
AcDbEntity
  8
RUNDUNGEN
100
AcDbCircle
 62
7
  6
CONTINUOUS
 10
318.6104123444
 20
154.6787924722
 40
3.0
100
AcDbArc
 50
160.0
 51
180.0
  0
ARC
  5
357
100
AcDbEntity
  8
RUNDUNGEN
100
AcDbCircle
 62
7
  6
CONTINUOUS
 10
236.8096395233
 20
23.3399544291
 40
56.1225927417
100
AcDbArc
 50
90.4323022675
 51
91.4146638788
  0
ARC
  5
358
100
AcDbEntity
  8
RUNDUNGEN
100
AcDbCircle
 62
7
  6
CONTINUOUS
 10
234.901572065
 20
72.1316075754
 40
7.332474376
100
AcDbArc
 50
85.9136482695
 51
90.0010339738
  0
ARC
  5
359
100
AcDbEntity
  8
RUNDUNGEN
100
AcDbCircle
 62
7
  6
CONTINUOUS
 10
256.6955757261
 20
73.4640819502
 40
6.0
100
AcDbArc
 50
0.0
 51
90.0
  0
ARC
  5
35A
100
AcDbEntity
  8
RUNDUNGEN
100
AcDbCircle
 62
7
  6
CONTINUOUS
 10
40.6955757261
 20
73.4640819502
 40
6.0
100
AcDbArc
 50
90.0
 51
180.0
  0
ARC
  5
35B
100
AcDbEntity
  8
RUNDUNGEN
100
AcDbCircle
 62
7
  6
CONTINUOUS
 10
256.6955757261
 20
65.4640819502
 40
6.0
100
AcDbArc
 50
270.0
 51
360.0
  0
ARC
  5
35C
100
AcDbEntity
  8
RUNDUNGEN
100
AcDbCircle
 62
7
  6
CONTINUOUS
 10
40.6955757261
 20
65.4640819502
 40
6.0
100
AcDbArc
 50
180.0
 51
270.0
  0
ARC
  5
35D
100
AcDbEntity
  8
RUNDUNGEN
100
AcDbCircle
 62
7
  6
CONTINUOUS
 10
259.6955757261
 20
37.4640819502
 40
3.0
100
AcDbArc
 50
270.0
 51
360.0
  0
ARC
  5
35E
100
AcDbEntity
  8
RUNDUNGEN
100
AcDbCircle
 62
7
  6
CONTINUOUS
 10
37.6955757261
 20
37.4640819502
 40
3.0
100
AcDbArc
 50
180.0
 51
270.0
  0
ARC
  5
35F
100
AcDbEntity
  8
RUNDUNGEN
100
AcDbCircle
 62
7
  6
CONTINUOUS
 10
37.6955757261
 20
101.4640819502
 40
3.0
100
AcDbArc
 50
90.0
 51
180.0
  0
ARC
  5
360
100
AcDbEntity
  8
RUNDUNGEN
100
AcDbCircle
 62
7
  6
CONTINUOUS
 10
259.6955757261
 20
101.4640819502
 40
3.0
100
AcDbArc
 50
0.0
 51
90.0
  0
SPLINE
  5
361
100
AcDbEntity
  8
RUNDUNGEN
100
AcDbSpline
 62
7
  6
CONTINUOUS
 70
0
 71
3
 72
12
 73
8
 74
0
 42
0.0000001
 43
0.0000001
 44
0.0000000001
 40
0.0
 40
0.0
 40
0.0
 40
0.0
 40
0.2815646239
 40
0.55300681
 40
0.8001660865
 40
0.9078684411
 40
1.0
 40
1.0
 40
1.0
 40
1.0
 10
346.6104123444
 20
160.557305922
 30
0.0
 10
346.1702437674
 20
160.8685521077
 30
0.0
 10
345.3058021155
 20
161.4801731468
 30
0.0
 10
344.0392476333
 20
162.3415551138
 30
0.0
 10
343.0175424697
 20
162.9732383729
 30
0.0
 10
342.2496191285
 20
163.351732483
 30
0.0
 10
341.8872670173
 20
163.4818975183
 30
0.0
 10
341.7151152183
 20
163.5203709438
 30
0.0
  0
SPLINE
  5
362
100
AcDbEntity
  8
RUNDUNGEN
100
AcDbSpline
 62
7
  6
CONTINUOUS
 70
0
 71
3
 72
12
 73
8
 74
0
 42
0.0000001
 43
0.0000001
 44
0.0000000001
 40
0.0
 40
0.0
 40
0.0
 40
0.0
 40
0.0920457523
 40
0.1996921951
 40
0.4468591747
 40
0.7183485251
 40
1.0
 40
1.0
 40
1.0
 40
1.0
 10
359.5057094705
 20
163.5203709438
 30
0.0
 10
359.3337179268
 20
163.4819333331
 30
0.0
 10
358.9716049715
 20
163.3519192477
 30
0.0
 10
358.20388825
 20
162.9735762429
 30
0.0
 10
357.1821570989
 20
162.3419405417
 30
0.0
 10
355.9153617823
 20
161.4804269475
 30
0.0
 10
355.0507168951
 20
160.8686482557
 30
0.0
 10
354.6104123444
 20
160.557305922
 30
0.0
  0
LINE
  5
363
100
AcDbEntity
  8
RUNDUNGEN
100
AcDbLine
 62
7
  6
CONTINUOUS
 10
236.3861930826
 20
79.4609496907
 11
236.5083532923
 21
79.461868752
  0
ELLIPSE
  5
364
100
AcDbEntity
  8
RUNDUNGEN
100
AcDbEllipse
 62
7
  6
CONTINUOUS
 10
354.6104123444
 20
164.0698546204
 30
0.0
 11
6.0
 21
0.0
 31
0.0
 40
0.1583844403
 41
-0.6165419167
 42
-0.0
  0
ELLIPSE
  5
365
100
AcDbEntity
  8
RUNDUNGEN
100
AcDbEllipse
 62
7
  6
CONTINUOUS
 10
346.6104123444
 20
164.0698546204
 30
0.0
 11
6.0
 21
-0.0
 31
0.0
 40
0.1583844403
 41
-3.1415926536
 42
-2.5250507369
  0
ENDSEC
  0
SECTION
  2
OBJECTS
  0
DICTIONARY
  5
C
100
AcDbDictionary
280
0
281
1
  3
ACAD_GROUP
350
D
  3
ACAD_MLINESTYLE
350
17
  3
ACAD_LAYOUT
350
1A
  3
ACAD_PLOTSETTINGS
350
19
  3
ACAD_PLOTSTYLENAME
350
E
  0
DICTIONARY
  5
D
102
{ACAD_REACTORS
330
C
102
}
100
AcDbDictionary
280
0
281
1
  0
ACDBDICTIONARYWDFLT
  5
E
102
{ACAD_REACTORS
330
C
102
}
100
AcDbDictionary
281
1
  3
Normal
350
F
100
AcDbDictionaryWithDefault
340
F
  0
DICTIONARY
  5
17
102
{ACAD_REACTORS
330
C
102
}
100
AcDbDictionary
280
0
281
1
  3
Standard
350
18
  0
DICTIONARY
  5
19
102
{ACAD_REACTORS
330
C
102
}
100
AcDbDictionary
281
1
  0
DICTIONARY
  5
1A
102
{ACAD_REACTORS
330
C
102
}
100
AcDbDictionary
281
1
  3
Model
350
366
  3
Layout1
350
367
  0
ACDBPLACEHOLDER
  5
F
102
{ACAD_REACTORS
330
E
102
}
  0
MLINESTYLE
  5
18
102
{ACAD_REACTORS
330
17
102
}
100
AcDbMlineStyle
  2
STANDARD
 70
0
  3

 62
256
 51
90.0
 52
90.0
 71
2
 49
0.5
 62
256
  6
BYLAYER
 49
-0.5
 62
256
  6
BYLAYER
  0
LAYOUT
  5
366
102
{ACAD_REACTORS
330
1A
102
}
100
AcDbPlotSettings
  1

  2
none_device
  4
ISO_A3_(420.00_x_297.00_MM)
  6

 40
0.0
 41
0.0
 42
0.0
 43
0.0
 44
420.0
 45
297.0
 46
0.0
 47
0.0
 48
0.0
 49
0.0
140
0.0
141
0.0
142
1.0
143
1.0
 70
1024
 72
1
 73
0
 74
0
  7

 75
0
147
1.0
148
0.0
149
0.0
100
AcDbLayout
  1
Model
 70
0
 71
0
 10
0.0
 20
0.0
 11
420.0
 21
297.0
 12
0.0
 22
0.0
 32
0.0
 14
0.0
 24
0.0
 34
0.0
 15
0.0
 25
0.0
 35
0.0
146
0.0
 13
0.0
 23
0.0
 33
0.0
 16
1.0
 26
0.0
 36
0.0
 17
0.0
 27
1.0
 37
0.0
 76
0
330
209
345
0
346
0
  0
LAYOUT
  5
367
102
{ACAD_REACTORS
330
1A
102
}
100
AcDbPlotSettings
  1

  2
none_device
  4
ISO_A3_(420.00_x_297.00_MM)
  6

 40
0.0
 41
0.0
 42
0.0
 43
0.0
 44
420.0
 45
297.0
 46
0.0
 47
0.0
 48
0.0
 49
0.0
140
0.0
141
0.0
142
1.0
143
1.0
 70
0
 72
1
 73
0
 74
0
  7

 75
0
147
1.0
148
0.0
149
0.0
100
AcDbLayout
  1
Layout1
 70
0
 71
1
 10
0.0
 20
0.0
 11
420.0
 21
297.0
 12
0.0
 22
0.0
 32
0.0
 14
0.0
 24
0.0
 34
0.0
 15
0.0
 25
0.0
 35
0.0
146
0.0
 13
0.0
 23
0.0
 33
0.0
 16
1.0
 26
0.0
 36
0.0
 17
0.0
 27
1.0
 37
0.0
 76
0
330
20A
345
0
346
0
  0
ENDSEC
  0
EOF
